  0
SECTION
  2
HEADER
  9
$ACADVER
  1
AC1009
  9
$INSBASE
 10
0.0
 20
0.0
 30
0.0
  9
$EXTMIN
 10
-216.569981
 20
1417.324869
 30
0.0
  9
$EXTMAX
 10
-113.532109
 20
1479.631863
 30
0.0
  9
$LIMMIN
 10
-182.398806
 20
1405.601164
  9
$LIMMAX
 10
-120.45726
 20
1508.639036
  9
$ORTHOMODE
 70
     0
  9
$REGENMODE
 70
     1
  9
$FILLMODE
 70
     1
  9
$QTEXTMODE
 70
     0
  9
$MIRRTEXT
 70
     1
  9
$DRAGMODE
 70
     2
  9
$LTSCALE
 40
1.0
  9
$OSMODE
 70
     0
  9
$ATTMODE
 70
     1
  9
$TEXTSIZE
 40
3.5
  9
$TRACEWID
 40
0.5
  9
$TEXTSTYLE
  7
STANDARD
  9
$CLAYER
  8
0
  9
$CELTYPE
  6
BYLAYER
  9
$CECOLOR
 62
   256
  9
$DIMSCALE
 40
1.0
  9
$DIMASZ
 40
0.18
  9
$DIMEXO
 40
0.0625
  9
$DIMDLI
 40
0.38
  9
$DIMRND
 40
0.0
  9
$DIMDLE
 40
0.0
  9
$DIMEXE
 40
0.18
  9
$DIMTP
 40
0.0
  9
$DIMTM
 40
0.0
  9
$DIMTXT
 40
0.18
  9
$DIMCEN
 40
0.09
  9
$DIMTSZ
 40
0.0
  9
$DIMTOL
 70
     0
  9
$DIMLIM
 70
     0
  9
$DIMTIH
 70
     1
  9
$DIMTOH
 70
     1
  9
$DIMSE1
 70
     0
  9
$DIMSE2
 70
     0
  9
$DIMTAD
 70
     0
  9
$DIMZIN
 70
     0
  9
$DIMBLK
  1

  9
$DIMASO
 70
     1
  9
$DIMSHO
 70
     1
  9
$DIMPOST
  1

  9
$DIMAPOST
  1

  9
$DIMALT
 70
     0
  9
$DIMALTD
 70
     2
  9
$DIMALTF
 40
25.4
  9
$DIMLFAC
 40
1.0
  9
$DIMTOFL
 70
     0
  9
$DIMTVP
 40
0.0
  9
$DIMTIX
 70
     0
  9
$DIMSOXD
 70
     0
  9
$DIMSAH
 70
     0
  9
$DIMBLK1
  1

  9
$DIMBLK2
  1

  9
$DIMSTYLE
  2
*UNNAMED
  9
$DIMCLRD
 70
     0
  9
$DIMCLRE
 70
     0
  9
$DIMCLRT
 70
     0
  9
$DIMTFAC
 40
1.0
  9
$DIMGAP
 40
0.09
  9
$LUNITS
 70
     2
  9
$LUPREC
 70
     4
  9
$SKETCHINC
 40
0.1
  9
$FILLETRAD
 40
2.0
  9
$AUNITS
 70
     0
  9
$AUPREC
 70
     0
  9
$MENU
  1
ACAD
  9
$ELEVATION
 40
0.0
  9
$PELEVATION
 40
0.0
  9
$THICKNESS
 40
0.0
  9
$LIMCHECK
 70
     0
  9
$BLIPMODE
 70
     1
  9
$CHAMFERA
 40
0.0
  9
$CHAMFERB
 40
0.0
  9
$SKPOLY
 70
     0
  9
$TDCREATE
 40
2450968.483123726
  9
$TDUPDATE
 40
2450968.483123726
  9
$TDINDWG
 40
0.0000000000
  9
$TDUSRTIMER
 40
0.0000000000
  9
$USRTIMER
 70
     1
  9
$ANGBASE
 50
0.0
  9
$ANGDIR
 70
     0
  9
$PDMODE
 70
     0
  9
$PDSIZE
 40
0.0
  9
$PLINEWID
 40
0.0
  9
$COORDS
 70
     2
  9
$SPLFRAME
 70
     0
  9
$SPLINETYPE
 70
     6
  9
$SPLINESEGS
 70
     8
  9
$ATTDIA
 70
     0
  9
$ATTREQ
 70
     1
  9
$HANDLING
 70
     0
  9
$HANDSEED
  5
0
  9
$SURFTAB1
 70
     6
  9
$SURFTAB2
 70
     6
  9
$SURFTYPE
 70
     6
  9
$SURFU
 70
     6
  9
$SURFV
 70
     6
  9
$UCSNAME
  2

  9
$UCSORG
 10
0.0
 20
0.0
 30
0.0
  9
$UCSXDIR
 10
1.0
 20
0.0
 30
0.0
  9
$UCSYDIR
 10
0.0
 20
1.0
 30
0.0
  9
$PUCSNAME
  2

  9
$PUCSORG
 10
0.0
 20
0.0
 30
0.0
  9
$PUCSXDIR
 10
1.0
 20
0.0
 30
0.0
  9
$PUCSYDIR
 10
0.0
 20
1.0
 30
0.0
  9
$USERI1
 70
     0
  9
$USERI2
 70
     0
  9
$USERI3
 70
     0
  9
$USERI4
 70
     0
  9
$USERI5
 70
     0
  9
$USERR1
 40
0.0
  9
$USERR2
 40
0.0
  9
$USERR3
 40
0.0
  9
$USERR4
 40
0.0
  9
$USERR5
 40
0.0
  9
$WORLDVIEW
 70
     1
  9
$SHADEDGE
 70
     3
  9
$SHADEDIF
 70
    70
  9
$TILEMODE
 70
     1
  9
$MAXACTVP
 70
    16
  9
$PINSBASE
 10
0.0
 20
0.0
 30
0.0
  9
$PLIMCHECK
 70
     0
  9
$PEXTMIN
 10
1.000000E+20
 20
1.000000E+20
 30
1.000000E+20
  9
$PEXTMAX
 10
-1.000000E+20
 20
-1.000000E+20
 30
-1.000000E+20
  9
$PLIMMIN
 10
0.0
 20
0.0
  9
$PLIMMAX
 10
420.0
 20
297.0
  9
$UNITMODE
 70
     0
  9
$VISRETAIN
 70
     0
  9
$PLINEGEN
 70
     0
  9
$PSLTSCALE
 70
     1
  9
$TREEDEPTH
 70
  3020
  9
$DWGCODEPAGE
  3
iso8859-1
  0
ENDSEC
  0
SECTION
  2
TABLES
  0
TABLE
  2
VPORT
 70
     2
  0
VPORT
  2
*ACTIVE
 70
     0
 10
0.0
 20
0.0
 11
1.0
 21
1.0
 12
-156.934705
 22
1443.683048
 13
0.0
 23
0.0
 14
1.0
 24
1.0
 15
0.0
 25
0.0
 16
0.0
 26
0.0
 36
1.0
 17
0.0
 27
0.0
 37
0.0
 40
98.157179
 41
1.748359
 42
50.0
 43
0.0
 44
0.0
 50
0.0
 51
0.0
 71
     0
 72
   100
 73
     1
 74
     0
 75
     0
 76
     0
 77
     0
 78
     0
  0
ENDTAB
  0
TABLE
  2
LTYPE
 70
     1
  0
LTYPE
  2
CONTINUOUS
 70
    64
  3
Solid line
 72
    65
 73
     0
 40
0.0
  0
ENDTAB
  0
TABLE
  2
LAYER
 70
     1
  0
LAYER
  2
0
 70
    64
 62
     7
  6
CONTINUOUS
  0
ENDTAB
  0
TABLE
  2
STYLE
 70
     1
  0
STYLE
  2
STANDARD
 70
     0
 40
0.0
 41
1.0
 50
0.0
 71
     0
 42
3.5
  3
txt
  4

  0
ENDTAB
  0
TABLE
  2
VIEW
 70
     0
  0
ENDTAB
  0
TABLE
  2
UCS
 70
     0
  0
ENDTAB
  0
TABLE
  2
APPID
 70
     1
  0
APPID
  2
ACAD
 70
    64
  0
ENDTAB
  0
TABLE
  2
DIMSTYLE
 70
     0
  0
ENDTAB
  0
ENDSEC
  0
SECTION
  2
BLOCKS
  0
ENDSEC
  0
SECTION
  2
ENTITIES
  0
LINE
  8
0
 10
-194.55065
 20
1459.631863
 30
0.0
 11
-216.56998
 21
1459.631863
 31
0.0
  0
LINE
  8
0
 10
-113.532109
 20
1459.631863
 30
0.0
 11
-135.551439
 21
1459.631863
 31
0.0
  0
LINE
  8
0
 10
-135.332109
 20
1449.979996
 30
0.0
 11
-135.332109
 21
1456.356384
 31
0.0
  0
LINE
  8
0
 10
-135.332109
 20
1449.287175
 30
0.0
 11
-135.132109
 21
1449.633585
 31
0.0
  0
LINE
  8
0
 10
-135.132109
 20
1449.633585
 30
0.0
 11
-135.332109
 21
1449.979996
 31
0.0
  0
LINE
  8
0
 10
-133.532109
 20
1431.791645
 30
0.0
 11
-133.532109
 21
1457.63389
 31
0.0
  0
LINE
  8
0
 10
-135.332109
 20
1431.708802
 30
0.0
 11
-135.332109
 21
1449.287175
 31
0.0
  0
LINE
  8
0
 10
-138.332109
 20
1419.933464
 30
0.0
 11
-135.632109
 21
1420.606649
 31
0.0
  0
LINE
  8
0
 10
-135.632109
 20
1420.606649
 30
0.0
 11
-135.632109
 21
1422.918326
 31
0.0
  0
LINE
  8
0
 10
-135.632109
 20
1422.918326
 30
0.0
 11
-138.332109
 21
1423.692538
 31
0.0
  0
LINE
  8
0
 10
-138.332109
 20
1423.692538
 30
0.0
 11
-138.332109
 21
1419.933464
 31
0.0
  0
LINE
  8
0
 10
-135.917895
 20
1430.294589
 30
0.0
 11
-138.960536
 21
1427.251948
 31
0.0
  0
LINE
  8
0
 10
-140.132109
 20
1424.423521
 30
0.0
 11
-140.132109
 21
1419.63094
 31
0.0
  0
LINE
  8
0
 10
-138.890187
 20
1418.660644
 30
0.0
 11
-135.290187
 21
1419.558225
 31
0.0
  0
LINE
  8
0
 10
-134.532109
 20
1420.528521
 30
0.0
 11
-134.532109
 21
1422.993681
 31
0.0
  0
LINE
  8
0
 10
-135.256472
 20
1423.954943
 30
0.0
 11
-138.332109
 21
1424.836867
 31
0.0
  0
LINE
  8
0
 10
-138.332109
 20
1424.836867
 30
0.0
 11
-138.332109
 21
1425.334791
 31
0.0
  0
LINE
  8
0
 10
-138.332109
 20
1425.334791
 30
0.0
 11
-134.703682
 21
1428.963218
 31
0.0
  0
LINE
  8
0
 10
-135.551439
 20
1459.631863
 30
0.0
 11
-194.55065
 21
1459.631863
 31
0.0
  0
LINE
  8
0
 10
-194.46998
 20
1420.606649
 30
0.0
 11
-191.76998
 21
1419.933464
 31
0.0
  0
LINE
  8
0
 10
-194.46998
 20
1422.918326
 30
0.0
 11
-194.46998
 21
1420.606649
 31
0.0
  0
LINE
  8
0
 10
-191.76998
 20
1423.692538
 30
0.0
 11
-194.46998
 21
1422.918326
 31
0.0
  0
LINE
  8
0
 10
-191.76998
 20
1419.933464
 30
0.0
 11
-191.76998
 21
1423.692538
 31
0.0
  0
LINE
  8
0
 10
-191.141553
 20
1427.251948
 30
0.0
 11
-194.184194
 21
1430.294589
 31
0.0
  0
LINE
  8
0
 10
-189.96998
 20
1419.63094
 30
0.0
 11
-189.96998
 21
1424.423521
 31
0.0
  0
LINE
  8
0
 10
-194.811902
 20
1419.558225
 30
0.0
 11
-191.211902
 21
1418.660644
 31
0.0
  0
LINE
  8
0
 10
-195.56998
 20
1422.993681
 30
0.0
 11
-195.56998
 21
1420.528521
 31
0.0
  0
LINE
  8
0
 10
-191.76998
 20
1424.836867
 30
0.0
 11
-194.845618
 21
1423.954943
 31
0.0
  0
LINE
  8
0
 10
-191.76998
 20
1425.334791
 30
0.0
 11
-191.76998
 21
1424.836867
 31
0.0
  0
LINE
  8
0
 10
-195.398408
 20
1428.963218
 30
0.0
 11
-191.76998
 21
1425.334791
 31
0.0
  0
LINE
  8
0
 10
-196.56998
 20
1457.63389
 30
0.0
 11
-196.56998
 21
1431.791645
 31
0.0
  0
LINE
  8
0
 10
-194.76998
 20
1456.356384
 30
0.0
 11
-194.76998
 21
1449.979996
 31
0.0
  0
LINE
  8
0
 10
-193.273144
 20
1457.831863
 30
0.0
 11
-175.397455
 21
1457.831863
 31
0.0
  0
LINE
  8
0
 10
-175.051045
 20
1458.031863
 30
0.0
 11
-174.704635
 21
1457.831863
 31
0.0
  0
LINE
  8
0
 10
-175.397455
 20
1457.831863
 30
0.0
 11
-175.051045
 21
1458.031863
 31
0.0
  0
LINE
  8
0
 10
-174.704635
 20
1457.831863
 30
0.0
 11
-136.828946
 21
1457.831863
 31
0.0
  0
LINE
  8
0
 10
-194.76998
 20
1449.287175
 30
0.0
 11
-194.76998
 21
1431.708802
 31
0.0
  0
LINE
  8
0
 10
-194.96998
 20
1449.633585
 30
0.0
 11
-194.76998
 21
1449.287175
 31
0.0
  0
LINE
  8
0
 10
-194.76998
 20
1449.979996
 30
0.0
 11
-194.96998
 21
1449.633585
 31
0.0
  0
ARC
  8
0
 10
-139.132109
 20
1419.63094
 30
0.0
 40
1.0
 50
180.0
 51
268.259794
  0
ARC
  8
0
 10
-135.532109
 20
1420.528521
 30
0.0
 40
1.0
 50
284.0
 51
0.0
  0
ARC
  8
0
 10
-135.532109
 20
1422.993681
 30
0.0
 40
1.0
 50
0.0
 51
74.0
  0
ARC
  8
0
 10
-139.132109
 20
1419.63094
 30
0.0
 40
1.0
 50
268.259794
 51
284.0
  0
ARC
  8
0
 10
-190.96998
 20
1419.63094
 30
0.0
 40
1.0
 50
271.740206
 51
0.0
  0
ARC
  8
0
 10
-194.56998
 20
1420.528521
 30
0.0
 40
1.0
 50
180.0
 51
256.0
  0
ARC
  8
0
 10
-194.56998
 20
1422.993681
 30
0.0
 40
1.0
 50
106.0
 51
180.0
  0
ARC
  8
0
 10
-190.96998
 20
1419.63094
 30
0.0
 40
1.0
 50
256.0
 51
271.740206
  0
ARC
  8
0
 10
-135.551439
 20
1457.631863
 30
0.0
 40
2.0
 50
1.0
 51
90.0
  0
ARC
  8
0
 10
-136.828946
 20
1456.331863
 30
0.0
 40
1.5
 50
1.0
 51
90.0
  0
ARC
  8
0
 10
-137.532109
 20
1431.791645
 30
0.0
 40
4.0
 50
315.0
 51
0.0
  0
ARC
  8
0
 10
-137.332109
 20
1431.708802
 30
0.0
 40
2.0
 50
315.0
 51
0.0
  0
ARC
  8
0
 10
-136.132109
 20
1424.423521
 30
0.0
 40
4.0
 50
135.0
 51
180.0
  0
ARC
  8
0
 10
-192.56998
 20
1431.791645
 30
0.0
 40
4.0
 50
180.0
 51
225.0
  0
ARC
  8
0
 10
-192.76998
 20
1431.708802
 30
0.0
 40
2.0
 50
180.0
 51
225.0
  0
ARC
  8
0
 10
-194.55065
 20
1457.631863
 30
0.0
 40
2.0
 50
90.0
 51
179.0
  0
ARC
  8
0
 10
-193.273144
 20
1456.331863
 30
0.0
 40
1.5
 50
90.0
 51
179.0
  0
ARC
  8
0
 10
-193.96998
 20
1424.423521
 30
0.0
 40
4.0
 50
0.0
 51
45.0
  0
LINE
  8
0
 10
-195.769981
 20
1423.76644
 30
0.0
 11
-195.804094
 21
1423.757299
 31
0.0
  0
LINE
  8
0
 10
-196.711065
 20
1419.454849
 30
0.0
 11
-196.711065
 21
1428.448225
 31
0.0
  0
LINE
  8
0
 10
-195.506167
 20
1428.947311
 30
0.0
 11
-192.790592
 21
1426.231735
 31
0.0
  0
LINE
  8
0
 10
-193.271804
 20
1424.435825
 30
0.0
 11
-195.177654
 21
1423.925154
 31
0.0
  0
LINE
  8
0
 10
-194.946532
 20
1417.690316
 30
0.0
 11
-135.279223
 21
1417.690316
 31
0.0
  0
LINE
  8
0
 10
-195.769981
 20
1423.76644
 30
0.0
 11
-195.805788
 21
1423.76644
 31
0.0
  0
LINE
  8
0
 10
-136.220307
 20
1418.6314
 30
0.0
 11
-194.005448
 21
1418.6314
 31
0.0
  0
LINE
  8
0
 10
-195.769981
 20
1427.880231
 30
0.0
 11
-195.769981
 21
1420.395933
 31
0.0
  0
LINE
  8
0
 10
-193.293929
 20
1425.404178
 30
0.0
 11
-195.769981
 21
1427.880231
 31
0.0
  0
LINE
  8
0
 10
-193.293929
 20
1425.404178
 30
0.0
 11
-195.421224
 21
1424.834172
 31
0.0
  0
LINE
  8
0
 10
-133.51469
 20
1428.448225
 30
0.0
 11
-133.51469
 21
1419.454849
 31
0.0
  0
LINE
  8
0
 10
-137.435165
 20
1426.231735
 30
0.0
 11
-134.719589
 21
1428.947311
 31
0.0
  0
LINE
  8
0
 10
-135.048102
 20
1423.925154
 30
0.0
 11
-136.953952
 21
1424.435825
 31
0.0
  0
LINE
  8
0
 10
-134.455775
 20
1420.395933
 30
0.0
 11
-134.455775
 21
1427.880231
 31
0.0
  0
LINE
  8
0
 10
-134.455775
 20
1427.880231
 30
0.0
 11
-136.931827
 21
1425.404178
 31
0.0
  0
LINE
  8
0
 10
-134.804532
 20
1424.834172
 30
0.0
 11
-136.931827
 21
1425.404178
 31
0.0
  0
ARC
  8
0
 10
-195.299439
 20
1424.379662
 30
0.0
 40
0.470542
 50
105.0
 51
285.0
  0
ARC
  8
0
 10
-193.549632
 20
1425.472694
 30
0.0
 40
1.073447
 50
1.152297
 51
45.0
  0
ARC
  8
0
 10
-196.005252
 20
1428.448225
 30
0.0
 40
0.705813
 50
90.0
 51
180.0
  0
ARC
  8
0
 10
-196.005252
 20
1428.448225
 30
0.0
 40
0.705813
 50
45.0
 51
90.0
  0
ARC
  8
0
 10
-134.926317
 20
1424.379662
 30
0.0
 40
0.470542
 50
255.0
 51
75.0
  0
ARC
  8
0
 10
-136.676124
 20
1425.472694
 30
0.0
 40
1.073447
 50
135.0
 51
255.0
  0
ARC
  8
0
 10
-134.220504
 20
1428.448225
 30
0.0
 40
0.705813
 50
0.0
 51
135.0
  0
ARC
  8
0
 10
-193.549632
 20
1425.472694
 30
0.0
 40
1.073447
 50
285.0
 51
1.152297
  0
ARC
  8
0
 10
-194.946532
 20
1419.454849
 30
0.0
 40
1.764533
 50
180.0
 51
270.0
  0
ARC
  8
0
 10
-135.279223
 20
1419.454849
 30
0.0
 40
1.764533
 50
270.0
 51
0.0
  0
ARC
  8
0
 10
-194.005448
 20
1420.395933
 30
0.0
 40
1.764533
 50
180.0
 51
270.0
  0
ARC
  8
0
 10
-136.220307
 20
1420.395933
 30
0.0
 40
1.764533
 50
270.0
 51
0.0
  0
LINE
  8
0
 10
-114.584744
 20
1479.631863
 30
0.0
 11
-113.532109
 21
1478.579228
 31
0.0
  0
LINE
  8
0
 10
-121.655812
 20
1479.631863
 30
0.0
 11
-113.532109
 21
1471.50816
 31
0.0
  0
LINE
  8
0
 10
-128.72688
 20
1479.631863
 30
0.0
 11
-113.532109
 21
1464.437093
 31
0.0
  0
LINE
  8
0
 10
-135.797948
 20
1479.631863
 30
0.0
 11
-115.797948
 21
1459.631863
 31
0.0
  0
LINE
  8
0
 10
-142.869016
 20
1479.631863
 30
0.0
 11
-122.869016
 21
1459.631863
 31
0.0
  0
LINE
  8
0
 10
-149.940083
 20
1479.631863
 30
0.0
 11
-129.940083
 21
1459.631863
 31
0.0
  0
LINE
  8
0
 10
-157.011151
 20
1479.631863
 30
0.0
 11
-137.011151
 21
1459.631863
 31
0.0
  0
LINE
  8
0
 10
-164.082219
 20
1479.631863
 30
0.0
 11
-144.082219
 21
1459.631863
 31
0.0
  0
LINE
  8
0
 10
-171.153287
 20
1479.631863
 30
0.0
 11
-151.153287
 21
1459.631863
 31
0.0
  0
LINE
  8
0
 10
-178.224355
 20
1479.631863
 30
0.0
 11
-158.224355
 21
1459.631863
 31
0.0
  0
LINE
  8
0
 10
-185.295422
 20
1479.631863
 30
0.0
 11
-165.295422
 21
1459.631863
 31
0.0
  0
LINE
  8
0
 10
-192.36649
 20
1479.631863
 30
0.0
 11
-172.36649
 21
1459.631863
 31
0.0
  0
LINE
  8
0
 10
-199.437558
 20
1479.631863
 30
0.0
 11
-179.437558
 21
1459.631863
 31
0.0
  0
LINE
  8
0
 10
-206.508626
 20
1479.631863
 30
0.0
 11
-186.508626
 21
1459.631863
 31
0.0
  0
LINE
  8
0
 10
-213.579694
 20
1479.631863
 30
0.0
 11
-193.579694
 21
1459.631863
 31
0.0
  0
LINE
  8
0
 10
-216.569981
 20
1475.551083
 30
0.0
 11
-200.650762
 21
1459.631863
 31
0.0
  0
LINE
  8
0
 10
-216.569981
 20
1468.480015
 30
0.0
 11
-207.721829
 21
1459.631863
 31
0.0
  0
LINE
  8
0
 10
-216.569981
 20
1461.408947
 30
0.0
 11
-214.792897
 21
1459.631863
 31
0.0
  0
ENDSEC
  0
EOF
