  0
SECTION
  2
HEADER
  9
$ACADVER
  1
AC1009
  9
$INSBASE
 10
0.0
 20
0.0
 30
0.0
  9
$EXTMIN
 10
-182.398806
 20
1405.601164
 30
0.0
  9
$EXTMAX
 10
-120.091813
 20
1508.639036
 30
0.0
  9
$LIMMIN
 10
-182.398806
 20
1405.601164
  9
$LIMMAX
 10
-120.45726
 20
1508.639036
  9
$ORTHOMODE
 70
     0
  9
$REGENMODE
 70
     1
  9
$FILLMODE
 70
     1
  9
$QTEXTMODE
 70
     0
  9
$MIRRTEXT
 70
     1
  9
$DRAGMODE
 70
     2
  9
$LTSCALE
 40
1.0
  9
$OSMODE
 70
     0
  9
$ATTMODE
 70
     1
  9
$TEXTSIZE
 40
3.5
  9
$TRACEWID
 40
0.5
  9
$TEXTSTYLE
  7
STANDARD
  9
$CLAYER
  8
0
  9
$CELTYPE
  6
BYLAYER
  9
$CECOLOR
 62
   256
  9
$DIMSCALE
 40
1.0
  9
$DIMASZ
 40
0.18
  9
$DIMEXO
 40
0.0625
  9
$DIMDLI
 40
0.38
  9
$DIMRND
 40
0.0
  9
$DIMDLE
 40
0.0
  9
$DIMEXE
 40
0.18
  9
$DIMTP
 40
0.0
  9
$DIMTM
 40
0.0
  9
$DIMTXT
 40
0.18
  9
$DIMCEN
 40
0.09
  9
$DIMTSZ
 40
0.0
  9
$DIMTOL
 70
     0
  9
$DIMLIM
 70
     0
  9
$DIMTIH
 70
     1
  9
$DIMTOH
 70
     1
  9
$DIMSE1
 70
     0
  9
$DIMSE2
 70
     0
  9
$DIMTAD
 70
     0
  9
$DIMZIN
 70
     0
  9
$DIMBLK
  1

  9
$DIMASO
 70
     1
  9
$DIMSHO
 70
     1
  9
$DIMPOST
  1

  9
$DIMAPOST
  1

  9
$DIMALT
 70
     0
  9
$DIMALTD
 70
     2
  9
$DIMALTF
 40
25.4
  9
$DIMLFAC
 40
1.0
  9
$DIMTOFL
 70
     0
  9
$DIMTVP
 40
0.0
  9
$DIMTIX
 70
     0
  9
$DIMSOXD
 70
     0
  9
$DIMSAH
 70
     0
  9
$DIMBLK1
  1

  9
$DIMBLK2
  1

  9
$DIMSTYLE
  2
*UNNAMED
  9
$DIMCLRD
 70
     0
  9
$DIMCLRE
 70
     0
  9
$DIMCLRT
 70
     0
  9
$DIMTFAC
 40
1.0
  9
$DIMGAP
 40
0.09
  9
$LUNITS
 70
     2
  9
$LUPREC
 70
     4
  9
$SKETCHINC
 40
0.1
  9
$FILLETRAD
 40
2.0
  9
$AUNITS
 70
     0
  9
$AUPREC
 70
     0
  9
$MENU
  1
ACAD
  9
$ELEVATION
 40
0.0
  9
$PELEVATION
 40
0.0
  9
$THICKNESS
 40
0.0
  9
$LIMCHECK
 70
     0
  9
$BLIPMODE
 70
     1
  9
$CHAMFERA
 40
0.0
  9
$CHAMFERB
 40
0.0
  9
$SKPOLY
 70
     0
  9
$TDCREATE
 40
2450955.412513310
  9
$TDUPDATE
 40
2450955.413121064
  9
$TDINDWG
 40
0.0003776620
  9
$TDUSRTIMER
 40
0.0003776620
  9
$USRTIMER
 70
     1
  9
$ANGBASE
 50
0.0
  9
$ANGDIR
 70
     0
  9
$PDMODE
 70
     0
  9
$PDSIZE
 40
0.0
  9
$PLINEWID
 40
0.0
  9
$COORDS
 70
     2
  9
$SPLFRAME
 70
     0
  9
$SPLINETYPE
 70
     6
  9
$SPLINESEGS
 70
     8
  9
$ATTDIA
 70
     0
  9
$ATTREQ
 70
     1
  9
$HANDLING
 70
     0
  9
$HANDSEED
  5
0
  9
$SURFTAB1
 70
     6
  9
$SURFTAB2
 70
     6
  9
$SURFTYPE
 70
     6
  9
$SURFU
 70
     6
  9
$SURFV
 70
     6
  9
$UCSNAME
  2

  9
$UCSORG
 10
0.0
 20
0.0
 30
0.0
  9
$UCSXDIR
 10
1.0
 20
0.0
 30
0.0
  9
$UCSYDIR
 10
0.0
 20
1.0
 30
0.0
  9
$PUCSNAME
  2

  9
$PUCSORG
 10
0.0
 20
0.0
 30
0.0
  9
$PUCSXDIR
 10
1.0
 20
0.0
 30
0.0
  9
$PUCSYDIR
 10
0.0
 20
1.0
 30
0.0
  9
$USERI1
 70
     0
  9
$USERI2
 70
     0
  9
$USERI3
 70
     0
  9
$USERI4
 70
     0
  9
$USERI5
 70
     0
  9
$USERR1
 40
0.0
  9
$USERR2
 40
0.0
  9
$USERR3
 40
0.0
  9
$USERR4
 40
0.0
  9
$USERR5
 40
0.0
  9
$WORLDVIEW
 70
     1
  9
$SHADEDGE
 70
     3
  9
$SHADEDIF
 70
    70
  9
$TILEMODE
 70
     1
  9
$MAXACTVP
 70
    16
  9
$PINSBASE
 10
0.0
 20
0.0
 30
0.0
  9
$PLIMCHECK
 70
     0
  9
$PEXTMIN
 10
1.000000E+20
 20
1.000000E+20
 30
1.000000E+20
  9
$PEXTMAX
 10
-1.000000E+20
 20
-1.000000E+20
 30
-1.000000E+20
  9
$PLIMMIN
 10
0.0
 20
0.0
  9
$PLIMMAX
 10
420.0
 20
297.0
  9
$UNITMODE
 70
     0
  9
$VISRETAIN
 70
     0
  9
$PLINEGEN
 70
     0
  9
$PSLTSCALE
 70
     1
  9
$TREEDEPTH
 70
  3020
  9
$DWGCODEPAGE
  3
iso8859-1
  0
ENDSEC
  0
SECTION
  2
TABLES
  0
TABLE
  2
VPORT
 70
     2
  0
VPORT
  2
*ACTIVE
 70
     0
 10
0.0
 20
0.0
 11
1.0
 21
1.0
 12
-87.896069
 22
1457.18758
 13
0.0
 23
0.0
 14
1.0
 24
1.0
 15
0.0
 25
0.0
 16
0.0
 26
0.0
 36
1.0
 17
0.0
 27
0.0
 37
0.0
 40
155.464804
 41
1.748359
 42
50.0
 43
0.0
 44
0.0
 50
0.0
 51
0.0
 71
     0
 72
   100
 73
     1
 74
     0
 75
     0
 76
     0
 77
     0
 78
     0
  0
ENDTAB
  0
TABLE
  2
LTYPE
 70
     1
  0
LTYPE
  2
CONTINUOUS
 70
    64
  3
Solid line
 72
    65
 73
     0
 40
0.0
  0
ENDTAB
  0
TABLE
  2
LAYER
 70
     1
  0
LAYER
  2
0
 70
    64
 62
     7
  6
CONTINUOUS
  0
ENDTAB
  0
TABLE
  2
STYLE
 70
     1
  0
STYLE
  2
STANDARD
 70
     0
 40
0.0
 41
1.0
 50
0.0
 71
     0
 42
3.5
  3
txt
  4

  0
ENDTAB
  0
TABLE
  2
VIEW
 70
     0
  0
ENDTAB
  0
TABLE
  2
UCS
 70
     0
  0
ENDTAB
  0
TABLE
  2
APPID
 70
     1
  0
APPID
  2
ACAD
 70
    64
  0
ENDTAB
  0
TABLE
  2
DIMSTYLE
 70
     0
  0
ENDTAB
  0
ENDSEC
  0
SECTION
  2
BLOCKS
  0
ENDSEC
  0
SECTION
  2
ENTITIES
  0
LINE
  8
0
 10
-162.398806
 20
1427.620495
 30
0.0
 11
-162.398806
 21
1405.601164
 31
0.0
  0
LINE
  8
0
 10
-162.398806
 20
1508.639036
 30
0.0
 11
-162.398806
 21
1486.619706
 31
0.0
  0
LINE
  8
0
 10
-152.746939
 20
1486.839036
 30
0.0
 11
-159.123327
 21
1486.839036
 31
0.0
  0
LINE
  8
0
 10
-152.054119
 20
1486.839036
 30
0.0
 11
-152.400529
 21
1487.039036
 31
0.0
  0
LINE
  8
0
 10
-152.400529
 20
1487.039036
 30
0.0
 11
-152.746939
 21
1486.839036
 31
0.0
  0
LINE
  8
0
 10
-134.558589
 20
1488.639036
 30
0.0
 11
-160.400833
 21
1488.639036
 31
0.0
  0
LINE
  8
0
 10
-134.475746
 20
1486.839036
 30
0.0
 11
-152.054119
 21
1486.839036
 31
0.0
  0
LINE
  8
0
 10
-122.700407
 20
1483.839036
 30
0.0
 11
-123.373593
 21
1486.539036
 31
0.0
  0
LINE
  8
0
 10
-123.373593
 20
1486.539036
 30
0.0
 11
-125.685269
 21
1486.539036
 31
0.0
  0
LINE
  8
0
 10
-125.685269
 20
1486.539036
 30
0.0
 11
-126.459481
 21
1483.839036
 31
0.0
  0
LINE
  8
0
 10
-126.459481
 20
1483.839036
 30
0.0
 11
-122.700407
 21
1483.839036
 31
0.0
  0
LINE
  8
0
 10
-133.061532
 20
1486.253249
 30
0.0
 11
-130.018892
 21
1483.210609
 31
0.0
  0
LINE
  8
0
 10
-127.190464
 20
1482.039036
 30
0.0
 11
-122.397883
 21
1482.039036
 31
0.0
  0
LINE
  8
0
 10
-121.427587
 20
1483.280958
 30
0.0
 11
-122.325168
 21
1486.880958
 31
0.0
  0
LINE
  8
0
 10
-123.295464
 20
1487.639036
 30
0.0
 11
-125.760624
 21
1487.639036
 31
0.0
  0
LINE
  8
0
 10
-126.721886
 20
1486.914673
 30
0.0
 11
-127.603811
 21
1483.839036
 31
0.0
  0
LINE
  8
0
 10
-127.603811
 20
1483.839036
 30
0.0
 11
-128.101734
 21
1483.839036
 31
0.0
  0
LINE
  8
0
 10
-128.101734
 20
1483.839036
 30
0.0
 11
-131.730161
 21
1487.467463
 31
0.0
  0
LINE
  8
0
 10
-162.398806
 20
1486.619706
 30
0.0
 11
-162.398806
 21
1427.620495
 31
0.0
  0
LINE
  8
0
 10
-123.373593
 20
1427.701164
 30
0.0
 11
-122.700407
 21
1430.401164
 31
0.0
  0
LINE
  8
0
 10
-125.685269
 20
1427.701164
 30
0.0
 11
-123.373593
 21
1427.701164
 31
0.0
  0
LINE
  8
0
 10
-126.459481
 20
1430.401164
 30
0.0
 11
-125.685269
 21
1427.701164
 31
0.0
  0
LINE
  8
0
 10
-122.700407
 20
1430.401164
 30
0.0
 11
-126.459481
 21
1430.401164
 31
0.0
  0
LINE
  8
0
 10
-130.018892
 20
1431.029591
 30
0.0
 11
-133.061532
 21
1427.986951
 31
0.0
  0
LINE
  8
0
 10
-122.397883
 20
1432.201164
 30
0.0
 11
-127.190464
 21
1432.201164
 31
0.0
  0
LINE
  8
0
 10
-122.325168
 20
1427.359242
 30
0.0
 11
-121.427587
 21
1430.959242
 31
0.0
  0
LINE
  8
0
 10
-125.760624
 20
1426.601164
 30
0.0
 11
-123.295464
 21
1426.601164
 31
0.0
  0
LINE
  8
0
 10
-127.603811
 20
1430.401164
 30
0.0
 11
-126.721886
 21
1427.325527
 31
0.0
  0
LINE
  8
0
 10
-128.101734
 20
1430.401164
 30
0.0
 11
-127.603811
 21
1430.401164
 31
0.0
  0
LINE
  8
0
 10
-131.730161
 20
1426.772737
 30
0.0
 11
-128.101734
 21
1430.401164
 31
0.0
  0
LINE
  8
0
 10
-160.400833
 20
1425.601164
 30
0.0
 11
-134.558589
 21
1425.601164
 31
0.0
  0
LINE
  8
0
 10
-159.123327
 20
1427.401164
 30
0.0
 11
-152.746939
 21
1427.401164
 31
0.0
  0
LINE
  8
0
 10
-160.598806
 20
1428.898001
 30
0.0
 11
-160.598806
 21
1446.77369
 31
0.0
  0
LINE
  8
0
 10
-160.798806
 20
1447.1201
 30
0.0
 11
-160.598806
 21
1447.46651
 31
0.0
  0
LINE
  8
0
 10
-160.598806
 20
1446.77369
 30
0.0
 11
-160.798806
 21
1447.1201
 31
0.0
  0
LINE
  8
0
 10
-160.598806
 20
1447.46651
 30
0.0
 11
-160.598806
 21
1485.342199
 31
0.0
  0
LINE
  8
0
 10
-152.054119
 20
1427.401164
 30
0.0
 11
-134.475746
 21
1427.401164
 31
0.0
  0
LINE
  8
0
 10
-152.400529
 20
1427.201164
 30
0.0
 11
-152.054119
 21
1427.401164
 31
0.0
  0
LINE
  8
0
 10
-152.746939
 20
1427.401164
 30
0.0
 11
-152.400529
 21
1427.201164
 31
0.0
  0
ARC
  8
0
 10
-122.397883
 20
1483.039036
 30
0.0
 40
1.0
 50
270.0
 51
358.259794
  0
ARC
  8
0
 10
-123.295464
 20
1486.639036
 30
0.0
 40
1.0
 50
14.0
 51
90.0
  0
ARC
  8
0
 10
-125.760624
 20
1486.639036
 30
0.0
 40
1.0
 50
90.0
 51
164.0
  0
ARC
  8
0
 10
-122.397883
 20
1483.039036
 30
0.0
 40
1.0
 50
358.259794
 51
14.0
  0
ARC
  8
0
 10
-122.397883
 20
1431.201164
 30
0.0
 40
1.0
 50
1.740206
 51
90.0
  0
ARC
  8
0
 10
-123.295464
 20
1427.601164
 30
0.0
 40
1.0
 50
270.0
 51
346.0
  0
ARC
  8
0
 10
-125.760624
 20
1427.601164
 30
0.0
 40
1.0
 50
196.0
 51
270.0
  0
ARC
  8
0
 10
-122.397883
 20
1431.201164
 30
0.0
 40
1.0
 50
346.0
 51
1.740206
  0
ARC
  8
0
 10
-160.398806
 20
1486.619706
 30
0.0
 40
2.0
 50
91.0
 51
180.0
  0
ARC
  8
0
 10
-159.098806
 20
1485.342199
 30
0.0
 40
1.5
 50
91.0
 51
180.0
  0
ARC
  8
0
 10
-134.558589
 20
1484.639036
 30
0.0
 40
4.0
 50
45.0
 51
90.0
  0
ARC
  8
0
 10
-134.475746
 20
1484.839036
 30
0.0
 40
2.0
 50
45.0
 51
90.0
  0
ARC
  8
0
 10
-127.190464
 20
1486.039036
 30
0.0
 40
4.0
 50
225.0
 51
270.0
  0
ARC
  8
0
 10
-134.558589
 20
1429.601164
 30
0.0
 40
4.0
 50
270.0
 51
315.0
  0
ARC
  8
0
 10
-134.475746
 20
1429.401164
 30
0.0
 40
2.0
 50
270.0
 51
315.0
  0
ARC
  8
0
 10
-160.398806
 20
1427.620495
 30
0.0
 40
2.0
 50
180.0
 51
269.0
  0
ARC
  8
0
 10
-159.098806
 20
1428.898001
 30
0.0
 40
1.5
 50
180.0
 51
269.0
  0
ARC
  8
0
 10
-127.190464
 20
1428.201164
 30
0.0
 40
4.0
 50
90.0
 51
135.0
  0
LINE
  8
0
 10
-182.398806
 20
1507.586401
 30
0.0
 11
-181.346171
 21
1508.639036
 31
0.0
  0
LINE
  8
0
 10
-182.398806
 20
1500.515333
 30
0.0
 11
-174.275103
 21
1508.639036
 31
0.0
  0
LINE
  8
0
 10
-182.398806
 20
1493.444265
 30
0.0
 11
-167.204036
 21
1508.639036
 31
0.0
  0
LINE
  8
0
 10
-182.398806
 20
1486.373197
 30
0.0
 11
-162.398806
 21
1506.373197
 31
0.0
  0
LINE
  8
0
 10
-182.398806
 20
1479.302129
 30
0.0
 11
-162.398806
 21
1499.302129
 31
0.0
  0
LINE
  8
0
 10
-182.398806
 20
1472.231062
 30
0.0
 11
-162.398806
 21
1492.231062
 31
0.0
  0
LINE
  8
0
 10
-182.398806
 20
1465.159994
 30
0.0
 11
-162.398806
 21
1485.159994
 31
0.0
  0
LINE
  8
0
 10
-182.398806
 20
1458.088926
 30
0.0
 11
-162.398806
 21
1478.088926
 31
0.0
  0
LINE
  8
0
 10
-182.398806
 20
1451.017858
 30
0.0
 11
-162.398806
 21
1471.017858
 31
0.0
  0
LINE
  8
0
 10
-182.398806
 20
1443.94679
 30
0.0
 11
-162.398806
 21
1463.94679
 31
0.0
  0
LINE
  8
0
 10
-182.398806
 20
1436.875723
 30
0.0
 11
-162.398806
 21
1456.875723
 31
0.0
  0
LINE
  8
0
 10
-182.398806
 20
1429.804655
 30
0.0
 11
-162.398806
 21
1449.804655
 31
0.0
  0
LINE
  8
0
 10
-182.398806
 20
1422.733587
 30
0.0
 11
-162.398806
 21
1442.733587
 31
0.0
  0
LINE
  8
0
 10
-182.398806
 20
1415.662519
 30
0.0
 11
-162.398806
 21
1435.662519
 31
0.0
  0
LINE
  8
0
 10
-182.398806
 20
1408.591451
 30
0.0
 11
-162.398806
 21
1428.591451
 31
0.0
  0
LINE
  8
0
 10
-178.318026
 20
1405.601164
 30
0.0
 11
-162.398806
 21
1421.520383
 31
0.0
  0
LINE
  8
0
 10
-171.246958
 20
1405.601164
 30
0.0
 11
-162.398806
 21
1414.449316
 31
0.0
  0
LINE
  8
0
 10
-164.17589
 20
1405.601164
 30
0.0
 11
-162.398806
 21
1407.378248
 31
0.0
  0
LINE
  8
0
 10
-126.533384
 20
1426.401164
 30
0.0
 11
-126.524243
 21
1426.367051
 31
0.0
  0
LINE
  8
0
 10
-122.221793
 20
1425.46008
 30
0.0
 11
-131.215169
 21
1425.46008
 31
0.0
  0
LINE
  8
0
 10
-131.714255
 20
1426.664978
 30
0.0
 11
-128.998679
 21
1429.380553
 31
0.0
  0
LINE
  8
0
 10
-127.202769
 20
1428.899341
 30
0.0
 11
-126.692098
 21
1426.993491
 31
0.0
  0
LINE
  8
0
 10
-120.45726
 20
1427.224613
 30
0.0
 11
-120.45726
 21
1486.891922
 31
0.0
  0
LINE
  8
0
 10
-126.533384
 20
1426.401164
 30
0.0
 11
-126.533384
 21
1426.365357
 31
0.0
  0
LINE
  8
0
 10
-121.398344
 20
1485.950838
 30
0.0
 11
-121.398344
 21
1428.165697
 31
0.0
  0
LINE
  8
0
 10
-130.647175
 20
1426.401164
 30
0.0
 11
-123.162877
 21
1426.401164
 31
0.0
  0
LINE
  8
0
 10
-128.171122
 20
1428.877216
 30
0.0
 11
-130.647175
 21
1426.401164
 31
0.0
  0
LINE
  8
0
 10
-128.171122
 20
1428.877216
 30
0.0
 11
-127.601116
 21
1426.749921
 31
0.0
  0
LINE
  8
0
 10
-131.215169
 20
1488.656455
 30
0.0
 11
-122.221793
 21
1488.656455
 31
0.0
  0
LINE
  8
0
 10
-128.998679
 20
1484.73598
 30
0.0
 11
-131.714255
 21
1487.451556
 31
0.0
  0
LINE
  8
0
 10
-126.692098
 20
1487.123043
 30
0.0
 11
-127.202769
 21
1485.217193
 31
0.0
  0
LINE
  8
0
 10
-123.162877
 20
1487.71537
 30
0.0
 11
-130.647175
 21
1487.71537
 31
0.0
  0
LINE
  8
0
 10
-130.647175
 20
1487.71537
 30
0.0
 11
-128.171122
 21
1485.239318
 31
0.0
  0
LINE
  8
0
 10
-127.601116
 20
1487.366613
 30
0.0
 11
-128.171122
 21
1485.239318
 31
0.0
  0
ARC
  8
0
 10
-127.146606
 20
1426.871706
 30
0.0
 40
0.470542
 50
195.0
 51
15.0
  0
ARC
  8
0
 10
-128.239638
 20
1428.621513
 30
0.0
 40
1.073447
 50
91.152297
 51
135.0
  0
ARC
  8
0
 10
-131.215169
 20
1426.165893
 30
0.0
 40
0.705813
 50
180.0
 51
270.0
  0
ARC
  8
0
 10
-131.215169
 20
1426.165893
 30
0.0
 40
0.705813
 50
135.0
 51
180.0
  0
ARC
  8
0
 10
-127.146606
 20
1487.244828
 30
0.0
 40
0.470542
 50
345.0
 51
165.0
  0
ARC
  8
0
 10
-128.239638
 20
1485.495021
 30
0.0
 40
1.073447
 50
225.0
 51
345.0
  0
ARC
  8
0
 10
-131.215169
 20
1487.950641
 30
0.0
 40
0.705813
 50
90.0
 51
225.0
  0
ARC
  8
0
 10
-128.239638
 20
1428.621513
 30
0.0
 40
1.073447
 50
15.0
 51
91.152297
  0
ARC
  8
0
 10
-122.221793
 20
1427.224613
 30
0.0
 40
1.764533
 50
270.0
 51
0.0
  0
ARC
  8
0
 10
-122.221793
 20
1486.891922
 30
0.0
 40
1.764533
 50
0.0
 51
90.0
  0
ARC
  8
0
 10
-123.162877
 20
1428.165697
 30
0.0
 40
1.764533
 50
270.0
 51
0.0
  0
ARC
  8
0
 10
-123.162877
 20
1485.950838
 30
0.0
 40
1.764533
 50
0.0
 51
90.0
  0
ENDSEC
  0
EOF
