  0
SECTION
  2
HEADER
  9
$ACADVER
  1
AC1009
  9
$INSBASE
 10
0.0
 20
0.0
 30
0.0
  9
$EXTMIN
 10
846.396701
 20
-7.085588
 30
0.0
  9
$EXTMAX
 10
1210.092126
 20
672.914412
 30
0.0
  9
$LIMMIN
 10
855.039764
 20
266.864907
  9
$LIMMAX
 10
943.039815
 20
436.864907
  9
$ORTHOMODE
 70
     1
  9
$REGENMODE
 70
     1
  9
$FILLMODE
 70
     1
  9
$QTEXTMODE
 70
     0
  9
$MIRRTEXT
 70
     1
  9
$DRAGMODE
 70
     2
  9
$LTSCALE
 40
1.0
  9
$OSMODE
 70
     0
  9
$ATTMODE
 70
     1
  9
$TEXTSIZE
 40
3.5
  9
$TRACEWID
 40
0.5
  9
$TEXTSTYLE
  7
STANDARD
  9
$CLAYER
  8
0
  9
$CELTYPE
  6
BYLAYER
  9
$CECOLOR
 62
   256
  9
$DIMSCALE
 40
1.0
  9
$DIMASZ
 40
0.18
  9
$DIMEXO
 40
0.0625
  9
$DIMDLI
 40
0.38
  9
$DIMRND
 40
0.0
  9
$DIMDLE
 40
0.0
  9
$DIMEXE
 40
0.18
  9
$DIMTP
 40
0.0
  9
$DIMTM
 40
0.0
  9
$DIMTXT
 40
0.18
  9
$DIMCEN
 40
0.09
  9
$DIMTSZ
 40
0.0
  9
$DIMTOL
 70
     0
  9
$DIMLIM
 70
     0
  9
$DIMTIH
 70
     1
  9
$DIMTOH
 70
     1
  9
$DIMSE1
 70
     0
  9
$DIMSE2
 70
     0
  9
$DIMTAD
 70
     0
  9
$DIMZIN
 70
     0
  9
$DIMBLK
  1

  9
$DIMASO
 70
     1
  9
$DIMSHO
 70
     1
  9
$DIMPOST
  1

  9
$DIMAPOST
  1

  9
$DIMALT
 70
     0
  9
$DIMALTD
 70
     2
  9
$DIMALTF
 40
25.4
  9
$DIMLFAC
 40
1.0
  9
$DIMTOFL
 70
     0
  9
$DIMTVP
 40
0.0
  9
$DIMTIX
 70
     0
  9
$DIMSOXD
 70
     0
  9
$DIMSAH
 70
     0
  9
$DIMBLK1
  1

  9
$DIMBLK2
  1

  9
$DIMSTYLE
  2
*UNNAMED
  9
$DIMCLRD
 70
     0
  9
$DIMCLRE
 70
     0
  9
$DIMCLRT
 70
     0
  9
$DIMTFAC
 40
1.0
  9
$DIMGAP
 40
0.09
  9
$LUNITS
 70
     2
  9
$LUPREC
 70
     4
  9
$SKETCHINC
 40
0.1
  9
$FILLETRAD
 40
2.0
  9
$AUNITS
 70
     0
  9
$AUPREC
 70
     0
  9
$MENU
  1
ACAD
  9
$ELEVATION
 40
0.0
  9
$PELEVATION
 40
0.0
  9
$THICKNESS
 40
0.0
  9
$LIMCHECK
 70
     0
  9
$BLIPMODE
 70
     1
  9
$CHAMFERA
 40
0.0
  9
$CHAMFERB
 40
0.0
  9
$SKPOLY
 70
     0
  9
$TDCREATE
 40
2450955.407930440
  9
$TDUPDATE
 40
2450955.408163773
  9
$TDINDWG
 40
0.0001106481
  9
$TDUSRTIMER
 40
0.0001106481
  9
$USRTIMER
 70
     1
  9
$ANGBASE
 50
0.0
  9
$ANGDIR
 70
     0
  9
$PDMODE
 70
     0
  9
$PDSIZE
 40
0.0
  9
$PLINEWID
 40
0.0
  9
$COORDS
 70
     2
  9
$SPLFRAME
 70
     0
  9
$SPLINETYPE
 70
     6
  9
$SPLINESEGS
 70
     8
  9
$ATTDIA
 70
     0
  9
$ATTREQ
 70
     1
  9
$HANDLING
 70
     0
  9
$HANDSEED
  5
0
  9
$SURFTAB1
 70
     6
  9
$SURFTAB2
 70
     6
  9
$SURFTYPE
 70
     6
  9
$SURFU
 70
     6
  9
$SURFV
 70
     6
  9
$UCSNAME
  2

  9
$UCSORG
 10
0.0
 20
0.0
 30
0.0
  9
$UCSXDIR
 10
1.0
 20
0.0
 30
0.0
  9
$UCSYDIR
 10
0.0
 20
1.0
 30
0.0
  9
$PUCSNAME
  2

  9
$PUCSORG
 10
0.0
 20
0.0
 30
0.0
  9
$PUCSXDIR
 10
1.0
 20
0.0
 30
0.0
  9
$PUCSYDIR
 10
0.0
 20
1.0
 30
0.0
  9
$USERI1
 70
     0
  9
$USERI2
 70
     0
  9
$USERI3
 70
     0
  9
$USERI4
 70
     0
  9
$USERI5
 70
     0
  9
$USERR1
 40
0.0
  9
$USERR2
 40
0.0
  9
$USERR3
 40
0.0
  9
$USERR4
 40
0.0
  9
$USERR5
 40
0.0
  9
$WORLDVIEW
 70
     1
  9
$SHADEDGE
 70
     3
  9
$SHADEDIF
 70
    70
  9
$TILEMODE
 70
     1
  9
$MAXACTVP
 70
    16
  9
$PINSBASE
 10
0.0
 20
0.0
 30
0.0
  9
$PLIMCHECK
 70
     0
  9
$PEXTMIN
 10
1.000000E+20
 20
1.000000E+20
 30
1.000000E+20
  9
$PEXTMAX
 10
-1.000000E+20
 20
-1.000000E+20
 30
-1.000000E+20
  9
$PLIMMIN
 10
0.0
 20
0.0
  9
$PLIMMAX
 10
420.0
 20
297.0
  9
$UNITMODE
 70
     0
  9
$VISRETAIN
 70
     0
  9
$PLINEGEN
 70
     0
  9
$PSLTSCALE
 70
     1
  9
$TREEDEPTH
 70
  3020
  9
$DWGCODEPAGE
  3
iso8859-1
  0
ENDSEC
  0
SECTION
  2
TABLES
  0
TABLE
  2
VPORT
 70
     2
  0
VPORT
  2
*ACTIVE
 70
     0
 10
0.0
 20
0.0
 11
1.0
 21
1.0
 12
1549.36506
 22
391.352635
 13
0.0
 23
0.0
 14
1.0
 24
1.0
 15
0.0
 25
0.0
 16
0.0
 26
0.0
 36
1.0
 17
0.0
 27
0.0
 37
0.0
 40
1266.573911
 41
1.748359
 42
50.0
 43
0.0
 44
0.0
 50
0.0
 51
0.0
 71
     0
 72
   100
 73
     1
 74
     0
 75
     0
 76
     0
 77
     0
 78
     0
  0
ENDTAB
  0
TABLE
  2
LTYPE
 70
     1
  0
LTYPE
  2
CONTINUOUS
 70
    64
  3
Solid line
 72
    65
 73
     0
 40
0.0
  0
ENDTAB
  0
TABLE
  2
LAYER
 70
     2
  0
LAYER
  2
0
 70
    64
 62
     7
  6
CONTINUOUS
  0
ENDTAB
  0
TABLE
  2
STYLE
 70
     1
  0
STYLE
  2
STANDARD
 70
     0
 40
0.0
 41
1.0
 50
0.0
 71
     0
 42
3.5
  3
txt
  4

  0
ENDTAB
  0
TABLE
  2
VIEW
 70
     0
  0
ENDTAB
  0
TABLE
  2
UCS
 70
     0
  0
ENDTAB
  0
TABLE
  2
APPID
 70
     1
  0
APPID
  2
ACAD
 70
    64
  0
ENDTAB
  0
TABLE
  2
DIMSTYLE
 70
     0
  0
ENDTAB
  0
ENDSEC
  0
SECTION
  2
BLOCKS
  0
ENDSEC
  0
SECTION
  2
ENTITIES
  0
LINE
  8
0
  6
CONTINUOUS
 10
1142.796701
 20
563.314412
 30
0.0
 11
1133.996701
 21
563.314412
 31
0.0
  0
LINE
  8
0
  6
CONTINUOUS
 10
1144.796701
 20
545.714412
 30
0.0
 11
1144.796701
 21
561.314412
 31
0.0
  0
LINE
  8
0
  6
CONTINUOUS
 10
1144.796701
 20
119.704611
 30
0.0
 11
1144.796701
 21
111.595894
 31
0.0
  0
LINE
  8
0
  6
CONTINUOUS
 10
1150.396701
 20
120.514412
 30
0.0
 11
1150.396701
 21
112.583325
 31
0.0
  0
LINE
  8
0
  6
CONTINUOUS
 10
1144.796701
 20
119.704611
 30
0.0
 11
1144.796701
 21
120.114412
 31
0.0
  0
LINE
  8
0
  6
CONTINUOUS
 10
935.596701
 20
198.914412
 30
0.0
 11
935.596701
 21
90.114412
 31
0.0
  0
LINE
  8
0
  6
CONTINUOUS
 10
935.596701
 20
318.914412
 30
0.0
 11
935.596701
 21
226.914412
 31
0.0
  0
LINE
  8
0
  6
CONTINUOUS
 10
935.596701
 20
438.914412
 30
0.0
 11
935.596701
 21
346.914412
 31
0.0
  0
LINE
  8
0
  6
CONTINUOUS
 10
935.596701
 20
575.714412
 30
0.0
 11
935.596701
 21
466.914412
 31
0.0
  0
LINE
  8
0
  6
CONTINUOUS
 10
939.596701
 20
442.914412
 30
0.0
 11
955.636903
 21
442.914412
 31
0.0
  0
LINE
  8
0
  6
CONTINUOUS
 10
939.196701
 20
449.314412
 30
0.0
 11
954.339847
 21
449.314412
 31
0.0
  0
LINE
  8
0
  6
CONTINUOUS
 10
958.582488
 20
439.071771
 30
0.0
 11
951.010915
 21
431.500198
 31
0.0
  0
LINE
  8
0
  6
CONTINUOUS
 10
947.596701
 20
432.914412
 30
0.0
 11
947.596701
 21
440.914412
 31
0.0
  0
LINE
  8
0
  6
CONTINUOUS
 10
951.010915
 20
442.328625
 30
0.0
 11
953.031016
 21
440.308524
 31
0.0
  0
LINE
  8
0
  6
CONTINUOUS
 10
953.031016
 20
440.308524
 30
0.0
 11
955.636903
 21
442.914412
 31
0.0
  0
LINE
  8
0
  6
CONTINUOUS
 10
955.636903
 20
462.914412
 30
0.0
 11
939.596701
 21
462.914412
 31
0.0
  0
LINE
  8
0
  6
CONTINUOUS
 10
954.339847
 20
456.514412
 30
0.0
 11
939.196701
 21
456.514412
 31
0.0
  0
LINE
  8
0
  6
CONTINUOUS
 10
951.010915
 20
474.328625
 30
0.0
 11
958.582488
 21
466.757053
 31
0.0
  0
LINE
  8
0
  6
CONTINUOUS
 10
947.596701
 20
464.914412
 30
0.0
 11
947.596701
 21
472.914412
 31
0.0
  0
LINE
  8
0
  6
CONTINUOUS
 10
953.031016
 20
465.520299
 30
0.0
 11
951.010915
 21
463.500198
 31
0.0
  0
LINE
  8
0
  6
CONTINUOUS
 10
955.636903
 20
462.914412
 30
0.0
 11
953.031016
 21
465.520299
 31
0.0
  0
LINE
  8
0
  6
CONTINUOUS
 10
939.596701
 20
202.914412
 30
0.0
 11
955.636903
 21
202.914412
 31
0.0
  0
LINE
  8
0
  6
CONTINUOUS
 10
939.196701
 20
209.314412
 30
0.0
 11
954.339847
 21
209.314412
 31
0.0
  0
LINE
  8
0
  6
CONTINUOUS
 10
958.582488
 20
199.071771
 30
0.0
 11
951.010915
 21
191.500198
 31
0.0
  0
LINE
  8
0
  6
CONTINUOUS
 10
947.596701
 20
192.914412
 30
0.0
 11
947.596701
 21
200.914412
 31
0.0
  0
LINE
  8
0
  6
CONTINUOUS
 10
951.010915
 20
202.328625
 30
0.0
 11
953.031016
 21
200.308524
 31
0.0
  0
LINE
  8
0
  6
CONTINUOUS
 10
953.031016
 20
200.308524
 30
0.0
 11
955.636903
 21
202.914412
 31
0.0
  0
LINE
  8
0
  6
CONTINUOUS
 10
955.636903
 20
222.914412
 30
0.0
 11
939.596701
 21
222.914412
 31
0.0
  0
LINE
  8
0
  6
CONTINUOUS
 10
954.339847
 20
216.514412
 30
0.0
 11
939.196701
 21
216.514412
 31
0.0
  0
LINE
  8
0
  6
CONTINUOUS
 10
951.010915
 20
234.328625
 30
0.0
 11
958.582488
 21
226.757053
 31
0.0
  0
LINE
  8
0
  6
CONTINUOUS
 10
947.596701
 20
224.914412
 30
0.0
 11
947.596701
 21
232.914412
 31
0.0
  0
LINE
  8
0
  6
CONTINUOUS
 10
953.031016
 20
225.520299
 30
0.0
 11
951.010915
 21
223.500198
 31
0.0
  0
LINE
  8
0
  6
CONTINUOUS
 10
955.636903
 20
222.914412
 30
0.0
 11
953.031016
 21
225.520299
 31
0.0
  0
LINE
  8
0
  6
CONTINUOUS
 10
926.396701
 20
80.914412
 30
0.0
 11
926.396701
 21
584.914412
 31
0.0
  0
LINE
  8
0
  6
CONTINUOUS
 10
1115.777899
 20
72.914412
 30
0.0
 11
934.396701
 21
72.914412
 31
0.0
  0
LINE
  8
0
  6
CONTINUOUS
 10
1126.396701
 20
564.122107
 30
0.0
 11
1126.396701
 21
542.114412
 31
0.0
  0
LINE
  8
0
  6
CONTINUOUS
 10
1117.39448
 20
579.714412
 30
0.0
 11
1126.396701
 21
564.122107
 31
0.0
  0
LINE
  8
0
  6
CONTINUOUS
 10
1126.396701
 20
101.706717
 30
0.0
 11
1126.396701
 21
123.714412
 31
0.0
  0
LINE
  8
0
  6
CONTINUOUS
 10
1117.39448
 20
86.114412
 30
0.0
 11
1126.396701
 21
101.706717
 31
0.0
  0
LINE
  8
0
  6
CONTINUOUS
 10
1133.098407
 20
570.914412
 30
0.0
 11
1122.706102
 21
588.914412
 31
0.0
  0
LINE
  8
0
  6
CONTINUOUS
 10
1136.591385
 20
568.914412
 30
0.0
 11
1136.562509
 21
568.914412
 31
0.0
  0
LINE
  8
0
  6
CONTINUOUS
 10
1122.706102
 20
76.914412
 30
0.0
 11
1133.098407
 21
94.914412
 31
0.0
  0
LINE
  8
0
  6
CONTINUOUS
 10
1150.396701
 20
120.514412
 30
0.0
 11
1150.396701
 21
123.714412
 31
0.0
  0
LINE
  8
0
  6
CONTINUOUS
 10
1150.396701
 20
542.114412
 30
0.0
 11
1150.396701
 21
561.314412
 31
0.0
  0
LINE
  8
0
  6
CONTINUOUS
 10
1131.996701
 20
561.314412
 30
0.0
 11
1131.996701
 21
545.714412
 31
0.0
  0
LINE
  8
0
  6
CONTINUOUS
 10
1133.996701
 20
543.714412
 30
0.0
 11
1142.796701
 21
543.714412
 31
0.0
  0
LINE
  8
0
  6
CONTINUOUS
 10
1130.396701
 20
538.114412
 30
0.0
 11
1146.396701
 21
538.114412
 31
0.0
  0
LINE
  8
0
  6
CONTINUOUS
 10
1136.591385
 20
568.914412
 30
0.0
 11
1150.796701
 21
568.914412
 31
0.0
  0
LINE
  8
0
  6
CONTINUOUS
 10
1152.796701
 20
570.914412
 30
0.0
 11
1152.796701
 21
572.114412
 31
0.0
  0
LINE
  8
0
  6
CONTINUOUS
 10
1158.396701
 20
572.114412
 30
0.0
 11
1158.396701
 21
565.314412
 31
0.0
  0
LINE
  8
0
  6
CONTINUOUS
 10
1156.396701
 20
563.314412
 30
0.0
 11
1152.396701
 21
563.314412
 31
0.0
  0
LINE
  8
0
  6
CONTINUOUS
 10
943.596701
 20
583.714412
 30
0.0
 11
1110.466277
 21
583.714412
 31
0.0
  0
LINE
  8
0
  6
CONTINUOUS
 10
934.396701
 20
592.914412
 30
0.0
 11
1115.777899
 21
592.914412
 31
0.0
  0
LINE
  8
0
  6
CONTINUOUS
 10
1131.996701
 20
104.514412
 30
0.0
 11
1131.996701
 21
120.114412
 31
0.0
  0
LINE
  8
0
  6
CONTINUOUS
 10
1142.796701
 20
122.114412
 30
0.0
 11
1133.996701
 21
122.114412
 31
0.0
  0
LINE
  8
0
  6
CONTINUOUS
 10
1144.796701
 20
104.514412
 30
0.0
 11
1144.796701
 21
111.595894
 31
0.0
  0
LINE
  8
0
  6
CONTINUOUS
 10
1146.396701
 20
127.714412
 30
0.0
 11
1130.396701
 21
127.714412
 31
0.0
  0
LINE
  8
0
  6
CONTINUOUS
 10
1150.396701
 20
104.514412
 30
0.0
 11
1150.396701
 21
112.583325
 31
0.0
  0
LINE
  8
0
  6
CONTINUOUS
 10
1150.796701
 20
96.914412
 30
0.0
 11
1136.562509
 21
96.914412
 31
0.0
  0
LINE
  8
0
  6
CONTINUOUS
 10
1152.796701
 20
93.714412
 30
0.0
 11
1152.796701
 21
94.914412
 31
0.0
  0
LINE
  8
0
  6
CONTINUOUS
 10
1144.396701
 20
79.714412
 30
0.0
 11
1141.996701
 21
79.714412
 31
0.0
  0
LINE
  8
0
  6
CONTINUOUS
 10
1158.396701
 20
100.514412
 30
0.0
 11
1158.396701
 21
93.714412
 31
0.0
  0
LINE
  8
0
  6
CONTINUOUS
 10
1152.396701
 20
102.514412
 30
0.0
 11
1156.396701
 21
102.514412
 31
0.0
  0
LINE
  8
0
  6
CONTINUOUS
 10
1142.796701
 20
102.514412
 30
0.0
 11
1133.996701
 21
102.514412
 31
0.0
  0
LINE
  8
0
  6
CONTINUOUS
 10
939.596701
 20
322.914412
 30
0.0
 11
955.636903
 21
322.914412
 31
0.0
  0
LINE
  8
0
  6
CONTINUOUS
 10
939.196701
 20
329.314412
 30
0.0
 11
954.339847
 21
329.314412
 31
0.0
  0
LINE
  8
0
  6
CONTINUOUS
 10
958.582488
 20
319.071771
 30
0.0
 11
951.010915
 21
311.500198
 31
0.0
  0
LINE
  8
0
  6
CONTINUOUS
 10
947.596701
 20
312.914412
 30
0.0
 11
947.596701
 21
320.914412
 31
0.0
  0
LINE
  8
0
  6
CONTINUOUS
 10
951.010915
 20
322.328625
 30
0.0
 11
953.031016
 21
320.308524
 31
0.0
  0
LINE
  8
0
  6
CONTINUOUS
 10
953.031016
 20
320.308524
 30
0.0
 11
955.636903
 21
322.914412
 31
0.0
  0
LINE
  8
0
  6
CONTINUOUS
 10
955.636903
 20
342.914412
 30
0.0
 11
939.596701
 21
342.914412
 31
0.0
  0
LINE
  8
0
  6
CONTINUOUS
 10
954.339847
 20
336.514412
 30
0.0
 11
939.196701
 21
336.514412
 31
0.0
  0
LINE
  8
0
  6
CONTINUOUS
 10
951.010915
 20
354.328625
 30
0.0
 11
958.582488
 21
346.757053
 31
0.0
  0
LINE
  8
0
  6
CONTINUOUS
 10
947.596701
 20
344.914412
 30
0.0
 11
947.596701
 21
352.914412
 31
0.0
  0
LINE
  8
0
  6
CONTINUOUS
 10
953.031016
 20
345.520299
 30
0.0
 11
951.010915
 21
343.500198
 31
0.0
  0
LINE
  8
0
  6
CONTINUOUS
 10
955.636903
 20
342.914412
 30
0.0
 11
953.031016
 21
345.520299
 31
0.0
  0
LINE
  8
0
  6
CONTINUOUS
 10
943.596701
 20
82.114412
 30
0.0
 11
1110.466277
 21
82.114412
 31
0.0
  0
LINE
  8
0
  6
CONTINUOUS
 10
1144.396701
 20
85.314412
 30
0.0
 11
1141.996701
 21
85.314412
 31
0.0
  0
LINE
  8
0
  6
CONTINUOUS
 10
1144.396701
 20
586.114412
 30
0.0
 11
1141.996701
 21
586.114412
 31
0.0
  0
LINE
  8
0
  6
CONTINUOUS
 10
1144.396701
 20
580.514412
 30
0.0
 11
1141.996701
 21
580.514412
 31
0.0
  0
LINE
  8
0
  6
CONTINUOUS
 10
1128.239779
 20
86.114412
 30
0.0
 11
1126.507728
 21
83.114412
 31
0.0
  0
ARC
  8
0
  6
CONTINUOUS
 10
954.339847
 20
443.314412
 30
0.0
 40
6.0
 50
315.0
 51
90.0
  0
ARC
  8
0
  6
CONTINUOUS
 10
949.596701
 20
432.914412
 30
0.0
 40
2.0
 50
270.0
 51
315.0
  0
ARC
  8
0
  6
CONTINUOUS
 10
949.596701
 20
440.914412
 30
0.0
 40
2.0
 50
45.0
 51
180.0
  0
ARC
  8
0
  6
CONTINUOUS
 10
954.339847
 20
462.514412
 30
0.0
 40
6.0
 50
270.0
 51
45.0
  0
ARC
  8
0
  6
CONTINUOUS
 10
949.596701
 20
472.914412
 30
0.0
 40
2.0
 50
90.0
 51
180.0
  0
ARC
  8
0
  6
CONTINUOUS
 10
949.596701
 20
464.914412
 30
0.0
 40
2.0
 50
180.0
 51
315.0
  0
ARC
  8
0
  6
CONTINUOUS
 10
949.596701
 20
472.914412
 30
0.0
 40
2.0
 50
45.0
 51
90.0
  0
ARC
  8
0
  6
CONTINUOUS
 10
949.596701
 20
432.914412
 30
0.0
 40
2.0
 50
180.0
 51
270.0
  0
ARC
  8
0
  6
CONTINUOUS
 10
954.339847
 20
203.314412
 30
0.0
 40
6.0
 50
315.0
 51
90.0
  0
ARC
  8
0
  6
CONTINUOUS
 10
949.596701
 20
192.914412
 30
0.0
 40
2.0
 50
270.0
 51
315.0
  0
ARC
  8
0
  6
CONTINUOUS
 10
949.596701
 20
200.914412
 30
0.0
 40
2.0
 50
45.0
 51
180.0
  0
ARC
  8
0
  6
CONTINUOUS
 10
954.339847
 20
222.514412
 30
0.0
 40
6.0
 50
270.0
 51
45.0
  0
ARC
  8
0
  6
CONTINUOUS
 10
949.596701
 20
232.914412
 30
0.0
 40
2.0
 50
90.0
 51
180.0
  0
ARC
  8
0
  6
CONTINUOUS
 10
949.596701
 20
224.914412
 30
0.0
 40
2.0
 50
180.0
 51
315.0
  0
ARC
  8
0
  6
CONTINUOUS
 10
949.596701
 20
232.914412
 30
0.0
 40
2.0
 50
45.0
 51
90.0
  0
ARC
  8
0
  6
CONTINUOUS
 10
949.596701
 20
192.914412
 30
0.0
 40
2.0
 50
180.0
 51
270.0
  0
ARC
  8
0
  6
CONTINUOUS
 10
954.339847
 20
323.314412
 30
0.0
 40
6.0
 50
315.0
 51
90.0
  0
ARC
  8
0
  6
CONTINUOUS
 10
949.596701
 20
312.914412
 30
0.0
 40
2.0
 50
270.0
 51
315.0
  0
ARC
  8
0
  6
CONTINUOUS
 10
949.596701
 20
320.914412
 30
0.0
 40
2.0
 50
45.0
 51
180.0
  0
ARC
  8
0
  6
CONTINUOUS
 10
954.339847
 20
342.514412
 30
0.0
 40
6.0
 50
270.0
 51
45.0
  0
ARC
  8
0
  6
CONTINUOUS
 10
949.596701
 20
352.914412
 30
0.0
 40
2.0
 50
90.0
 51
180.0
  0
ARC
  8
0
  6
CONTINUOUS
 10
949.596701
 20
344.914412
 30
0.0
 40
2.0
 50
180.0
 51
315.0
  0
ARC
  8
0
  6
CONTINUOUS
 10
949.596701
 20
352.914412
 30
0.0
 40
2.0
 50
45.0
 51
90.0
  0
ARC
  8
0
  6
CONTINUOUS
 10
949.596701
 20
312.914412
 30
0.0
 40
2.0
 50
180.0
 51
270.0
  0
ARC
  8
0
  6
CONTINUOUS
 10
1142.796701
 20
561.314412
 30
0.0
 40
2.0
 50
0.0
 51
90.0
  0
ARC
  8
0
  6
CONTINUOUS
 10
939.196701
 20
452.914412
 30
0.0
 40
3.6
 50
90.0
 51
270.0
  0
ARC
  8
0
  6
CONTINUOUS
 10
939.596701
 20
466.914412
 30
0.0
 40
4.0
 50
180.0
 51
270.0
  0
ARC
  8
0
  6
CONTINUOUS
 10
939.596701
 20
438.914412
 30
0.0
 40
4.0
 50
90.0
 51
180.0
  0
ARC
  8
0
  6
CONTINUOUS
 10
939.196701
 20
212.914412
 30
0.0
 40
3.6
 50
90.0
 51
270.0
  0
ARC
  8
0
  6
CONTINUOUS
 10
939.596701
 20
226.914412
 30
0.0
 40
4.0
 50
180.0
 51
270.0
  0
ARC
  8
0
  6
CONTINUOUS
 10
939.596701
 20
198.914412
 30
0.0
 40
4.0
 50
90.0
 51
180.0
  0
ARC
  8
0
  6
CONTINUOUS
 10
934.396701
 20
80.914412
 30
0.0
 40
8.0
 50
180.0
 51
270.0
  0
ARC
  8
0
  6
CONTINUOUS
 10
934.396701
 20
584.914412
 30
0.0
 40
8.0
 50
90.0
 51
180.0
  0
ARC
  8
0
  6
CONTINUOUS
 10
1110.466277
 20
575.714412
 30
0.0
 40
8.0
 50
30.0
 51
90.0
  0
ARC
  8
0
  6
CONTINUOUS
 10
1110.466277
 20
90.114412
 30
0.0
 40
8.0
 50
270.0
 51
330.0
  0
ARC
  8
0
  6
CONTINUOUS
 10
1136.562509
 20
572.914412
 30
0.0
 40
4.0
 50
210.0
 51
270.0
  0
ARC
  8
0
  6
CONTINUOUS
 10
1115.777899
 20
584.914412
 30
0.0
 40
8.0
 50
30.0
 51
90.0
  0
ARC
  8
0
  6
CONTINUOUS
 10
1136.562509
 20
92.914412
 30
0.0
 40
4.0
 50
90.0
 51
150.0
  0
ARC
  8
0
  6
CONTINUOUS
 10
1115.777899
 20
80.914412
 30
0.0
 40
8.0
 50
270.0
 51
330.0
  0
ARC
  8
0
  6
CONTINUOUS
 10
1133.996701
 20
545.714412
 30
0.0
 40
2.0
 50
180.0
 51
270.0
  0
ARC
  8
0
  6
CONTINUOUS
 10
1142.796701
 20
545.714412
 30
0.0
 40
2.0
 50
270.0
 51
0.0
  0
ARC
  8
0
  6
CONTINUOUS
 10
1133.996701
 20
120.114412
 30
0.0
 40
2.0
 50
90.0
 51
180.0
  0
ARC
  8
0
  6
CONTINUOUS
 10
1142.796701
 20
120.114412
 30
0.0
 40
2.0
 50
0.0
 51
90.0
  0
ARC
  8
0
  6
CONTINUOUS
 10
1141.996701
 20
583.314412
 30
0.0
 40
2.8
 50
180.0
 51
270.0
  0
ARC
  8
0
  6
CONTINUOUS
 10
1141.996701
 20
583.314412
 30
0.0
 40
2.8
 50
90.0
 51
180.0
  0
ARC
  8
0
  6
CONTINUOUS
 10
1150.796701
 20
570.914412
 30
0.0
 40
2.0
 50
270.0
 51
0.0
  0
ARC
  8
0
  6
CONTINUOUS
 10
1144.396701
 20
572.114412
 30
0.0
 40
8.4
 50
0.0
 51
90.0
  0
ARC
  8
0
  6
CONTINUOUS
 10
1144.396701
 20
572.114412
 30
0.0
 40
14.0
 50
0.0
 51
90.0
  0
ARC
  8
0
  6
CONTINUOUS
 10
1146.396701
 20
542.114412
 30
0.0
 40
4.0
 50
270.0
 51
0.0
  0
ARC
  8
0
  6
CONTINUOUS
 10
1130.396701
 20
542.114412
 30
0.0
 40
4.0
 50
180.0
 51
270.0
  0
ARC
  8
0
  6
CONTINUOUS
 10
1156.396701
 20
565.314412
 30
0.0
 40
2.0
 50
270.0
 51
0.0
  0
ARC
  8
0
  6
CONTINUOUS
 10
1152.396701
 20
561.314412
 30
0.0
 40
2.0
 50
90.0
 51
180.0
  0
ARC
  8
0
  6
CONTINUOUS
 10
1133.996701
 20
561.314412
 30
0.0
 40
2.0
 50
90.0
 51
180.0
  0
ARC
  8
0
  6
CONTINUOUS
 10
943.596701
 20
575.714412
 30
0.0
 40
8.0
 50
90.0
 51
180.0
  0
ARC
  8
0
  6
CONTINUOUS
 10
1141.996701
 20
82.514412
 30
0.0
 40
2.8
 50
90.0
 51
180.0
  0
ARC
  8
0
  6
CONTINUOUS
 10
1141.996701
 20
82.514412
 30
0.0
 40
2.8
 50
180.0
 51
270.0
  0
ARC
  8
0
  6
CONTINUOUS
 10
1150.796701
 20
94.914412
 30
0.0
 40
2.0
 50
0.0
 51
90.0
  0
ARC
  8
0
  6
CONTINUOUS
 10
1144.396701
 20
93.714412
 30
0.0
 40
8.4
 50
270.0
 51
0.0
  0
ARC
  8
0
  6
CONTINUOUS
 10
1144.396701
 20
93.714412
 30
0.0
 40
14.0
 50
270.0
 51
0.0
  0
ARC
  8
0
  6
CONTINUOUS
 10
1146.396701
 20
123.714412
 30
0.0
 40
4.0
 50
0.0
 51
90.0
  0
ARC
  8
0
  6
CONTINUOUS
 10
1130.396701
 20
123.714412
 30
0.0
 40
4.0
 50
90.0
 51
180.0
  0
ARC
  8
0
  6
CONTINUOUS
 10
1156.396701
 20
100.514412
 30
0.0
 40
2.0
 50
0.0
 51
90.0
  0
ARC
  8
0
  6
CONTINUOUS
 10
1152.396701
 20
104.514412
 30
0.0
 40
2.0
 50
180.0
 51
270.0
  0
ARC
  8
0
  6
CONTINUOUS
 10
1142.796701
 20
104.514412
 30
0.0
 40
2.0
 50
270.0
 51
0.0
  0
ARC
  8
0
  6
CONTINUOUS
 10
1133.996701
 20
104.514412
 30
0.0
 40
2.0
 50
180.0
 51
270.0
  0
ARC
  8
0
  6
CONTINUOUS
 10
939.196701
 20
332.914412
 30
0.0
 40
3.6
 50
90.0
 51
270.0
  0
ARC
  8
0
  6
CONTINUOUS
 10
939.596701
 20
346.914412
 30
0.0
 40
4.0
 50
180.0
 51
270.0
  0
ARC
  8
0
  6
CONTINUOUS
 10
939.596701
 20
318.914412
 30
0.0
 40
4.0
 50
90.0
 51
180.0
  0
ARC
  8
0
  6
CONTINUOUS
 10
943.596701
 20
90.114412
 30
0.0
 40
8.0
 50
180.0
 51
270.0
  0
LINE
  8
0
  6
CONTINUOUS
 10
1033.597308
 20
344.711432
 30
0.0
 11
1033.597308
 21
321.480674
 31
0.0
  0
LINE
  8
0
  6
CONTINUOUS
 10
1126.005407
 20
472.161821
 30
0.0
 11
1041.457689
 21
470.686035
 31
0.0
  0
LINE
  8
0
  6
CONTINUOUS
 10
1127.278275
 20
194.008066
 30
0.0
 11
1041.457689
 21
195.50607
 31
0.0
  0
LINE
  8
0
  6
CONTINUOUS
 10
1033.597308
 20
442.733185
 30
0.0
 11
1033.597308
 21
421.480674
 31
0.0
  0
LINE
  8
0
  6
CONTINUOUS
 10
1117.196701
 20
410.558483
 30
0.0
 11
1055.597308
 21
411.096053
 31
0.0
  0
LINE
  8
0
  6
CONTINUOUS
 10
1117.196701
 20
415.633623
 30
0.0
 11
1055.597308
 21
415.096053
 31
0.0
  0
LINE
  8
0
  6
CONTINUOUS
 10
1117.196701
 20
352.558483
 30
0.0
 11
1055.597308
 21
353.096053
 31
0.0
  0
LINE
  8
0
  6
CONTINUOUS
 10
1117.196701
 20
313.633623
 30
0.0
 11
1055.597308
 21
313.096053
 31
0.0
  0
LINE
  8
0
  6
CONTINUOUS
 10
1117.196701
 20
255.633623
 30
0.0
 11
1055.597308
 21
255.096053
 31
0.0
  0
LINE
  8
0
  6
CONTINUOUS
 10
1033.597308
 20
251.053453
 30
0.0
 11
1033.597308
 21
244.711432
 31
0.0
  0
LINE
  8
0
  6
CONTINUOUS
 10
1055.597308
 20
251.096053
 30
0.0
 11
1033.597308
 21
251.053453
 31
0.0
  0
LINE
  8
0
  6
CONTINUOUS
 10
1033.597308
 20
415.096053
 30
0.0
 11
1033.597308
 21
421.480674
 31
0.0
  0
LINE
  8
0
  6
CONTINUOUS
 10
1055.597308
 20
415.096053
 30
0.0
 11
1033.597308
 21
415.096053
 31
0.0
  0
LINE
  8
0
  6
CONTINUOUS
 10
1033.597308
 20
353.096053
 30
0.0
 11
1055.597308
 21
353.096053
 31
0.0
  0
LINE
  8
0
  6
CONTINUOUS
 10
1033.597308
 20
344.711432
 30
0.0
 11
1033.597308
 21
353.096053
 31
0.0
  0
LINE
  8
0
  6
CONTINUOUS
 10
1033.597308
 20
313.096053
 30
0.0
 11
1033.597308
 21
321.480674
 31
0.0
  0
LINE
  8
0
  6
CONTINUOUS
 10
1055.597308
 20
313.096053
 30
0.0
 11
1033.597308
 21
313.096053
 31
0.0
  0
LINE
  8
0
  6
CONTINUOUS
 10
1029.667118
 20
248.710823
 30
0.0
 11
1015.457689
 21
248.958849
 31
0.0
  0
LINE
  8
0
  6
CONTINUOUS
 10
1015.457689
 20
317.233256
 30
0.0
 11
1029.667118
 21
317.481283
 31
0.0
  0
LINE
  8
0
  6
CONTINUOUS
 10
1007.597308
 20
309.234475
 30
0.0
 11
1007.597308
 21
256.957631
 31
0.0
  0
LINE
  8
0
  6
CONTINUOUS
 10
1007.597308
 20
356.957631
 30
0.0
 11
1007.597308
 21
409.234475
 31
0.0
  0
LINE
  8
0
  6
CONTINUOUS
 10
1029.667118
 20
417.481283
 30
0.0
 11
1015.457689
 21
417.233256
 31
0.0
  0
LINE
  8
0
  6
CONTINUOUS
 10
1015.457689
 20
348.958849
 30
0.0
 11
1029.667118
 21
348.710823
 31
0.0
  0
LINE
  8
0
  6
CONTINUOUS
 10
1033.597308
 20
222.649804
 30
0.0
 11
1033.597308
 21
244.711432
 31
0.0
  0
LINE
  8
0
  6
CONTINUOUS
 10
1055.597308
 20
415.096053
 30
0.0
 11
1055.597308
 21
411.096053
 31
0.0
  0
LINE
  8
0
  6
CONTINUOUS
 10
1055.597308
 20
353.096053
 30
0.0
 11
1055.597308
 21
357.096053
 31
0.0
  0
LINE
  8
0
  6
CONTINUOUS
 10
1055.597308
 20
251.096053
 30
0.0
 11
1055.597308
 21
255.096053
 31
0.0
  0
LINE
  8
0
  6
CONTINUOUS
 10
1055.597308
 20
313.096053
 30
0.0
 11
1055.597308
 21
309.096053
 31
0.0
  0
LINE
  8
0
  6
CONTINUOUS
 10
1055.597308
 20
309.096053
 30
0.0
 11
1117.196701
 21
308.558483
 31
0.0
  0
LINE
  8
0
  6
CONTINUOUS
 10
1055.597308
 20
357.096053
 30
0.0
 11
1117.196701
 21
357.633623
 31
0.0
  0
LINE
  8
0
  6
CONTINUOUS
 10
1041.646808
 20
223.500942
 30
0.0
 11
1041.597308
 21
223.501806
 31
0.0
  0
LINE
  8
0
  6
CONTINUOUS
 10
1055.597308
 20
251.096053
 30
0.0
 11
1117.196701
 21
250.558483
 31
0.0
  0
LINE
  8
0
  6
CONTINUOUS
 10
1041.646808
 20
442.691164
 30
0.0
 11
1041.597308
 21
442.6903
 31
0.0
  0
ARC
  8
0
  6
CONTINUOUS
 10
1029.597308
 20
244.711432
 30
0.0
 40
4.0
 50
0.0
 51
89.0
  0
ARC
  8
0
  6
CONTINUOUS
 10
1029.597308
 20
421.480674
 30
0.0
 40
4.0
 50
271.0
 51
0.0
  0
ARC
  8
0
  6
CONTINUOUS
 10
1029.597308
 20
321.480674
 30
0.0
 40
4.0
 50
271.0
 51
0.0
  0
ARC
  8
0
  6
CONTINUOUS
 10
1029.597308
 20
344.711432
 30
0.0
 40
4.0
 50
0.0
 51
89.0
  0
ARC
  8
0
  6
CONTINUOUS
 10
1041.597308
 20
462.687254
 30
0.0
 40
8.0
 50
91.0
 51
180.0
  0
ARC
  8
0
  6
CONTINUOUS
 10
1015.597308
 20
409.234475
 30
0.0
 40
8.0
 50
91.0
 51
180.0
  0
ARC
  8
0
  6
CONTINUOUS
 10
1015.597308
 20
356.957631
 30
0.0
 40
8.0
 50
180.0
 51
269.0
  0
ARC
  8
0
  6
CONTINUOUS
 10
1015.597308
 20
309.234475
 30
0.0
 40
8.0
 50
91.0
 51
180.0
  0
ARC
  8
0
  6
CONTINUOUS
 10
1015.597308
 20
256.957631
 30
0.0
 40
8.0
 50
180.0
 51
269.0
  0
ARC
  8
0
  6
CONTINUOUS
 10
1041.597308
 20
203.504852
 30
0.0
 40
8.0
 50
185.535261
 51
269.0
  0
LINE
  8
0
  6
CONTINUOUS
 10
1117.196701
 20
217.040026
 30
0.0
 11
1108.352951
 21
222.146482
 31
0.0
  0
LINE
  8
0
  6
CONTINUOUS
 10
1117.352296
 20
208.466622
 30
0.0
 11
1108.352951
 21
203.270325
 31
0.0
  0
LINE
  8
0
  6
CONTINUOUS
 10
965.31179
 20
220.03328
 30
0.0
 11
947.080836
 21
238.257083
 31
0.0
  0
LINE
  8
0
  6
CONTINUOUS
 10
947.080836
 20
238.257083
 30
0.0
 11
965.31179
 21
220.03328
 31
0.0
  0
LINE
  8
0
  6
CONTINUOUS
 10
1003.440738
 20
206.725179
 30
0.0
 11
1003.432792
 21
206.725179
 31
0.0
  0
LINE
  8
0
  6
CONTINUOUS
 10
1003.432792
 20
206.725179
 30
0.0
 11
1003.087147
 21
206.740276
 31
0.0
  0
LINE
  8
0
  6
CONTINUOUS
 10
1003.087147
 20
206.740276
 30
0.0
 11
1002.741503
 21
206.786362
 31
0.0
  0
LINE
  8
0
  6
CONTINUOUS
 10
1002.741503
 20
206.786362
 30
0.0
 11
1002.403804
 21
206.855491
 31
0.0
  0
LINE
  8
0
  6
CONTINUOUS
 10
1002.403804
 20
206.855491
 30
0.0
 11
1002.741503
 21
206.786362
 31
0.0
  0
LINE
  8
0
  6
CONTINUOUS
 10
1002.741503
 20
206.786362
 30
0.0
 11
1003.087147
 21
206.740276
 31
0.0
  0
LINE
  8
0
  6
CONTINUOUS
 10
1003.087147
 20
206.740276
 30
0.0
 11
1003.440738
 21
206.725179
 31
0.0
  0
LINE
  8
0
  6
CONTINUOUS
 10
1002.403804
 20
206.855491
 30
0.0
 11
1002.074052
 21
206.96276
 31
0.0
  0
LINE
  8
0
  6
CONTINUOUS
 10
1002.074052
 20
206.96276
 30
0.0
 11
1002.403804
 21
206.855491
 31
0.0
  0
LINE
  8
0
  6
CONTINUOUS
 10
1002.074052
 20
206.96276
 30
0.0
 11
1001.75145
 21
207.093072
 31
0.0
  0
LINE
  8
0
  6
CONTINUOUS
 10
1001.75145
 20
207.093072
 30
0.0
 11
1002.074052
 21
206.96276
 31
0.0
  0
LINE
  8
0
  6
CONTINUOUS
 10
1001.75145
 20
207.093072
 30
0.0
 11
1001.444741
 21
207.254373
 31
0.0
  0
LINE
  8
0
  6
CONTINUOUS
 10
1001.444741
 20
207.254373
 30
0.0
 11
1001.75145
 21
207.093072
 31
0.0
  0
LINE
  8
0
  6
CONTINUOUS
 10
1001.444741
 20
207.254373
 30
0.0
 11
1001.145182
 21
207.446662
 31
0.0
  0
LINE
  8
0
  6
CONTINUOUS
 10
1001.145182
 20
207.446662
 30
0.0
 11
1001.444741
 21
207.254373
 31
0.0
  0
LINE
  8
0
  6
CONTINUOUS
 10
1001.145182
 20
207.446662
 30
0.0
 11
1000.868667
 21
207.653254
 31
0.0
  0
LINE
  8
0
  6
CONTINUOUS
 10
1000.868667
 20
207.653254
 30
0.0
 11
1001.145182
 21
207.446662
 31
0.0
  0
LINE
  8
0
  6
CONTINUOUS
 10
1000.868667
 20
207.653254
 30
0.0
 11
1000.615194
 21
207.89163
 31
0.0
  0
LINE
  8
0
  6
CONTINUOUS
 10
1000.615194
 20
207.89163
 30
0.0
 11
1000.868667
 21
207.653254
 31
0.0
  0
LINE
  8
0
  6
CONTINUOUS
 10
1000.615194
 20
207.89163
 30
0.0
 11
1000.377613
 21
208.145102
 31
0.0
  0
LINE
  8
0
  6
CONTINUOUS
 10
1000.377613
 20
208.145102
 30
0.0
 11
1000.615194
 21
207.89163
 31
0.0
  0
LINE
  8
0
  6
CONTINUOUS
 10
1000.377613
 20
208.145102
 30
0.0
 11
1000.170226
 21
208.421618
 31
0.0
  0
LINE
  8
0
  6
CONTINUOUS
 10
1000.170226
 20
208.421618
 30
0.0
 11
1000.377613
 21
208.145102
 31
0.0
  0
LINE
  8
0
  6
CONTINUOUS
 10
1000.170226
 20
208.421618
 30
0.0
 11
999.978732
 21
208.720382
 31
0.0
  0
LINE
  8
0
  6
CONTINUOUS
 10
999.978732
 20
208.720382
 30
0.0
 11
1000.170226
 21
208.421618
 31
0.0
  0
LINE
  8
0
  6
CONTINUOUS
 10
999.978732
 20
208.720382
 30
0.0
 11
999.817431
 21
209.027886
 31
0.0
  0
LINE
  8
0
  6
CONTINUOUS
 10
999.817431
 20
209.027886
 30
0.0
 11
999.978732
 21
208.720382
 31
0.0
  0
LINE
  8
0
  6
CONTINUOUS
 10
999.817431
 20
209.027886
 30
0.0
 11
999.686324
 21
209.350488
 31
0.0
  0
LINE
  8
0
  6
CONTINUOUS
 10
999.686324
 20
209.350488
 30
0.0
 11
999.817431
 21
209.027886
 31
0.0
  0
LINE
  8
0
  6
CONTINUOUS
 10
999.686324
 20
209.350488
 30
0.0
 11
999.579055
 21
209.68024
 31
0.0
  0
LINE
  8
0
  6
CONTINUOUS
 10
999.579055
 20
209.68024
 30
0.0
 11
999.686324
 21
209.350488
 31
0.0
  0
LINE
  8
0
  6
CONTINUOUS
 10
999.579055
 20
209.68024
 30
0.0
 11
999.509926
 21
210.017939
 31
0.0
  0
LINE
  8
0
  6
CONTINUOUS
 10
999.509926
 20
210.017939
 30
0.0
 11
999.579055
 21
209.68024
 31
0.0
  0
LINE
  8
0
  6
CONTINUOUS
 10
999.509926
 20
210.017939
 30
0.0
 11
999.463841
 21
210.363583
 31
0.0
  0
LINE
  8
0
  6
CONTINUOUS
 10
999.463841
 20
210.363583
 30
0.0
 11
999.509926
 21
210.017939
 31
0.0
  0
LINE
  8
0
  6
CONTINUOUS
 10
999.463841
 20
210.363583
 30
0.0
 11
999.448743
 21
210.708433
 31
0.0
  0
LINE
  8
0
  6
CONTINUOUS
 10
999.448743
 20
210.708433
 30
0.0
 11
999.448743
 21
210.716379
 31
0.0
  0
LINE
  8
0
  6
CONTINUOUS
 10
999.448743
 20
210.716379
 30
0.0
 11
999.463841
 21
210.363583
 31
0.0
  0
LINE
  8
0
  6
CONTINUOUS
 10
999.448743
 20
214.700427
 30
0.0
 11
999.463841
 21
215.054018
 31
0.0
  0
LINE
  8
0
  6
CONTINUOUS
 10
999.463841
 20
215.054018
 30
0.0
 11
999.448743
 21
214.708373
 31
0.0
  0
LINE
  8
0
  6
CONTINUOUS
 10
999.463841
 20
215.054018
 30
0.0
 11
999.509926
 21
215.398867
 31
0.0
  0
LINE
  8
0
  6
CONTINUOUS
 10
999.509926
 20
215.398867
 30
0.0
 11
999.463841
 21
215.054018
 31
0.0
  0
LINE
  8
0
  6
CONTINUOUS
 10
999.509926
 20
215.398867
 30
0.0
 11
999.579055
 21
215.736566
 31
0.0
  0
LINE
  8
0
  6
CONTINUOUS
 10
999.579055
 20
215.736566
 30
0.0
 11
999.509926
 21
215.398867
 31
0.0
  0
LINE
  8
0
  6
CONTINUOUS
 10
999.579055
 20
215.736566
 30
0.0
 11
999.686324
 21
216.067113
 31
0.0
  0
LINE
  8
0
  6
CONTINUOUS
 10
999.686324
 20
216.067113
 30
0.0
 11
999.579055
 21
215.736566
 31
0.0
  0
LINE
  8
0
  6
CONTINUOUS
 10
999.686324
 20
216.067113
 30
0.0
 11
999.817431
 21
216.389715
 31
0.0
  0
LINE
  8
0
  6
CONTINUOUS
 10
999.817431
 20
216.389715
 30
0.0
 11
999.686324
 21
216.067113
 31
0.0
  0
LINE
  8
0
  6
CONTINUOUS
 10
999.817431
 20
216.389715
 30
0.0
 11
999.978732
 21
216.696424
 31
0.0
  0
LINE
  8
0
  6
CONTINUOUS
 10
999.978732
 20
216.696424
 30
0.0
 11
999.817431
 21
216.389715
 31
0.0
  0
LINE
  8
0
  6
CONTINUOUS
 10
999.978732
 20
216.696424
 30
0.0
 11
1000.170226
 21
216.995983
 31
0.0
  0
LINE
  8
0
  6
CONTINUOUS
 10
1000.170226
 20
216.995983
 30
0.0
 11
999.978732
 21
216.696424
 31
0.0
  0
LINE
  8
0
  6
CONTINUOUS
 10
1000.170226
 20
216.995983
 30
0.0
 11
1000.377613
 21
217.271704
 31
0.0
  0
LINE
  8
0
  6
CONTINUOUS
 10
1000.377613
 20
217.271704
 30
0.0
 11
1000.170226
 21
216.995983
 31
0.0
  0
LINE
  8
0
  6
CONTINUOUS
 10
1000.377613
 20
217.271704
 30
0.0
 11
1000.615194
 21
217.525176
 31
0.0
  0
LINE
  8
0
  6
CONTINUOUS
 10
1000.615194
 20
217.525176
 30
0.0
 11
1000.377613
 21
217.271704
 31
0.0
  0
LINE
  8
0
  6
CONTINUOUS
 10
1000.615194
 20
217.525176
 30
0.0
 11
1000.868667
 21
217.763552
 31
0.0
  0
LINE
  8
0
  6
CONTINUOUS
 10
1000.868667
 20
217.763552
 30
0.0
 11
1000.615194
 21
217.525176
 31
0.0
  0
LINE
  8
0
  6
CONTINUOUS
 10
1000.868667
 20
217.763552
 30
0.0
 11
1001.145182
 21
217.970938
 31
0.0
  0
LINE
  8
0
  6
CONTINUOUS
 10
1001.145182
 20
217.970938
 30
0.0
 11
1000.868667
 21
217.763552
 31
0.0
  0
LINE
  8
0
  6
CONTINUOUS
 10
1001.145182
 20
217.970938
 30
0.0
 11
1001.444741
 21
218.162433
 31
0.0
  0
LINE
  8
0
  6
CONTINUOUS
 10
1001.444741
 20
218.162433
 30
0.0
 11
1001.145182
 21
217.970938
 31
0.0
  0
LINE
  8
0
  6
CONTINUOUS
 10
1001.444741
 20
218.162433
 30
0.0
 11
1001.75145
 21
218.323734
 31
0.0
  0
LINE
  8
0
  6
CONTINUOUS
 10
1001.75145
 20
218.323734
 30
0.0
 11
1001.444741
 21
218.162433
 31
0.0
  0
LINE
  8
0
  6
CONTINUOUS
 10
1001.75145
 20
218.323734
 30
0.0
 11
1002.074052
 21
218.454046
 31
0.0
  0
LINE
  8
0
  6
CONTINUOUS
 10
1002.074052
 20
218.454046
 30
0.0
 11
1001.75145
 21
218.323734
 31
0.0
  0
LINE
  8
0
  6
CONTINUOUS
 10
1002.074052
 20
218.454046
 30
0.0
 11
1002.403804
 21
218.56211
 31
0.0
  0
LINE
  8
0
  6
CONTINUOUS
 10
1002.403804
 20
218.56211
 30
0.0
 11
1002.074052
 21
218.454046
 31
0.0
  0
LINE
  8
0
  6
CONTINUOUS
 10
1002.403804
 20
218.56211
 30
0.0
 11
1002.741503
 21
218.630444
 31
0.0
  0
LINE
  8
0
  6
CONTINUOUS
 10
1002.741503
 20
218.630444
 30
0.0
 11
1002.403804
 21
218.56211
 31
0.0
  0
LINE
  8
0
  6
CONTINUOUS
 10
1002.741503
 20
218.630444
 30
0.0
 11
1003.087147
 21
218.67653
 31
0.0
  0
LINE
  8
0
  6
CONTINUOUS
 10
1003.087147
 20
218.67653
 30
0.0
 11
1002.741503
 21
218.630444
 31
0.0
  0
LINE
  8
0
  6
CONTINUOUS
 10
1003.087147
 20
218.67653
 30
0.0
 11
1003.440738
 21
218.692421
 31
0.0
  0
LINE
  8
0
  6
CONTINUOUS
 10
1003.440738
 20
218.692421
 30
0.0
 11
1003.087147
 21
218.67653
 31
0.0
  0
LINE
  8
0
  6
CONTINUOUS
 10
1003.440738
 20
218.692421
 30
0.0
 11
1106.356954
 21
218.692421
 31
0.0
  0
LINE
  8
0
  6
CONTINUOUS
 10
1106.356954
 20
218.692421
 30
0.0
 11
1003.440738
 21
218.692421
 31
0.0
  0
LINE
  8
0
  6
CONTINUOUS
 10
999.448743
 20
214.700427
 30
0.0
 11
999.448743
 21
210.716379
 31
0.0
  0
LINE
  8
0
  6
CONTINUOUS
 10
999.448743
 20
210.716379
 30
0.0
 11
999.448743
 21
214.700427
 31
0.0
  0
LINE
  8
0
  6
CONTINUOUS
 10
994.91961
 20
214.700427
 30
0.0
 11
994.735266
 21
214.999986
 31
0.0
  0
LINE
  8
0
  6
CONTINUOUS
 10
994.735266
 20
214.999986
 30
0.0
 11
994.520728
 21
215.276501
 31
0.0
  0
LINE
  8
0
  6
CONTINUOUS
 10
994.520728
 20
215.276501
 30
0.0
 11
994.290299
 21
215.529974
 31
0.0
  0
LINE
  8
0
  6
CONTINUOUS
 10
994.290299
 20
215.529974
 30
0.0
 11
994.02888
 21
215.767555
 31
0.0
  0
LINE
  8
0
  6
CONTINUOUS
 10
994.02888
 20
215.767555
 30
0.0
 11
993.753159
 21
215.974941
 31
0.0
  0
LINE
  8
0
  6
CONTINUOUS
 10
993.753159
 20
215.974941
 30
0.0
 11
993.461547
 21
216.166436
 31
0.0
  0
LINE
  8
0
  6
CONTINUOUS
 10
993.461547
 20
216.166436
 30
0.0
 11
993.154042
 21
216.327737
 31
0.0
  0
LINE
  8
0
  6
CONTINUOUS
 10
993.154042
 20
216.327737
 30
0.0
 11
992.831441
 21
216.458049
 31
0.0
  0
LINE
  8
0
  6
CONTINUOUS
 10
992.831441
 20
216.458049
 30
0.0
 11
992.501688
 21
216.566112
 31
0.0
  0
LINE
  8
0
  6
CONTINUOUS
 10
992.501688
 20
216.566112
 30
0.0
 11
992.156044
 21
216.635241
 31
0.0
  0
LINE
  8
0
  6
CONTINUOUS
 10
992.156044
 20
216.635241
 30
0.0
 11
991.810399
 21
216.681327
 31
0.0
  0
LINE
  8
0
  6
CONTINUOUS
 10
991.810399
 20
216.681327
 30
0.0
 11
991.46555
 21
216.696424
 31
0.0
  0
LINE
  8
0
  6
CONTINUOUS
 10
994.91961
 20
214.700427
 30
0.0
 11
995.080911
 21
214.393718
 31
0.0
  0
LINE
  8
0
  6
CONTINUOUS
 10
995.080911
 20
214.393718
 30
0.0
 11
995.211223
 21
214.071116
 31
0.0
  0
LINE
  8
0
  6
CONTINUOUS
 10
995.211223
 20
214.071116
 30
0.0
 11
995.318492
 21
213.741363
 31
0.0
  0
LINE
  8
0
  6
CONTINUOUS
 10
995.318492
 20
213.741363
 30
0.0
 11
995.395566
 21
213.40287
 31
0.0
  0
LINE
  8
0
  6
CONTINUOUS
 10
995.395566
 20
213.40287
 30
0.0
 11
995.441652
 21
213.05802
 31
0.0
  0
LINE
  8
0
  6
CONTINUOUS
 10
995.441652
 20
213.05802
 30
0.0
 11
995.456749
 21
212.712376
 31
0.0
  0
LINE
  8
0
  6
CONTINUOUS
 10
995.456749
 20
212.712376
 30
0.0
 11
995.441652
 21
212.35958
 31
0.0
  0
LINE
  8
0
  6
CONTINUOUS
 10
995.441652
 20
212.35958
 30
0.0
 11
995.395566
 21
212.013936
 31
0.0
  0
LINE
  8
0
  6
CONTINUOUS
 10
995.395566
 20
212.013936
 30
0.0
 11
995.441652
 21
212.35958
 31
0.0
  0
LINE
  8
0
  6
CONTINUOUS
 10
995.441652
 20
212.35958
 30
0.0
 11
995.456749
 21
212.712376
 31
0.0
  0
LINE
  8
0
  6
CONTINUOUS
 10
995.456749
 20
212.712376
 30
0.0
 11
995.441652
 21
213.05802
 31
0.0
  0
LINE
  8
0
  6
CONTINUOUS
 10
995.441652
 20
213.05802
 30
0.0
 11
995.395566
 21
213.40287
 31
0.0
  0
LINE
  8
0
  6
CONTINUOUS
 10
995.395566
 20
213.40287
 30
0.0
 11
995.318492
 21
213.741363
 31
0.0
  0
LINE
  8
0
  6
CONTINUOUS
 10
995.318492
 20
213.741363
 30
0.0
 11
995.211223
 21
214.071116
 31
0.0
  0
LINE
  8
0
  6
CONTINUOUS
 10
995.211223
 20
214.071116
 30
0.0
 11
995.080911
 21
214.393718
 31
0.0
  0
LINE
  8
0
  6
CONTINUOUS
 10
995.080911
 20
214.393718
 30
0.0
 11
994.91961
 21
214.700427
 31
0.0
  0
LINE
  8
0
  6
CONTINUOUS
 10
994.91961
 20
214.700427
 30
0.0
 11
994.735266
 21
214.999986
 31
0.0
  0
LINE
  8
0
  6
CONTINUOUS
 10
994.735266
 20
214.999986
 30
0.0
 11
994.520728
 21
215.276501
 31
0.0
  0
LINE
  8
0
  6
CONTINUOUS
 10
994.520728
 20
215.276501
 30
0.0
 11
994.290299
 21
215.529974
 31
0.0
  0
LINE
  8
0
  6
CONTINUOUS
 10
994.290299
 20
215.529974
 30
0.0
 11
994.02888
 21
215.767555
 31
0.0
  0
LINE
  8
0
  6
CONTINUOUS
 10
994.02888
 20
215.767555
 30
0.0
 11
993.753159
 21
215.974941
 31
0.0
  0
LINE
  8
0
  6
CONTINUOUS
 10
993.753159
 20
215.974941
 30
0.0
 11
993.461547
 21
216.166436
 31
0.0
  0
LINE
  8
0
  6
CONTINUOUS
 10
993.461547
 20
216.166436
 30
0.0
 11
993.154042
 21
216.327737
 31
0.0
  0
LINE
  8
0
  6
CONTINUOUS
 10
993.154042
 20
216.327737
 30
0.0
 11
992.831441
 21
216.458049
 31
0.0
  0
LINE
  8
0
  6
CONTINUOUS
 10
992.831441
 20
216.458049
 30
0.0
 11
992.501688
 21
216.566112
 31
0.0
  0
LINE
  8
0
  6
CONTINUOUS
 10
992.501688
 20
216.566112
 30
0.0
 11
992.156044
 21
216.635241
 31
0.0
  0
LINE
  8
0
  6
CONTINUOUS
 10
992.156044
 20
216.635241
 30
0.0
 11
991.810399
 21
216.681327
 31
0.0
  0
LINE
  8
0
  6
CONTINUOUS
 10
991.810399
 20
216.681327
 30
0.0
 11
991.46555
 21
216.696424
 31
0.0
  0
LINE
  8
0
  6
CONTINUOUS
 10
995.395566
 20
212.013936
 30
0.0
 11
995.318492
 21
211.676237
 31
0.0
  0
LINE
  8
0
  6
CONTINUOUS
 10
995.318492
 20
211.676237
 30
0.0
 11
995.395566
 21
212.013936
 31
0.0
  0
LINE
  8
0
  6
CONTINUOUS
 10
995.318492
 20
211.676237
 30
0.0
 11
995.211223
 21
211.34569
 31
0.0
  0
LINE
  8
0
  6
CONTINUOUS
 10
995.211223
 20
211.34569
 30
0.0
 11
995.318492
 21
211.676237
 31
0.0
  0
LINE
  8
0
  6
CONTINUOUS
 10
995.211223
 20
211.34569
 30
0.0
 11
995.080911
 21
211.023883
 31
0.0
  0
LINE
  8
0
  6
CONTINUOUS
 10
995.080911
 20
211.023883
 30
0.0
 11
995.211223
 21
211.34569
 31
0.0
  0
LINE
  8
0
  6
CONTINUOUS
 10
995.080911
 20
211.023883
 30
0.0
 11
994.91961
 21
210.716379
 31
0.0
  0
LINE
  8
0
  6
CONTINUOUS
 10
994.91961
 20
210.716379
 30
0.0
 11
995.080911
 21
211.023883
 31
0.0
  0
LINE
  8
0
  6
CONTINUOUS
 10
994.91961
 20
210.716379
 30
0.0
 11
994.735266
 21
210.41682
 31
0.0
  0
LINE
  8
0
  6
CONTINUOUS
 10
994.735266
 20
210.41682
 30
0.0
 11
994.91961
 21
210.716379
 31
0.0
  0
LINE
  8
0
  6
CONTINUOUS
 10
994.735266
 20
210.41682
 30
0.0
 11
994.520728
 21
210.1411
 31
0.0
  0
LINE
  8
0
  6
CONTINUOUS
 10
994.520728
 20
210.1411
 30
0.0
 11
994.735266
 21
210.41682
 31
0.0
  0
LINE
  8
0
  6
CONTINUOUS
 10
994.520728
 20
210.1411
 30
0.0
 11
994.290299
 21
209.887627
 31
0.0
  0
LINE
  8
0
  6
CONTINUOUS
 10
994.290299
 20
209.887627
 30
0.0
 11
994.520728
 21
210.1411
 31
0.0
  0
LINE
  8
0
  6
CONTINUOUS
 10
994.290299
 20
209.887627
 30
0.0
 11
994.02888
 21
209.649252
 31
0.0
  0
LINE
  8
0
  6
CONTINUOUS
 10
994.02888
 20
209.649252
 30
0.0
 11
994.290299
 21
209.887627
 31
0.0
  0
LINE
  8
0
  6
CONTINUOUS
 10
994.02888
 20
209.649252
 30
0.0
 11
993.753159
 21
209.441865
 31
0.0
  0
LINE
  8
0
  6
CONTINUOUS
 10
993.753159
 20
209.441865
 30
0.0
 11
994.02888
 21
209.649252
 31
0.0
  0
LINE
  8
0
  6
CONTINUOUS
 10
993.753159
 20
209.441865
 30
0.0
 11
993.461547
 21
209.25037
 31
0.0
  0
LINE
  8
0
  6
CONTINUOUS
 10
993.461547
 20
209.25037
 30
0.0
 11
993.753159
 21
209.441865
 31
0.0
  0
LINE
  8
0
  6
CONTINUOUS
 10
993.461547
 20
209.25037
 30
0.0
 11
993.154042
 21
209.089069
 31
0.0
  0
LINE
  8
0
  6
CONTINUOUS
 10
993.154042
 20
209.089069
 30
0.0
 11
993.461547
 21
209.25037
 31
0.0
  0
LINE
  8
0
  6
CONTINUOUS
 10
993.154042
 20
209.089069
 30
0.0
 11
992.831441
 21
208.958757
 31
0.0
  0
LINE
  8
0
  6
CONTINUOUS
 10
992.831441
 20
208.958757
 30
0.0
 11
993.154042
 21
209.089069
 31
0.0
  0
LINE
  8
0
  6
CONTINUOUS
 10
992.831441
 20
208.958757
 30
0.0
 11
992.501688
 21
208.851488
 31
0.0
  0
LINE
  8
0
  6
CONTINUOUS
 10
992.501688
 20
208.851488
 30
0.0
 11
992.831441
 21
208.958757
 31
0.0
  0
LINE
  8
0
  6
CONTINUOUS
 10
992.501688
 20
208.851488
 30
0.0
 11
992.156044
 21
208.782359
 31
0.0
  0
LINE
  8
0
  6
CONTINUOUS
 10
992.156044
 20
208.782359
 30
0.0
 11
992.501688
 21
208.851488
 31
0.0
  0
LINE
  8
0
  6
CONTINUOUS
 10
992.156044
 20
208.782359
 30
0.0
 11
991.810399
 21
208.736274
 31
0.0
  0
LINE
  8
0
  6
CONTINUOUS
 10
991.810399
 20
208.736274
 30
0.0
 11
992.156044
 21
208.782359
 31
0.0
  0
LINE
  8
0
  6
CONTINUOUS
 10
991.810399
 20
208.736274
 30
0.0
 11
991.46555
 21
208.720382
 31
0.0
  0
LINE
  8
0
  6
CONTINUOUS
 10
991.46555
 20
208.720382
 30
0.0
 11
991.810399
 21
208.736274
 31
0.0
  0
LINE
  8
0
  6
CONTINUOUS
 10
1003.440738
 20
206.725179
 30
0.0
 11
1106.356954
 21
206.725179
 31
0.0
  0
LINE
  8
0
  6
CONTINUOUS
 10
1106.356954
 20
206.725179
 30
0.0
 11
1116.719929
 21
212.712376
 31
0.0
  0
LINE
  8
0
  6
CONTINUOUS
 10
1116.719929
 20
212.712376
 30
0.0
 11
1106.356954
 21
218.692421
 31
0.0
  0
LINE
  8
0
  6
CONTINUOUS
 10
1106.356954
 20
218.692421
 30
0.0
 11
1116.719929
 21
212.712376
 31
0.0
  0
LINE
  8
0
  6
CONTINUOUS
 10
1116.719929
 20
212.712376
 30
0.0
 11
1106.356954
 21
206.725179
 31
0.0
  0
LINE
  8
0
  6
CONTINUOUS
 10
1106.356954
 20
206.725179
 30
0.0
 11
1003.440738
 21
206.725179
 31
0.0
  0
LINE
  8
0
  6
CONTINUOUS
 10
972.266791
 20
223.113486
 30
0.0
 11
972.773736
 21
222.892458
 31
0.0
  0
LINE
  8
0
  6
CONTINUOUS
 10
972.773736
 20
222.892458
 30
0.0
 11
973.287833
 21
222.685733
 31
0.0
  0
LINE
  8
0
  6
CONTINUOUS
 10
973.287833
 20
222.685733
 30
0.0
 11
973.801929
 21
222.616604
 31
0.0
  0
LINE
  8
0
  6
CONTINUOUS
 10
973.801929
 20
222.616604
 30
0.0
 11
974.323971
 21
222.63857
 31
0.0
  0
LINE
  8
0
  6
CONTINUOUS
 10
974.323971
 20
222.63857
 30
0.0
 11
974.846013
 21
222.622678
 31
0.0
  0
LINE
  8
0
  6
CONTINUOUS
 10
974.846013
 20
222.622678
 30
0.0
 11
974.323971
 21
222.63857
 31
0.0
  0
LINE
  8
0
  6
CONTINUOUS
 10
974.323971
 20
222.63857
 30
0.0
 11
973.801929
 21
222.616604
 31
0.0
  0
LINE
  8
0
  6
CONTINUOUS
 10
973.801929
 20
222.616604
 30
0.0
 11
973.287833
 21
222.685733
 31
0.0
  0
LINE
  8
0
  6
CONTINUOUS
 10
973.287833
 20
222.685733
 30
0.0
 11
972.773736
 21
222.892458
 31
0.0
  0
LINE
  8
0
  6
CONTINUOUS
 10
972.773736
 20
222.892458
 30
0.0
 11
972.266791
 21
223.113486
 31
0.0
  0
LINE
  8
0
  6
CONTINUOUS
 10
972.266791
 20
223.113486
 30
0.0
 11
971.759846
 21
223.374243
 31
0.0
  0
LINE
  8
0
  6
CONTINUOUS
 10
971.759846
 20
223.374243
 30
0.0
 11
972.266791
 21
223.113486
 31
0.0
  0
LINE
  8
0
  6
CONTINUOUS
 10
971.759846
 20
223.374243
 30
0.0
 11
971.268792
 21
223.649303
 31
0.0
  0
LINE
  8
0
  6
CONTINUOUS
 10
971.268792
 20
223.649303
 30
0.0
 11
971.759846
 21
223.374243
 31
0.0
  0
LINE
  8
0
  6
CONTINUOUS
 10
971.268792
 20
223.649303
 30
0.0
 11
970.78489
 21
223.848743
 31
0.0
  0
LINE
  8
0
  6
CONTINUOUS
 10
970.78489
 20
223.848743
 30
0.0
 11
971.268792
 21
223.649303
 31
0.0
  0
LINE
  8
0
  6
CONTINUOUS
 10
970.78489
 20
223.848743
 30
0.0
 11
970.31688
 21
224.079173
 31
0.0
  0
LINE
  8
0
  6
CONTINUOUS
 10
970.31688
 20
224.079173
 30
0.0
 11
970.78489
 21
223.848743
 31
0.0
  0
LINE
  8
0
  6
CONTINUOUS
 10
970.31688
 20
224.079173
 30
0.0
 11
969.856021
 21
224.431307
 31
0.0
  0
LINE
  8
0
  6
CONTINUOUS
 10
969.856021
 20
224.431307
 30
0.0
 11
970.31688
 21
224.079173
 31
0.0
  0
LINE
  8
0
  6
CONTINUOUS
 10
969.856021
 20
224.431307
 30
0.0
 11
969.411053
 21
224.707823
 31
0.0
  0
LINE
  8
0
  6
CONTINUOUS
 10
969.411053
 20
224.707823
 30
0.0
 11
969.856021
 21
224.431307
 31
0.0
  0
LINE
  8
0
  6
CONTINUOUS
 10
969.411053
 20
224.707823
 30
0.0
 11
968.981183
 21
224.999436
 31
0.0
  0
LINE
  8
0
  6
CONTINUOUS
 10
968.981183
 20
224.999436
 30
0.0
 11
969.411053
 21
224.707823
 31
0.0
  0
LINE
  8
0
  6
CONTINUOUS
 10
968.981183
 20
224.999436
 30
0.0
 11
968.566409
 21
225.322037
 31
0.0
  0
LINE
  8
0
  6
CONTINUOUS
 10
968.566409
 20
225.322037
 30
0.0
 11
968.981183
 21
224.999436
 31
0.0
  0
LINE
  8
0
  6
CONTINUOUS
 10
968.566409
 20
225.322037
 30
0.0
 11
968.167528
 21
225.659736
 31
0.0
  0
LINE
  8
0
  6
CONTINUOUS
 10
968.167528
 20
225.659736
 30
0.0
 11
968.566409
 21
225.322037
 31
0.0
  0
LINE
  8
0
  6
CONTINUOUS
 10
968.167528
 20
225.659736
 30
0.0
 11
967.791689
 21
226.020477
 31
0.0
  0
LINE
  8
0
  6
CONTINUOUS
 10
967.791689
 20
226.020477
 30
0.0
 11
968.167528
 21
225.659736
 31
0.0
  0
LINE
  8
0
  6
CONTINUOUS
 10
935.657884
 20
186.874067
 30
0.0
 11
935.611798
 21
187.218916
 31
0.0
  0
LINE
  8
0
  6
CONTINUOUS
 10
935.611798
 20
187.218916
 30
0.0
 11
935.596701
 21
187.572507
 31
0.0
  0
LINE
  8
0
  6
CONTINUOUS
 10
935.657884
 20
186.874067
 30
0.0
 11
935.727013
 21
186.536368
 31
0.0
  0
LINE
  8
0
  6
CONTINUOUS
 10
935.727013
 20
186.536368
 30
0.0
 11
935.835077
 21
186.205821
 31
0.0
  0
LINE
  8
0
  6
CONTINUOUS
 10
935.835077
 20
186.205821
 30
0.0
 11
935.965389
 21
185.883219
 31
0.0
  0
LINE
  8
0
  6
CONTINUOUS
 10
935.965389
 20
185.883219
 30
0.0
 11
936.126689
 21
185.57651
 31
0.0
  0
LINE
  8
0
  6
CONTINUOUS
 10
936.126689
 20
185.57651
 30
0.0
 11
936.318184
 21
185.276951
 31
0.0
  0
LINE
  8
0
  6
CONTINUOUS
 10
936.318184
 20
185.276951
 30
0.0
 11
936.525571
 21
185.000436
 31
0.0
  0
LINE
  8
0
  6
CONTINUOUS
 10
936.525571
 20
185.000436
 30
0.0
 11
936.763946
 21
184.747758
 31
0.0
  0
LINE
  8
0
  6
CONTINUOUS
 10
936.763946
 20
184.747758
 30
0.0
 11
937.016624
 21
184.509382
 31
0.0
  0
LINE
  8
0
  6
CONTINUOUS
 10
937.016624
 20
184.509382
 30
0.0
 11
937.29314
 21
184.301995
 31
0.0
  0
LINE
  8
0
  6
CONTINUOUS
 10
937.29314
 20
184.301995
 30
0.0
 11
937.592698
 21
184.110501
 31
0.0
  0
LINE
  8
0
  6
CONTINUOUS
 10
937.592698
 20
184.110501
 30
0.0
 11
937.899408
 21
183.9492
 31
0.0
  0
LINE
  8
0
  6
CONTINUOUS
 10
937.899408
 20
183.9492
 30
0.0
 11
938.222009
 21
183.818888
 31
0.0
  0
LINE
  8
0
  6
CONTINUOUS
 10
938.222009
 20
183.818888
 30
0.0
 11
938.552557
 21
183.710824
 31
0.0
  0
LINE
  8
0
  6
CONTINUOUS
 10
938.552557
 20
183.710824
 30
0.0
 11
938.890255
 21
183.641695
 31
0.0
  0
LINE
  8
0
  6
CONTINUOUS
 10
938.890255
 20
183.641695
 30
0.0
 11
939.235105
 21
183.59561
 31
0.0
  0
LINE
  8
0
  6
CONTINUOUS
 10
939.235105
 20
183.59561
 30
0.0
 11
939.588695
 21
183.580512
 31
0.0
  0
LINE
  8
0
  6
CONTINUOUS
 10
935.611798
 20
187.218916
 30
0.0
 11
935.596701
 21
187.572507
 31
0.0
  0
LINE
  8
0
  6
CONTINUOUS
 10
935.611798
 20
187.218916
 30
0.0
 11
935.657884
 21
186.874067
 31
0.0
  0
LINE
  8
0
  6
CONTINUOUS
 10
935.657884
 20
186.874067
 30
0.0
 11
935.727013
 21
186.536368
 31
0.0
  0
LINE
  8
0
  6
CONTINUOUS
 10
935.727013
 20
186.536368
 30
0.0
 11
935.835077
 21
186.205821
 31
0.0
  0
LINE
  8
0
  6
CONTINUOUS
 10
935.835077
 20
186.205821
 30
0.0
 11
935.965389
 21
185.883219
 31
0.0
  0
LINE
  8
0
  6
CONTINUOUS
 10
935.965389
 20
185.883219
 30
0.0
 11
936.126689
 21
185.57651
 31
0.0
  0
LINE
  8
0
  6
CONTINUOUS
 10
936.126689
 20
185.57651
 30
0.0
 11
936.318184
 21
185.276951
 31
0.0
  0
LINE
  8
0
  6
CONTINUOUS
 10
936.318184
 20
185.276951
 30
0.0
 11
936.525571
 21
185.000436
 31
0.0
  0
LINE
  8
0
  6
CONTINUOUS
 10
936.525571
 20
185.000436
 30
0.0
 11
936.763946
 21
184.747758
 31
0.0
  0
LINE
  8
0
  6
CONTINUOUS
 10
936.763946
 20
184.747758
 30
0.0
 11
937.016624
 21
184.509382
 31
0.0
  0
LINE
  8
0
  6
CONTINUOUS
 10
937.016624
 20
184.509382
 30
0.0
 11
937.29314
 21
184.301995
 31
0.0
  0
LINE
  8
0
  6
CONTINUOUS
 10
937.29314
 20
184.301995
 30
0.0
 11
937.592698
 21
184.110501
 31
0.0
  0
LINE
  8
0
  6
CONTINUOUS
 10
937.592698
 20
184.110501
 30
0.0
 11
937.899408
 21
183.9492
 31
0.0
  0
LINE
  8
0
  6
CONTINUOUS
 10
937.899408
 20
183.9492
 30
0.0
 11
938.222009
 21
183.818888
 31
0.0
  0
LINE
  8
0
  6
CONTINUOUS
 10
938.222009
 20
183.818888
 30
0.0
 11
938.552557
 21
183.710824
 31
0.0
  0
LINE
  8
0
  6
CONTINUOUS
 10
938.552557
 20
183.710824
 30
0.0
 11
938.890255
 21
183.641695
 31
0.0
  0
LINE
  8
0
  6
CONTINUOUS
 10
938.890255
 20
183.641695
 30
0.0
 11
939.235105
 21
183.59561
 31
0.0
  0
LINE
  8
0
  6
CONTINUOUS
 10
939.235105
 20
183.59561
 30
0.0
 11
939.588695
 21
183.580512
 31
0.0
  0
LINE
  8
0
  6
CONTINUOUS
 10
949.905585
 20
183.580512
 30
0.0
 11
950.251229
 21
183.59561
 31
0.0
  0
LINE
  8
0
  6
CONTINUOUS
 10
950.251229
 20
183.59561
 30
0.0
 11
950.596079
 21
183.641695
 31
0.0
  0
LINE
  8
0
  6
CONTINUOUS
 10
950.596079
 20
183.641695
 30
0.0
 11
950.934572
 21
183.710824
 31
0.0
  0
LINE
  8
0
  6
CONTINUOUS
 10
950.934572
 20
183.710824
 30
0.0
 11
951.272271
 21
183.818888
 31
0.0
  0
LINE
  8
0
  6
CONTINUOUS
 10
951.272271
 20
183.818888
 30
0.0
 11
951.594078
 21
183.9492
 31
0.0
  0
LINE
  8
0
  6
CONTINUOUS
 10
951.594078
 20
183.9492
 30
0.0
 11
951.901582
 21
184.110501
 31
0.0
  0
LINE
  8
0
  6
CONTINUOUS
 10
951.901582
 20
184.110501
 30
0.0
 11
952.193194
 21
184.301995
 31
0.0
  0
LINE
  8
0
  6
CONTINUOUS
 10
952.193194
 20
184.301995
 30
0.0
 11
952.46971
 21
184.509382
 31
0.0
  0
LINE
  8
0
  6
CONTINUOUS
 10
952.46971
 20
184.509382
 30
0.0
 11
952.730334
 21
184.747758
 31
0.0
  0
LINE
  8
0
  6
CONTINUOUS
 10
950.251229
 20
183.59561
 30
0.0
 11
949.905585
 21
183.580512
 31
0.0
  0
LINE
  8
0
  6
CONTINUOUS
 10
950.251229
 20
183.59561
 30
0.0
 11
950.596079
 21
183.641695
 31
0.0
  0
LINE
  8
0
  6
CONTINUOUS
 10
950.596079
 20
183.641695
 30
0.0
 11
950.934572
 21
183.710824
 31
0.0
  0
LINE
  8
0
  6
CONTINUOUS
 10
950.934572
 20
183.710824
 30
0.0
 11
951.272271
 21
183.818888
 31
0.0
  0
LINE
  8
0
  6
CONTINUOUS
 10
951.272271
 20
183.818888
 30
0.0
 11
951.594078
 21
183.9492
 31
0.0
  0
LINE
  8
0
  6
CONTINUOUS
 10
951.594078
 20
183.9492
 30
0.0
 11
951.901582
 21
184.110501
 31
0.0
  0
LINE
  8
0
  6
CONTINUOUS
 10
951.901582
 20
184.110501
 30
0.0
 11
952.193194
 21
184.301995
 31
0.0
  0
LINE
  8
0
  6
CONTINUOUS
 10
952.193194
 20
184.301995
 30
0.0
 11
952.46971
 21
184.509382
 31
0.0
  0
LINE
  8
0
  6
CONTINUOUS
 10
952.46971
 20
184.509382
 30
0.0
 11
952.730334
 21
184.747758
 31
0.0
  0
LINE
  8
0
  6
CONTINUOUS
 10
967.791689
 20
199.808318
 30
0.0
 11
968.167528
 21
200.16906
 31
0.0
  0
LINE
  8
0
  6
CONTINUOUS
 10
968.167528
 20
200.16906
 30
0.0
 11
967.791689
 21
199.808318
 31
0.0
  0
LINE
  8
0
  6
CONTINUOUS
 10
968.167528
 20
200.16906
 30
0.0
 11
968.566409
 21
200.506758
 31
0.0
  0
LINE
  8
0
  6
CONTINUOUS
 10
968.566409
 20
200.506758
 30
0.0
 11
968.167528
 21
200.16906
 31
0.0
  0
LINE
  8
0
  6
CONTINUOUS
 10
968.566409
 20
200.506758
 30
0.0
 11
968.981183
 21
200.82936
 31
0.0
  0
LINE
  8
0
  6
CONTINUOUS
 10
968.981183
 20
200.82936
 30
0.0
 11
968.566409
 21
200.506758
 31
0.0
  0
LINE
  8
0
  6
CONTINUOUS
 10
968.981183
 20
200.82936
 30
0.0
 11
969.411053
 21
201.120973
 31
0.0
  0
LINE
  8
0
  6
CONTINUOUS
 10
969.411053
 20
201.120973
 30
0.0
 11
968.981183
 21
200.82936
 31
0.0
  0
LINE
  8
0
  6
CONTINUOUS
 10
969.411053
 20
201.120973
 30
0.0
 11
969.856021
 21
201.397488
 31
0.0
  0
LINE
  8
0
  6
CONTINUOUS
 10
969.856021
 20
201.397488
 30
0.0
 11
969.411053
 21
201.120973
 31
0.0
  0
LINE
  8
0
  6
CONTINUOUS
 10
969.856021
 20
201.397488
 30
0.0
 11
970.31688
 21
201.643015
 31
0.0
  0
LINE
  8
0
  6
CONTINUOUS
 10
970.31688
 20
201.643015
 30
0.0
 11
969.856021
 21
201.397488
 31
0.0
  0
LINE
  8
0
  6
CONTINUOUS
 10
970.31688
 20
201.643015
 30
0.0
 11
970.78489
 21
201.873444
 31
0.0
  0
LINE
  8
0
  6
CONTINUOUS
 10
970.78489
 20
201.873444
 30
0.0
 11
970.31688
 21
201.643015
 31
0.0
  0
LINE
  8
0
  6
CONTINUOUS
 10
970.78489
 20
201.873444
 30
0.0
 11
971.268792
 21
202.072885
 31
0.0
  0
LINE
  8
0
  6
CONTINUOUS
 10
971.268792
 20
202.072885
 30
0.0
 11
970.78489
 21
201.873444
 31
0.0
  0
LINE
  8
0
  6
CONTINUOUS
 10
971.268792
 20
202.072885
 30
0.0
 11
971.759846
 21
202.242132
 31
0.0
  0
LINE
  8
0
  6
CONTINUOUS
 10
971.759846
 20
202.242132
 30
0.0
 11
971.268792
 21
202.072885
 31
0.0
  0
LINE
  8
0
  6
CONTINUOUS
 10
971.759846
 20
202.242132
 30
0.0
 11
972.266791
 21
202.395487
 31
0.0
  0
LINE
  8
0
  6
CONTINUOUS
 10
972.266791
 20
202.395487
 30
0.0
 11
971.759846
 21
202.242132
 31
0.0
  0
LINE
  8
0
  6
CONTINUOUS
 10
972.266791
 20
202.395487
 30
0.0
 11
972.773736
 21
202.517853
 31
0.0
  0
LINE
  8
0
  6
CONTINUOUS
 10
972.773736
 20
202.517853
 30
0.0
 11
972.266791
 21
202.395487
 31
0.0
  0
LINE
  8
0
  6
CONTINUOUS
 10
972.773736
 20
202.517853
 30
0.0
 11
973.287833
 21
202.610025
 31
0.0
  0
LINE
  8
0
  6
CONTINUOUS
 10
973.287833
 20
202.610025
 30
0.0
 11
972.773736
 21
202.517853
 31
0.0
  0
LINE
  8
0
  6
CONTINUOUS
 10
973.287833
 20
202.610025
 30
0.0
 11
973.801929
 21
202.679153
 31
0.0
  0
LINE
  8
0
  6
CONTINUOUS
 10
973.801929
 20
202.679153
 30
0.0
 11
973.287833
 21
202.610025
 31
0.0
  0
LINE
  8
0
  6
CONTINUOUS
 10
973.801929
 20
202.679153
 30
0.0
 11
974.323971
 21
202.718088
 31
0.0
  0
LINE
  8
0
  6
CONTINUOUS
 10
974.323971
 20
202.718088
 30
0.0
 11
973.801929
 21
202.679153
 31
0.0
  0
LINE
  8
0
  6
CONTINUOUS
 10
974.323971
 20
202.718088
 30
0.0
 11
974.846013
 21
202.733185
 31
0.0
  0
LINE
  8
0
  6
CONTINUOUS
 10
974.846013
 20
202.733185
 30
0.0
 11
974.323971
 21
202.718088
 31
0.0
  0
LINE
  8
0
  6
CONTINUOUS
 10
1106.356954
 20
202.733185
 30
0.0
 11
1106.702598
 21
202.748282
 31
0.0
  0
LINE
  8
0
  6
CONTINUOUS
 10
1106.702598
 20
202.748282
 30
0.0
 11
1107.048243
 21
202.794368
 31
0.0
  0
LINE
  8
0
  6
CONTINUOUS
 10
1107.048243
 20
202.794368
 30
0.0
 11
1107.385941
 21
202.871443
 31
0.0
  0
LINE
  8
0
  6
CONTINUOUS
 10
1107.385941
 20
202.871443
 30
0.0
 11
1107.715694
 21
202.970766
 31
0.0
  0
LINE
  8
0
  6
CONTINUOUS
 10
1107.715694
 20
202.970766
 30
0.0
 11
1108.038295
 21
203.109024
 31
0.0
  0
LINE
  8
0
  6
CONTINUOUS
 10
1108.038295
 20
203.109024
 30
0.0
 11
1108.352951
 21
203.270325
 31
0.0
  0
LINE
  8
0
  6
CONTINUOUS
 10
1108.352951
 20
203.270325
 30
0.0
 11
1108.038295
 21
203.109024
 31
0.0
  0
LINE
  8
0
  6
CONTINUOUS
 10
1108.038295
 20
203.109024
 30
0.0
 11
1107.715694
 21
202.970766
 31
0.0
  0
LINE
  8
0
  6
CONTINUOUS
 10
1107.715694
 20
202.970766
 30
0.0
 11
1107.385941
 21
202.871443
 31
0.0
  0
LINE
  8
0
  6
CONTINUOUS
 10
1107.385941
 20
202.871443
 30
0.0
 11
1107.048243
 21
202.794368
 31
0.0
  0
LINE
  8
0
  6
CONTINUOUS
 10
1107.048243
 20
202.794368
 30
0.0
 11
1106.702598
 21
202.748282
 31
0.0
  0
LINE
  8
0
  6
CONTINUOUS
 10
1106.702598
 20
202.748282
 30
0.0
 11
1106.356954
 21
202.733185
 31
0.0
  0
LINE
  8
0
  6
CONTINUOUS
 10
1108.352951
 20
222.146482
 30
0.0
 11
1108.038295
 21
222.307782
 31
0.0
  0
LINE
  8
0
  6
CONTINUOUS
 10
1108.038295
 20
222.307782
 30
0.0
 11
1107.715694
 21
222.44604
 31
0.0
  0
LINE
  8
0
  6
CONTINUOUS
 10
1107.715694
 20
222.44604
 30
0.0
 11
1107.385941
 21
222.545363
 31
0.0
  0
LINE
  8
0
  6
CONTINUOUS
 10
1107.385941
 20
222.545363
 30
0.0
 11
1107.048243
 21
222.622438
 31
0.0
  0
LINE
  8
0
  6
CONTINUOUS
 10
1107.048243
 20
222.622438
 30
0.0
 11
1106.702598
 21
222.668524
 31
0.0
  0
LINE
  8
0
  6
CONTINUOUS
 10
1106.702598
 20
222.668524
 30
0.0
 11
1106.356954
 21
222.683621
 31
0.0
  0
LINE
  8
0
  6
CONTINUOUS
 10
1106.356954
 20
222.683621
 30
0.0
 11
1106.702598
 21
222.668524
 31
0.0
  0
LINE
  8
0
  6
CONTINUOUS
 10
1106.702598
 20
222.668524
 30
0.0
 11
1107.048243
 21
222.622438
 31
0.0
  0
LINE
  8
0
  6
CONTINUOUS
 10
1107.048243
 20
222.622438
 30
0.0
 11
1107.385941
 21
222.545363
 31
0.0
  0
LINE
  8
0
  6
CONTINUOUS
 10
1107.385941
 20
222.545363
 30
0.0
 11
1107.715694
 21
222.44604
 31
0.0
  0
LINE
  8
0
  6
CONTINUOUS
 10
1107.715694
 20
222.44604
 30
0.0
 11
1108.038295
 21
222.307782
 31
0.0
  0
LINE
  8
0
  6
CONTINUOUS
 10
1108.038295
 20
222.307782
 30
0.0
 11
1108.352951
 21
222.146482
 31
0.0
  0
LINE
  8
0
  6
CONTINUOUS
 10
944.401496
 20
230.649728
 30
0.0
 11
944.148023
 21
230.411353
 31
0.0
  0
LINE
  8
0
  6
CONTINUOUS
 10
944.148023
 20
230.411353
 30
0.0
 11
944.401496
 21
230.649728
 31
0.0
  0
LINE
  8
0
  6
CONTINUOUS
 10
944.148023
 20
230.411353
 30
0.0
 11
943.872302
 21
230.203966
 31
0.0
  0
LINE
  8
0
  6
CONTINUOUS
 10
943.872302
 20
230.203966
 30
0.0
 11
944.148023
 21
230.411353
 31
0.0
  0
LINE
  8
0
  6
CONTINUOUS
 10
943.872302
 20
230.203966
 30
0.0
 11
943.572744
 21
230.012471
 31
0.0
  0
LINE
  8
0
  6
CONTINUOUS
 10
943.572744
 20
230.012471
 30
0.0
 11
943.872302
 21
230.203966
 31
0.0
  0
LINE
  8
0
  6
CONTINUOUS
 10
943.572744
 20
230.012471
 30
0.0
 11
943.265239
 21
229.859116
 31
0.0
  0
LINE
  8
0
  6
CONTINUOUS
 10
943.265239
 20
229.859116
 30
0.0
 11
943.572744
 21
230.012471
 31
0.0
  0
LINE
  8
0
  6
CONTINUOUS
 10
943.265239
 20
229.859116
 30
0.0
 11
942.943432
 21
229.720859
 31
0.0
  0
LINE
  8
0
  6
CONTINUOUS
 10
942.943432
 20
229.720859
 30
0.0
 11
943.265239
 21
229.859116
 31
0.0
  0
LINE
  8
0
  6
CONTINUOUS
 10
942.943432
 20
229.720859
 30
0.0
 11
942.612885
 21
229.620741
 31
0.0
  0
LINE
  8
0
  6
CONTINUOUS
 10
942.612885
 20
229.620741
 30
0.0
 11
942.943432
 21
229.720859
 31
0.0
  0
LINE
  8
0
  6
CONTINUOUS
 10
942.612885
 20
229.620741
 30
0.0
 11
942.275187
 21
229.544461
 31
0.0
  0
LINE
  8
0
  6
CONTINUOUS
 10
942.275187
 20
229.544461
 30
0.0
 11
942.612885
 21
229.620741
 31
0.0
  0
LINE
  8
0
  6
CONTINUOUS
 10
942.275187
 20
229.544461
 30
0.0
 11
941.929542
 21
229.498375
 31
0.0
  0
LINE
  8
0
  6
CONTINUOUS
 10
941.929542
 20
229.498375
 30
0.0
 11
942.275187
 21
229.544461
 31
0.0
  0
LINE
  8
0
  6
CONTINUOUS
 10
941.929542
 20
229.498375
 30
0.0
 11
941.584692
 21
229.482483
 31
0.0
  0
LINE
  8
0
  6
CONTINUOUS
 10
941.584692
 20
229.482483
 30
0.0
 11
941.929542
 21
229.498375
 31
0.0
  0
LINE
  8
0
  6
CONTINUOUS
 10
941.584692
 20
229.482483
 30
0.0
 11
941.231102
 21
229.498375
 31
0.0
  0
LINE
  8
0
  6
CONTINUOUS
 10
941.231102
 20
229.498375
 30
0.0
 11
941.584692
 21
229.482483
 31
0.0
  0
LINE
  8
0
  6
CONTINUOUS
 10
941.231102
 20
229.498375
 30
0.0
 11
940.885458
 21
229.544461
 31
0.0
  0
LINE
  8
0
  6
CONTINUOUS
 10
940.885458
 20
229.544461
 30
0.0
 11
941.231102
 21
229.498375
 31
0.0
  0
LINE
  8
0
  6
CONTINUOUS
 10
940.885458
 20
229.544461
 30
0.0
 11
940.547759
 21
229.620741
 31
0.0
  0
LINE
  8
0
  6
CONTINUOUS
 10
940.547759
 20
229.620741
 30
0.0
 11
940.885458
 21
229.544461
 31
0.0
  0
LINE
  8
0
  6
CONTINUOUS
 10
940.547759
 20
229.620741
 30
0.0
 11
940.218007
 21
229.720859
 31
0.0
  0
LINE
  8
0
  6
CONTINUOUS
 10
940.218007
 20
229.720859
 30
0.0
 11
940.547759
 21
229.620741
 31
0.0
  0
LINE
  8
0
  6
CONTINUOUS
 10
940.218007
 20
229.720859
 30
0.0
 11
939.895405
 21
229.859116
 31
0.0
  0
LINE
  8
0
  6
CONTINUOUS
 10
939.895405
 20
229.859116
 30
0.0
 11
940.218007
 21
229.720859
 31
0.0
  0
LINE
  8
0
  6
CONTINUOUS
 10
939.895405
 20
229.859116
 30
0.0
 11
939.588695
 21
230.012471
 31
0.0
  0
LINE
  8
0
  6
CONTINUOUS
 10
939.588695
 20
230.012471
 30
0.0
 11
939.895405
 21
229.859116
 31
0.0
  0
LINE
  8
0
  6
CONTINUOUS
 10
939.588695
 20
230.012471
 30
0.0
 11
939.289137
 21
230.203966
 31
0.0
  0
LINE
  8
0
  6
CONTINUOUS
 10
939.289137
 20
230.203966
 30
0.0
 11
939.588695
 21
230.012471
 31
0.0
  0
LINE
  8
0
  6
CONTINUOUS
 10
939.289137
 20
230.203966
 30
0.0
 11
939.012621
 21
230.411353
 31
0.0
  0
LINE
  8
0
  6
CONTINUOUS
 10
939.012621
 20
230.411353
 30
0.0
 11
939.289137
 21
230.203966
 31
0.0
  0
LINE
  8
0
  6
CONTINUOUS
 10
939.012621
 20
230.411353
 30
0.0
 11
938.759149
 21
230.649728
 31
0.0
  0
LINE
  8
0
  6
CONTINUOUS
 10
938.759149
 20
230.649728
 30
0.0
 11
939.012621
 21
230.411353
 31
0.0
  0
LINE
  8
0
  6
CONTINUOUS
 10
935.596701
 20
238.257083
 30
0.0
 11
935.611798
 21
238.609879
 31
0.0
  0
LINE
  8
0
  6
CONTINUOUS
 10
935.611798
 20
238.609879
 30
0.0
 11
935.596701
 21
238.257083
 31
0.0
  0
LINE
  8
0
  6
CONTINUOUS
 10
935.611798
 20
238.609879
 30
0.0
 11
935.657884
 21
238.955523
 31
0.0
  0
LINE
  8
0
  6
CONTINUOUS
 10
935.657884
 20
238.955523
 30
0.0
 11
935.611798
 21
238.609879
 31
0.0
  0
LINE
  8
0
  6
CONTINUOUS
 10
935.657884
 20
238.955523
 30
0.0
 11
935.727013
 21
239.293222
 31
0.0
  0
LINE
  8
0
  6
CONTINUOUS
 10
935.727013
 20
239.293222
 30
0.0
 11
935.657884
 21
238.955523
 31
0.0
  0
LINE
  8
0
  6
CONTINUOUS
 10
935.727013
 20
239.293222
 30
0.0
 11
935.835077
 21
239.622975
 31
0.0
  0
LINE
  8
0
  6
CONTINUOUS
 10
935.835077
 20
239.622975
 30
0.0
 11
935.727013
 21
239.293222
 31
0.0
  0
LINE
  8
0
  6
CONTINUOUS
 10
935.835077
 20
239.622975
 30
0.0
 11
935.965389
 21
239.945576
 31
0.0
  0
LINE
  8
0
  6
CONTINUOUS
 10
935.965389
 20
239.945576
 30
0.0
 11
935.835077
 21
239.622975
 31
0.0
  0
LINE
  8
0
  6
CONTINUOUS
 10
935.965389
 20
239.945576
 30
0.0
 11
936.126689
 21
240.252286
 31
0.0
  0
LINE
  8
0
  6
CONTINUOUS
 10
936.126689
 20
240.252286
 30
0.0
 11
935.965389
 21
239.945576
 31
0.0
  0
LINE
  8
0
  6
CONTINUOUS
 10
936.126689
 20
240.252286
 30
0.0
 11
936.318184
 21
240.551844
 31
0.0
  0
LINE
  8
0
  6
CONTINUOUS
 10
936.318184
 20
240.551844
 30
0.0
 11
936.126689
 21
240.252286
 31
0.0
  0
LINE
  8
0
  6
CONTINUOUS
 10
936.318184
 20
240.551844
 30
0.0
 11
936.525571
 21
240.82836
 31
0.0
  0
LINE
  8
0
  6
CONTINUOUS
 10
936.525571
 20
240.82836
 30
0.0
 11
936.318184
 21
240.551844
 31
0.0
  0
LINE
  8
0
  6
CONTINUOUS
 10
936.525571
 20
240.82836
 30
0.0
 11
936.763946
 21
241.081832
 31
0.0
  0
LINE
  8
0
  6
CONTINUOUS
 10
936.763946
 20
241.081832
 30
0.0
 11
936.525571
 21
240.82836
 31
0.0
  0
LINE
  8
0
  6
CONTINUOUS
 10
936.763946
 20
241.081832
 30
0.0
 11
937.016624
 21
241.319413
 31
0.0
  0
LINE
  8
0
  6
CONTINUOUS
 10
937.016624
 20
241.319413
 30
0.0
 11
936.763946
 21
241.081832
 31
0.0
  0
LINE
  8
0
  6
CONTINUOUS
 10
937.016624
 20
241.319413
 30
0.0
 11
937.29314
 21
241.5268
 31
0.0
  0
LINE
  8
0
  6
CONTINUOUS
 10
937.29314
 20
241.5268
 30
0.0
 11
937.016624
 21
241.319413
 31
0.0
  0
LINE
  8
0
  6
CONTINUOUS
 10
937.29314
 20
241.5268
 30
0.0
 11
937.592698
 21
241.719089
 31
0.0
  0
LINE
  8
0
  6
CONTINUOUS
 10
937.592698
 20
241.719089
 30
0.0
 11
937.29314
 21
241.5268
 31
0.0
  0
LINE
  8
0
  6
CONTINUOUS
 10
937.592698
 20
241.719089
 30
0.0
 11
937.899408
 21
241.879596
 31
0.0
  0
LINE
  8
0
  6
CONTINUOUS
 10
937.899408
 20
241.879596
 30
0.0
 11
937.592698
 21
241.719089
 31
0.0
  0
LINE
  8
0
  6
CONTINUOUS
 10
937.899408
 20
241.879596
 30
0.0
 11
938.222009
 21
242.010702
 31
0.0
  0
LINE
  8
0
  6
CONTINUOUS
 10
938.222009
 20
242.010702
 30
0.0
 11
937.899408
 21
241.879596
 31
0.0
  0
LINE
  8
0
  6
CONTINUOUS
 10
938.222009
 20
242.010702
 30
0.0
 11
938.552557
 21
242.117971
 31
0.0
  0
LINE
  8
0
  6
CONTINUOUS
 10
938.552557
 20
242.117971
 30
0.0
 11
938.222009
 21
242.010702
 31
0.0
  0
LINE
  8
0
  6
CONTINUOUS
 10
938.552557
 20
242.117971
 30
0.0
 11
938.890255
 21
242.1871
 31
0.0
  0
LINE
  8
0
  6
CONTINUOUS
 10
938.890255
 20
242.1871
 30
0.0
 11
938.552557
 21
242.117971
 31
0.0
  0
LINE
  8
0
  6
CONTINUOUS
 10
938.890255
 20
242.1871
 30
0.0
 11
939.235105
 21
242.233186
 31
0.0
  0
LINE
  8
0
  6
CONTINUOUS
 10
939.235105
 20
242.233186
 30
0.0
 11
938.890255
 21
242.1871
 31
0.0
  0
LINE
  8
0
  6
CONTINUOUS
 10
939.235105
 20
242.233186
 30
0.0
 11
939.588695
 21
242.248283
 31
0.0
  0
LINE
  8
0
  6
CONTINUOUS
 10
939.588695
 20
242.248283
 30
0.0
 11
939.235105
 21
242.233186
 31
0.0
  0
LINE
  8
0
  6
CONTINUOUS
 10
949.905585
 20
242.248283
 30
0.0
 11
950.251229
 21
242.233186
 31
0.0
  0
LINE
  8
0
  6
CONTINUOUS
 10
950.251229
 20
242.233186
 30
0.0
 11
949.905585
 21
242.248283
 31
0.0
  0
LINE
  8
0
  6
CONTINUOUS
 10
950.251229
 20
242.233186
 30
0.0
 11
950.596079
 21
242.1871
 31
0.0
  0
LINE
  8
0
  6
CONTINUOUS
 10
950.596079
 20
242.1871
 30
0.0
 11
950.251229
 21
242.233186
 31
0.0
  0
LINE
  8
0
  6
CONTINUOUS
 10
950.596079
 20
242.1871
 30
0.0
 11
950.934572
 21
242.117971
 31
0.0
  0
LINE
  8
0
  6
CONTINUOUS
 10
950.934572
 20
242.117971
 30
0.0
 11
950.596079
 21
242.1871
 31
0.0
  0
LINE
  8
0
  6
CONTINUOUS
 10
950.934572
 20
242.117971
 30
0.0
 11
951.272271
 21
242.010702
 31
0.0
  0
LINE
  8
0
  6
CONTINUOUS
 10
951.272271
 20
242.010702
 30
0.0
 11
950.934572
 21
242.117971
 31
0.0
  0
LINE
  8
0
  6
CONTINUOUS
 10
951.272271
 20
242.010702
 30
0.0
 11
951.594078
 21
241.879596
 31
0.0
  0
LINE
  8
0
  6
CONTINUOUS
 10
951.594078
 20
241.879596
 30
0.0
 11
951.272271
 21
242.010702
 31
0.0
  0
LINE
  8
0
  6
CONTINUOUS
 10
951.594078
 20
241.879596
 30
0.0
 11
951.901582
 21
241.719089
 31
0.0
  0
LINE
  8
0
  6
CONTINUOUS
 10
951.901582
 20
241.719089
 30
0.0
 11
951.594078
 21
241.879596
 31
0.0
  0
LINE
  8
0
  6
CONTINUOUS
 10
951.901582
 20
241.719089
 30
0.0
 11
952.193194
 21
241.5268
 31
0.0
  0
LINE
  8
0
  6
CONTINUOUS
 10
952.193194
 20
241.5268
 30
0.0
 11
951.901582
 21
241.719089
 31
0.0
  0
LINE
  8
0
  6
CONTINUOUS
 10
952.193194
 20
241.5268
 30
0.0
 11
952.46971
 21
241.319413
 31
0.0
  0
LINE
  8
0
  6
CONTINUOUS
 10
952.46971
 20
241.319413
 30
0.0
 11
952.193194
 21
241.5268
 31
0.0
  0
LINE
  8
0
  6
CONTINUOUS
 10
952.46971
 20
241.319413
 30
0.0
 11
952.730334
 21
241.081832
 31
0.0
  0
LINE
  8
0
  6
CONTINUOUS
 10
952.730334
 20
241.081832
 30
0.0
 11
952.46971
 21
241.319413
 31
0.0
  0
LINE
  8
0
  6
CONTINUOUS
 10
947.85635
 20
236.921386
 30
0.0
 11
947.672007
 21
237.081892
 31
0.0
  0
LINE
  8
0
  6
CONTINUOUS
 10
947.672007
 20
237.081892
 30
0.0
 11
947.479717
 21
237.22015
 31
0.0
  0
LINE
  8
0
  6
CONTINUOUS
 10
947.479717
 20
237.22015
 30
0.0
 11
947.265179
 21
237.335365
 31
0.0
  0
LINE
  8
0
  6
CONTINUOUS
 10
947.265179
 20
237.335365
 30
0.0
 11
947.03475
 21
237.419591
 31
0.0
  0
LINE
  8
0
  6
CONTINUOUS
 10
947.03475
 20
237.419591
 30
0.0
 11
946.80432
 21
237.473623
 31
0.0
  0
LINE
  8
0
  6
CONTINUOUS
 10
946.80432
 20
237.473623
 30
0.0
 11
946.566739
 21
237.504612
 31
0.0
  0
LINE
  8
0
  6
CONTINUOUS
 10
946.566739
 20
237.504612
 30
0.0
 11
946.320418
 21
237.504612
 31
0.0
  0
LINE
  8
0
  6
CONTINUOUS
 10
946.320418
 20
237.504612
 30
0.0
 11
946.082837
 21
237.473623
 31
0.0
  0
LINE
  8
0
  6
CONTINUOUS
 10
946.082837
 20
237.473623
 30
0.0
 11
945.852408
 21
237.419591
 31
0.0
  0
LINE
  8
0
  6
CONTINUOUS
 10
945.852408
 20
237.419591
 30
0.0
 11
945.621978
 21
237.335365
 31
0.0
  0
LINE
  8
0
  6
CONTINUOUS
 10
945.621978
 20
237.335365
 30
0.0
 11
945.414591
 21
237.22015
 31
0.0
  0
LINE
  8
0
  6
CONTINUOUS
 10
945.414591
 20
237.22015
 30
0.0
 11
945.215151
 21
237.081892
 31
0.0
  0
LINE
  8
0
  6
CONTINUOUS
 10
945.215151
 20
237.081892
 30
0.0
 11
945.030807
 21
236.921386
 31
0.0
  0
LINE
  8
0
  6
CONTINUOUS
 10
945.030807
 20
236.921386
 30
0.0
 11
945.215151
 21
237.081892
 31
0.0
  0
LINE
  8
0
  6
CONTINUOUS
 10
945.215151
 20
237.081892
 30
0.0
 11
945.414591
 21
237.22015
 31
0.0
  0
LINE
  8
0
  6
CONTINUOUS
 10
945.414591
 20
237.22015
 30
0.0
 11
945.621978
 21
237.335365
 31
0.0
  0
LINE
  8
0
  6
CONTINUOUS
 10
945.621978
 20
237.335365
 30
0.0
 11
945.852408
 21
237.419591
 31
0.0
  0
LINE
  8
0
  6
CONTINUOUS
 10
945.852408
 20
237.419591
 30
0.0
 11
946.082837
 21
237.473623
 31
0.0
  0
LINE
  8
0
  6
CONTINUOUS
 10
946.082837
 20
237.473623
 30
0.0
 11
946.320418
 21
237.504612
 31
0.0
  0
LINE
  8
0
  6
CONTINUOUS
 10
946.320418
 20
237.504612
 30
0.0
 11
946.566739
 21
237.504612
 31
0.0
  0
LINE
  8
0
  6
CONTINUOUS
 10
946.566739
 20
237.504612
 30
0.0
 11
946.80432
 21
237.473623
 31
0.0
  0
LINE
  8
0
  6
CONTINUOUS
 10
946.80432
 20
237.473623
 30
0.0
 11
947.03475
 21
237.419591
 31
0.0
  0
LINE
  8
0
  6
CONTINUOUS
 10
947.03475
 20
237.419591
 30
0.0
 11
947.265179
 21
237.335365
 31
0.0
  0
LINE
  8
0
  6
CONTINUOUS
 10
947.265179
 20
237.335365
 30
0.0
 11
947.479717
 21
237.22015
 31
0.0
  0
LINE
  8
0
  6
CONTINUOUS
 10
947.479717
 20
237.22015
 30
0.0
 11
947.672007
 21
237.081892
 31
0.0
  0
LINE
  8
0
  6
CONTINUOUS
 10
947.672007
 20
237.081892
 30
0.0
 11
947.85635
 21
236.921386
 31
0.0
  0
LINE
  8
0
  6
CONTINUOUS
 10
947.85635
 20
236.921386
 30
0.0
 11
948.016857
 21
236.744194
 31
0.0
  0
LINE
  8
0
  6
CONTINUOUS
 10
948.016857
 20
236.744194
 30
0.0
 11
947.85635
 21
236.921386
 31
0.0
  0
LINE
  8
0
  6
CONTINUOUS
 10
948.016857
 20
236.744194
 30
0.0
 11
948.155114
 21
236.544753
 31
0.0
  0
LINE
  8
0
  6
CONTINUOUS
 10
948.155114
 20
236.544753
 30
0.0
 11
948.016857
 21
236.744194
 31
0.0
  0
LINE
  8
0
  6
CONTINUOUS
 10
948.155114
 20
236.544753
 30
0.0
 11
948.263178
 21
236.330215
 31
0.0
  0
LINE
  8
0
  6
CONTINUOUS
 10
948.263178
 20
236.330215
 30
0.0
 11
948.155114
 21
236.544753
 31
0.0
  0
LINE
  8
0
  6
CONTINUOUS
 10
948.263178
 20
236.330215
 30
0.0
 11
948.347404
 21
236.106937
 31
0.0
  0
LINE
  8
0
  6
CONTINUOUS
 10
948.347404
 20
236.106937
 30
0.0
 11
948.263178
 21
236.330215
 31
0.0
  0
LINE
  8
0
  6
CONTINUOUS
 10
948.347404
 20
236.106937
 30
0.0
 11
948.408587
 21
235.869356
 31
0.0
  0
LINE
  8
0
  6
CONTINUOUS
 10
948.408587
 20
235.869356
 30
0.0
 11
948.347404
 21
236.106937
 31
0.0
  0
LINE
  8
0
  6
CONTINUOUS
 10
948.408587
 20
235.869356
 30
0.0
 11
948.439576
 21
235.631775
 31
0.0
  0
LINE
  8
0
  6
CONTINUOUS
 10
948.439576
 20
235.631775
 30
0.0
 11
948.408587
 21
235.869356
 31
0.0
  0
LINE
  8
0
  6
CONTINUOUS
 10
948.439576
 20
235.631775
 30
0.0
 11
948.439576
 21
235.3934
 31
0.0
  0
LINE
  8
0
  6
CONTINUOUS
 10
948.439576
 20
235.3934
 30
0.0
 11
948.439576
 21
235.631775
 31
0.0
  0
LINE
  8
0
  6
CONTINUOUS
 10
948.439576
 20
235.3934
 30
0.0
 11
948.408587
 21
235.155819
 31
0.0
  0
LINE
  8
0
  6
CONTINUOUS
 10
948.408587
 20
235.155819
 30
0.0
 11
948.439576
 21
235.3934
 31
0.0
  0
LINE
  8
0
  6
CONTINUOUS
 10
948.408587
 20
235.155819
 30
0.0
 11
948.347404
 21
234.917443
 31
0.0
  0
LINE
  8
0
  6
CONTINUOUS
 10
948.347404
 20
234.917443
 30
0.0
 11
948.408587
 21
235.155819
 31
0.0
  0
LINE
  8
0
  6
CONTINUOUS
 10
948.347404
 20
234.917443
 30
0.0
 11
948.263178
 21
234.69496
 31
0.0
  0
LINE
  8
0
  6
CONTINUOUS
 10
948.263178
 20
234.69496
 30
0.0
 11
948.347404
 21
234.917443
 31
0.0
  0
LINE
  8
0
  6
CONTINUOUS
 10
948.263178
 20
234.69496
 30
0.0
 11
948.155114
 21
234.479627
 31
0.0
  0
LINE
  8
0
  6
CONTINUOUS
 10
948.155114
 20
234.479627
 30
0.0
 11
948.263178
 21
234.69496
 31
0.0
  0
LINE
  8
0
  6
CONTINUOUS
 10
948.155114
 20
234.479627
 30
0.0
 11
948.016857
 21
234.280186
 31
0.0
  0
LINE
  8
0
  6
CONTINUOUS
 10
948.016857
 20
234.280186
 30
0.0
 11
948.155114
 21
234.479627
 31
0.0
  0
LINE
  8
0
  6
CONTINUOUS
 10
948.016857
 20
234.280186
 30
0.0
 11
947.85635
 21
234.103788
 31
0.0
  0
LINE
  8
0
  6
CONTINUOUS
 10
947.85635
 20
234.103788
 30
0.0
 11
948.016857
 21
234.280186
 31
0.0
  0
LINE
  8
0
  6
CONTINUOUS
 10
965.31179
 20
220.03328
 30
0.0
 11
965.688423
 21
219.721597
 31
0.0
  0
LINE
  8
0
  6
CONTINUOUS
 10
965.688423
 20
219.721597
 30
0.0
 11
966.087305
 21
219.399129
 31
0.0
  0
LINE
  8
0
  6
CONTINUOUS
 10
966.087305
 20
219.399129
 30
0.0
 11
966.502078
 21
219.090822
 31
0.0
  0
LINE
  8
0
  6
CONTINUOUS
 10
966.502078
 20
219.090822
 30
0.0
 11
966.931948
 21
218.797823
 31
0.0
  0
LINE
  8
0
  6
CONTINUOUS
 10
966.931948
 20
218.797823
 30
0.0
 11
967.376916
 21
218.520683
 31
0.0
  0
LINE
  8
0
  6
CONTINUOUS
 10
967.376916
 20
218.520683
 30
0.0
 11
967.837775
 21
218.2596
 31
0.0
  0
LINE
  8
0
  6
CONTINUOUS
 10
967.837775
 20
218.2596
 30
0.0
 11
968.305786
 21
218.019648
 31
0.0
  0
LINE
  8
0
  6
CONTINUOUS
 10
968.305786
 20
218.019648
 30
0.0
 11
968.789688
 21
217.796569
 31
0.0
  0
LINE
  8
0
  6
CONTINUOUS
 10
968.789688
 20
217.796569
 30
0.0
 11
969.280741
 21
217.594737
 31
0.0
  0
LINE
  8
0
  6
CONTINUOUS
 10
969.280741
 20
217.594737
 30
0.0
 11
969.786892
 21
217.411263
 31
0.0
  0
LINE
  8
0
  6
CONTINUOUS
 10
969.786892
 20
217.411263
 30
0.0
 11
970.293837
 21
217.251376
 31
0.0
  0
LINE
  8
0
  6
CONTINUOUS
 10
970.293837
 20
217.251376
 30
0.0
 11
970.807933
 21
217.112679
 31
0.0
  0
LINE
  8
0
  6
CONTINUOUS
 10
970.807933
 20
217.112679
 30
0.0
 11
971.322824
 21
216.996644
 31
0.0
  0
LINE
  8
0
  6
CONTINUOUS
 10
971.322824
 20
216.996644
 30
0.0
 11
971.844866
 21
216.872472
 31
0.0
  0
LINE
  8
0
  6
CONTINUOUS
 10
971.844866
 20
216.872472
 30
0.0
 11
972.366909
 21
216.742089
 31
0.0
  0
LINE
  8
0
  6
CONTINUOUS
 10
972.366909
 20
216.742089
 30
0.0
 11
971.844866
 21
216.872472
 31
0.0
  0
LINE
  8
0
  6
CONTINUOUS
 10
971.844866
 20
216.872472
 30
0.0
 11
971.322824
 21
216.996644
 31
0.0
  0
LINE
  8
0
  6
CONTINUOUS
 10
971.322824
 20
216.996644
 30
0.0
 11
970.807933
 21
217.112679
 31
0.0
  0
LINE
  8
0
  6
CONTINUOUS
 10
970.807933
 20
217.112679
 30
0.0
 11
970.293837
 21
217.251376
 31
0.0
  0
LINE
  8
0
  6
CONTINUOUS
 10
970.293837
 20
217.251376
 30
0.0
 11
969.786892
 21
217.411263
 31
0.0
  0
LINE
  8
0
  6
CONTINUOUS
 10
969.786892
 20
217.411263
 30
0.0
 11
969.280741
 21
217.594737
 31
0.0
  0
LINE
  8
0
  6
CONTINUOUS
 10
969.280741
 20
217.594737
 30
0.0
 11
968.789688
 21
217.796569
 31
0.0
  0
LINE
  8
0
  6
CONTINUOUS
 10
968.789688
 20
217.796569
 30
0.0
 11
968.305786
 21
218.019648
 31
0.0
  0
LINE
  8
0
  6
CONTINUOUS
 10
968.305786
 20
218.019648
 30
0.0
 11
967.837775
 21
218.2596
 31
0.0
  0
LINE
  8
0
  6
CONTINUOUS
 10
967.837775
 20
218.2596
 30
0.0
 11
967.376916
 21
218.520683
 31
0.0
  0
LINE
  8
0
  6
CONTINUOUS
 10
967.376916
 20
218.520683
 30
0.0
 11
966.931948
 21
218.797823
 31
0.0
  0
LINE
  8
0
  6
CONTINUOUS
 10
966.931948
 20
218.797823
 30
0.0
 11
966.502078
 21
219.090822
 31
0.0
  0
LINE
  8
0
  6
CONTINUOUS
 10
966.502078
 20
219.090822
 30
0.0
 11
966.087305
 21
219.399129
 31
0.0
  0
LINE
  8
0
  6
CONTINUOUS
 10
966.087305
 20
219.399129
 30
0.0
 11
965.688423
 21
219.721597
 31
0.0
  0
LINE
  8
0
  6
CONTINUOUS
 10
965.688423
 20
219.721597
 30
0.0
 11
965.31179
 21
220.03328
 31
0.0
  0
LINE
  8
0
  6
CONTINUOUS
 10
965.31179
 20
205.79631
 30
0.0
 11
965.688423
 21
206.157051
 31
0.0
  0
LINE
  8
0
  6
CONTINUOUS
 10
965.688423
 20
206.157051
 30
0.0
 11
965.31179
 21
205.79631
 31
0.0
  0
LINE
  8
0
  6
CONTINUOUS
 10
965.688423
 20
206.157051
 30
0.0
 11
966.087305
 21
206.49475
 31
0.0
  0
LINE
  8
0
  6
CONTINUOUS
 10
966.087305
 20
206.49475
 30
0.0
 11
965.688423
 21
206.157051
 31
0.0
  0
LINE
  8
0
  6
CONTINUOUS
 10
966.087305
 20
206.49475
 30
0.0
 11
966.502078
 21
206.809405
 31
0.0
  0
LINE
  8
0
  6
CONTINUOUS
 10
966.502078
 20
206.809405
 30
0.0
 11
966.087305
 21
206.49475
 31
0.0
  0
LINE
  8
0
  6
CONTINUOUS
 10
966.502078
 20
206.809405
 30
0.0
 11
966.931948
 21
207.108964
 31
0.0
  0
LINE
  8
0
  6
CONTINUOUS
 10
966.931948
 20
207.108964
 30
0.0
 11
966.502078
 21
206.809405
 31
0.0
  0
LINE
  8
0
  6
CONTINUOUS
 10
966.931948
 20
207.108964
 30
0.0
 11
967.376916
 21
207.384685
 31
0.0
  0
LINE
  8
0
  6
CONTINUOUS
 10
967.376916
 20
207.384685
 30
0.0
 11
966.931948
 21
207.108964
 31
0.0
  0
LINE
  8
0
  6
CONTINUOUS
 10
967.376916
 20
207.384685
 30
0.0
 11
967.837775
 21
207.631006
 31
0.0
  0
LINE
  8
0
  6
CONTINUOUS
 10
967.837775
 20
207.631006
 30
0.0
 11
967.376916
 21
207.384685
 31
0.0
  0
LINE
  8
0
  6
CONTINUOUS
 10
967.837775
 20
207.631006
 30
0.0
 11
968.305786
 21
207.85349
 31
0.0
  0
LINE
  8
0
  6
CONTINUOUS
 10
968.305786
 20
207.85349
 30
0.0
 11
967.837775
 21
207.631006
 31
0.0
  0
LINE
  8
0
  6
CONTINUOUS
 10
968.305786
 20
207.85349
 30
0.0
 11
968.789688
 21
208.052931
 31
0.0
  0
LINE
  8
0
  6
CONTINUOUS
 10
968.789688
 20
208.052931
 30
0.0
 11
968.305786
 21
207.85349
 31
0.0
  0
LINE
  8
0
  6
CONTINUOUS
 10
968.789688
 20
208.052931
 30
0.0
 11
969.280741
 21
208.229328
 31
0.0
  0
LINE
  8
0
  6
CONTINUOUS
 10
969.280741
 20
208.229328
 30
0.0
 11
968.789688
 21
208.052931
 31
0.0
  0
LINE
  8
0
  6
CONTINUOUS
 10
969.280741
 20
208.229328
 30
0.0
 11
969.786892
 21
208.375532
 31
0.0
  0
LINE
  8
0
  6
CONTINUOUS
 10
969.786892
 20
208.375532
 30
0.0
 11
969.280741
 21
208.229328
 31
0.0
  0
LINE
  8
0
  6
CONTINUOUS
 10
969.786892
 20
208.375532
 30
0.0
 11
970.293837
 21
208.497898
 31
0.0
  0
LINE
  8
0
  6
CONTINUOUS
 10
970.293837
 20
208.497898
 30
0.0
 11
969.786892
 21
208.375532
 31
0.0
  0
LINE
  8
0
  6
CONTINUOUS
 10
970.293837
 20
208.497898
 30
0.0
 11
970.807933
 21
208.598016
 31
0.0
  0
LINE
  8
0
  6
CONTINUOUS
 10
970.807933
 20
208.598016
 30
0.0
 11
970.293837
 21
208.497898
 31
0.0
  0
LINE
  8
0
  6
CONTINUOUS
 10
970.807933
 20
208.598016
 30
0.0
 11
971.322824
 21
208.667145
 31
0.0
  0
LINE
  8
0
  6
CONTINUOUS
 10
971.322824
 20
208.667145
 30
0.0
 11
970.807933
 21
208.598016
 31
0.0
  0
LINE
  8
0
  6
CONTINUOUS
 10
971.322824
 20
208.667145
 30
0.0
 11
971.844866
 21
208.705285
 31
0.0
  0
LINE
  8
0
  6
CONTINUOUS
 10
971.844866
 20
208.705285
 30
0.0
 11
971.322824
 21
208.667145
 31
0.0
  0
LINE
  8
0
  6
CONTINUOUS
 10
971.844866
 20
208.705285
 30
0.0
 11
972.366909
 21
208.720382
 31
0.0
  0
LINE
  8
0
  6
CONTINUOUS
 10
972.366909
 20
208.720382
 30
0.0
 11
971.844866
 21
208.705285
 31
0.0
  0
LINE
  8
0
  6
CONTINUOUS
 10
947.85635
 20
191.725007
 30
0.0
 11
948.016857
 21
191.548609
 31
0.0
  0
LINE
  8
0
  6
CONTINUOUS
 10
948.016857
 20
191.548609
 30
0.0
 11
947.85635
 21
191.725007
 31
0.0
  0
LINE
  8
0
  6
CONTINUOUS
 10
947.85635
 20
191.725007
 30
0.0
 11
944.401496
 21
195.179862
 31
0.0
  0
LINE
  8
0
  6
CONTINUOUS
 10
944.401496
 20
195.179862
 30
0.0
 11
944.148023
 21
195.417443
 31
0.0
  0
LINE
  8
0
  6
CONTINUOUS
 10
944.148023
 20
195.417443
 30
0.0
 11
943.872302
 21
195.624829
 31
0.0
  0
LINE
  8
0
  6
CONTINUOUS
 10
943.872302
 20
195.624829
 30
0.0
 11
943.572744
 21
195.817119
 31
0.0
  0
LINE
  8
0
  6
CONTINUOUS
 10
943.572744
 20
195.817119
 30
0.0
 11
943.265239
 21
195.970474
 31
0.0
  0
LINE
  8
0
  6
CONTINUOUS
 10
943.265239
 20
195.970474
 30
0.0
 11
942.943432
 21
196.108731
 31
0.0
  0
LINE
  8
0
  6
CONTINUOUS
 10
942.943432
 20
196.108731
 30
0.0
 11
942.612885
 21
196.208055
 31
0.0
  0
LINE
  8
0
  6
CONTINUOUS
 10
942.612885
 20
196.208055
 30
0.0
 11
942.275187
 21
196.285129
 31
0.0
  0
LINE
  8
0
  6
CONTINUOUS
 10
942.275187
 20
196.285129
 30
0.0
 11
941.929542
 21
196.331215
 31
0.0
  0
LINE
  8
0
  6
CONTINUOUS
 10
941.929542
 20
196.331215
 30
0.0
 11
941.584692
 21
196.346312
 31
0.0
  0
LINE
  8
0
  6
CONTINUOUS
 10
941.584692
 20
196.346312
 30
0.0
 11
941.231102
 21
196.331215
 31
0.0
  0
LINE
  8
0
  6
CONTINUOUS
 10
941.231102
 20
196.331215
 30
0.0
 11
940.885458
 21
196.285129
 31
0.0
  0
LINE
  8
0
  6
CONTINUOUS
 10
940.885458
 20
196.285129
 30
0.0
 11
940.547759
 21
196.208055
 31
0.0
  0
LINE
  8
0
  6
CONTINUOUS
 10
940.547759
 20
196.208055
 30
0.0
 11
940.218007
 21
196.108731
 31
0.0
  0
LINE
  8
0
  6
CONTINUOUS
 10
940.218007
 20
196.108731
 30
0.0
 11
939.895405
 21
195.970474
 31
0.0
  0
LINE
  8
0
  6
CONTINUOUS
 10
939.895405
 20
195.970474
 30
0.0
 11
939.588695
 21
195.817119
 31
0.0
  0
LINE
  8
0
  6
CONTINUOUS
 10
939.588695
 20
195.817119
 30
0.0
 11
939.289137
 21
195.624829
 31
0.0
  0
LINE
  8
0
  6
CONTINUOUS
 10
939.289137
 20
195.624829
 30
0.0
 11
939.012621
 21
195.417443
 31
0.0
  0
LINE
  8
0
  6
CONTINUOUS
 10
939.012621
 20
195.417443
 30
0.0
 11
938.759149
 21
195.179862
 31
0.0
  0
LINE
  8
0
  6
CONTINUOUS
 10
938.759149
 20
195.179862
 30
0.0
 11
935.596701
 21
192.01662
 31
0.0
  0
LINE
  8
0
  6
CONTINUOUS
 10
935.596701
 20
192.01662
 30
0.0
 11
938.759149
 21
195.179862
 31
0.0
  0
LINE
  8
0
  6
CONTINUOUS
 10
938.759149
 20
195.179862
 30
0.0
 11
939.012621
 21
195.417443
 31
0.0
  0
LINE
  8
0
  6
CONTINUOUS
 10
939.012621
 20
195.417443
 30
0.0
 11
939.289137
 21
195.624829
 31
0.0
  0
LINE
  8
0
  6
CONTINUOUS
 10
939.289137
 20
195.624829
 30
0.0
 11
939.588695
 21
195.817119
 31
0.0
  0
LINE
  8
0
  6
CONTINUOUS
 10
939.588695
 20
195.817119
 30
0.0
 11
939.895405
 21
195.970474
 31
0.0
  0
LINE
  8
0
  6
CONTINUOUS
 10
939.895405
 20
195.970474
 30
0.0
 11
940.218007
 21
196.108731
 31
0.0
  0
LINE
  8
0
  6
CONTINUOUS
 10
940.218007
 20
196.108731
 30
0.0
 11
940.547759
 21
196.208055
 31
0.0
  0
LINE
  8
0
  6
CONTINUOUS
 10
940.547759
 20
196.208055
 30
0.0
 11
940.885458
 21
196.285129
 31
0.0
  0
LINE
  8
0
  6
CONTINUOUS
 10
940.885458
 20
196.285129
 30
0.0
 11
941.231102
 21
196.331215
 31
0.0
  0
LINE
  8
0
  6
CONTINUOUS
 10
941.231102
 20
196.331215
 30
0.0
 11
941.584692
 21
196.346312
 31
0.0
  0
LINE
  8
0
  6
CONTINUOUS
 10
941.584692
 20
196.346312
 30
0.0
 11
941.929542
 21
196.331215
 31
0.0
  0
LINE
  8
0
  6
CONTINUOUS
 10
941.929542
 20
196.331215
 30
0.0
 11
942.275187
 21
196.285129
 31
0.0
  0
LINE
  8
0
  6
CONTINUOUS
 10
942.275187
 20
196.285129
 30
0.0
 11
942.612885
 21
196.208055
 31
0.0
  0
LINE
  8
0
  6
CONTINUOUS
 10
942.612885
 20
196.208055
 30
0.0
 11
942.943432
 21
196.108731
 31
0.0
  0
LINE
  8
0
  6
CONTINUOUS
 10
942.943432
 20
196.108731
 30
0.0
 11
943.265239
 21
195.970474
 31
0.0
  0
LINE
  8
0
  6
CONTINUOUS
 10
943.265239
 20
195.970474
 30
0.0
 11
943.572744
 21
195.817119
 31
0.0
  0
LINE
  8
0
  6
CONTINUOUS
 10
943.572744
 20
195.817119
 30
0.0
 11
943.872302
 21
195.624829
 31
0.0
  0
LINE
  8
0
  6
CONTINUOUS
 10
943.872302
 20
195.624829
 30
0.0
 11
944.148023
 21
195.417443
 31
0.0
  0
LINE
  8
0
  6
CONTINUOUS
 10
944.148023
 20
195.417443
 30
0.0
 11
944.401496
 21
195.179862
 31
0.0
  0
LINE
  8
0
  6
CONTINUOUS
 10
944.401496
 20
195.179862
 30
0.0
 11
947.85635
 21
191.725007
 31
0.0
  0
LINE
  8
0
  6
CONTINUOUS
 10
948.016857
 20
191.548609
 30
0.0
 11
948.155114
 21
191.349168
 31
0.0
  0
LINE
  8
0
  6
CONTINUOUS
 10
948.155114
 20
191.349168
 30
0.0
 11
948.016857
 21
191.548609
 31
0.0
  0
LINE
  8
0
  6
CONTINUOUS
 10
948.155114
 20
191.349168
 30
0.0
 11
948.263178
 21
191.133836
 31
0.0
  0
LINE
  8
0
  6
CONTINUOUS
 10
948.263178
 20
191.133836
 30
0.0
 11
948.155114
 21
191.349168
 31
0.0
  0
LINE
  8
0
  6
CONTINUOUS
 10
948.263178
 20
191.133836
 30
0.0
 11
948.347404
 21
190.911352
 31
0.0
  0
LINE
  8
0
  6
CONTINUOUS
 10
948.347404
 20
190.911352
 30
0.0
 11
948.263178
 21
191.133836
 31
0.0
  0
LINE
  8
0
  6
CONTINUOUS
 10
948.347404
 20
190.911352
 30
0.0
 11
948.408587
 21
190.673771
 31
0.0
  0
LINE
  8
0
  6
CONTINUOUS
 10
948.408587
 20
190.673771
 30
0.0
 11
948.347404
 21
190.911352
 31
0.0
  0
LINE
  8
0
  6
CONTINUOUS
 10
948.408587
 20
190.673771
 30
0.0
 11
948.439576
 21
190.435396
 31
0.0
  0
LINE
  8
0
  6
CONTINUOUS
 10
948.439576
 20
190.435396
 30
0.0
 11
948.408587
 21
190.673771
 31
0.0
  0
LINE
  8
0
  6
CONTINUOUS
 10
948.439576
 20
190.435396
 30
0.0
 11
948.439576
 21
190.197815
 31
0.0
  0
LINE
  8
0
  6
CONTINUOUS
 10
948.439576
 20
190.197815
 30
0.0
 11
948.439576
 21
190.435396
 31
0.0
  0
LINE
  8
0
  6
CONTINUOUS
 10
948.439576
 20
190.197815
 30
0.0
 11
948.408587
 21
189.959439
 31
0.0
  0
LINE
  8
0
  6
CONTINUOUS
 10
948.408587
 20
189.959439
 30
0.0
 11
948.439576
 21
190.197815
 31
0.0
  0
LINE
  8
0
  6
CONTINUOUS
 10
948.408587
 20
189.959439
 30
0.0
 11
948.347404
 21
189.721859
 31
0.0
  0
LINE
  8
0
  6
CONTINUOUS
 10
948.347404
 20
189.721859
 30
0.0
 11
948.408587
 21
189.959439
 31
0.0
  0
LINE
  8
0
  6
CONTINUOUS
 10
948.347404
 20
189.721859
 30
0.0
 11
948.263178
 21
189.499375
 31
0.0
  0
LINE
  8
0
  6
CONTINUOUS
 10
948.263178
 20
189.499375
 30
0.0
 11
948.347404
 21
189.721859
 31
0.0
  0
LINE
  8
0
  6
CONTINUOUS
 10
948.263178
 20
189.499375
 30
0.0
 11
948.155114
 21
189.284042
 31
0.0
  0
LINE
  8
0
  6
CONTINUOUS
 10
948.155114
 20
189.284042
 30
0.0
 11
948.263178
 21
189.499375
 31
0.0
  0
LINE
  8
0
  6
CONTINUOUS
 10
948.155114
 20
189.284042
 30
0.0
 11
948.016857
 21
189.084602
 31
0.0
  0
LINE
  8
0
  6
CONTINUOUS
 10
948.016857
 20
189.084602
 30
0.0
 11
948.155114
 21
189.284042
 31
0.0
  0
LINE
  8
0
  6
CONTINUOUS
 10
948.016857
 20
189.084602
 30
0.0
 11
947.85635
 21
188.908204
 31
0.0
  0
LINE
  8
0
  6
CONTINUOUS
 10
947.85635
 20
188.908204
 30
0.0
 11
948.016857
 21
189.084602
 31
0.0
  0
LINE
  8
0
  6
CONTINUOUS
 10
947.85635
 20
188.908204
 30
0.0
 11
947.672007
 21
188.746903
 31
0.0
  0
LINE
  8
0
  6
CONTINUOUS
 10
947.672007
 20
188.746903
 30
0.0
 11
947.85635
 21
188.908204
 31
0.0
  0
LINE
  8
0
  6
CONTINUOUS
 10
947.672007
 20
188.746903
 30
0.0
 11
947.479717
 21
188.608645
 31
0.0
  0
LINE
  8
0
  6
CONTINUOUS
 10
947.479717
 20
188.608645
 30
0.0
 11
947.672007
 21
188.746903
 31
0.0
  0
LINE
  8
0
  6
CONTINUOUS
 10
947.479717
 20
188.608645
 30
0.0
 11
947.265179
 21
188.49343
 31
0.0
  0
LINE
  8
0
  6
CONTINUOUS
 10
947.265179
 20
188.49343
 30
0.0
 11
947.479717
 21
188.608645
 31
0.0
  0
LINE
  8
0
  6
CONTINUOUS
 10
947.265179
 20
188.49343
 30
0.0
 11
947.03475
 21
188.409204
 31
0.0
  0
LINE
  8
0
  6
CONTINUOUS
 10
947.03475
 20
188.409204
 30
0.0
 11
947.265179
 21
188.49343
 31
0.0
  0
LINE
  8
0
  6
CONTINUOUS
 10
947.03475
 20
188.409204
 30
0.0
 11
946.80432
 21
188.355173
 31
0.0
  0
LINE
  8
0
  6
CONTINUOUS
 10
946.80432
 20
188.355173
 30
0.0
 11
947.03475
 21
188.409204
 31
0.0
  0
LINE
  8
0
  6
CONTINUOUS
 10
946.80432
 20
188.355173
 30
0.0
 11
946.566739
 21
188.324184
 31
0.0
  0
LINE
  8
0
  6
CONTINUOUS
 10
946.566739
 20
188.324184
 30
0.0
 11
946.80432
 21
188.355173
 31
0.0
  0
LINE
  8
0
  6
CONTINUOUS
 10
946.566739
 20
188.324184
 30
0.0
 11
946.320418
 21
188.324184
 31
0.0
  0
LINE
  8
0
  6
CONTINUOUS
 10
946.320418
 20
188.324184
 30
0.0
 11
946.566739
 21
188.324184
 31
0.0
  0
LINE
  8
0
  6
CONTINUOUS
 10
946.320418
 20
188.324184
 30
0.0
 11
946.082837
 21
188.355173
 31
0.0
  0
LINE
  8
0
  6
CONTINUOUS
 10
946.082837
 20
188.355173
 30
0.0
 11
946.320418
 21
188.324184
 31
0.0
  0
LINE
  8
0
  6
CONTINUOUS
 10
946.082837
 20
188.355173
 30
0.0
 11
945.852408
 21
188.409204
 31
0.0
  0
LINE
  8
0
  6
CONTINUOUS
 10
945.852408
 20
188.409204
 30
0.0
 11
946.082837
 21
188.355173
 31
0.0
  0
LINE
  8
0
  6
CONTINUOUS
 10
945.852408
 20
188.409204
 30
0.0
 11
945.621978
 21
188.49343
 31
0.0
  0
LINE
  8
0
  6
CONTINUOUS
 10
945.621978
 20
188.49343
 30
0.0
 11
945.852408
 21
188.409204
 31
0.0
  0
LINE
  8
0
  6
CONTINUOUS
 10
945.621978
 20
188.49343
 30
0.0
 11
945.414591
 21
188.608645
 31
0.0
  0
LINE
  8
0
  6
CONTINUOUS
 10
945.414591
 20
188.608645
 30
0.0
 11
945.621978
 21
188.49343
 31
0.0
  0
LINE
  8
0
  6
CONTINUOUS
 10
945.414591
 20
188.608645
 30
0.0
 11
945.215151
 21
188.746903
 31
0.0
  0
LINE
  8
0
  6
CONTINUOUS
 10
945.215151
 20
188.746903
 30
0.0
 11
945.414591
 21
188.608645
 31
0.0
  0
LINE
  8
0
  6
CONTINUOUS
 10
945.215151
 20
188.746903
 30
0.0
 11
945.030807
 21
188.908204
 31
0.0
  0
LINE
  8
0
  6
CONTINUOUS
 10
945.030807
 20
188.908204
 30
0.0
 11
945.215151
 21
188.746903
 31
0.0
  0
LINE
  8
0
  6
CONTINUOUS
 10
945.030807
 20
188.908204
 30
0.0
 11
941.584692
 21
192.354318
 31
0.0
  0
LINE
  8
0
  6
CONTINUOUS
 10
941.584692
 20
192.354318
 30
0.0
 11
945.030807
 21
188.908204
 31
0.0
  0
LINE
  8
0
  6
CONTINUOUS
 10
947.080836
 20
187.572507
 30
0.0
 11
939.588695
 21
187.572507
 31
0.0
  0
LINE
  8
0
  6
CONTINUOUS
 10
939.588695
 20
187.572507
 30
0.0
 11
939.588695
 21
190.359116
 31
0.0
  0
LINE
  8
0
  6
CONTINUOUS
 10
939.588695
 20
190.359116
 30
0.0
 11
941.584692
 21
192.354318
 31
0.0
  0
LINE
  8
0
  6
CONTINUOUS
 10
941.584692
 20
192.354318
 30
0.0
 11
939.588695
 21
190.359116
 31
0.0
  0
LINE
  8
0
  6
CONTINUOUS
 10
939.588695
 20
190.359116
 30
0.0
 11
939.588695
 21
187.572507
 31
0.0
  0
LINE
  8
0
  6
CONTINUOUS
 10
939.588695
 20
187.572507
 30
0.0
 11
947.080836
 21
187.572507
 31
0.0
  0
LINE
  8
0
  6
CONTINUOUS
 10
947.080836
 20
187.572507
 30
0.0
 11
965.31179
 21
205.79631
 31
0.0
  0
LINE
  8
0
  6
CONTINUOUS
 10
965.31179
 20
205.79631
 30
0.0
 11
947.080836
 21
187.572507
 31
0.0
  0
LINE
  8
0
  6
CONTINUOUS
 10
949.905585
 20
183.580512
 30
0.0
 11
939.588695
 21
183.580512
 31
0.0
  0
LINE
  8
0
  6
CONTINUOUS
 10
939.588695
 20
183.580512
 30
0.0
 11
949.905585
 21
183.580512
 31
0.0
  0
LINE
  8
0
  6
CONTINUOUS
 10
952.730334
 20
184.747758
 30
0.0
 11
967.791689
 21
199.808318
 31
0.0
  0
LINE
  8
0
  6
CONTINUOUS
 10
967.791689
 20
199.808318
 30
0.0
 11
952.730334
 21
184.747758
 31
0.0
  0
LINE
  8
0
  6
CONTINUOUS
 10
935.596701
 20
187.572507
 30
0.0
 11
935.596701
 21
192.01662
 31
0.0
  0
LINE
  8
0
  6
CONTINUOUS
 10
935.596701
 20
192.01662
 30
0.0
 11
935.596701
 21
187.572507
 31
0.0
  0
LINE
  8
0
  6
CONTINUOUS
 10
935.596701
 20
233.812176
 30
0.0
 11
938.759149
 21
230.649728
 31
0.0
  0
LINE
  8
0
  6
CONTINUOUS
 10
938.759149
 20
230.649728
 30
0.0
 11
935.596701
 21
233.812176
 31
0.0
  0
LINE
  8
0
  6
CONTINUOUS
 10
935.596701
 20
233.812176
 30
0.0
 11
935.596701
 21
238.257083
 31
0.0
  0
LINE
  8
0
  6
CONTINUOUS
 10
935.596701
 20
238.257083
 30
0.0
 11
935.596701
 21
233.812176
 31
0.0
  0
LINE
  8
0
  6
CONTINUOUS
 10
939.588695
 20
235.470474
 30
0.0
 11
939.588695
 21
238.257083
 31
0.0
  0
LINE
  8
0
  6
CONTINUOUS
 10
939.588695
 20
238.257083
 30
0.0
 11
947.080836
 21
238.257083
 31
0.0
  0
LINE
  8
0
  6
CONTINUOUS
 10
947.080836
 20
238.257083
 30
0.0
 11
965.31179
 21
220.03328
 31
0.0
  0
LINE
  8
0
  6
CONTINUOUS
 10
947.080836
 20
238.257083
 30
0.0
 11
939.588695
 21
238.257083
 31
0.0
  0
LINE
  8
0
  6
CONTINUOUS
 10
939.588695
 20
238.257083
 30
0.0
 11
939.588695
 21
235.470474
 31
0.0
  0
LINE
  8
0
  6
CONTINUOUS
 10
939.588695
 20
235.470474
 30
0.0
 11
941.584692
 21
233.474477
 31
0.0
  0
LINE
  8
0
  6
CONTINUOUS
 10
941.584692
 20
233.474477
 30
0.0
 11
939.588695
 21
235.470474
 31
0.0
  0
LINE
  8
0
  6
CONTINUOUS
 10
941.584692
 20
233.474477
 30
0.0
 11
945.030807
 21
236.921386
 31
0.0
  0
LINE
  8
0
  6
CONTINUOUS
 10
945.030807
 20
236.921386
 30
0.0
 11
941.584692
 21
233.474477
 31
0.0
  0
LINE
  8
0
  6
CONTINUOUS
 10
944.401496
 20
230.649728
 30
0.0
 11
947.85635
 21
234.103788
 31
0.0
  0
LINE
  8
0
  6
CONTINUOUS
 10
947.85635
 20
234.103788
 30
0.0
 11
944.401496
 21
230.649728
 31
0.0
  0
LINE
  8
0
  6
CONTINUOUS
 10
939.588695
 20
242.248283
 30
0.0
 11
949.905585
 21
242.248283
 31
0.0
  0
LINE
  8
0
  6
CONTINUOUS
 10
949.905585
 20
242.248283
 30
0.0
 11
939.588695
 21
242.248283
 31
0.0
  0
LINE
  8
0
  6
CONTINUOUS
 10
952.730334
 20
241.081832
 30
0.0
 11
967.791689
 21
226.020477
 31
0.0
  0
LINE
  8
0
  6
CONTINUOUS
 10
967.791689
 20
226.020477
 30
0.0
 11
952.730334
 21
241.081832
 31
0.0
  0
LINE
  8
0
  6
CONTINUOUS
 10
974.846013
 20
222.622678
 30
0.0
 11
1106.356954
 21
222.683621
 31
0.0
  0
LINE
  8
0
  6
CONTINUOUS
 10
1106.356954
 20
222.683621
 30
0.0
 11
974.846013
 21
222.622678
 31
0.0
  0
LINE
  8
0
  6
CONTINUOUS
 10
972.366909
 20
216.742089
 30
0.0
 11
991.46555
 21
216.696424
 31
0.0
  0
LINE
  8
0
  6
CONTINUOUS
 10
991.46555
 20
216.696424
 30
0.0
 11
972.366909
 21
216.742089
 31
0.0
  0
LINE
  8
0
  6
CONTINUOUS
 10
972.366909
 20
208.720382
 30
0.0
 11
991.46555
 21
208.720382
 31
0.0
  0
LINE
  8
0
  6
CONTINUOUS
 10
991.46555
 20
208.720382
 30
0.0
 11
972.366909
 21
208.720382
 31
0.0
  0
LINE
  8
0
  6
CONTINUOUS
 10
974.846013
 20
202.733185
 30
0.0
 11
1106.356954
 21
202.733185
 31
0.0
  0
LINE
  8
0
  6
CONTINUOUS
 10
1106.356954
 20
202.733185
 30
0.0
 11
974.846013
 21
202.733185
 31
0.0
  0
LINE
  8
0
  6
CONTINUOUS
 10
1118.869281
 20
209.342542
 30
0.0
 11
1118.868512
 21
209.342098
 31
0.0
  0
LINE
  8
0
  6
CONTINUOUS
 10
1118.868512
 20
209.342098
 30
0.0
 11
1118.869281
 21
209.342542
 31
0.0
  0
LINE
  8
0
  6
CONTINUOUS
 10
1117.286613
 20
456.98811
 30
0.0
 11
1108.352951
 21
462.146482
 31
0.0
  0
LINE
  8
0
  6
CONTINUOUS
 10
1117.196701
 20
448.37678
 30
0.0
 11
1108.352951
 21
443.270325
 31
0.0
  0
LINE
  8
0
  6
CONTINUOUS
 10
965.31179
 20
460.03328
 30
0.0
 11
947.080836
 21
478.257083
 31
0.0
  0
LINE
  8
0
  6
CONTINUOUS
 10
947.080836
 20
478.257083
 30
0.0
 11
965.31179
 21
460.03328
 31
0.0
  0
LINE
  8
0
  6
CONTINUOUS
 10
1003.440738
 20
446.725179
 30
0.0
 11
1003.432792
 21
446.725179
 31
0.0
  0
LINE
  8
0
  6
CONTINUOUS
 10
1003.432792
 20
446.725179
 30
0.0
 11
1003.087147
 21
446.740276
 31
0.0
  0
LINE
  8
0
  6
CONTINUOUS
 10
1003.087147
 20
446.740276
 30
0.0
 11
1002.741503
 21
446.786362
 31
0.0
  0
LINE
  8
0
  6
CONTINUOUS
 10
1002.741503
 20
446.786362
 30
0.0
 11
1002.403804
 21
446.855491
 31
0.0
  0
LINE
  8
0
  6
CONTINUOUS
 10
1002.403804
 20
446.855491
 30
0.0
 11
1002.741503
 21
446.786362
 31
0.0
  0
LINE
  8
0
  6
CONTINUOUS
 10
1002.741503
 20
446.786362
 30
0.0
 11
1003.087147
 21
446.740276
 31
0.0
  0
LINE
  8
0
  6
CONTINUOUS
 10
1003.087147
 20
446.740276
 30
0.0
 11
1003.440738
 21
446.725179
 31
0.0
  0
LINE
  8
0
  6
CONTINUOUS
 10
1002.403804
 20
446.855491
 30
0.0
 11
1002.074052
 21
446.96276
 31
0.0
  0
LINE
  8
0
  6
CONTINUOUS
 10
1002.074052
 20
446.96276
 30
0.0
 11
1002.403804
 21
446.855491
 31
0.0
  0
LINE
  8
0
  6
CONTINUOUS
 10
1002.074052
 20
446.96276
 30
0.0
 11
1001.75145
 21
447.093072
 31
0.0
  0
LINE
  8
0
  6
CONTINUOUS
 10
1001.75145
 20
447.093072
 30
0.0
 11
1002.074052
 21
446.96276
 31
0.0
  0
LINE
  8
0
  6
CONTINUOUS
 10
1001.75145
 20
447.093072
 30
0.0
 11
1001.444741
 21
447.254373
 31
0.0
  0
LINE
  8
0
  6
CONTINUOUS
 10
1001.444741
 20
447.254373
 30
0.0
 11
1001.75145
 21
447.093072
 31
0.0
  0
LINE
  8
0
  6
CONTINUOUS
 10
1001.444741
 20
447.254373
 30
0.0
 11
1001.145182
 21
447.446662
 31
0.0
  0
LINE
  8
0
  6
CONTINUOUS
 10
1001.145182
 20
447.446662
 30
0.0
 11
1001.444741
 21
447.254373
 31
0.0
  0
LINE
  8
0
  6
CONTINUOUS
 10
1001.145182
 20
447.446662
 30
0.0
 11
1000.868667
 21
447.653254
 31
0.0
  0
LINE
  8
0
  6
CONTINUOUS
 10
1000.868667
 20
447.653254
 30
0.0
 11
1001.145182
 21
447.446662
 31
0.0
  0
LINE
  8
0
  6
CONTINUOUS
 10
1000.868667
 20
447.653254
 30
0.0
 11
1000.615194
 21
447.89163
 31
0.0
  0
LINE
  8
0
  6
CONTINUOUS
 10
1000.615194
 20
447.89163
 30
0.0
 11
1000.868667
 21
447.653254
 31
0.0
  0
LINE
  8
0
  6
CONTINUOUS
 10
1000.615194
 20
447.89163
 30
0.0
 11
1000.377613
 21
448.145102
 31
0.0
  0
LINE
  8
0
  6
CONTINUOUS
 10
1000.377613
 20
448.145102
 30
0.0
 11
1000.615194
 21
447.89163
 31
0.0
  0
LINE
  8
0
  6
CONTINUOUS
 10
1000.377613
 20
448.145102
 30
0.0
 11
1000.170226
 21
448.421618
 31
0.0
  0
LINE
  8
0
  6
CONTINUOUS
 10
1000.170226
 20
448.421618
 30
0.0
 11
1000.377613
 21
448.145102
 31
0.0
  0
LINE
  8
0
  6
CONTINUOUS
 10
1000.170226
 20
448.421618
 30
0.0
 11
999.978732
 21
448.720382
 31
0.0
  0
LINE
  8
0
  6
CONTINUOUS
 10
999.978732
 20
448.720382
 30
0.0
 11
1000.170226
 21
448.421618
 31
0.0
  0
LINE
  8
0
  6
CONTINUOUS
 10
999.978732
 20
448.720382
 30
0.0
 11
999.817431
 21
449.027886
 31
0.0
  0
LINE
  8
0
  6
CONTINUOUS
 10
999.817431
 20
449.027886
 30
0.0
 11
999.978732
 21
448.720382
 31
0.0
  0
LINE
  8
0
  6
CONTINUOUS
 10
999.817431
 20
449.027886
 30
0.0
 11
999.686324
 21
449.350488
 31
0.0
  0
LINE
  8
0
  6
CONTINUOUS
 10
999.686324
 20
449.350488
 30
0.0
 11
999.817431
 21
449.027886
 31
0.0
  0
LINE
  8
0
  6
CONTINUOUS
 10
999.686324
 20
449.350488
 30
0.0
 11
999.579055
 21
449.68024
 31
0.0
  0
LINE
  8
0
  6
CONTINUOUS
 10
999.579055
 20
449.68024
 30
0.0
 11
999.686324
 21
449.350488
 31
0.0
  0
LINE
  8
0
  6
CONTINUOUS
 10
999.579055
 20
449.68024
 30
0.0
 11
999.509926
 21
450.017939
 31
0.0
  0
LINE
  8
0
  6
CONTINUOUS
 10
999.509926
 20
450.017939
 30
0.0
 11
999.579055
 21
449.68024
 31
0.0
  0
LINE
  8
0
  6
CONTINUOUS
 10
999.509926
 20
450.017939
 30
0.0
 11
999.463841
 21
450.363583
 31
0.0
  0
LINE
  8
0
  6
CONTINUOUS
 10
999.463841
 20
450.363583
 30
0.0
 11
999.509926
 21
450.017939
 31
0.0
  0
LINE
  8
0
  6
CONTINUOUS
 10
999.463841
 20
450.363583
 30
0.0
 11
999.448743
 21
450.708433
 31
0.0
  0
LINE
  8
0
  6
CONTINUOUS
 10
999.448743
 20
450.708433
 30
0.0
 11
999.448743
 21
450.716379
 31
0.0
  0
LINE
  8
0
  6
CONTINUOUS
 10
999.448743
 20
450.716379
 30
0.0
 11
999.463841
 21
450.363583
 31
0.0
  0
LINE
  8
0
  6
CONTINUOUS
 10
999.448743
 20
454.700427
 30
0.0
 11
999.463841
 21
455.054018
 31
0.0
  0
LINE
  8
0
  6
CONTINUOUS
 10
999.463841
 20
455.054018
 30
0.0
 11
999.448743
 21
454.708373
 31
0.0
  0
LINE
  8
0
  6
CONTINUOUS
 10
999.463841
 20
455.054018
 30
0.0
 11
999.509926
 21
455.398867
 31
0.0
  0
LINE
  8
0
  6
CONTINUOUS
 10
999.509926
 20
455.398867
 30
0.0
 11
999.463841
 21
455.054018
 31
0.0
  0
LINE
  8
0
  6
CONTINUOUS
 10
999.509926
 20
455.398867
 30
0.0
 11
999.579055
 21
455.736566
 31
0.0
  0
LINE
  8
0
  6
CONTINUOUS
 10
999.579055
 20
455.736566
 30
0.0
 11
999.509926
 21
455.398867
 31
0.0
  0
LINE
  8
0
  6
CONTINUOUS
 10
999.579055
 20
455.736566
 30
0.0
 11
999.686324
 21
456.067113
 31
0.0
  0
LINE
  8
0
  6
CONTINUOUS
 10
999.686324
 20
456.067113
 30
0.0
 11
999.579055
 21
455.736566
 31
0.0
  0
LINE
  8
0
  6
CONTINUOUS
 10
999.686324
 20
456.067113
 30
0.0
 11
999.817431
 21
456.389715
 31
0.0
  0
LINE
  8
0
  6
CONTINUOUS
 10
999.817431
 20
456.389715
 30
0.0
 11
999.686324
 21
456.067113
 31
0.0
  0
LINE
  8
0
  6
CONTINUOUS
 10
999.817431
 20
456.389715
 30
0.0
 11
999.978732
 21
456.696424
 31
0.0
  0
LINE
  8
0
  6
CONTINUOUS
 10
999.978732
 20
456.696424
 30
0.0
 11
999.817431
 21
456.389715
 31
0.0
  0
LINE
  8
0
  6
CONTINUOUS
 10
999.978732
 20
456.696424
 30
0.0
 11
1000.170226
 21
456.995983
 31
0.0
  0
LINE
  8
0
  6
CONTINUOUS
 10
1000.170226
 20
456.995983
 30
0.0
 11
999.978732
 21
456.696424
 31
0.0
  0
LINE
  8
0
  6
CONTINUOUS
 10
1000.170226
 20
456.995983
 30
0.0
 11
1000.377613
 21
457.271704
 31
0.0
  0
LINE
  8
0
  6
CONTINUOUS
 10
1000.377613
 20
457.271704
 30
0.0
 11
1000.170226
 21
456.995983
 31
0.0
  0
LINE
  8
0
  6
CONTINUOUS
 10
1000.377613
 20
457.271704
 30
0.0
 11
1000.615194
 21
457.525176
 31
0.0
  0
LINE
  8
0
  6
CONTINUOUS
 10
1000.615194
 20
457.525176
 30
0.0
 11
1000.377613
 21
457.271704
 31
0.0
  0
LINE
  8
0
  6
CONTINUOUS
 10
1000.615194
 20
457.525176
 30
0.0
 11
1000.868667
 21
457.763552
 31
0.0
  0
LINE
  8
0
  6
CONTINUOUS
 10
1000.868667
 20
457.763552
 30
0.0
 11
1000.615194
 21
457.525176
 31
0.0
  0
LINE
  8
0
  6
CONTINUOUS
 10
1000.868667
 20
457.763552
 30
0.0
 11
1001.145182
 21
457.970938
 31
0.0
  0
LINE
  8
0
  6
CONTINUOUS
 10
1001.145182
 20
457.970938
 30
0.0
 11
1000.868667
 21
457.763552
 31
0.0
  0
LINE
  8
0
  6
CONTINUOUS
 10
1001.145182
 20
457.970938
 30
0.0
 11
1001.444741
 21
458.162433
 31
0.0
  0
LINE
  8
0
  6
CONTINUOUS
 10
1001.444741
 20
458.162433
 30
0.0
 11
1001.145182
 21
457.970938
 31
0.0
  0
LINE
  8
0
  6
CONTINUOUS
 10
1001.444741
 20
458.162433
 30
0.0
 11
1001.75145
 21
458.323734
 31
0.0
  0
LINE
  8
0
  6
CONTINUOUS
 10
1001.75145
 20
458.323734
 30
0.0
 11
1001.444741
 21
458.162433
 31
0.0
  0
LINE
  8
0
  6
CONTINUOUS
 10
1001.75145
 20
458.323734
 30
0.0
 11
1002.074052
 21
458.454046
 31
0.0
  0
LINE
  8
0
  6
CONTINUOUS
 10
1002.074052
 20
458.454046
 30
0.0
 11
1001.75145
 21
458.323734
 31
0.0
  0
LINE
  8
0
  6
CONTINUOUS
 10
1002.074052
 20
458.454046
 30
0.0
 11
1002.403804
 21
458.56211
 31
0.0
  0
LINE
  8
0
  6
CONTINUOUS
 10
1002.403804
 20
458.56211
 30
0.0
 11
1002.074052
 21
458.454046
 31
0.0
  0
LINE
  8
0
  6
CONTINUOUS
 10
1002.403804
 20
458.56211
 30
0.0
 11
1002.741503
 21
458.630444
 31
0.0
  0
LINE
  8
0
  6
CONTINUOUS
 10
1002.741503
 20
458.630444
 30
0.0
 11
1002.403804
 21
458.56211
 31
0.0
  0
LINE
  8
0
  6
CONTINUOUS
 10
1002.741503
 20
458.630444
 30
0.0
 11
1003.087147
 21
458.67653
 31
0.0
  0
LINE
  8
0
  6
CONTINUOUS
 10
1003.087147
 20
458.67653
 30
0.0
 11
1002.741503
 21
458.630444
 31
0.0
  0
LINE
  8
0
  6
CONTINUOUS
 10
1003.087147
 20
458.67653
 30
0.0
 11
1003.440738
 21
458.692421
 31
0.0
  0
LINE
  8
0
  6
CONTINUOUS
 10
1003.440738
 20
458.692421
 30
0.0
 11
1003.087147
 21
458.67653
 31
0.0
  0
LINE
  8
0
  6
CONTINUOUS
 10
1003.440738
 20
458.692421
 30
0.0
 11
1106.356954
 21
458.692421
 31
0.0
  0
LINE
  8
0
  6
CONTINUOUS
 10
999.448743
 20
454.700427
 30
0.0
 11
999.448743
 21
450.716379
 31
0.0
  0
LINE
  8
0
  6
CONTINUOUS
 10
999.448743
 20
450.716379
 30
0.0
 11
999.448743
 21
454.700427
 31
0.0
  0
LINE
  8
0
  6
CONTINUOUS
 10
994.91961
 20
454.700427
 30
0.0
 11
994.735266
 21
454.999986
 31
0.0
  0
LINE
  8
0
  6
CONTINUOUS
 10
994.735266
 20
454.999986
 30
0.0
 11
994.520728
 21
455.276501
 31
0.0
  0
LINE
  8
0
  6
CONTINUOUS
 10
994.520728
 20
455.276501
 30
0.0
 11
994.290299
 21
455.529974
 31
0.0
  0
LINE
  8
0
  6
CONTINUOUS
 10
994.290299
 20
455.529974
 30
0.0
 11
994.02888
 21
455.767555
 31
0.0
  0
LINE
  8
0
  6
CONTINUOUS
 10
994.02888
 20
455.767555
 30
0.0
 11
993.753159
 21
455.974941
 31
0.0
  0
LINE
  8
0
  6
CONTINUOUS
 10
993.753159
 20
455.974941
 30
0.0
 11
993.461547
 21
456.166436
 31
0.0
  0
LINE
  8
0
  6
CONTINUOUS
 10
993.461547
 20
456.166436
 30
0.0
 11
993.154042
 21
456.327737
 31
0.0
  0
LINE
  8
0
  6
CONTINUOUS
 10
993.154042
 20
456.327737
 30
0.0
 11
992.831441
 21
456.458049
 31
0.0
  0
LINE
  8
0
  6
CONTINUOUS
 10
992.831441
 20
456.458049
 30
0.0
 11
992.501688
 21
456.566112
 31
0.0
  0
LINE
  8
0
  6
CONTINUOUS
 10
992.501688
 20
456.566112
 30
0.0
 11
992.156044
 21
456.635241
 31
0.0
  0
LINE
  8
0
  6
CONTINUOUS
 10
992.156044
 20
456.635241
 30
0.0
 11
991.810399
 21
456.681327
 31
0.0
  0
LINE
  8
0
  6
CONTINUOUS
 10
991.810399
 20
456.681327
 30
0.0
 11
991.46555
 21
456.696424
 31
0.0
  0
LINE
  8
0
  6
CONTINUOUS
 10
994.91961
 20
454.700427
 30
0.0
 11
995.080911
 21
454.393718
 31
0.0
  0
LINE
  8
0
  6
CONTINUOUS
 10
995.080911
 20
454.393718
 30
0.0
 11
995.211223
 21
454.071116
 31
0.0
  0
LINE
  8
0
  6
CONTINUOUS
 10
995.211223
 20
454.071116
 30
0.0
 11
995.318492
 21
453.741363
 31
0.0
  0
LINE
  8
0
  6
CONTINUOUS
 10
995.318492
 20
453.741363
 30
0.0
 11
995.395566
 21
453.40287
 31
0.0
  0
LINE
  8
0
  6
CONTINUOUS
 10
995.395566
 20
453.40287
 30
0.0
 11
995.441652
 21
453.05802
 31
0.0
  0
LINE
  8
0
  6
CONTINUOUS
 10
995.441652
 20
453.05802
 30
0.0
 11
995.456749
 21
452.712376
 31
0.0
  0
LINE
  8
0
  6
CONTINUOUS
 10
995.456749
 20
452.712376
 30
0.0
 11
995.441652
 21
452.35958
 31
0.0
  0
LINE
  8
0
  6
CONTINUOUS
 10
995.441652
 20
452.35958
 30
0.0
 11
995.395566
 21
452.013936
 31
0.0
  0
LINE
  8
0
  6
CONTINUOUS
 10
995.395566
 20
452.013936
 30
0.0
 11
995.441652
 21
452.35958
 31
0.0
  0
LINE
  8
0
  6
CONTINUOUS
 10
995.441652
 20
452.35958
 30
0.0
 11
995.456749
 21
452.712376
 31
0.0
  0
LINE
  8
0
  6
CONTINUOUS
 10
995.456749
 20
452.712376
 30
0.0
 11
995.441652
 21
453.05802
 31
0.0
  0
LINE
  8
0
  6
CONTINUOUS
 10
995.441652
 20
453.05802
 30
0.0
 11
995.395566
 21
453.40287
 31
0.0
  0
LINE
  8
0
  6
CONTINUOUS
 10
995.395566
 20
453.40287
 30
0.0
 11
995.318492
 21
453.741363
 31
0.0
  0
LINE
  8
0
  6
CONTINUOUS
 10
995.318492
 20
453.741363
 30
0.0
 11
995.211223
 21
454.071116
 31
0.0
  0
LINE
  8
0
  6
CONTINUOUS
 10
995.211223
 20
454.071116
 30
0.0
 11
995.080911
 21
454.393718
 31
0.0
  0
LINE
  8
0
  6
CONTINUOUS
 10
995.080911
 20
454.393718
 30
0.0
 11
994.91961
 21
454.700427
 31
0.0
  0
LINE
  8
0
  6
CONTINUOUS
 10
994.91961
 20
454.700427
 30
0.0
 11
994.735266
 21
454.999986
 31
0.0
  0
LINE
  8
0
  6
CONTINUOUS
 10
994.735266
 20
454.999986
 30
0.0
 11
994.520728
 21
455.276501
 31
0.0
  0
LINE
  8
0
  6
CONTINUOUS
 10
994.520728
 20
455.276501
 30
0.0
 11
994.290299
 21
455.529974
 31
0.0
  0
LINE
  8
0
  6
CONTINUOUS
 10
994.290299
 20
455.529974
 30
0.0
 11
994.02888
 21
455.767555
 31
0.0
  0
LINE
  8
0
  6
CONTINUOUS
 10
994.02888
 20
455.767555
 30
0.0
 11
993.753159
 21
455.974941
 31
0.0
  0
LINE
  8
0
  6
CONTINUOUS
 10
993.753159
 20
455.974941
 30
0.0
 11
993.461547
 21
456.166436
 31
0.0
  0
LINE
  8
0
  6
CONTINUOUS
 10
993.461547
 20
456.166436
 30
0.0
 11
993.154042
 21
456.327737
 31
0.0
  0
LINE
  8
0
  6
CONTINUOUS
 10
993.154042
 20
456.327737
 30
0.0
 11
992.831441
 21
456.458049
 31
0.0
  0
LINE
  8
0
  6
CONTINUOUS
 10
992.831441
 20
456.458049
 30
0.0
 11
992.501688
 21
456.566112
 31
0.0
  0
LINE
  8
0
  6
CONTINUOUS
 10
992.501688
 20
456.566112
 30
0.0
 11
992.156044
 21
456.635241
 31
0.0
  0
LINE
  8
0
  6
CONTINUOUS
 10
992.156044
 20
456.635241
 30
0.0
 11
991.810399
 21
456.681327
 31
0.0
  0
LINE
  8
0
  6
CONTINUOUS
 10
991.810399
 20
456.681327
 30
0.0
 11
991.46555
 21
456.696424
 31
0.0
  0
LINE
  8
0
  6
CONTINUOUS
 10
995.395566
 20
452.013936
 30
0.0
 11
995.318492
 21
451.676237
 31
0.0
  0
LINE
  8
0
  6
CONTINUOUS
 10
995.318492
 20
451.676237
 30
0.0
 11
995.395566
 21
452.013936
 31
0.0
  0
LINE
  8
0
  6
CONTINUOUS
 10
995.318492
 20
451.676237
 30
0.0
 11
995.211223
 21
451.34569
 31
0.0
  0
LINE
  8
0
  6
CONTINUOUS
 10
995.211223
 20
451.34569
 30
0.0
 11
995.318492
 21
451.676237
 31
0.0
  0
LINE
  8
0
  6
CONTINUOUS
 10
995.211223
 20
451.34569
 30
0.0
 11
995.080911
 21
451.023883
 31
0.0
  0
LINE
  8
0
  6
CONTINUOUS
 10
995.080911
 20
451.023883
 30
0.0
 11
995.211223
 21
451.34569
 31
0.0
  0
LINE
  8
0
  6
CONTINUOUS
 10
995.080911
 20
451.023883
 30
0.0
 11
994.91961
 21
450.716379
 31
0.0
  0
LINE
  8
0
  6
CONTINUOUS
 10
994.91961
 20
450.716379
 30
0.0
 11
995.080911
 21
451.023883
 31
0.0
  0
LINE
  8
0
  6
CONTINUOUS
 10
994.91961
 20
450.716379
 30
0.0
 11
994.735266
 21
450.41682
 31
0.0
  0
LINE
  8
0
  6
CONTINUOUS
 10
994.735266
 20
450.41682
 30
0.0
 11
994.91961
 21
450.716379
 31
0.0
  0
LINE
  8
0
  6
CONTINUOUS
 10
994.735266
 20
450.41682
 30
0.0
 11
994.520728
 21
450.1411
 31
0.0
  0
LINE
  8
0
  6
CONTINUOUS
 10
994.520728
 20
450.1411
 30
0.0
 11
994.735266
 21
450.41682
 31
0.0
  0
LINE
  8
0
  6
CONTINUOUS
 10
994.520728
 20
450.1411
 30
0.0
 11
994.290299
 21
449.887627
 31
0.0
  0
LINE
  8
0
  6
CONTINUOUS
 10
994.290299
 20
449.887627
 30
0.0
 11
994.520728
 21
450.1411
 31
0.0
  0
LINE
  8
0
  6
CONTINUOUS
 10
994.290299
 20
449.887627
 30
0.0
 11
994.02888
 21
449.649252
 31
0.0
  0
LINE
  8
0
  6
CONTINUOUS
 10
994.02888
 20
449.649252
 30
0.0
 11
994.290299
 21
449.887627
 31
0.0
  0
LINE
  8
0
  6
CONTINUOUS
 10
994.02888
 20
449.649252
 30
0.0
 11
993.753159
 21
449.441865
 31
0.0
  0
LINE
  8
0
  6
CONTINUOUS
 10
993.753159
 20
449.441865
 30
0.0
 11
994.02888
 21
449.649252
 31
0.0
  0
LINE
  8
0
  6
CONTINUOUS
 10
993.753159
 20
449.441865
 30
0.0
 11
993.461547
 21
449.25037
 31
0.0
  0
LINE
  8
0
  6
CONTINUOUS
 10
993.461547
 20
449.25037
 30
0.0
 11
993.753159
 21
449.441865
 31
0.0
  0
LINE
  8
0
  6
CONTINUOUS
 10
993.461547
 20
449.25037
 30
0.0
 11
993.154042
 21
449.089069
 31
0.0
  0
LINE
  8
0
  6
CONTINUOUS
 10
993.154042
 20
449.089069
 30
0.0
 11
993.461547
 21
449.25037
 31
0.0
  0
LINE
  8
0
  6
CONTINUOUS
 10
993.154042
 20
449.089069
 30
0.0
 11
992.831441
 21
448.958757
 31
0.0
  0
LINE
  8
0
  6
CONTINUOUS
 10
992.831441
 20
448.958757
 30
0.0
 11
993.154042
 21
449.089069
 31
0.0
  0
LINE
  8
0
  6
CONTINUOUS
 10
992.831441
 20
448.958757
 30
0.0
 11
992.501688
 21
448.851488
 31
0.0
  0
LINE
  8
0
  6
CONTINUOUS
 10
992.501688
 20
448.851488
 30
0.0
 11
992.831441
 21
448.958757
 31
0.0
  0
LINE
  8
0
  6
CONTINUOUS
 10
992.501688
 20
448.851488
 30
0.0
 11
992.156044
 21
448.782359
 31
0.0
  0
LINE
  8
0
  6
CONTINUOUS
 10
992.156044
 20
448.782359
 30
0.0
 11
992.501688
 21
448.851488
 31
0.0
  0
LINE
  8
0
  6
CONTINUOUS
 10
992.156044
 20
448.782359
 30
0.0
 11
991.810399
 21
448.736274
 31
0.0
  0
LINE
  8
0
  6
CONTINUOUS
 10
991.810399
 20
448.736274
 30
0.0
 11
992.156044
 21
448.782359
 31
0.0
  0
LINE
  8
0
  6
CONTINUOUS
 10
991.810399
 20
448.736274
 30
0.0
 11
991.46555
 21
448.720382
 31
0.0
  0
LINE
  8
0
  6
CONTINUOUS
 10
991.46555
 20
448.720382
 30
0.0
 11
991.810399
 21
448.736274
 31
0.0
  0
LINE
  8
0
  6
CONTINUOUS
 10
1003.440738
 20
446.725179
 30
0.0
 11
1106.356954
 21
446.725179
 31
0.0
  0
LINE
  8
0
  6
CONTINUOUS
 10
1106.356954
 20
446.725179
 30
0.0
 11
1116.719929
 21
452.712376
 31
0.0
  0
LINE
  8
0
  6
CONTINUOUS
 10
1116.719929
 20
452.712376
 30
0.0
 11
1106.356954
 21
458.692421
 31
0.0
  0
LINE
  8
0
  6
CONTINUOUS
 10
972.266791
 20
463.113486
 30
0.0
 11
972.773736
 21
462.892458
 31
0.0
  0
LINE
  8
0
  6
CONTINUOUS
 10
972.773736
 20
462.892458
 30
0.0
 11
973.287833
 21
462.685733
 31
0.0
  0
LINE
  8
0
  6
CONTINUOUS
 10
973.287833
 20
462.685733
 30
0.0
 11
973.801929
 21
462.616604
 31
0.0
  0
LINE
  8
0
  6
CONTINUOUS
 10
973.801929
 20
462.616604
 30
0.0
 11
974.323971
 21
462.63857
 31
0.0
  0
LINE
  8
0
  6
CONTINUOUS
 10
974.323971
 20
462.63857
 30
0.0
 11
974.846013
 21
462.622678
 31
0.0
  0
LINE
  8
0
  6
CONTINUOUS
 10
974.846013
 20
462.622678
 30
0.0
 11
974.323971
 21
462.63857
 31
0.0
  0
LINE
  8
0
  6
CONTINUOUS
 10
974.323971
 20
462.63857
 30
0.0
 11
973.801929
 21
462.616604
 31
0.0
  0
LINE
  8
0
  6
CONTINUOUS
 10
973.801929
 20
462.616604
 30
0.0
 11
973.287833
 21
462.685733
 31
0.0
  0
LINE
  8
0
  6
CONTINUOUS
 10
973.287833
 20
462.685733
 30
0.0
 11
972.773736
 21
462.892458
 31
0.0
  0
LINE
  8
0
  6
CONTINUOUS
 10
972.773736
 20
462.892458
 30
0.0
 11
972.266791
 21
463.113486
 31
0.0
  0
LINE
  8
0
  6
CONTINUOUS
 10
972.266791
 20
463.113486
 30
0.0
 11
971.759846
 21
463.374243
 31
0.0
  0
LINE
  8
0
  6
CONTINUOUS
 10
971.759846
 20
463.374243
 30
0.0
 11
972.266791
 21
463.113486
 31
0.0
  0
LINE
  8
0
  6
CONTINUOUS
 10
971.759846
 20
463.374243
 30
0.0
 11
971.268792
 21
463.649303
 31
0.0
  0
LINE
  8
0
  6
CONTINUOUS
 10
971.268792
 20
463.649303
 30
0.0
 11
971.759846
 21
463.374243
 31
0.0
  0
LINE
  8
0
  6
CONTINUOUS
 10
971.268792
 20
463.649303
 30
0.0
 11
970.78489
 21
463.848743
 31
0.0
  0
LINE
  8
0
  6
CONTINUOUS
 10
970.78489
 20
463.848743
 30
0.0
 11
971.268792
 21
463.649303
 31
0.0
  0
LINE
  8
0
  6
CONTINUOUS
 10
970.78489
 20
463.848743
 30
0.0
 11
970.31688
 21
464.079173
 31
0.0
  0
LINE
  8
0
  6
CONTINUOUS
 10
970.31688
 20
464.079173
 30
0.0
 11
970.78489
 21
463.848743
 31
0.0
  0
LINE
  8
0
  6
CONTINUOUS
 10
970.31688
 20
464.079173
 30
0.0
 11
969.856021
 21
464.431307
 31
0.0
  0
LINE
  8
0
  6
CONTINUOUS
 10
969.856021
 20
464.431307
 30
0.0
 11
970.31688
 21
464.079173
 31
0.0
  0
LINE
  8
0
  6
CONTINUOUS
 10
969.856021
 20
464.431307
 30
0.0
 11
969.411053
 21
464.707823
 31
0.0
  0
LINE
  8
0
  6
CONTINUOUS
 10
969.411053
 20
464.707823
 30
0.0
 11
969.856021
 21
464.431307
 31
0.0
  0
LINE
  8
0
  6
CONTINUOUS
 10
969.411053
 20
464.707823
 30
0.0
 11
968.981183
 21
464.999436
 31
0.0
  0
LINE
  8
0
  6
CONTINUOUS
 10
968.981183
 20
464.999436
 30
0.0
 11
969.411053
 21
464.707823
 31
0.0
  0
LINE
  8
0
  6
CONTINUOUS
 10
968.981183
 20
464.999436
 30
0.0
 11
968.566409
 21
465.322037
 31
0.0
  0
LINE
  8
0
  6
CONTINUOUS
 10
968.566409
 20
465.322037
 30
0.0
 11
968.981183
 21
464.999436
 31
0.0
  0
LINE
  8
0
  6
CONTINUOUS
 10
968.566409
 20
465.322037
 30
0.0
 11
968.167528
 21
465.659736
 31
0.0
  0
LINE
  8
0
  6
CONTINUOUS
 10
968.167528
 20
465.659736
 30
0.0
 11
968.566409
 21
465.322037
 31
0.0
  0
LINE
  8
0
  6
CONTINUOUS
 10
968.167528
 20
465.659736
 30
0.0
 11
967.791689
 21
466.020477
 31
0.0
  0
LINE
  8
0
  6
CONTINUOUS
 10
967.791689
 20
466.020477
 30
0.0
 11
968.167528
 21
465.659736
 31
0.0
  0
LINE
  8
0
  6
CONTINUOUS
 10
935.657884
 20
426.874067
 30
0.0
 11
935.611798
 21
427.218916
 31
0.0
  0
LINE
  8
0
  6
CONTINUOUS
 10
935.611798
 20
427.218916
 30
0.0
 11
935.596701
 21
427.572507
 31
0.0
  0
LINE
  8
0
  6
CONTINUOUS
 10
935.657884
 20
426.874067
 30
0.0
 11
935.727013
 21
426.536368
 31
0.0
  0
LINE
  8
0
  6
CONTINUOUS
 10
935.727013
 20
426.536368
 30
0.0
 11
935.835077
 21
426.205821
 31
0.0
  0
LINE
  8
0
  6
CONTINUOUS
 10
935.835077
 20
426.205821
 30
0.0
 11
935.965389
 21
425.883219
 31
0.0
  0
LINE
  8
0
  6
CONTINUOUS
 10
935.965389
 20
425.883219
 30
0.0
 11
936.126689
 21
425.57651
 31
0.0
  0
LINE
  8
0
  6
CONTINUOUS
 10
936.126689
 20
425.57651
 30
0.0
 11
936.318184
 21
425.276951
 31
0.0
  0
LINE
  8
0
  6
CONTINUOUS
 10
936.318184
 20
425.276951
 30
0.0
 11
936.525571
 21
425.000436
 31
0.0
  0
LINE
  8
0
  6
CONTINUOUS
 10
936.525571
 20
425.000436
 30
0.0
 11
936.763946
 21
424.747758
 31
0.0
  0
LINE
  8
0
  6
CONTINUOUS
 10
936.763946
 20
424.747758
 30
0.0
 11
937.016624
 21
424.509382
 31
0.0
  0
LINE
  8
0
  6
CONTINUOUS
 10
937.016624
 20
424.509382
 30
0.0
 11
937.29314
 21
424.301995
 31
0.0
  0
LINE
  8
0
  6
CONTINUOUS
 10
937.29314
 20
424.301995
 30
0.0
 11
937.592698
 21
424.110501
 31
0.0
  0
LINE
  8
0
  6
CONTINUOUS
 10
937.592698
 20
424.110501
 30
0.0
 11
937.899408
 21
423.9492
 31
0.0
  0
LINE
  8
0
  6
CONTINUOUS
 10
937.899408
 20
423.9492
 30
0.0
 11
938.222009
 21
423.818888
 31
0.0
  0
LINE
  8
0
  6
CONTINUOUS
 10
938.222009
 20
423.818888
 30
0.0
 11
938.552557
 21
423.710824
 31
0.0
  0
LINE
  8
0
  6
CONTINUOUS
 10
938.552557
 20
423.710824
 30
0.0
 11
938.890255
 21
423.641695
 31
0.0
  0
LINE
  8
0
  6
CONTINUOUS
 10
938.890255
 20
423.641695
 30
0.0
 11
939.235105
 21
423.59561
 31
0.0
  0
LINE
  8
0
  6
CONTINUOUS
 10
939.235105
 20
423.59561
 30
0.0
 11
939.588695
 21
423.580512
 31
0.0
  0
LINE
  8
0
  6
CONTINUOUS
 10
935.611798
 20
427.218916
 30
0.0
 11
935.596701
 21
427.572507
 31
0.0
  0
LINE
  8
0
  6
CONTINUOUS
 10
935.611798
 20
427.218916
 30
0.0
 11
935.657884
 21
426.874067
 31
0.0
  0
LINE
  8
0
  6
CONTINUOUS
 10
935.657884
 20
426.874067
 30
0.0
 11
935.727013
 21
426.536368
 31
0.0
  0
LINE
  8
0
  6
CONTINUOUS
 10
935.727013
 20
426.536368
 30
0.0
 11
935.835077
 21
426.205821
 31
0.0
  0
LINE
  8
0
  6
CONTINUOUS
 10
935.835077
 20
426.205821
 30
0.0
 11
935.965389
 21
425.883219
 31
0.0
  0
LINE
  8
0
  6
CONTINUOUS
 10
935.965389
 20
425.883219
 30
0.0
 11
936.126689
 21
425.57651
 31
0.0
  0
LINE
  8
0
  6
CONTINUOUS
 10
936.126689
 20
425.57651
 30
0.0
 11
936.318184
 21
425.276951
 31
0.0
  0
LINE
  8
0
  6
CONTINUOUS
 10
936.318184
 20
425.276951
 30
0.0
 11
936.525571
 21
425.000436
 31
0.0
  0
LINE
  8
0
  6
CONTINUOUS
 10
936.525571
 20
425.000436
 30
0.0
 11
936.763946
 21
424.747758
 31
0.0
  0
LINE
  8
0
  6
CONTINUOUS
 10
936.763946
 20
424.747758
 30
0.0
 11
937.016624
 21
424.509382
 31
0.0
  0
LINE
  8
0
  6
CONTINUOUS
 10
937.016624
 20
424.509382
 30
0.0
 11
937.29314
 21
424.301995
 31
0.0
  0
LINE
  8
0
  6
CONTINUOUS
 10
937.29314
 20
424.301995
 30
0.0
 11
937.592698
 21
424.110501
 31
0.0
  0
LINE
  8
0
  6
CONTINUOUS
 10
937.592698
 20
424.110501
 30
0.0
 11
937.899408
 21
423.9492
 31
0.0
  0
LINE
  8
0
  6
CONTINUOUS
 10
937.899408
 20
423.9492
 30
0.0
 11
938.222009
 21
423.818888
 31
0.0
  0
LINE
  8
0
  6
CONTINUOUS
 10
938.222009
 20
423.818888
 30
0.0
 11
938.552557
 21
423.710824
 31
0.0
  0
LINE
  8
0
  6
CONTINUOUS
 10
938.552557
 20
423.710824
 30
0.0
 11
938.890255
 21
423.641695
 31
0.0
  0
LINE
  8
0
  6
CONTINUOUS
 10
938.890255
 20
423.641695
 30
0.0
 11
939.235105
 21
423.59561
 31
0.0
  0
LINE
  8
0
  6
CONTINUOUS
 10
939.235105
 20
423.59561
 30
0.0
 11
939.588695
 21
423.580512
 31
0.0
  0
LINE
  8
0
  6
CONTINUOUS
 10
949.905585
 20
423.580512
 30
0.0
 11
950.251229
 21
423.59561
 31
0.0
  0
LINE
  8
0
  6
CONTINUOUS
 10
950.251229
 20
423.59561
 30
0.0
 11
950.596079
 21
423.641695
 31
0.0
  0
LINE
  8
0
  6
CONTINUOUS
 10
950.596079
 20
423.641695
 30
0.0
 11
950.934572
 21
423.710824
 31
0.0
  0
LINE
  8
0
  6
CONTINUOUS
 10
950.934572
 20
423.710824
 30
0.0
 11
951.272271
 21
423.818888
 31
0.0
  0
LINE
  8
0
  6
CONTINUOUS
 10
951.272271
 20
423.818888
 30
0.0
 11
951.594078
 21
423.9492
 31
0.0
  0
LINE
  8
0
  6
CONTINUOUS
 10
951.594078
 20
423.9492
 30
0.0
 11
951.901582
 21
424.110501
 31
0.0
  0
LINE
  8
0
  6
CONTINUOUS
 10
951.901582
 20
424.110501
 30
0.0
 11
952.193194
 21
424.301995
 31
0.0
  0
LINE
  8
0
  6
CONTINUOUS
 10
952.193194
 20
424.301995
 30
0.0
 11
952.46971
 21
424.509382
 31
0.0
  0
LINE
  8
0
  6
CONTINUOUS
 10
952.46971
 20
424.509382
 30
0.0
 11
952.730334
 21
424.747758
 31
0.0
  0
LINE
  8
0
  6
CONTINUOUS
 10
950.251229
 20
423.59561
 30
0.0
 11
949.905585
 21
423.580512
 31
0.0
  0
LINE
  8
0
  6
CONTINUOUS
 10
950.251229
 20
423.59561
 30
0.0
 11
950.596079
 21
423.641695
 31
0.0
  0
LINE
  8
0
  6
CONTINUOUS
 10
950.596079
 20
423.641695
 30
0.0
 11
950.934572
 21
423.710824
 31
0.0
  0
LINE
  8
0
  6
CONTINUOUS
 10
950.934572
 20
423.710824
 30
0.0
 11
951.272271
 21
423.818888
 31
0.0
  0
LINE
  8
0
  6
CONTINUOUS
 10
951.272271
 20
423.818888
 30
0.0
 11
951.594078
 21
423.9492
 31
0.0
  0
LINE
  8
0
  6
CONTINUOUS
 10
951.594078
 20
423.9492
 30
0.0
 11
951.901582
 21
424.110501
 31
0.0
  0
LINE
  8
0
  6
CONTINUOUS
 10
951.901582
 20
424.110501
 30
0.0
 11
952.193194
 21
424.301995
 31
0.0
  0
LINE
  8
0
  6
CONTINUOUS
 10
952.193194
 20
424.301995
 30
0.0
 11
952.46971
 21
424.509382
 31
0.0
  0
LINE
  8
0
  6
CONTINUOUS
 10
952.46971
 20
424.509382
 30
0.0
 11
952.730334
 21
424.747758
 31
0.0
  0
LINE
  8
0
  6
CONTINUOUS
 10
967.791689
 20
439.808318
 30
0.0
 11
968.167528
 21
440.16906
 31
0.0
  0
LINE
  8
0
  6
CONTINUOUS
 10
968.167528
 20
440.16906
 30
0.0
 11
967.791689
 21
439.808318
 31
0.0
  0
LINE
  8
0
  6
CONTINUOUS
 10
968.167528
 20
440.16906
 30
0.0
 11
968.566409
 21
440.506758
 31
0.0
  0
LINE
  8
0
  6
CONTINUOUS
 10
968.566409
 20
440.506758
 30
0.0
 11
968.167528
 21
440.16906
 31
0.0
  0
LINE
  8
0
  6
CONTINUOUS
 10
968.566409
 20
440.506758
 30
0.0
 11
968.981183
 21
440.82936
 31
0.0
  0
LINE
  8
0
  6
CONTINUOUS
 10
968.981183
 20
440.82936
 30
0.0
 11
968.566409
 21
440.506758
 31
0.0
  0
LINE
  8
0
  6
CONTINUOUS
 10
968.981183
 20
440.82936
 30
0.0
 11
969.411053
 21
441.120973
 31
0.0
  0
LINE
  8
0
  6
CONTINUOUS
 10
969.411053
 20
441.120973
 30
0.0
 11
968.981183
 21
440.82936
 31
0.0
  0
LINE
  8
0
  6
CONTINUOUS
 10
969.411053
 20
441.120973
 30
0.0
 11
969.856021
 21
441.397488
 31
0.0
  0
LINE
  8
0
  6
CONTINUOUS
 10
969.856021
 20
441.397488
 30
0.0
 11
969.411053
 21
441.120973
 31
0.0
  0
LINE
  8
0
  6
CONTINUOUS
 10
969.856021
 20
441.397488
 30
0.0
 11
970.31688
 21
441.643015
 31
0.0
  0
LINE
  8
0
  6
CONTINUOUS
 10
970.31688
 20
441.643015
 30
0.0
 11
969.856021
 21
441.397488
 31
0.0
  0
LINE
  8
0
  6
CONTINUOUS
 10
970.31688
 20
441.643015
 30
0.0
 11
970.78489
 21
441.873444
 31
0.0
  0
LINE
  8
0
  6
CONTINUOUS
 10
970.78489
 20
441.873444
 30
0.0
 11
970.31688
 21
441.643015
 31
0.0
  0
LINE
  8
0
  6
CONTINUOUS
 10
970.78489
 20
441.873444
 30
0.0
 11
971.268792
 21
442.072885
 31
0.0
  0
LINE
  8
0
  6
CONTINUOUS
 10
971.268792
 20
442.072885
 30
0.0
 11
970.78489
 21
441.873444
 31
0.0
  0
LINE
  8
0
  6
CONTINUOUS
 10
971.268792
 20
442.072885
 30
0.0
 11
971.759846
 21
442.242132
 31
0.0
  0
LINE
  8
0
  6
CONTINUOUS
 10
971.759846
 20
442.242132
 30
0.0
 11
971.268792
 21
442.072885
 31
0.0
  0
LINE
  8
0
  6
CONTINUOUS
 10
971.759846
 20
442.242132
 30
0.0
 11
972.266791
 21
442.395487
 31
0.0
  0
LINE
  8
0
  6
CONTINUOUS
 10
972.266791
 20
442.395487
 30
0.0
 11
971.759846
 21
442.242132
 31
0.0
  0
LINE
  8
0
  6
CONTINUOUS
 10
972.266791
 20
442.395487
 30
0.0
 11
972.773736
 21
442.517853
 31
0.0
  0
LINE
  8
0
  6
CONTINUOUS
 10
972.773736
 20
442.517853
 30
0.0
 11
972.266791
 21
442.395487
 31
0.0
  0
LINE
  8
0
  6
CONTINUOUS
 10
972.773736
 20
442.517853
 30
0.0
 11
973.287833
 21
442.610025
 31
0.0
  0
LINE
  8
0
  6
CONTINUOUS
 10
973.287833
 20
442.610025
 30
0.0
 11
972.773736
 21
442.517853
 31
0.0
  0
LINE
  8
0
  6
CONTINUOUS
 10
973.287833
 20
442.610025
 30
0.0
 11
973.801929
 21
442.679153
 31
0.0
  0
LINE
  8
0
  6
CONTINUOUS
 10
973.801929
 20
442.679153
 30
0.0
 11
973.287833
 21
442.610025
 31
0.0
  0
LINE
  8
0
  6
CONTINUOUS
 10
973.801929
 20
442.679153
 30
0.0
 11
974.323971
 21
442.718088
 31
0.0
  0
LINE
  8
0
  6
CONTINUOUS
 10
974.323971
 20
442.718088
 30
0.0
 11
973.801929
 21
442.679153
 31
0.0
  0
LINE
  8
0
  6
CONTINUOUS
 10
974.323971
 20
442.718088
 30
0.0
 11
974.846013
 21
442.733185
 31
0.0
  0
LINE
  8
0
  6
CONTINUOUS
 10
974.846013
 20
442.733185
 30
0.0
 11
974.323971
 21
442.718088
 31
0.0
  0
LINE
  8
0
  6
CONTINUOUS
 10
1106.356954
 20
442.733185
 30
0.0
 11
1106.702598
 21
442.748282
 31
0.0
  0
LINE
  8
0
  6
CONTINUOUS
 10
1106.702598
 20
442.748282
 30
0.0
 11
1107.048243
 21
442.794368
 31
0.0
  0
LINE
  8
0
  6
CONTINUOUS
 10
1107.048243
 20
442.794368
 30
0.0
 11
1107.385941
 21
442.871443
 31
0.0
  0
LINE
  8
0
  6
CONTINUOUS
 10
1107.385941
 20
442.871443
 30
0.0
 11
1107.715694
 21
442.970766
 31
0.0
  0
LINE
  8
0
  6
CONTINUOUS
 10
1107.715694
 20
442.970766
 30
0.0
 11
1108.038295
 21
443.109024
 31
0.0
  0
LINE
  8
0
  6
CONTINUOUS
 10
1108.038295
 20
443.109024
 30
0.0
 11
1108.352951
 21
443.270325
 31
0.0
  0
LINE
  8
0
  6
CONTINUOUS
 10
1108.352951
 20
443.270325
 30
0.0
 11
1108.038295
 21
443.109024
 31
0.0
  0
LINE
  8
0
  6
CONTINUOUS
 10
1108.038295
 20
443.109024
 30
0.0
 11
1107.715694
 21
442.970766
 31
0.0
  0
LINE
  8
0
  6
CONTINUOUS
 10
1107.715694
 20
442.970766
 30
0.0
 11
1107.385941
 21
442.871443
 31
0.0
  0
LINE
  8
0
  6
CONTINUOUS
 10
1107.385941
 20
442.871443
 30
0.0
 11
1107.048243
 21
442.794368
 31
0.0
  0
LINE
  8
0
  6
CONTINUOUS
 10
1107.048243
 20
442.794368
 30
0.0
 11
1106.702598
 21
442.748282
 31
0.0
  0
LINE
  8
0
  6
CONTINUOUS
 10
1106.702598
 20
442.748282
 30
0.0
 11
1106.356954
 21
442.733185
 31
0.0
  0
LINE
  8
0
  6
CONTINUOUS
 10
1108.352951
 20
462.146482
 30
0.0
 11
1108.038295
 21
462.307782
 31
0.0
  0
LINE
  8
0
  6
CONTINUOUS
 10
1108.038295
 20
462.307782
 30
0.0
 11
1107.715694
 21
462.44604
 31
0.0
  0
LINE
  8
0
  6
CONTINUOUS
 10
1107.715694
 20
462.44604
 30
0.0
 11
1107.385941
 21
462.545363
 31
0.0
  0
LINE
  8
0
  6
CONTINUOUS
 10
1107.385941
 20
462.545363
 30
0.0
 11
1107.048243
 21
462.622438
 31
0.0
  0
LINE
  8
0
  6
CONTINUOUS
 10
1107.048243
 20
462.622438
 30
0.0
 11
1106.702598
 21
462.668524
 31
0.0
  0
LINE
  8
0
  6
CONTINUOUS
 10
1106.702598
 20
462.668524
 30
0.0
 11
1106.356954
 21
462.683621
 31
0.0
  0
LINE
  8
0
  6
CONTINUOUS
 10
1106.356954
 20
462.683621
 30
0.0
 11
1106.702598
 21
462.668524
 31
0.0
  0
LINE
  8
0
  6
CONTINUOUS
 10
1106.702598
 20
462.668524
 30
0.0
 11
1107.048243
 21
462.622438
 31
0.0
  0
LINE
  8
0
  6
CONTINUOUS
 10
1107.048243
 20
462.622438
 30
0.0
 11
1107.385941
 21
462.545363
 31
0.0
  0
LINE
  8
0
  6
CONTINUOUS
 10
1107.385941
 20
462.545363
 30
0.0
 11
1107.715694
 21
462.44604
 31
0.0
  0
LINE
  8
0
  6
CONTINUOUS
 10
1107.715694
 20
462.44604
 30
0.0
 11
1108.038295
 21
462.307782
 31
0.0
  0
LINE
  8
0
  6
CONTINUOUS
 10
1108.038295
 20
462.307782
 30
0.0
 11
1108.352951
 21
462.146482
 31
0.0
  0
LINE
  8
0
  6
CONTINUOUS
 10
944.401496
 20
470.649728
 30
0.0
 11
944.148023
 21
470.411353
 31
0.0
  0
LINE
  8
0
  6
CONTINUOUS
 10
944.148023
 20
470.411353
 30
0.0
 11
944.401496
 21
470.649728
 31
0.0
  0
LINE
  8
0
  6
CONTINUOUS
 10
944.148023
 20
470.411353
 30
0.0
 11
943.872302
 21
470.203966
 31
0.0
  0
LINE
  8
0
  6
CONTINUOUS
 10
943.872302
 20
470.203966
 30
0.0
 11
944.148023
 21
470.411353
 31
0.0
  0
LINE
  8
0
  6
CONTINUOUS
 10
943.872302
 20
470.203966
 30
0.0
 11
943.572744
 21
470.012471
 31
0.0
  0
LINE
  8
0
  6
CONTINUOUS
 10
943.572744
 20
470.012471
 30
0.0
 11
943.872302
 21
470.203966
 31
0.0
  0
LINE
  8
0
  6
CONTINUOUS
 10
943.572744
 20
470.012471
 30
0.0
 11
943.265239
 21
469.859116
 31
0.0
  0
LINE
  8
0
  6
CONTINUOUS
 10
943.265239
 20
469.859116
 30
0.0
 11
943.572744
 21
470.012471
 31
0.0
  0
LINE
  8
0
  6
CONTINUOUS
 10
943.265239
 20
469.859116
 30
0.0
 11
942.943432
 21
469.720859
 31
0.0
  0
LINE
  8
0
  6
CONTINUOUS
 10
942.943432
 20
469.720859
 30
0.0
 11
943.265239
 21
469.859116
 31
0.0
  0
LINE
  8
0
  6
CONTINUOUS
 10
942.943432
 20
469.720859
 30
0.0
 11
942.612885
 21
469.620741
 31
0.0
  0
LINE
  8
0
  6
CONTINUOUS
 10
942.612885
 20
469.620741
 30
0.0
 11
942.943432
 21
469.720859
 31
0.0
  0
LINE
  8
0
  6
CONTINUOUS
 10
942.612885
 20
469.620741
 30
0.0
 11
942.275187
 21
469.544461
 31
0.0
  0
LINE
  8
0
  6
CONTINUOUS
 10
942.275187
 20
469.544461
 30
0.0
 11
942.612885
 21
469.620741
 31
0.0
  0
LINE
  8
0
  6
CONTINUOUS
 10
942.275187
 20
469.544461
 30
0.0
 11
941.929542
 21
469.498375
 31
0.0
  0
LINE
  8
0
  6
CONTINUOUS
 10
941.929542
 20
469.498375
 30
0.0
 11
942.275187
 21
469.544461
 31
0.0
  0
LINE
  8
0
  6
CONTINUOUS
 10
941.929542
 20
469.498375
 30
0.0
 11
941.584692
 21
469.482483
 31
0.0
  0
LINE
  8
0
  6
CONTINUOUS
 10
941.584692
 20
469.482483
 30
0.0
 11
941.929542
 21
469.498375
 31
0.0
  0
LINE
  8
0
  6
CONTINUOUS
 10
941.584692
 20
469.482483
 30
0.0
 11
941.231102
 21
469.498375
 31
0.0
  0
LINE
  8
0
  6
CONTINUOUS
 10
941.231102
 20
469.498375
 30
0.0
 11
941.584692
 21
469.482483
 31
0.0
  0
LINE
  8
0
  6
CONTINUOUS
 10
941.231102
 20
469.498375
 30
0.0
 11
940.885458
 21
469.544461
 31
0.0
  0
LINE
  8
0
  6
CONTINUOUS
 10
940.885458
 20
469.544461
 30
0.0
 11
941.231102
 21
469.498375
 31
0.0
  0
LINE
  8
0
  6
CONTINUOUS
 10
940.885458
 20
469.544461
 30
0.0
 11
940.547759
 21
469.620741
 31
0.0
  0
LINE
  8
0
  6
CONTINUOUS
 10
940.547759
 20
469.620741
 30
0.0
 11
940.885458
 21
469.544461
 31
0.0
  0
LINE
  8
0
  6
CONTINUOUS
 10
940.547759
 20
469.620741
 30
0.0
 11
940.218007
 21
469.720859
 31
0.0
  0
LINE
  8
0
  6
CONTINUOUS
 10
940.218007
 20
469.720859
 30
0.0
 11
940.547759
 21
469.620741
 31
0.0
  0
LINE
  8
0
  6
CONTINUOUS
 10
940.218007
 20
469.720859
 30
0.0
 11
939.895405
 21
469.859116
 31
0.0
  0
LINE
  8
0
  6
CONTINUOUS
 10
939.895405
 20
469.859116
 30
0.0
 11
940.218007
 21
469.720859
 31
0.0
  0
LINE
  8
0
  6
CONTINUOUS
 10
939.895405
 20
469.859116
 30
0.0
 11
939.588695
 21
470.012471
 31
0.0
  0
LINE
  8
0
  6
CONTINUOUS
 10
939.588695
 20
470.012471
 30
0.0
 11
939.895405
 21
469.859116
 31
0.0
  0
LINE
  8
0
  6
CONTINUOUS
 10
939.588695
 20
470.012471
 30
0.0
 11
939.289137
 21
470.203966
 31
0.0
  0
LINE
  8
0
  6
CONTINUOUS
 10
939.289137
 20
470.203966
 30
0.0
 11
939.588695
 21
470.012471
 31
0.0
  0
LINE
  8
0
  6
CONTINUOUS
 10
939.289137
 20
470.203966
 30
0.0
 11
939.012621
 21
470.411353
 31
0.0
  0
LINE
  8
0
  6
CONTINUOUS
 10
939.012621
 20
470.411353
 30
0.0
 11
939.289137
 21
470.203966
 31
0.0
  0
LINE
  8
0
  6
CONTINUOUS
 10
939.012621
 20
470.411353
 30
0.0
 11
938.759149
 21
470.649728
 31
0.0
  0
LINE
  8
0
  6
CONTINUOUS
 10
938.759149
 20
470.649728
 30
0.0
 11
939.012621
 21
470.411353
 31
0.0
  0
LINE
  8
0
  6
CONTINUOUS
 10
935.596701
 20
478.257083
 30
0.0
 11
935.611798
 21
478.609879
 31
0.0
  0
LINE
  8
0
  6
CONTINUOUS
 10
935.611798
 20
478.609879
 30
0.0
 11
935.596701
 21
478.257083
 31
0.0
  0
LINE
  8
0
  6
CONTINUOUS
 10
935.611798
 20
478.609879
 30
0.0
 11
935.657884
 21
478.955523
 31
0.0
  0
LINE
  8
0
  6
CONTINUOUS
 10
935.657884
 20
478.955523
 30
0.0
 11
935.611798
 21
478.609879
 31
0.0
  0
LINE
  8
0
  6
CONTINUOUS
 10
935.657884
 20
478.955523
 30
0.0
 11
935.727013
 21
479.293222
 31
0.0
  0
LINE
  8
0
  6
CONTINUOUS
 10
935.727013
 20
479.293222
 30
0.0
 11
935.657884
 21
478.955523
 31
0.0
  0
LINE
  8
0
  6
CONTINUOUS
 10
935.727013
 20
479.293222
 30
0.0
 11
935.835077
 21
479.622975
 31
0.0
  0
LINE
  8
0
  6
CONTINUOUS
 10
935.835077
 20
479.622975
 30
0.0
 11
935.727013
 21
479.293222
 31
0.0
  0
LINE
  8
0
  6
CONTINUOUS
 10
935.835077
 20
479.622975
 30
0.0
 11
935.965389
 21
479.945576
 31
0.0
  0
LINE
  8
0
  6
CONTINUOUS
 10
935.965389
 20
479.945576
 30
0.0
 11
935.835077
 21
479.622975
 31
0.0
  0
LINE
  8
0
  6
CONTINUOUS
 10
935.965389
 20
479.945576
 30
0.0
 11
936.126689
 21
480.252286
 31
0.0
  0
LINE
  8
0
  6
CONTINUOUS
 10
936.126689
 20
480.252286
 30
0.0
 11
935.965389
 21
479.945576
 31
0.0
  0
LINE
  8
0
  6
CONTINUOUS
 10
936.126689
 20
480.252286
 30
0.0
 11
936.318184
 21
480.551844
 31
0.0
  0
LINE
  8
0
  6
CONTINUOUS
 10
936.318184
 20
480.551844
 30
0.0
 11
936.126689
 21
480.252286
 31
0.0
  0
LINE
  8
0
  6
CONTINUOUS
 10
936.318184
 20
480.551844
 30
0.0
 11
936.525571
 21
480.82836
 31
0.0
  0
LINE
  8
0
  6
CONTINUOUS
 10
936.525571
 20
480.82836
 30
0.0
 11
936.318184
 21
480.551844
 31
0.0
  0
LINE
  8
0
  6
CONTINUOUS
 10
936.525571
 20
480.82836
 30
0.0
 11
936.763946
 21
481.081832
 31
0.0
  0
LINE
  8
0
  6
CONTINUOUS
 10
936.763946
 20
481.081832
 30
0.0
 11
936.525571
 21
480.82836
 31
0.0
  0
LINE
  8
0
  6
CONTINUOUS
 10
936.763946
 20
481.081832
 30
0.0
 11
937.016624
 21
481.319413
 31
0.0
  0
LINE
  8
0
  6
CONTINUOUS
 10
937.016624
 20
481.319413
 30
0.0
 11
936.763946
 21
481.081832
 31
0.0
  0
LINE
  8
0
  6
CONTINUOUS
 10
937.016624
 20
481.319413
 30
0.0
 11
937.29314
 21
481.5268
 31
0.0
  0
LINE
  8
0
  6
CONTINUOUS
 10
937.29314
 20
481.5268
 30
0.0
 11
937.016624
 21
481.319413
 31
0.0
  0
LINE
  8
0
  6
CONTINUOUS
 10
937.29314
 20
481.5268
 30
0.0
 11
937.592698
 21
481.719089
 31
0.0
  0
LINE
  8
0
  6
CONTINUOUS
 10
937.592698
 20
481.719089
 30
0.0
 11
937.29314
 21
481.5268
 31
0.0
  0
LINE
  8
0
  6
CONTINUOUS
 10
937.592698
 20
481.719089
 30
0.0
 11
937.899408
 21
481.879596
 31
0.0
  0
LINE
  8
0
  6
CONTINUOUS
 10
937.899408
 20
481.879596
 30
0.0
 11
937.592698
 21
481.719089
 31
0.0
  0
LINE
  8
0
  6
CONTINUOUS
 10
937.899408
 20
481.879596
 30
0.0
 11
938.222009
 21
482.010702
 31
0.0
  0
LINE
  8
0
  6
CONTINUOUS
 10
938.222009
 20
482.010702
 30
0.0
 11
937.899408
 21
481.879596
 31
0.0
  0
LINE
  8
0
  6
CONTINUOUS
 10
938.222009
 20
482.010702
 30
0.0
 11
938.552557
 21
482.117971
 31
0.0
  0
LINE
  8
0
  6
CONTINUOUS
 10
938.552557
 20
482.117971
 30
0.0
 11
938.222009
 21
482.010702
 31
0.0
  0
LINE
  8
0
  6
CONTINUOUS
 10
938.552557
 20
482.117971
 30
0.0
 11
938.890255
 21
482.1871
 31
0.0
  0
LINE
  8
0
  6
CONTINUOUS
 10
938.890255
 20
482.1871
 30
0.0
 11
938.552557
 21
482.117971
 31
0.0
  0
LINE
  8
0
  6
CONTINUOUS
 10
938.890255
 20
482.1871
 30
0.0
 11
939.235105
 21
482.233186
 31
0.0
  0
LINE
  8
0
  6
CONTINUOUS
 10
939.235105
 20
482.233186
 30
0.0
 11
938.890255
 21
482.1871
 31
0.0
  0
LINE
  8
0
  6
CONTINUOUS
 10
939.235105
 20
482.233186
 30
0.0
 11
939.588695
 21
482.248283
 31
0.0
  0
LINE
  8
0
  6
CONTINUOUS
 10
939.588695
 20
482.248283
 30
0.0
 11
939.235105
 21
482.233186
 31
0.0
  0
LINE
  8
0
  6
CONTINUOUS
 10
949.905585
 20
482.248283
 30
0.0
 11
950.251229
 21
482.233186
 31
0.0
  0
LINE
  8
0
  6
CONTINUOUS
 10
950.251229
 20
482.233186
 30
0.0
 11
949.905585
 21
482.248283
 31
0.0
  0
LINE
  8
0
  6
CONTINUOUS
 10
950.251229
 20
482.233186
 30
0.0
 11
950.596079
 21
482.1871
 31
0.0
  0
LINE
  8
0
  6
CONTINUOUS
 10
950.596079
 20
482.1871
 30
0.0
 11
950.251229
 21
482.233186
 31
0.0
  0
LINE
  8
0
  6
CONTINUOUS
 10
950.596079
 20
482.1871
 30
0.0
 11
950.934572
 21
482.117971
 31
0.0
  0
LINE
  8
0
  6
CONTINUOUS
 10
950.934572
 20
482.117971
 30
0.0
 11
950.596079
 21
482.1871
 31
0.0
  0
LINE
  8
0
  6
CONTINUOUS
 10
950.934572
 20
482.117971
 30
0.0
 11
951.272271
 21
482.010702
 31
0.0
  0
LINE
  8
0
  6
CONTINUOUS
 10
951.272271
 20
482.010702
 30
0.0
 11
950.934572
 21
482.117971
 31
0.0
  0
LINE
  8
0
  6
CONTINUOUS
 10
951.272271
 20
482.010702
 30
0.0
 11
951.594078
 21
481.879596
 31
0.0
  0
LINE
  8
0
  6
CONTINUOUS
 10
951.594078
 20
481.879596
 30
0.0
 11
951.272271
 21
482.010702
 31
0.0
  0
LINE
  8
0
  6
CONTINUOUS
 10
951.594078
 20
481.879596
 30
0.0
 11
951.901582
 21
481.719089
 31
0.0
  0
LINE
  8
0
  6
CONTINUOUS
 10
951.901582
 20
481.719089
 30
0.0
 11
951.594078
 21
481.879596
 31
0.0
  0
LINE
  8
0
  6
CONTINUOUS
 10
951.901582
 20
481.719089
 30
0.0
 11
952.193194
 21
481.5268
 31
0.0
  0
LINE
  8
0
  6
CONTINUOUS
 10
952.193194
 20
481.5268
 30
0.0
 11
951.901582
 21
481.719089
 31
0.0
  0
LINE
  8
0
  6
CONTINUOUS
 10
952.193194
 20
481.5268
 30
0.0
 11
952.46971
 21
481.319413
 31
0.0
  0
LINE
  8
0
  6
CONTINUOUS
 10
952.46971
 20
481.319413
 30
0.0
 11
952.193194
 21
481.5268
 31
0.0
  0
LINE
  8
0
  6
CONTINUOUS
 10
952.46971
 20
481.319413
 30
0.0
 11
952.730334
 21
481.081832
 31
0.0
  0
LINE
  8
0
  6
CONTINUOUS
 10
952.730334
 20
481.081832
 30
0.0
 11
952.46971
 21
481.319413
 31
0.0
  0
LINE
  8
0
  6
CONTINUOUS
 10
947.85635
 20
476.921386
 30
0.0
 11
947.672007
 21
477.081892
 31
0.0
  0
LINE
  8
0
  6
CONTINUOUS
 10
947.672007
 20
477.081892
 30
0.0
 11
947.479717
 21
477.22015
 31
0.0
  0
LINE
  8
0
  6
CONTINUOUS
 10
947.479717
 20
477.22015
 30
0.0
 11
947.265179
 21
477.335365
 31
0.0
  0
LINE
  8
0
  6
CONTINUOUS
 10
947.265179
 20
477.335365
 30
0.0
 11
947.03475
 21
477.419591
 31
0.0
  0
LINE
  8
0
  6
CONTINUOUS
 10
947.03475
 20
477.419591
 30
0.0
 11
946.80432
 21
477.473623
 31
0.0
  0
LINE
  8
0
  6
CONTINUOUS
 10
946.80432
 20
477.473623
 30
0.0
 11
946.566739
 21
477.504612
 31
0.0
  0
LINE
  8
0
  6
CONTINUOUS
 10
946.566739
 20
477.504612
 30
0.0
 11
946.320418
 21
477.504612
 31
0.0
  0
LINE
  8
0
  6
CONTINUOUS
 10
946.320418
 20
477.504612
 30
0.0
 11
946.082837
 21
477.473623
 31
0.0
  0
LINE
  8
0
  6
CONTINUOUS
 10
946.082837
 20
477.473623
 30
0.0
 11
945.852408
 21
477.419591
 31
0.0
  0
LINE
  8
0
  6
CONTINUOUS
 10
945.852408
 20
477.419591
 30
0.0
 11
945.621978
 21
477.335365
 31
0.0
  0
LINE
  8
0
  6
CONTINUOUS
 10
945.621978
 20
477.335365
 30
0.0
 11
945.414591
 21
477.22015
 31
0.0
  0
LINE
  8
0
  6
CONTINUOUS
 10
945.414591
 20
477.22015
 30
0.0
 11
945.215151
 21
477.081892
 31
0.0
  0
LINE
  8
0
  6
CONTINUOUS
 10
945.215151
 20
477.081892
 30
0.0
 11
945.030807
 21
476.921386
 31
0.0
  0
LINE
  8
0
  6
CONTINUOUS
 10
945.030807
 20
476.921386
 30
0.0
 11
945.215151
 21
477.081892
 31
0.0
  0
LINE
  8
0
  6
CONTINUOUS
 10
945.215151
 20
477.081892
 30
0.0
 11
945.414591
 21
477.22015
 31
0.0
  0
LINE
  8
0
  6
CONTINUOUS
 10
945.414591
 20
477.22015
 30
0.0
 11
945.621978
 21
477.335365
 31
0.0
  0
LINE
  8
0
  6
CONTINUOUS
 10
945.621978
 20
477.335365
 30
0.0
 11
945.852408
 21
477.419591
 31
0.0
  0
LINE
  8
0
  6
CONTINUOUS
 10
945.852408
 20
477.419591
 30
0.0
 11
946.082837
 21
477.473623
 31
0.0
  0
LINE
  8
0
  6
CONTINUOUS
 10
946.082837
 20
477.473623
 30
0.0
 11
946.320418
 21
477.504612
 31
0.0
  0
LINE
  8
0
  6
CONTINUOUS
 10
946.320418
 20
477.504612
 30
0.0
 11
946.566739
 21
477.504612
 31
0.0
  0
LINE
  8
0
  6
CONTINUOUS
 10
946.566739
 20
477.504612
 30
0.0
 11
946.80432
 21
477.473623
 31
0.0
  0
LINE
  8
0
  6
CONTINUOUS
 10
946.80432
 20
477.473623
 30
0.0
 11
947.03475
 21
477.419591
 31
0.0
  0
LINE
  8
0
  6
CONTINUOUS
 10
947.03475
 20
477.419591
 30
0.0
 11
947.265179
 21
477.335365
 31
0.0
  0
LINE
  8
0
  6
CONTINUOUS
 10
947.265179
 20
477.335365
 30
0.0
 11
947.479717
 21
477.22015
 31
0.0
  0
LINE
  8
0
  6
CONTINUOUS
 10
947.479717
 20
477.22015
 30
0.0
 11
947.672007
 21
477.081892
 31
0.0
  0
LINE
  8
0
  6
CONTINUOUS
 10
947.672007
 20
477.081892
 30
0.0
 11
947.85635
 21
476.921386
 31
0.0
  0
LINE
  8
0
  6
CONTINUOUS
 10
947.85635
 20
476.921386
 30
0.0
 11
948.016857
 21
476.744194
 31
0.0
  0
LINE
  8
0
  6
CONTINUOUS
 10
948.016857
 20
476.744194
 30
0.0
 11
947.85635
 21
476.921386
 31
0.0
  0
LINE
  8
0
  6
CONTINUOUS
 10
948.016857
 20
476.744194
 30
0.0
 11
948.155114
 21
476.544753
 31
0.0
  0
LINE
  8
0
  6
CONTINUOUS
 10
948.155114
 20
476.544753
 30
0.0
 11
948.016857
 21
476.744194
 31
0.0
  0
LINE
  8
0
  6
CONTINUOUS
 10
948.155114
 20
476.544753
 30
0.0
 11
948.263178
 21
476.330215
 31
0.0
  0
LINE
  8
0
  6
CONTINUOUS
 10
948.263178
 20
476.330215
 30
0.0
 11
948.155114
 21
476.544753
 31
0.0
  0
LINE
  8
0
  6
CONTINUOUS
 10
948.263178
 20
476.330215
 30
0.0
 11
948.347404
 21
476.106937
 31
0.0
  0
LINE
  8
0
  6
CONTINUOUS
 10
948.347404
 20
476.106937
 30
0.0
 11
948.263178
 21
476.330215
 31
0.0
  0
LINE
  8
0
  6
CONTINUOUS
 10
948.347404
 20
476.106937
 30
0.0
 11
948.408587
 21
475.869356
 31
0.0
  0
LINE
  8
0
  6
CONTINUOUS
 10
948.408587
 20
475.869356
 30
0.0
 11
948.347404
 21
476.106937
 31
0.0
  0
LINE
  8
0
  6
CONTINUOUS
 10
948.408587
 20
475.869356
 30
0.0
 11
948.439576
 21
475.631775
 31
0.0
  0
LINE
  8
0
  6
CONTINUOUS
 10
948.439576
 20
475.631775
 30
0.0
 11
948.408587
 21
475.869356
 31
0.0
  0
LINE
  8
0
  6
CONTINUOUS
 10
948.439576
 20
475.631775
 30
0.0
 11
948.439576
 21
475.3934
 31
0.0
  0
LINE
  8
0
  6
CONTINUOUS
 10
948.439576
 20
475.3934
 30
0.0
 11
948.439576
 21
475.631775
 31
0.0
  0
LINE
  8
0
  6
CONTINUOUS
 10
948.439576
 20
475.3934
 30
0.0
 11
948.408587
 21
475.155819
 31
0.0
  0
LINE
  8
0
  6
CONTINUOUS
 10
948.408587
 20
475.155819
 30
0.0
 11
948.439576
 21
475.3934
 31
0.0
  0
LINE
  8
0
  6
CONTINUOUS
 10
948.408587
 20
475.155819
 30
0.0
 11
948.347404
 21
474.917443
 31
0.0
  0
LINE
  8
0
  6
CONTINUOUS
 10
948.347404
 20
474.917443
 30
0.0
 11
948.408587
 21
475.155819
 31
0.0
  0
LINE
  8
0
  6
CONTINUOUS
 10
948.347404
 20
474.917443
 30
0.0
 11
948.263178
 21
474.69496
 31
0.0
  0
LINE
  8
0
  6
CONTINUOUS
 10
948.263178
 20
474.69496
 30
0.0
 11
948.347404
 21
474.917443
 31
0.0
  0
LINE
  8
0
  6
CONTINUOUS
 10
948.263178
 20
474.69496
 30
0.0
 11
948.155114
 21
474.479627
 31
0.0
  0
LINE
  8
0
  6
CONTINUOUS
 10
948.155114
 20
474.479627
 30
0.0
 11
948.263178
 21
474.69496
 31
0.0
  0
LINE
  8
0
  6
CONTINUOUS
 10
948.155114
 20
474.479627
 30
0.0
 11
948.016857
 21
474.280186
 31
0.0
  0
LINE
  8
0
  6
CONTINUOUS
 10
948.016857
 20
474.280186
 30
0.0
 11
948.155114
 21
474.479627
 31
0.0
  0
LINE
  8
0
  6
CONTINUOUS
 10
948.016857
 20
474.280186
 30
0.0
 11
947.85635
 21
474.103788
 31
0.0
  0
LINE
  8
0
  6
CONTINUOUS
 10
947.85635
 20
474.103788
 30
0.0
 11
948.016857
 21
474.280186
 31
0.0
  0
LINE
  8
0
  6
CONTINUOUS
 10
965.31179
 20
460.03328
 30
0.0
 11
965.688423
 21
459.721597
 31
0.0
  0
LINE
  8
0
  6
CONTINUOUS
 10
965.688423
 20
459.721597
 30
0.0
 11
966.087305
 21
459.399129
 31
0.0
  0
LINE
  8
0
  6
CONTINUOUS
 10
966.087305
 20
459.399129
 30
0.0
 11
966.502078
 21
459.090822
 31
0.0
  0
LINE
  8
0
  6
CONTINUOUS
 10
966.502078
 20
459.090822
 30
0.0
 11
966.931948
 21
458.797823
 31
0.0
  0
LINE
  8
0
  6
CONTINUOUS
 10
966.931948
 20
458.797823
 30
0.0
 11
967.376916
 21
458.520683
 31
0.0
  0
LINE
  8
0
  6
CONTINUOUS
 10
967.376916
 20
458.520683
 30
0.0
 11
967.837775
 21
458.2596
 31
0.0
  0
LINE
  8
0
  6
CONTINUOUS
 10
967.837775
 20
458.2596
 30
0.0
 11
968.305786
 21
458.019648
 31
0.0
  0
LINE
  8
0
  6
CONTINUOUS
 10
968.305786
 20
458.019648
 30
0.0
 11
968.789688
 21
457.796569
 31
0.0
  0
LINE
  8
0
  6
CONTINUOUS
 10
968.789688
 20
457.796569
 30
0.0
 11
969.280741
 21
457.594737
 31
0.0
  0
LINE
  8
0
  6
CONTINUOUS
 10
969.280741
 20
457.594737
 30
0.0
 11
969.786892
 21
457.411263
 31
0.0
  0
LINE
  8
0
  6
CONTINUOUS
 10
969.786892
 20
457.411263
 30
0.0
 11
970.293837
 21
457.251376
 31
0.0
  0
LINE
  8
0
  6
CONTINUOUS
 10
970.293837
 20
457.251376
 30
0.0
 11
970.807933
 21
457.112679
 31
0.0
  0
LINE
  8
0
  6
CONTINUOUS
 10
970.807933
 20
457.112679
 30
0.0
 11
971.322824
 21
456.996644
 31
0.0
  0
LINE
  8
0
  6
CONTINUOUS
 10
971.322824
 20
456.996644
 30
0.0
 11
971.844866
 21
456.872472
 31
0.0
  0
LINE
  8
0
  6
CONTINUOUS
 10
971.844866
 20
456.872472
 30
0.0
 11
972.366909
 21
456.742089
 31
0.0
  0
LINE
  8
0
  6
CONTINUOUS
 10
972.366909
 20
456.742089
 30
0.0
 11
971.844866
 21
456.872472
 31
0.0
  0
LINE
  8
0
  6
CONTINUOUS
 10
971.844866
 20
456.872472
 30
0.0
 11
971.322824
 21
456.996644
 31
0.0
  0
LINE
  8
0
  6
CONTINUOUS
 10
971.322824
 20
456.996644
 30
0.0
 11
970.807933
 21
457.112679
 31
0.0
  0
LINE
  8
0
  6
CONTINUOUS
 10
970.807933
 20
457.112679
 30
0.0
 11
970.293837
 21
457.251376
 31
0.0
  0
LINE
  8
0
  6
CONTINUOUS
 10
970.293837
 20
457.251376
 30
0.0
 11
969.786892
 21
457.411263
 31
0.0
  0
LINE
  8
0
  6
CONTINUOUS
 10
969.786892
 20
457.411263
 30
0.0
 11
969.280741
 21
457.594737
 31
0.0
  0
LINE
  8
0
  6
CONTINUOUS
 10
969.280741
 20
457.594737
 30
0.0
 11
968.789688
 21
457.796569
 31
0.0
  0
LINE
  8
0
  6
CONTINUOUS
 10
968.789688
 20
457.796569
 30
0.0
 11
968.305786
 21
458.019648
 31
0.0
  0
LINE
  8
0
  6
CONTINUOUS
 10
968.305786
 20
458.019648
 30
0.0
 11
967.837775
 21
458.2596
 31
0.0
  0
LINE
  8
0
  6
CONTINUOUS
 10
967.837775
 20
458.2596
 30
0.0
 11
967.376916
 21
458.520683
 31
0.0
  0
LINE
  8
0
  6
CONTINUOUS
 10
967.376916
 20
458.520683
 30
0.0
 11
966.931948
 21
458.797823
 31
0.0
  0
LINE
  8
0
  6
CONTINUOUS
 10
966.931948
 20
458.797823
 30
0.0
 11
966.502078
 21
459.090822
 31
0.0
  0
LINE
  8
0
  6
CONTINUOUS
 10
966.502078
 20
459.090822
 30
0.0
 11
966.087305
 21
459.399129
 31
0.0
  0
LINE
  8
0
  6
CONTINUOUS
 10
966.087305
 20
459.399129
 30
0.0
 11
965.688423
 21
459.721597
 31
0.0
  0
LINE
  8
0
  6
CONTINUOUS
 10
965.688423
 20
459.721597
 30
0.0
 11
965.31179
 21
460.03328
 31
0.0
  0
LINE
  8
0
  6
CONTINUOUS
 10
965.31179
 20
445.79631
 30
0.0
 11
965.688423
 21
446.157051
 31
0.0
  0
LINE
  8
0
  6
CONTINUOUS
 10
965.688423
 20
446.157051
 30
0.0
 11
965.31179
 21
445.79631
 31
0.0
  0
LINE
  8
0
  6
CONTINUOUS
 10
965.688423
 20
446.157051
 30
0.0
 11
966.087305
 21
446.49475
 31
0.0
  0
LINE
  8
0
  6
CONTINUOUS
 10
966.087305
 20
446.49475
 30
0.0
 11
965.688423
 21
446.157051
 31
0.0
  0
LINE
  8
0
  6
CONTINUOUS
 10
966.087305
 20
446.49475
 30
0.0
 11
966.502078
 21
446.809405
 31
0.0
  0
LINE
  8
0
  6
CONTINUOUS
 10
966.502078
 20
446.809405
 30
0.0
 11
966.087305
 21
446.49475
 31
0.0
  0
LINE
  8
0
  6
CONTINUOUS
 10
966.502078
 20
446.809405
 30
0.0
 11
966.931948
 21
447.108964
 31
0.0
  0
LINE
  8
0
  6
CONTINUOUS
 10
966.931948
 20
447.108964
 30
0.0
 11
966.502078
 21
446.809405
 31
0.0
  0
LINE
  8
0
  6
CONTINUOUS
 10
966.931948
 20
447.108964
 30
0.0
 11
967.376916
 21
447.384685
 31
0.0
  0
LINE
  8
0
  6
CONTINUOUS
 10
967.376916
 20
447.384685
 30
0.0
 11
966.931948
 21
447.108964
 31
0.0
  0
LINE
  8
0
  6
CONTINUOUS
 10
967.376916
 20
447.384685
 30
0.0
 11
967.837775
 21
447.631006
 31
0.0
  0
LINE
  8
0
  6
CONTINUOUS
 10
967.837775
 20
447.631006
 30
0.0
 11
967.376916
 21
447.384685
 31
0.0
  0
LINE
  8
0
  6
CONTINUOUS
 10
967.837775
 20
447.631006
 30
0.0
 11
968.305786
 21
447.85349
 31
0.0
  0
LINE
  8
0
  6
CONTINUOUS
 10
968.305786
 20
447.85349
 30
0.0
 11
967.837775
 21
447.631006
 31
0.0
  0
LINE
  8
0
  6
CONTINUOUS
 10
968.305786
 20
447.85349
 30
0.0
 11
968.789688
 21
448.052931
 31
0.0
  0
LINE
  8
0
  6
CONTINUOUS
 10
968.789688
 20
448.052931
 30
0.0
 11
968.305786
 21
447.85349
 31
0.0
  0
LINE
  8
0
  6
CONTINUOUS
 10
968.789688
 20
448.052931
 30
0.0
 11
969.280741
 21
448.229328
 31
0.0
  0
LINE
  8
0
  6
CONTINUOUS
 10
969.280741
 20
448.229328
 30
0.0
 11
968.789688
 21
448.052931
 31
0.0
  0
LINE
  8
0
  6
CONTINUOUS
 10
969.280741
 20
448.229328
 30
0.0
 11
969.786892
 21
448.375532
 31
0.0
  0
LINE
  8
0
  6
CONTINUOUS
 10
969.786892
 20
448.375532
 30
0.0
 11
969.280741
 21
448.229328
 31
0.0
  0
LINE
  8
0
  6
CONTINUOUS
 10
969.786892
 20
448.375532
 30
0.0
 11
970.293837
 21
448.497898
 31
0.0
  0
LINE
  8
0
  6
CONTINUOUS
 10
970.293837
 20
448.497898
 30
0.0
 11
969.786892
 21
448.375532
 31
0.0
  0
LINE
  8
0
  6
CONTINUOUS
 10
970.293837
 20
448.497898
 30
0.0
 11
970.807933
 21
448.598016
 31
0.0
  0
LINE
  8
0
  6
CONTINUOUS
 10
970.807933
 20
448.598016
 30
0.0
 11
970.293837
 21
448.497898
 31
0.0
  0
LINE
  8
0
  6
CONTINUOUS
 10
970.807933
 20
448.598016
 30
0.0
 11
971.322824
 21
448.667145
 31
0.0
  0
LINE
  8
0
  6
CONTINUOUS
 10
971.322824
 20
448.667145
 30
0.0
 11
970.807933
 21
448.598016
 31
0.0
  0
LINE
  8
0
  6
CONTINUOUS
 10
971.322824
 20
448.667145
 30
0.0
 11
971.844866
 21
448.705285
 31
0.0
  0
LINE
  8
0
  6
CONTINUOUS
 10
971.844866
 20
448.705285
 30
0.0
 11
971.322824
 21
448.667145
 31
0.0
  0
LINE
  8
0
  6
CONTINUOUS
 10
971.844866
 20
448.705285
 30
0.0
 11
972.366909
 21
448.720382
 31
0.0
  0
LINE
  8
0
  6
CONTINUOUS
 10
972.366909
 20
448.720382
 30
0.0
 11
971.844866
 21
448.705285
 31
0.0
  0
LINE
  8
0
  6
CONTINUOUS
 10
947.85635
 20
431.725007
 30
0.0
 11
948.016857
 21
431.548609
 31
0.0
  0
LINE
  8
0
  6
CONTINUOUS
 10
948.016857
 20
431.548609
 30
0.0
 11
947.85635
 21
431.725007
 31
0.0
  0
LINE
  8
0
  6
CONTINUOUS
 10
947.85635
 20
431.725007
 30
0.0
 11
944.401496
 21
435.179862
 31
0.0
  0
LINE
  8
0
  6
CONTINUOUS
 10
944.401496
 20
435.179862
 30
0.0
 11
944.148023
 21
435.417443
 31
0.0
  0
LINE
  8
0
  6
CONTINUOUS
 10
944.148023
 20
435.417443
 30
0.0
 11
943.872302
 21
435.624829
 31
0.0
  0
LINE
  8
0
  6
CONTINUOUS
 10
943.872302
 20
435.624829
 30
0.0
 11
943.572744
 21
435.817119
 31
0.0
  0
LINE
  8
0
  6
CONTINUOUS
 10
943.572744
 20
435.817119
 30
0.0
 11
943.265239
 21
435.970474
 31
0.0
  0
LINE
  8
0
  6
CONTINUOUS
 10
943.265239
 20
435.970474
 30
0.0
 11
942.943432
 21
436.108731
 31
0.0
  0
LINE
  8
0
  6
CONTINUOUS
 10
942.943432
 20
436.108731
 30
0.0
 11
942.612885
 21
436.208055
 31
0.0
  0
LINE
  8
0
  6
CONTINUOUS
 10
942.612885
 20
436.208055
 30
0.0
 11
942.275187
 21
436.285129
 31
0.0
  0
LINE
  8
0
  6
CONTINUOUS
 10
942.275187
 20
436.285129
 30
0.0
 11
941.929542
 21
436.331215
 31
0.0
  0
LINE
  8
0
  6
CONTINUOUS
 10
941.929542
 20
436.331215
 30
0.0
 11
941.584692
 21
436.346312
 31
0.0
  0
LINE
  8
0
  6
CONTINUOUS
 10
941.584692
 20
436.346312
 30
0.0
 11
941.231102
 21
436.331215
 31
0.0
  0
LINE
  8
0
  6
CONTINUOUS
 10
941.231102
 20
436.331215
 30
0.0
 11
940.885458
 21
436.285129
 31
0.0
  0
LINE
  8
0
  6
CONTINUOUS
 10
940.885458
 20
436.285129
 30
0.0
 11
940.547759
 21
436.208055
 31
0.0
  0
LINE
  8
0
  6
CONTINUOUS
 10
940.547759
 20
436.208055
 30
0.0
 11
940.218007
 21
436.108731
 31
0.0
  0
LINE
  8
0
  6
CONTINUOUS
 10
940.218007
 20
436.108731
 30
0.0
 11
939.895405
 21
435.970474
 31
0.0
  0
LINE
  8
0
  6
CONTINUOUS
 10
939.895405
 20
435.970474
 30
0.0
 11
939.588695
 21
435.817119
 31
0.0
  0
LINE
  8
0
  6
CONTINUOUS
 10
939.588695
 20
435.817119
 30
0.0
 11
939.289137
 21
435.624829
 31
0.0
  0
LINE
  8
0
  6
CONTINUOUS
 10
939.289137
 20
435.624829
 30
0.0
 11
939.012621
 21
435.417443
 31
0.0
  0
LINE
  8
0
  6
CONTINUOUS
 10
939.012621
 20
435.417443
 30
0.0
 11
938.759149
 21
435.179862
 31
0.0
  0
LINE
  8
0
  6
CONTINUOUS
 10
938.759149
 20
435.179862
 30
0.0
 11
935.596701
 21
432.01662
 31
0.0
  0
LINE
  8
0
  6
CONTINUOUS
 10
935.596701
 20
432.01662
 30
0.0
 11
938.759149
 21
435.179862
 31
0.0
  0
LINE
  8
0
  6
CONTINUOUS
 10
938.759149
 20
435.179862
 30
0.0
 11
939.012621
 21
435.417443
 31
0.0
  0
LINE
  8
0
  6
CONTINUOUS
 10
939.012621
 20
435.417443
 30
0.0
 11
939.289137
 21
435.624829
 31
0.0
  0
LINE
  8
0
  6
CONTINUOUS
 10
939.289137
 20
435.624829
 30
0.0
 11
939.588695
 21
435.817119
 31
0.0
  0
LINE
  8
0
  6
CONTINUOUS
 10
939.588695
 20
435.817119
 30
0.0
 11
939.895405
 21
435.970474
 31
0.0
  0
LINE
  8
0
  6
CONTINUOUS
 10
939.895405
 20
435.970474
 30
0.0
 11
940.218007
 21
436.108731
 31
0.0
  0
LINE
  8
0
  6
CONTINUOUS
 10
940.218007
 20
436.108731
 30
0.0
 11
940.547759
 21
436.208055
 31
0.0
  0
LINE
  8
0
  6
CONTINUOUS
 10
940.547759
 20
436.208055
 30
0.0
 11
940.885458
 21
436.285129
 31
0.0
  0
LINE
  8
0
  6
CONTINUOUS
 10
940.885458
 20
436.285129
 30
0.0
 11
941.231102
 21
436.331215
 31
0.0
  0
LINE
  8
0
  6
CONTINUOUS
 10
941.231102
 20
436.331215
 30
0.0
 11
941.584692
 21
436.346312
 31
0.0
  0
LINE
  8
0
  6
CONTINUOUS
 10
941.584692
 20
436.346312
 30
0.0
 11
941.929542
 21
436.331215
 31
0.0
  0
LINE
  8
0
  6
CONTINUOUS
 10
941.929542
 20
436.331215
 30
0.0
 11
942.275187
 21
436.285129
 31
0.0
  0
LINE
  8
0
  6
CONTINUOUS
 10
942.275187
 20
436.285129
 30
0.0
 11
942.612885
 21
436.208055
 31
0.0
  0
LINE
  8
0
  6
CONTINUOUS
 10
942.612885
 20
436.208055
 30
0.0
 11
942.943432
 21
436.108731
 31
0.0
  0
LINE
  8
0
  6
CONTINUOUS
 10
942.943432
 20
436.108731
 30
0.0
 11
943.265239
 21
435.970474
 31
0.0
  0
LINE
  8
0
  6
CONTINUOUS
 10
943.265239
 20
435.970474
 30
0.0
 11
943.572744
 21
435.817119
 31
0.0
  0
LINE
  8
0
  6
CONTINUOUS
 10
943.572744
 20
435.817119
 30
0.0
 11
943.872302
 21
435.624829
 31
0.0
  0
LINE
  8
0
  6
CONTINUOUS
 10
943.872302
 20
435.624829
 30
0.0
 11
944.148023
 21
435.417443
 31
0.0
  0
LINE
  8
0
  6
CONTINUOUS
 10
944.148023
 20
435.417443
 30
0.0
 11
944.401496
 21
435.179862
 31
0.0
  0
LINE
  8
0
  6
CONTINUOUS
 10
944.401496
 20
435.179862
 30
0.0
 11
947.85635
 21
431.725007
 31
0.0
  0
LINE
  8
0
  6
CONTINUOUS
 10
948.016857
 20
431.548609
 30
0.0
 11
948.155114
 21
431.349168
 31
0.0
  0
LINE
  8
0
  6
CONTINUOUS
 10
948.155114
 20
431.349168
 30
0.0
 11
948.016857
 21
431.548609
 31
0.0
  0
LINE
  8
0
  6
CONTINUOUS
 10
948.155114
 20
431.349168
 30
0.0
 11
948.263178
 21
431.133836
 31
0.0
  0
LINE
  8
0
  6
CONTINUOUS
 10
948.263178
 20
431.133836
 30
0.0
 11
948.155114
 21
431.349168
 31
0.0
  0
LINE
  8
0
  6
CONTINUOUS
 10
948.263178
 20
431.133836
 30
0.0
 11
948.347404
 21
430.911352
 31
0.0
  0
LINE
  8
0
  6
CONTINUOUS
 10
948.347404
 20
430.911352
 30
0.0
 11
948.263178
 21
431.133836
 31
0.0
  0
LINE
  8
0
  6
CONTINUOUS
 10
948.347404
 20
430.911352
 30
0.0
 11
948.408587
 21
430.673771
 31
0.0
  0
LINE
  8
0
  6
CONTINUOUS
 10
948.408587
 20
430.673771
 30
0.0
 11
948.347404
 21
430.911352
 31
0.0
  0
LINE
  8
0
  6
CONTINUOUS
 10
948.408587
 20
430.673771
 30
0.0
 11
948.439576
 21
430.435396
 31
0.0
  0
LINE
  8
0
  6
CONTINUOUS
 10
948.439576
 20
430.435396
 30
0.0
 11
948.408587
 21
430.673771
 31
0.0
  0
LINE
  8
0
  6
CONTINUOUS
 10
948.439576
 20
430.435396
 30
0.0
 11
948.439576
 21
430.197815
 31
0.0
  0
LINE
  8
0
  6
CONTINUOUS
 10
948.439576
 20
430.197815
 30
0.0
 11
948.439576
 21
430.435396
 31
0.0
  0
LINE
  8
0
  6
CONTINUOUS
 10
948.439576
 20
430.197815
 30
0.0
 11
948.408587
 21
429.959439
 31
0.0
  0
LINE
  8
0
  6
CONTINUOUS
 10
948.408587
 20
429.959439
 30
0.0
 11
948.439576
 21
430.197815
 31
0.0
  0
LINE
  8
0
  6
CONTINUOUS
 10
948.408587
 20
429.959439
 30
0.0
 11
948.347404
 21
429.721859
 31
0.0
  0
LINE
  8
0
  6
CONTINUOUS
 10
948.347404
 20
429.721859
 30
0.0
 11
948.408587
 21
429.959439
 31
0.0
  0
LINE
  8
0
  6
CONTINUOUS
 10
948.347404
 20
429.721859
 30
0.0
 11
948.263178
 21
429.499375
 31
0.0
  0
LINE
  8
0
  6
CONTINUOUS
 10
948.263178
 20
429.499375
 30
0.0
 11
948.347404
 21
429.721859
 31
0.0
  0
LINE
  8
0
  6
CONTINUOUS
 10
948.263178
 20
429.499375
 30
0.0
 11
948.155114
 21
429.284042
 31
0.0
  0
LINE
  8
0
  6
CONTINUOUS
 10
948.155114
 20
429.284042
 30
0.0
 11
948.263178
 21
429.499375
 31
0.0
  0
LINE
  8
0
  6
CONTINUOUS
 10
948.155114
 20
429.284042
 30
0.0
 11
948.016857
 21
429.084602
 31
0.0
  0
LINE
  8
0
  6
CONTINUOUS
 10
948.016857
 20
429.084602
 30
0.0
 11
948.155114
 21
429.284042
 31
0.0
  0
LINE
  8
0
  6
CONTINUOUS
 10
948.016857
 20
429.084602
 30
0.0
 11
947.85635
 21
428.908204
 31
0.0
  0
LINE
  8
0
  6
CONTINUOUS
 10
947.85635
 20
428.908204
 30
0.0
 11
948.016857
 21
429.084602
 31
0.0
  0
LINE
  8
0
  6
CONTINUOUS
 10
947.85635
 20
428.908204
 30
0.0
 11
947.672007
 21
428.746903
 31
0.0
  0
LINE
  8
0
  6
CONTINUOUS
 10
947.672007
 20
428.746903
 30
0.0
 11
947.85635
 21
428.908204
 31
0.0
  0
LINE
  8
0
  6
CONTINUOUS
 10
947.672007
 20
428.746903
 30
0.0
 11
947.479717
 21
428.608645
 31
0.0
  0
LINE
  8
0
  6
CONTINUOUS
 10
947.479717
 20
428.608645
 30
0.0
 11
947.672007
 21
428.746903
 31
0.0
  0
LINE
  8
0
  6
CONTINUOUS
 10
947.479717
 20
428.608645
 30
0.0
 11
947.265179
 21
428.49343
 31
0.0
  0
LINE
  8
0
  6
CONTINUOUS
 10
947.265179
 20
428.49343
 30
0.0
 11
947.479717
 21
428.608645
 31
0.0
  0
LINE
  8
0
  6
CONTINUOUS
 10
947.265179
 20
428.49343
 30
0.0
 11
947.03475
 21
428.409204
 31
0.0
  0
LINE
  8
0
  6
CONTINUOUS
 10
947.03475
 20
428.409204
 30
0.0
 11
947.265179
 21
428.49343
 31
0.0
  0
LINE
  8
0
  6
CONTINUOUS
 10
947.03475
 20
428.409204
 30
0.0
 11
946.80432
 21
428.355173
 31
0.0
  0
LINE
  8
0
  6
CONTINUOUS
 10
946.80432
 20
428.355173
 30
0.0
 11
947.03475
 21
428.409204
 31
0.0
  0
LINE
  8
0
  6
CONTINUOUS
 10
946.80432
 20
428.355173
 30
0.0
 11
946.566739
 21
428.324184
 31
0.0
  0
LINE
  8
0
  6
CONTINUOUS
 10
946.566739
 20
428.324184
 30
0.0
 11
946.80432
 21
428.355173
 31
0.0
  0
LINE
  8
0
  6
CONTINUOUS
 10
946.566739
 20
428.324184
 30
0.0
 11
946.320418
 21
428.324184
 31
0.0
  0
LINE
  8
0
  6
CONTINUOUS
 10
946.320418
 20
428.324184
 30
0.0
 11
946.566739
 21
428.324184
 31
0.0
  0
LINE
  8
0
  6
CONTINUOUS
 10
946.320418
 20
428.324184
 30
0.0
 11
946.082837
 21
428.355173
 31
0.0
  0
LINE
  8
0
  6
CONTINUOUS
 10
946.082837
 20
428.355173
 30
0.0
 11
946.320418
 21
428.324184
 31
0.0
  0
LINE
  8
0
  6
CONTINUOUS
 10
946.082837
 20
428.355173
 30
0.0
 11
945.852408
 21
428.409204
 31
0.0
  0
LINE
  8
0
  6
CONTINUOUS
 10
945.852408
 20
428.409204
 30
0.0
 11
946.082837
 21
428.355173
 31
0.0
  0
LINE
  8
0
  6
CONTINUOUS
 10
945.852408
 20
428.409204
 30
0.0
 11
945.621978
 21
428.49343
 31
0.0
  0
LINE
  8
0
  6
CONTINUOUS
 10
945.621978
 20
428.49343
 30
0.0
 11
945.852408
 21
428.409204
 31
0.0
  0
LINE
  8
0
  6
CONTINUOUS
 10
945.621978
 20
428.49343
 30
0.0
 11
945.414591
 21
428.608645
 31
0.0
  0
LINE
  8
0
  6
CONTINUOUS
 10
945.414591
 20
428.608645
 30
0.0
 11
945.621978
 21
428.49343
 31
0.0
  0
LINE
  8
0
  6
CONTINUOUS
 10
945.414591
 20
428.608645
 30
0.0
 11
945.215151
 21
428.746903
 31
0.0
  0
LINE
  8
0
  6
CONTINUOUS
 10
945.215151
 20
428.746903
 30
0.0
 11
945.414591
 21
428.608645
 31
0.0
  0
LINE
  8
0
  6
CONTINUOUS
 10
945.215151
 20
428.746903
 30
0.0
 11
945.030807
 21
428.908204
 31
0.0
  0
LINE
  8
0
  6
CONTINUOUS
 10
945.030807
 20
428.908204
 30
0.0
 11
945.215151
 21
428.746903
 31
0.0
  0
LINE
  8
0
  6
CONTINUOUS
 10
941.584692
 20
432.354318
 30
0.0
 11
945.030807
 21
428.908204
 31
0.0
  0
LINE
  8
0
  6
CONTINUOUS
 10
947.080836
 20
427.572507
 30
0.0
 11
939.588695
 21
427.572507
 31
0.0
  0
LINE
  8
0
  6
CONTINUOUS
 10
939.588695
 20
427.572507
 30
0.0
 11
939.588695
 21
430.359116
 31
0.0
  0
LINE
  8
0
  6
CONTINUOUS
 10
939.588695
 20
430.359116
 30
0.0
 11
941.584692
 21
432.354318
 31
0.0
  0
LINE
  8
0
  6
CONTINUOUS
 10
947.080836
 20
427.572507
 30
0.0
 11
965.31179
 21
445.79631
 31
0.0
  0
LINE
  8
0
  6
CONTINUOUS
 10
949.905585
 20
423.580512
 30
0.0
 11
939.588695
 21
423.580512
 31
0.0
  0
LINE
  8
0
  6
CONTINUOUS
 10
952.730334
 20
424.747758
 30
0.0
 11
967.791689
 21
439.808318
 31
0.0
  0
LINE
  8
0
  6
CONTINUOUS
 10
967.791689
 20
439.808318
 30
0.0
 11
952.730334
 21
424.747758
 31
0.0
  0
LINE
  8
0
  6
CONTINUOUS
 10
935.596701
 20
427.572507
 30
0.0
 11
935.596701
 21
432.01662
 31
0.0
  0
LINE
  8
0
  6
CONTINUOUS
 10
935.596701
 20
473.812176
 30
0.0
 11
938.759149
 21
470.649728
 31
0.0
  0
LINE
  8
0
  6
CONTINUOUS
 10
935.596701
 20
473.812176
 30
0.0
 11
935.596701
 21
478.257083
 31
0.0
  0
LINE
  8
0
  6
CONTINUOUS
 10
939.588695
 20
475.470474
 30
0.0
 11
939.588695
 21
478.257083
 31
0.0
  0
LINE
  8
0
  6
CONTINUOUS
 10
939.588695
 20
478.257083
 30
0.0
 11
947.080836
 21
478.257083
 31
0.0
  0
LINE
  8
0
  6
CONTINUOUS
 10
947.080836
 20
478.257083
 30
0.0
 11
965.31179
 21
460.03328
 31
0.0
  0
LINE
  8
0
  6
CONTINUOUS
 10
947.080836
 20
478.257083
 30
0.0
 11
939.588695
 21
478.257083
 31
0.0
  0
LINE
  8
0
  6
CONTINUOUS
 10
939.588695
 20
478.257083
 30
0.0
 11
939.588695
 21
475.470474
 31
0.0
  0
LINE
  8
0
  6
CONTINUOUS
 10
939.588695
 20
475.470474
 30
0.0
 11
941.584692
 21
473.474477
 31
0.0
  0
LINE
  8
0
  6
CONTINUOUS
 10
941.584692
 20
473.474477
 30
0.0
 11
939.588695
 21
475.470474
 31
0.0
  0
LINE
  8
0
  6
CONTINUOUS
 10
941.584692
 20
473.474477
 30
0.0
 11
945.030807
 21
476.921386
 31
0.0
  0
LINE
  8
0
  6
CONTINUOUS
 10
945.030807
 20
476.921386
 30
0.0
 11
941.584692
 21
473.474477
 31
0.0
  0
LINE
  8
0
  6
CONTINUOUS
 10
944.401496
 20
470.649728
 30
0.0
 11
947.85635
 21
474.103788
 31
0.0
  0
LINE
  8
0
  6
CONTINUOUS
 10
947.85635
 20
474.103788
 30
0.0
 11
944.401496
 21
470.649728
 31
0.0
  0
LINE
  8
0
  6
CONTINUOUS
 10
939.588695
 20
482.248283
 30
0.0
 11
949.905585
 21
482.248283
 31
0.0
  0
LINE
  8
0
  6
CONTINUOUS
 10
952.730334
 20
481.081832
 30
0.0
 11
967.791689
 21
466.020477
 31
0.0
  0
LINE
  8
0
  6
CONTINUOUS
 10
967.791689
 20
466.020477
 30
0.0
 11
952.730334
 21
481.081832
 31
0.0
  0
LINE
  8
0
  6
CONTINUOUS
 10
974.846013
 20
462.622678
 30
0.0
 11
1106.356954
 21
462.683621
 31
0.0
  0
LINE
  8
0
  6
CONTINUOUS
 10
972.366909
 20
456.742089
 30
0.0
 11
991.46555
 21
456.696424
 31
0.0
  0
LINE
  8
0
  6
CONTINUOUS
 10
972.366909
 20
448.720382
 30
0.0
 11
991.46555
 21
448.720382
 31
0.0
  0
LINE
  8
0
  6
CONTINUOUS
 10
974.846013
 20
442.733185
 30
0.0
 11
1106.356954
 21
442.733185
 31
0.0
  0
LINE
  8
0
  6
CONTINUOUS
 10
1139.679845
 20
72.852417
 30
0.0
 11
1132.493807
 21
72.726984
 31
0.0
  0
LINE
  8
0
  6
CONTINUOUS
 10
1112.45911
 20
595.498154
 30
0.0
 11
1112.45911
 21
594.781817
 31
0.0
  0
LINE
  8
0
  6
CONTINUOUS
 10
1112.45911
 20
71.19804
 30
0.0
 11
1112.45911
 21
70.481703
 31
0.0
  0
LINE
  8
0
  6
CONTINUOUS
 10
1198.45911
 20
592.241085
 30
0.0
 11
1198.45911
 21
516.344585
 31
0.0
  0
LINE
  8
0
  6
CONTINUOUS
 10
1190.598729
 20
600.239866
 30
0.0
 11
1118.563824
 21
601.49724
 31
0.0
  0
LINE
  8
0
  6
CONTINUOUS
 10
1198.45911
 20
89.625269
 30
0.0
 11
1198.45911
 21
147.049353
 31
0.0
  0
LINE
  8
0
  6
CONTINUOUS
 10
1198.45911
 20
73.738772
 30
0.0
 11
1198.45911
 21
89.625269
 31
0.0
  0
LINE
  8
0
  6
CONTINUOUS
 10
1139.679845
 20
72.852417
 30
0.0
 11
1157.435735
 21
73.162347
 31
0.0
  0
LINE
  8
0
  6
CONTINUOUS
 10
1190.598729
 20
65.739991
 30
0.0
 11
1118.563824
 21
64.482617
 31
0.0
  0
LINE
  8
0
  6
CONTINUOUS
 10
1157.435735
 20
73.162347
 30
0.0
 11
1166.433365
 21
73.319401
 31
0.0
  0
LINE
  8
0
  6
CONTINUOUS
 10
1132.493807
 20
72.726984
 30
0.0
 11
1113.638167
 21
72.397858
 31
0.0
  0
LINE
  8
0
  6
CONTINUOUS
 10
1198.45911
 20
147.049353
 30
0.0
 11
1198.45911
 21
516.344585
 31
0.0
  0
ARC
  8
0
  6
CONTINUOUS
 10
1113.65911
 20
594.781817
 30
0.0
 40
1.2
 50
180.0
 51
269.0
  0
ARC
  8
0
  6
CONTINUOUS
 10
1118.45911
 20
595.498154
 30
0.0
 40
6.0
 50
89.0
 51
180.0
  0
ARC
  8
0
  6
CONTINUOUS
 10
1113.65911
 20
71.19804
 30
0.0
 40
1.2
 50
91.0
 51
180.0
  0
ARC
  8
0
  6
CONTINUOUS
 10
1118.45911
 20
70.481703
 30
0.0
 40
6.0
 50
180.0
 51
271.0
  0
ARC
  8
0
  6
CONTINUOUS
 10
1190.45911
 20
592.241085
 30
0.0
 40
8.0
 50
0.0
 51
89.0
  0
ARC
  8
0
  6
CONTINUOUS
 10
1190.45911
 20
73.738772
 30
0.0
 40
8.0
 50
271.0
 51
0.0
  0
LINE
  8
0
  6
CONTINUOUS
 10
1166.433365
 20
592.660456
 30
0.0
 11
1166.433365
 21
73.319401
 31
0.0
  0
LINE
  8
0
  6
CONTINUOUS
 10
1166.408798
 20
592.660885
 30
0.0
 11
1113.638167
 21
593.581999
 31
0.0
  0
LINE
  8
0
  6
CONTINUOUS
 10
1209.274214
 20
205.780408
 30
0.0
 11
1209.274214
 21
455.451685
 31
0.0
  0
LINE
  8
0
  6
CONTINUOUS
 10
1209.274214
 20
455.451685
 30
0.0
 11
1209.274034
 21
510.285273
 31
0.0
  0
ARC
  8
0
  6
CONTINUOUS
 10
1205.274034
 20
510.28526
 30
0.0
 40
4.0
 50
0.000188
 51
88.999959
  0
LINE
  8
0
  6
CONTINUOUS
 10
1198.474411
 20
514.404562
 30
0.0
 11
1205.343846
 21
514.284651
 31
0.0
  0
LINE
  8
0
  6
CONTINUOUS
 10
1209.274214
 20
205.780408
 30
0.0
 11
1209.274034
 21
150.946823
 31
0.0
  0
ARC
  8
0
  6
CONTINUOUS
 10
1205.274034
 20
150.946836
 30
0.0
 40
4.0
 50
271.0
 51
359.999812
  0
LINE
  8
0
  6
CONTINUOUS
 10
1198.474411
 20
146.827529
 30
0.0
 11
1205.343844
 21
146.947445
 31
0.0
  0
LINE
  8
0
  6
CONTINUOUS
 10
1140.297217
 20
586.114412
 30
0.0
 11
1153.596701
 21
586.114412
 31
0.0
  0
LINE
  8
0
  6
CONTINUOUS
 10
1159.596701
 20
580.114412
 30
0.0
 11
1159.596701
 21
332.914412
 31
0.0
  0
LINE
  8
0
  6
CONTINUOUS
 10
1166.396701
 20
332.914412
 30
0.0
 11
1166.396701
 21
584.914412
 31
0.0
  0
LINE
  8
0
  6
CONTINUOUS
 10
1158.396701
 20
592.914412
 30
0.0
 11
1132.396701
 21
592.914412
 31
0.0
  0
LINE
  8
0
  6
CONTINUOUS
 10
1126.507728
 20
582.714412
 30
0.0
 11
1128.239779
 21
579.714412
 31
0.0
  0
LINE
  8
0
  6
CONTINUOUS
 10
1133.782342
 20
579.714412
 30
0.0
 11
1137.182342
 21
585.603385
 31
0.0
  0
LINE
  8
0
  6
CONTINUOUS
 10
1133.71824
 20
587.603385
 30
0.0
 11
1131.703881
 21
584.114412
 31
0.0
  0
LINE
  8
0
  6
CONTINUOUS
 10
1130.31824
 20
584.114412
 30
0.0
 11
1129.97183
 21
584.714412
 31
0.0
  0
LINE
  8
0
  6
CONTINUOUS
 10
1132.396701
 20
588.914412
 30
0.0
 11
1135.447474
 21
588.914412
 31
0.0
  0
LINE
  8
0
  6
CONTINUOUS
 10
1135.447474
 20
588.914412
 30
0.0
 11
1140.297217
 21
586.114412
 31
0.0
  0
LINE
  8
0
  6
CONTINUOUS
 10
1153.596701
 20
79.714412
 30
0.0
 11
1140.297217
 21
79.714412
 31
0.0
  0
LINE
  8
0
  6
CONTINUOUS
 10
1159.596701
 20
332.914412
 30
0.0
 11
1159.596701
 21
85.714412
 31
0.0
  0
LINE
  8
0
  6
CONTINUOUS
 10
1166.396701
 20
80.914412
 30
0.0
 11
1166.396701
 21
332.914412
 31
0.0
  0
LINE
  8
0
  6
CONTINUOUS
 10
1132.396701
 20
72.914412
 30
0.0
 11
1158.396701
 21
72.914412
 31
0.0
  0
LINE
  8
0
  6
CONTINUOUS
 10
1137.182342
 20
80.225439
 30
0.0
 11
1133.782342
 21
86.114412
 31
0.0
  0
LINE
  8
0
  6
CONTINUOUS
 10
1131.703881
 20
81.714412
 30
0.0
 11
1133.71824
 21
78.225439
 31
0.0
  0
LINE
  8
0
  6
CONTINUOUS
 10
1129.97183
 20
81.114412
 30
0.0
 11
1130.31824
 21
81.714412
 31
0.0
  0
LINE
  8
0
  6
CONTINUOUS
 10
1135.447474
 20
76.914412
 30
0.0
 11
1132.396701
 21
76.914412
 31
0.0
  0
LINE
  8
0
  6
CONTINUOUS
 10
1140.297217
 20
79.714412
 30
0.0
 11
1135.447474
 21
76.914412
 31
0.0
  0
ARC
  8
0
  6
CONTINUOUS
 10
1132.396701
 20
586.114412
 30
0.0
 40
6.8
 50
90.0
 51
210.0
  0
ARC
  8
0
  6
CONTINUOUS
 10
1131.011061
 20
581.314412
 30
0.0
 40
3.2
 50
210.0
 51
330.0
  0
ARC
  8
0
  6
CONTINUOUS
 10
1135.450291
 20
586.603385
 30
0.0
 40
2.0
 50
330.0
 51
150.0
  0
ARC
  8
0
  6
CONTINUOUS
 10
1131.011061
 20
584.514412
 30
0.0
 40
0.8
 50
210.0
 51
330.0
  0
ARC
  8
0
  6
CONTINUOUS
 10
1132.396701
 20
586.114412
 30
0.0
 40
2.8
 50
90.0
 51
210.0
  0
ARC
  8
0
  6
CONTINUOUS
 10
1132.396701
 20
79.714412
 30
0.0
 40
6.8
 50
150.0
 51
270.0
  0
ARC
  8
0
  6
CONTINUOUS
 10
1131.011061
 20
84.514412
 30
0.0
 40
3.2
 50
30.0
 51
150.0
  0
ARC
  8
0
  6
CONTINUOUS
 10
1135.450291
 20
79.225439
 30
0.0
 40
2.0
 50
210.0
 51
30.0
  0
ARC
  8
0
  6
CONTINUOUS
 10
1131.011061
 20
81.314412
 30
0.0
 40
0.8
 50
30.0
 51
150.0
  0
ARC
  8
0
  6
CONTINUOUS
 10
1132.396701
 20
79.714412
 30
0.0
 40
2.8
 50
150.0
 51
270.0
  0
ARC
  8
0
  6
CONTINUOUS
 10
1153.596701
 20
580.114412
 30
0.0
 40
6.0
 50
0.0
 51
90.0
  0
ARC
  8
0
  6
CONTINUOUS
 10
1158.396701
 20
584.914412
 30
0.0
 40
8.0
 50
0.0
 51
90.0
  0
ARC
  8
0
  6
CONTINUOUS
 10
1153.596701
 20
85.714412
 30
0.0
 40
6.0
 50
270.0
 51
0.0
  0
ARC
  8
0
  6
CONTINUOUS
 10
1158.396701
 20
80.914412
 30
0.0
 40
8.0
 50
270.0
 51
0.0
  0
LINE
  8
0
  6
CONTINUOUS
 10
1144.796701
 20
555.41748
 30
0.0
 11
1139.42357
 21
556.364908
 31
0.0
  0
LINE
  8
0
  6
CONTINUOUS
 10
1150.396701
 20
112.583325
 30
0.0
 11
1152.23859
 21
112.908099
 31
0.0
  0
LINE
  8
0
  6
CONTINUOUS
 10
1144.796701
 20
119.704611
 30
0.0
 11
1137.702108
 21
118.453643
 31
0.0
  0
LINE
  8
0
  6
CONTINUOUS
 10
1157.196701
 20
192.914412
 30
0.0
 11
1123.196701
 21
192.914412
 31
0.0
  0
LINE
  8
0
  6
CONTINUOUS
 10
1157.196701
 20
282.914412
 30
0.0
 11
1151.196701
 21
282.704887
 31
0.0
  0
LINE
  8
0
  6
CONTINUOUS
 10
1151.196701
 20
287.123937
 30
0.0
 11
1157.196701
 21
286.914412
 31
0.0
  0
LINE
  8
0
  6
CONTINUOUS
 10
1157.196701
 20
286.914412
 30
0.0
 11
1157.196701
 21
282.914412
 31
0.0
  0
LINE
  8
0
  6
CONTINUOUS
 10
1151.196701
 20
282.704887
 30
0.0
 11
1137.196701
 21
282.215997
 31
0.0
  0
LINE
  8
0
  6
CONTINUOUS
 10
1137.196701
 20
287.612827
 30
0.0
 11
1151.196701
 21
287.123937
 31
0.0
  0
LINE
  8
0
  6
CONTINUOUS
 10
1137.196701
 20
282.215997
 30
0.0
 11
1124.917505
 21
281.787198
 31
0.0
  0
LINE
  8
0
  6
CONTINUOUS
 10
1117.196701
 20
332.914412
 30
0.0
 11
1117.196701
 21
296.036753
 31
0.0
  0
LINE
  8
0
  6
CONTINUOUS
 10
1137.196701
 20
287.612827
 30
0.0
 11
1137.196701
 21
282.215997
 31
0.0
  0
LINE
  8
0
  6
CONTINUOUS
 10
1124.917505
 20
288.041626
 30
0.0
 11
1137.196701
 21
287.612827
 31
0.0
  0
LINE
  8
0
  6
CONTINUOUS
 10
1151.196701
 20
378.704887
 30
0.0
 11
1151.196701
 21
287.123937
 31
0.0
  0
LINE
  8
0
  6
CONTINUOUS
 10
1151.196701
 20
383.123937
 30
0.0
 11
1157.196701
 21
382.914412
 31
0.0
  0
LINE
  8
0
  6
CONTINUOUS
 10
1157.196701
 20
382.914412
 30
0.0
 11
1157.196701
 21
378.914412
 31
0.0
  0
LINE
  8
0
  6
CONTINUOUS
 10
1157.196701
 20
378.914412
 30
0.0
 11
1151.196701
 21
378.704887
 31
0.0
  0
LINE
  8
0
  6
CONTINUOUS
 10
1157.196701
 20
286.914412
 30
0.0
 11
1157.196701
 21
378.914412
 31
0.0
  0
LINE
  8
0
  6
CONTINUOUS
 10
1137.196701
 20
383.612827
 30
0.0
 11
1151.196701
 21
383.123937
 31
0.0
  0
LINE
  8
0
  6
CONTINUOUS
 10
1151.196701
 20
378.704887
 30
0.0
 11
1137.196701
 21
378.215997
 31
0.0
  0
LINE
  8
0
  6
CONTINUOUS
 10
1117.196701
 20
369.792071
 30
0.0
 11
1117.196701
 21
332.914412
 31
0.0
  0
LINE
  8
0
  6
CONTINUOUS
 10
1124.917505
 20
384.041626
 30
0.0
 11
1137.196701
 21
383.612827
 31
0.0
  0
LINE
  8
0
  6
CONTINUOUS
 10
1137.196701
 20
383.612827
 30
0.0
 11
1137.196701
 21
378.215997
 31
0.0
  0
LINE
  8
0
  6
CONTINUOUS
 10
1137.196701
 20
378.215997
 30
0.0
 11
1124.917505
 21
377.787198
 31
0.0
  0
LINE
  8
0
  6
CONTINUOUS
 10
1117.196701
 20
455.792071
 30
0.0
 11
1117.196701
 21
392.036753
 31
0.0
  0
LINE
  8
0
  6
CONTINUOUS
 10
1125.196701
 20
468.509283
 30
0.0
 11
1125.196701
 21
466.269647
 31
0.0
  0
LINE
  8
0
  6
CONTINUOUS
 10
1125.596701
 20
465.576827
 30
0.0
 11
1128.4809
 21
463.911634
 31
0.0
  0
LINE
  8
0
  6
CONTINUOUS
 10
1128.4809
 20
463.911634
 30
0.0
 11
1124.917505
 21
463.787198
 31
0.0
  0
LINE
  8
0
  6
CONTINUOUS
 10
1129.285083
 20
471.283035
 30
0.0
 11
1137.196701
 21
469.163123
 31
0.0
  0
LINE
  8
0
  6
CONTINUOUS
 10
1157.196701
 20
382.914412
 30
0.0
 11
1157.196701
 21
464.914412
 31
0.0
  0
LINE
  8
0
  6
CONTINUOUS
 10
1157.196701
 20
464.914412
 30
0.0
 11
1151.196701
 21
464.704887
 31
0.0
  0
LINE
  8
0
  6
CONTINUOUS
 10
1151.196701
 20
464.704887
 30
0.0
 11
1151.196701
 21
383.123937
 31
0.0
  0
LINE
  8
0
  6
CONTINUOUS
 10
1151.196701
 20
464.704887
 30
0.0
 11
1124.917505
 21
463.787198
 31
0.0
  0
LINE
  8
0
  6
CONTINUOUS
 10
1157.196701
 20
469.163123
 30
0.0
 11
1137.196701
 21
469.163123
 31
0.0
  0
LINE
  8
0
  6
CONTINUOUS
 10
1157.196701
 20
469.163123
 30
0.0
 11
1157.196701
 21
452.914412
 31
0.0
  0
LINE
  8
0
  6
CONTINUOUS
 10
1157.196701
 20
472.914412
 30
0.0
 11
1157.196701
 21
469.163123
 31
0.0
  0
LINE
  8
0
  6
CONTINUOUS
 10
1123.196701
 20
472.914412
 30
0.0
 11
1129.285083
 21
471.283035
 31
0.0
  0
LINE
  8
0
  6
CONTINUOUS
 10
1123.196701
 20
472.914412
 30
0.0
 11
1157.196701
 21
472.914412
 31
0.0
  0
LINE
  8
0
  6
CONTINUOUS
 10
1123.196701
 20
480.01953
 30
0.0
 11
1123.196701
 21
472.914412
 31
0.0
  0
LINE
  8
0
  6
CONTINUOUS
 10
1132.796701
 20
531.314412
 30
0.0
 11
1132.796701
 21
480.01953
 31
0.0
  0
LINE
  8
0
  6
CONTINUOUS
 10
1123.196701
 20
531.314412
 30
0.0
 11
1123.196701
 21
480.01953
 31
0.0
  0
LINE
  8
0
  6
CONTINUOUS
 10
1149.196701
 20
536.114412
 30
0.0
 11
1127.996701
 21
536.114412
 31
0.0
  0
LINE
  8
0
  6
CONTINUOUS
 10
1150.396701
 20
537.314412
 30
0.0
 11
1150.396701
 21
544.129862
 31
0.0
  0
LINE
  8
0
  6
CONTINUOUS
 10
1157.196701
 20
548.196428
 30
0.0
 11
1157.196701
 21
472.914412
 31
0.0
  0
LINE
  8
0
  6
CONTINUOUS
 10
1152.23859
 20
554.105274
 30
0.0
 11
1150.396701
 21
554.430049
 31
0.0
  0
LINE
  8
0
  6
CONTINUOUS
 10
1137.702108
 20
548.559731
 30
0.0
 11
1144.796701
 21
547.308763
 31
0.0
  0
LINE
  8
0
  6
CONTINUOUS
 10
1117.196701
 20
273.792071
 30
0.0
 11
1117.196701
 21
210.036753
 31
0.0
  0
LINE
  8
0
  6
CONTINUOUS
 10
1157.196701
 20
200.914412
 30
0.0
 11
1157.196701
 21
282.914412
 31
0.0
  0
LINE
  8
0
  6
CONTINUOUS
 10
1151.196701
 20
282.704887
 30
0.0
 11
1151.196701
 21
201.123937
 31
0.0
  0
LINE
  8
0
  6
CONTINUOUS
 10
1157.196701
 20
212.914412
 30
0.0
 11
1157.196701
 21
196.665701
 31
0.0
  0
LINE
  8
0
  6
CONTINUOUS
 10
1157.196701
 20
196.665701
 30
0.0
 11
1157.196701
 21
192.914412
 31
0.0
  0
LINE
  8
0
  6
CONTINUOUS
 10
1151.196701
 20
201.123937
 30
0.0
 11
1157.196701
 21
200.914412
 31
0.0
  0
LINE
  8
0
  6
CONTINUOUS
 10
1137.196701
 20
196.665701
 30
0.0
 11
1157.196701
 21
196.665701
 31
0.0
  0
LINE
  8
0
  6
CONTINUOUS
 10
1124.917505
 20
202.041626
 30
0.0
 11
1151.196701
 21
201.123937
 31
0.0
  0
LINE
  8
0
  6
CONTINUOUS
 10
1125.196701
 20
199.559177
 30
0.0
 11
1125.196701
 21
197.319541
 31
0.0
  0
LINE
  8
0
  6
CONTINUOUS
 10
1128.4809
 20
201.91719
 30
0.0
 11
1125.596701
 21
200.251997
 31
0.0
  0
LINE
  8
0
  6
CONTINUOUS
 10
1124.917505
 20
202.041626
 30
0.0
 11
1128.4809
 21
201.91719
 31
0.0
  0
LINE
  8
0
  6
CONTINUOUS
 10
1137.196701
 20
196.665701
 30
0.0
 11
1129.285083
 21
194.545789
 31
0.0
  0
LINE
  8
0
  6
CONTINUOUS
 10
1132.796701
 20
185.809294
 30
0.0
 11
1132.796701
 21
134.514412
 31
0.0
  0
LINE
  8
0
  6
CONTINUOUS
 10
1123.196701
 20
185.809294
 30
0.0
 11
1123.196701
 21
134.514412
 31
0.0
  0
LINE
  8
0
  6
CONTINUOUS
 10
1123.196701
 20
192.914412
 30
0.0
 11
1123.196701
 21
185.809294
 31
0.0
  0
LINE
  8
0
  6
CONTINUOUS
 10
1129.285083
 20
194.545789
 30
0.0
 11
1123.196701
 21
192.914412
 31
0.0
  0
LINE
  8
0
  6
CONTINUOUS
 10
1127.996701
 20
129.714412
 30
0.0
 11
1149.196701
 21
129.714412
 31
0.0
  0
LINE
  8
0
  6
CONTINUOUS
 10
1150.396701
 20
121.698962
 30
0.0
 11
1150.396701
 21
128.514412
 31
0.0
  0
LINE
  8
0
  6
CONTINUOUS
 10
1157.196701
 20
192.914412
 30
0.0
 11
1157.196701
 21
118.816946
 31
0.0
  0
LINE
  8
0
  6
CONTINUOUS
 10
1139.42357
 20
110.648466
 30
0.0
 11
1144.796701
 21
111.595894
 31
0.0
  0
ARC
  8
0
  6
CONTINUOUS
 10
1137.196701
 20
452.914412
 30
0.0
 40
20.0
 50
113.302207
 51
125.685335
  0
ARC
  8
0
  6
CONTINUOUS
 10
1127.996701
 20
480.01953
 30
0.0
 40
4.8
 50
270.0
 51
0.0
  0
ARC
  8
0
  6
CONTINUOUS
 10
1127.996701
 20
531.314412
 30
0.0
 40
4.8
 50
90.0
 51
180.0
  0
ARC
  8
0
  6
CONTINUOUS
 10
1127.996701
 20
531.314412
 30
0.0
 40
4.8
 50
0.0
 51
90.0
  0
ARC
  8
0
  6
CONTINUOUS
 10
1138.396701
 20
552.498962
 30
0.0
 40
4.0
 50
75.124638
 51
260.0
  0
ARC
  8
0
  6
CONTINUOUS
 10
1138.396701
 20
552.498962
 30
0.0
 40
4.0
 50
260.0
 51
75.124638
  0
ARC
  8
0
  6
CONTINUOUS
 10
1137.196701
 20
212.914412
 30
0.0
 40
20.0
 50
234.314665
 51
246.697793
  0
ARC
  8
0
  6
CONTINUOUS
 10
1127.996701
 20
185.809294
 30
0.0
 40
4.8
 50
0.0
 51
90.0
  0
ARC
  8
0
  6
CONTINUOUS
 10
1127.996701
 20
134.514412
 30
0.0
 40
4.8
 50
270.0
 51
0.0
  0
ARC
  8
0
  6
CONTINUOUS
 10
1127.996701
 20
134.514412
 30
0.0
 40
4.8
 50
180.0
 51
270.0
  0
ARC
  8
0
  6
CONTINUOUS
 10
1138.396701
 20
114.514412
 30
0.0
 40
4.0
 50
100.0
 51
284.875362
  0
ARC
  8
0
  6
CONTINUOUS
 10
1138.396701
 20
114.514412
 30
0.0
 40
4.0
 50
284.875362
 51
100.0
  0
ARC
  8
0
  6
CONTINUOUS
 10
1125.196701
 20
273.792071
 30
0.0
 40
8.0
 50
92.0
 51
180.0
  0
ARC
  8
0
  6
CONTINUOUS
 10
1125.196701
 20
296.036753
 30
0.0
 40
8.0
 50
180.0
 51
268.0
  0
ARC
  8
0
  6
CONTINUOUS
 10
1125.196701
 20
392.036753
 30
0.0
 40
8.0
 50
180.0
 51
268.0
  0
ARC
  8
0
  6
CONTINUOUS
 10
1125.196701
 20
369.792071
 30
0.0
 40
8.0
 50
92.0
 51
180.0
  0
ARC
  8
0
  6
CONTINUOUS
 10
1125.196701
 20
455.792071
 30
0.0
 40
8.0
 50
92.0
 51
180.0
  0
ARC
  8
0
  6
CONTINUOUS
 10
1125.196701
 20
455.792071
 30
0.0
 40
8.0
 50
92.0
 51
180.0
  0
ARC
  8
0
  6
CONTINUOUS
 10
1125.996701
 20
468.509283
 30
0.0
 40
0.8
 50
125.685335
 51
180.0
  0
ARC
  8
0
  6
CONTINUOUS
 10
1125.996701
 20
466.269647
 30
0.0
 40
0.8
 50
180.0
 51
240.0
  0
ARC
  8
0
  6
CONTINUOUS
 10
1127.996701
 20
480.01953
 30
0.0
 40
4.8
 50
180.0
 51
270.0
  0
ARC
  8
0
  6
CONTINUOUS
 10
1149.196701
 20
537.314412
 30
0.0
 40
1.2
 50
270.0
 51
0.0
  0
ARC
  8
0
  6
CONTINUOUS
 10
1151.196701
 20
548.196428
 30
0.0
 40
6.0
 50
0.0
 51
80.0
  0
ARC
  8
0
  6
CONTINUOUS
 10
1125.196701
 20
210.036753
 30
0.0
 40
8.0
 50
180.0
 51
268.0
  0
ARC
  8
0
  6
CONTINUOUS
 10
1125.196701
 20
210.036753
 30
0.0
 40
8.0
 50
180.0
 51
268.0
  0
ARC
  8
0
  6
CONTINUOUS
 10
1125.996701
 20
197.319541
 30
0.0
 40
0.8
 50
180.0
 51
234.314665
  0
ARC
  8
0
  6
CONTINUOUS
 10
1125.996701
 20
199.559177
 30
0.0
 40
0.8
 50
120.0
 51
180.0
  0
ARC
  8
0
  6
CONTINUOUS
 10
1127.996701
 20
185.809294
 30
0.0
 40
4.8
 50
90.0
 51
180.0
  0
ARC
  8
0
  6
CONTINUOUS
 10
1149.196701
 20
128.514412
 30
0.0
 40
1.2
 50
0.0
 51
90.0
  0
ARC
  8
0
  6
CONTINUOUS
 10
1151.196701
 20
118.816946
 30
0.0
 40
6.0
 50
280.0
 51
0.0
  0
LINE
  8
0
  6
CONTINUOUS
 10
926.396701
 20
80.914412
 30
0.0
 11
926.396701
 21
-7.085588
 31
0.0
  0
LINE
  8
0
  6
CONTINUOUS
 10
926.396701
 20
584.914412
 30
0.0
 11
926.396701
 21
672.914412
 31
0.0
  0
LINE
  8
0
  6
CONTINUOUS
 10
846.396701
 20
648.557562
 30
0.0
 11
870.753551
 21
672.914412
 31
0.0
  0
LINE
  8
0
  6
CONTINUOUS
 10
846.396701
 20
620.27329
 30
0.0
 11
899.037823
 21
672.914412
 31
0.0
  0
LINE
  8
0
  6
CONTINUOUS
 10
846.396701
 20
591.989019
 30
0.0
 11
926.396701
 21
671.989019
 31
0.0
  0
LINE
  8
0
  6
CONTINUOUS
 10
846.396701
 20
563.704748
 30
0.0
 11
926.396701
 21
643.704748
 31
0.0
  0
LINE
  8
0
  6
CONTINUOUS
 10
846.396701
 20
535.420477
 30
0.0
 11
926.396701
 21
615.420477
 31
0.0
  0
LINE
  8
0
  6
CONTINUOUS
 10
846.396701
 20
507.136205
 30
0.0
 11
926.396701
 21
587.136205
 31
0.0
  0
LINE
  8
0
  6
CONTINUOUS
 10
846.396701
 20
478.851934
 30
0.0
 11
926.396701
 21
558.851934
 31
0.0
  0
LINE
  8
0
  6
CONTINUOUS
 10
846.396701
 20
450.567663
 30
0.0
 11
926.396701
 21
530.567663
 31
0.0
  0
LINE
  8
0
  6
CONTINUOUS
 10
846.396701
 20
422.283392
 30
0.0
 11
926.396701
 21
502.283392
 31
0.0
  0
LINE
  8
0
  6
CONTINUOUS
 10
846.396701
 20
393.99912
 30
0.0
 11
926.396701
 21
473.99912
 31
0.0
  0
LINE
  8
0
  6
CONTINUOUS
 10
846.396701
 20
365.714849
 30
0.0
 11
926.396701
 21
445.714849
 31
0.0
  0
LINE
  8
0
  6
CONTINUOUS
 10
846.396701
 20
337.430578
 30
0.0
 11
926.396701
 21
417.430578
 31
0.0
  0
LINE
  8
0
  6
CONTINUOUS
 10
846.396701
 20
309.146307
 30
0.0
 11
926.396701
 21
389.146307
 31
0.0
  0
LINE
  8
0
  6
CONTINUOUS
 10
846.396701
 20
280.862035
 30
0.0
 11
926.396701
 21
360.862035
 31
0.0
  0
LINE
  8
0
  6
CONTINUOUS
 10
846.396701
 20
252.577764
 30
0.0
 11
926.396701
 21
332.577764
 31
0.0
  0
LINE
  8
0
  6
CONTINUOUS
 10
846.396701
 20
224.293493
 30
0.0
 11
926.396701
 21
304.293493
 31
0.0
  0
LINE
  8
0
  6
CONTINUOUS
 10
846.396701
 20
196.009222
 30
0.0
 11
926.396701
 21
276.009222
 31
0.0
  0
LINE
  8
0
  6
CONTINUOUS
 10
846.396701
 20
167.72495
 30
0.0
 11
926.396701
 21
247.72495
 31
0.0
  0
LINE
  8
0
  6
CONTINUOUS
 10
846.396701
 20
139.440679
 30
0.0
 11
926.396701
 21
219.440679
 31
0.0
  0
LINE
  8
0
  6
CONTINUOUS
 10
846.396701
 20
111.156408
 30
0.0
 11
926.396701
 21
191.156408
 31
0.0
  0
LINE
  8
0
  6
CONTINUOUS
 10
846.396701
 20
82.872137
 30
0.0
 11
926.396701
 21
162.872137
 31
0.0
  0
LINE
  8
0
  6
CONTINUOUS
 10
846.396701
 20
54.587865
 30
0.0
 11
926.396701
 21
134.587865
 31
0.0
  0
LINE
  8
0
  6
CONTINUOUS
 10
846.396701
 20
26.303594
 30
0.0
 11
926.396701
 21
106.303594
 31
0.0
  0
LINE
  8
0
  6
CONTINUOUS
 10
846.396701
 20
-1.980677
 30
0.0
 11
926.396701
 21
78.019323
 31
0.0
  0
LINE
  8
0
  6
CONTINUOUS
 10
869.576061
 20
-7.085588
 30
0.0
 11
926.396701
 21
49.735052
 31
0.0
  0
LINE
  8
0
  6
CONTINUOUS
 10
897.860333
 20
-7.085588
 30
0.0
 11
926.396701
 21
21.45078
 31
0.0
  0
LINE
  8
0
  6
CONTINUOUS
 10
926.144604
 20
-7.085588
 30
0.0
 11
926.396701
 21
-6.833491
 31
0.0
  0
ENDSEC
  0
EOF
