  0
SECTION
  2
HEADER
  9
$ACADVER
  1
AC1009
  9
$INSBASE
 10
0.0
 20
0.0
 30
0.0
  9
$EXTMIN
 10
855.039764
 20
266.864907
 30
0.0
  9
$EXTMAX
 10
945.924377
 20
436.864907
 30
0.0
  9
$LIMMIN
 10
855.039764
 20
266.864907
  9
$LIMMAX
 10
943.039815
 20
436.864907
  9
$ORTHOMODE
 70
     0
  9
$REGENMODE
 70
     1
  9
$FILLMODE
 70
     1
  9
$QTEXTMODE
 70
     0
  9
$MIRRTEXT
 70
     1
  9
$DRAGMODE
 70
     2
  9
$LTSCALE
 40
1.0
  9
$OSMODE
 70
     0
  9
$ATTMODE
 70
     1
  9
$TEXTSIZE
 40
3.5
  9
$TRACEWID
 40
0.5
  9
$TEXTSTYLE
  7
STANDARD
  9
$CLAYER
  8
0
  9
$CELTYPE
  6
BYLAYER
  9
$CECOLOR
 62
   256
  9
$DIMSCALE
 40
1.0
  9
$DIMASZ
 40
0.18
  9
$DIMEXO
 40
0.0625
  9
$DIMDLI
 40
0.38
  9
$DIMRND
 40
0.0
  9
$DIMDLE
 40
0.0
  9
$DIMEXE
 40
0.18
  9
$DIMTP
 40
0.0
  9
$DIMTM
 40
0.0
  9
$DIMTXT
 40
0.18
  9
$DIMCEN
 40
0.09
  9
$DIMTSZ
 40
0.0
  9
$DIMTOL
 70
     0
  9
$DIMLIM
 70
     0
  9
$DIMTIH
 70
     1
  9
$DIMTOH
 70
     1
  9
$DIMSE1
 70
     0
  9
$DIMSE2
 70
     0
  9
$DIMTAD
 70
     0
  9
$DIMZIN
 70
     0
  9
$DIMBLK
  1

  9
$DIMASO
 70
     1
  9
$DIMSHO
 70
     1
  9
$DIMPOST
  1

  9
$DIMAPOST
  1

  9
$DIMALT
 70
     0
  9
$DIMALTD
 70
     2
  9
$DIMALTF
 40
25.4
  9
$DIMLFAC
 40
1.0
  9
$DIMTOFL
 70
     0
  9
$DIMTVP
 40
0.0
  9
$DIMTIX
 70
     0
  9
$DIMSOXD
 70
     0
  9
$DIMSAH
 70
     0
  9
$DIMBLK1
  1

  9
$DIMBLK2
  1

  9
$DIMSTYLE
  2
*UNNAMED
  9
$DIMCLRD
 70
     0
  9
$DIMCLRE
 70
     0
  9
$DIMCLRT
 70
     0
  9
$DIMTFAC
 40
1.0
  9
$DIMGAP
 40
0.09
  9
$LUNITS
 70
     2
  9
$LUPREC
 70
     4
  9
$SKETCHINC
 40
0.1
  9
$FILLETRAD
 40
2.0
  9
$AUNITS
 70
     0
  9
$AUPREC
 70
     0
  9
$MENU
  1
ACAD
  9
$ELEVATION
 40
0.0
  9
$PELEVATION
 40
0.0
  9
$THICKNESS
 40
0.0
  9
$LIMCHECK
 70
     0
  9
$BLIPMODE
 70
     1
  9
$CHAMFERA
 40
0.0
  9
$CHAMFERB
 40
0.0
  9
$SKPOLY
 70
     0
  9
$TDCREATE
 40
2450955.388766898
  9
$TDUPDATE
 40
2450955.389440162
  9
$TDINDWG
 40
0.0002771991
  9
$TDUSRTIMER
 40
0.0002771991
  9
$USRTIMER
 70
     1
  9
$ANGBASE
 50
0.0
  9
$ANGDIR
 70
     0
  9
$PDMODE
 70
     0
  9
$PDSIZE
 40
0.0
  9
$PLINEWID
 40
0.0
  9
$COORDS
 70
     2
  9
$SPLFRAME
 70
     0
  9
$SPLINETYPE
 70
     6
  9
$SPLINESEGS
 70
     8
  9
$ATTDIA
 70
     0
  9
$ATTREQ
 70
     1
  9
$HANDLING
 70
     0
  9
$HANDSEED
  5
0
  9
$SURFTAB1
 70
     6
  9
$SURFTAB2
 70
     6
  9
$SURFTYPE
 70
     6
  9
$SURFU
 70
     6
  9
$SURFV
 70
     6
  9
$UCSNAME
  2

  9
$UCSORG
 10
0.0
 20
0.0
 30
0.0
  9
$UCSXDIR
 10
1.0
 20
0.0
 30
0.0
  9
$UCSYDIR
 10
0.0
 20
1.0
 30
0.0
  9
$PUCSNAME
  2

  9
$PUCSORG
 10
0.0
 20
0.0
 30
0.0
  9
$PUCSXDIR
 10
1.0
 20
0.0
 30
0.0
  9
$PUCSYDIR
 10
0.0
 20
1.0
 30
0.0
  9
$USERI1
 70
     0
  9
$USERI2
 70
     0
  9
$USERI3
 70
     0
  9
$USERI4
 70
     0
  9
$USERI5
 70
     0
  9
$USERR1
 40
0.0
  9
$USERR2
 40
0.0
  9
$USERR3
 40
0.0
  9
$USERR4
 40
0.0
  9
$USERR5
 40
0.0
  9
$WORLDVIEW
 70
     1
  9
$SHADEDGE
 70
     3
  9
$SHADEDIF
 70
    70
  9
$TILEMODE
 70
     1
  9
$MAXACTVP
 70
    16
  9
$PINSBASE
 10
0.0
 20
0.0
 30
0.0
  9
$PLIMCHECK
 70
     0
  9
$PEXTMIN
 10
1.000000E+20
 20
1.000000E+20
 30
1.000000E+20
  9
$PEXTMAX
 10
-1.000000E+20
 20
-1.000000E+20
 30
-1.000000E+20
  9
$PLIMMIN
 10
0.0
 20
0.0
  9
$PLIMMAX
 10
420.0
 20
297.0
  9
$UNITMODE
 70
     0
  9
$VISRETAIN
 70
     0
  9
$PLINEGEN
 70
     0
  9
$PSLTSCALE
 70
     1
  9
$TREEDEPTH
 70
  3020
  9
$DWGCODEPAGE
  3
iso8859-1
  0
ENDSEC
  0
SECTION
  2
TABLES
  0
TABLE
  2
VPORT
 70
     2
  0
VPORT
  2
*ACTIVE
 70
     0
 10
0.0
 20
0.0
 11
1.0
 21
1.0
 12
1002.356887
 22
338.652242
 13
0.0
 23
0.0
 14
1.0
 24
1.0
 15
0.0
 25
0.0
 16
0.0
 26
0.0
 36
1.0
 17
0.0
 27
0.0
 37
0.0
 40
256.498083
 41
1.748359
 42
50.0
 43
0.0
 44
0.0
 50
0.0
 51
0.0
 71
     0
 72
   100
 73
     1
 74
     0
 75
     0
 76
     0
 77
     0
 78
     0
  0
ENDTAB
  0
TABLE
  2
LTYPE
 70
     1
  0
LTYPE
  2
CONTINUOUS
 70
    64
  3
Solid line
 72
    65
 73
     0
 40
0.0
  0
ENDTAB
  0
TABLE
  2
LAYER
 70
     1
  0
LAYER
  2
0
 70
    64
 62
     7
  6
CONTINUOUS
  0
ENDTAB
  0
TABLE
  2
STYLE
 70
     1
  0
STYLE
  2
STANDARD
 70
     0
 40
0.0
 41
1.0
 50
0.0
 71
     0
 42
3.5
  3
txt
  4

  0
ENDTAB
  0
TABLE
  2
VIEW
 70
     0
  0
ENDTAB
  0
TABLE
  2
UCS
 70
     0
  0
ENDTAB
  0
TABLE
  2
APPID
 70
     1
  0
APPID
  2
ACAD
 70
    64
  0
ENDTAB
  0
TABLE
  2
DIMSTYLE
 70
     0
  0
ENDTAB
  0
ENDSEC
  0
SECTION
  2
BLOCKS
  0
ENDSEC
  0
SECTION
  2
ENTITIES
  0
LINE
  8
0
 10
929.139764
 20
409.464907
 30
0.0
 11
926.939764
 21
409.464907
 31
0.0
  0
LINE
  8
0
 10
929.639764
 20
405.064907
 30
0.0
 11
929.639764
 21
408.964907
 31
0.0
  0
LINE
  8
0
 10
929.639764
 20
298.562457
 30
0.0
 11
929.639764
 21
296.535278
 31
0.0
  0
LINE
  8
0
 10
931.039764
 20
298.764907
 30
0.0
 11
931.039764
 21
296.782136
 31
0.0
  0
LINE
  8
0
 10
929.639764
 20
298.562457
 30
0.0
 11
929.639764
 21
298.664907
 31
0.0
  0
LINE
  8
0
 10
877.339764
 20
318.364907
 30
0.0
 11
877.339764
 21
291.164907
 31
0.0
  0
LINE
  8
0
 10
877.339764
 20
348.364907
 30
0.0
 11
877.339764
 21
325.364907
 31
0.0
  0
LINE
  8
0
 10
877.339764
 20
378.364907
 30
0.0
 11
877.339764
 21
355.364907
 31
0.0
  0
LINE
  8
0
 10
877.339764
 20
412.564907
 30
0.0
 11
877.339764
 21
385.364907
 31
0.0
  0
LINE
  8
0
 10
878.339764
 20
379.364907
 30
0.0
 11
882.349814
 21
379.364907
 31
0.0
  0
LINE
  8
0
 10
878.239764
 20
380.964907
 30
0.0
 11
882.02555
 21
380.964907
 31
0.0
  0
LINE
  8
0
 10
883.08621
 20
378.404247
 30
0.0
 11
881.193317
 21
376.511354
 31
0.0
  0
LINE
  8
0
 10
880.339764
 20
376.864907
 30
0.0
 11
880.339764
 21
378.864907
 31
0.0
  0
LINE
  8
0
 10
881.193317
 20
379.218461
 30
0.0
 11
881.698342
 21
378.713436
 31
0.0
  0
LINE
  8
0
 10
881.698342
 20
378.713436
 30
0.0
 11
882.349814
 21
379.364907
 31
0.0
  0
LINE
  8
0
 10
882.349814
 20
384.364907
 30
0.0
 11
878.339764
 21
384.364907
 31
0.0
  0
LINE
  8
0
 10
882.02555
 20
382.764907
 30
0.0
 11
878.239764
 21
382.764907
 31
0.0
  0
LINE
  8
0
 10
881.193317
 20
387.218461
 30
0.0
 11
883.08621
 21
385.325568
 31
0.0
  0
LINE
  8
0
 10
880.339764
 20
384.864907
 30
0.0
 11
880.339764
 21
386.864907
 31
0.0
  0
LINE
  8
0
 10
881.698342
 20
385.016379
 30
0.0
 11
881.193317
 21
384.511354
 31
0.0
  0
LINE
  8
0
 10
882.349814
 20
384.364907
 30
0.0
 11
881.698342
 21
385.016379
 31
0.0
  0
LINE
  8
0
 10
878.339764
 20
319.364907
 30
0.0
 11
882.349814
 21
319.364907
 31
0.0
  0
LINE
  8
0
 10
878.239764
 20
320.964907
 30
0.0
 11
882.02555
 21
320.964907
 31
0.0
  0
LINE
  8
0
 10
883.08621
 20
318.404247
 30
0.0
 11
881.193317
 21
316.511354
 31
0.0
  0
LINE
  8
0
 10
880.339764
 20
316.864907
 30
0.0
 11
880.339764
 21
318.864907
 31
0.0
  0
LINE
  8
0
 10
881.193317
 20
319.218461
 30
0.0
 11
881.698342
 21
318.713436
 31
0.0
  0
LINE
  8
0
 10
881.698342
 20
318.713436
 30
0.0
 11
882.349814
 21
319.364907
 31
0.0
  0
LINE
  8
0
 10
882.349814
 20
324.364907
 30
0.0
 11
878.339764
 21
324.364907
 31
0.0
  0
LINE
  8
0
 10
882.02555
 20
322.764907
 30
0.0
 11
878.239764
 21
322.764907
 31
0.0
  0
LINE
  8
0
 10
881.193317
 20
327.218461
 30
0.0
 11
883.08621
 21
325.325568
 31
0.0
  0
LINE
  8
0
 10
880.339764
 20
324.864907
 30
0.0
 11
880.339764
 21
326.864907
 31
0.0
  0
LINE
  8
0
 10
881.698342
 20
325.016379
 30
0.0
 11
881.193317
 21
324.511354
 31
0.0
  0
LINE
  8
0
 10
882.349814
 20
324.364907
 30
0.0
 11
881.698342
 21
325.016379
 31
0.0
  0
LINE
  8
0
 10
875.039764
 20
288.864907
 30
0.0
 11
875.039764
 21
414.864907
 31
0.0
  0
LINE
  8
0
 10
922.385063
 20
286.864907
 30
0.0
 11
877.039764
 21
286.864907
 31
0.0
  0
LINE
  8
0
 10
925.039764
 20
409.666831
 30
0.0
 11
925.039764
 21
404.164907
 31
0.0
  0
LINE
  8
0
 10
922.789208
 20
413.564907
 30
0.0
 11
925.039764
 21
409.666831
 31
0.0
  0
LINE
  8
0
 10
925.039764
 20
294.062984
 30
0.0
 11
925.039764
 21
299.564907
 31
0.0
  0
LINE
  8
0
 10
922.789208
 20
290.164907
 30
0.0
 11
925.039764
 21
294.062984
 31
0.0
  0
LINE
  8
0
 10
926.71519
 20
411.364907
 30
0.0
 11
924.117114
 21
415.864907
 31
0.0
  0
LINE
  8
0
 10
927.588434
 20
410.864907
 30
0.0
 11
927.581216
 21
410.864907
 31
0.0
  0
LINE
  8
0
 10
924.117114
 20
287.864907
 30
0.0
 11
926.71519
 21
292.364907
 31
0.0
  0
LINE
  8
0
 10
931.039764
 20
298.764907
 30
0.0
 11
931.039764
 21
299.564907
 31
0.0
  0
LINE
  8
0
 10
931.039764
 20
404.164907
 30
0.0
 11
931.039764
 21
408.964907
 31
0.0
  0
LINE
  8
0
 10
926.439764
 20
408.964907
 30
0.0
 11
926.439764
 21
405.064907
 31
0.0
  0
LINE
  8
0
 10
926.939764
 20
404.564907
 30
0.0
 11
929.139764
 21
404.564907
 31
0.0
  0
LINE
  8
0
 10
926.039764
 20
403.164907
 30
0.0
 11
930.039764
 21
403.164907
 31
0.0
  0
LINE
  8
0
 10
927.588434
 20
410.864907
 30
0.0
 11
931.139764
 21
410.864907
 31
0.0
  0
LINE
  8
0
 10
931.639764
 20
411.364907
 30
0.0
 11
931.639764
 21
411.664907
 31
0.0
  0
LINE
  8
0
 10
933.039764
 20
411.664907
 30
0.0
 11
933.039764
 21
409.964907
 31
0.0
  0
LINE
  8
0
 10
932.539764
 20
409.464907
 30
0.0
 11
931.539764
 21
409.464907
 31
0.0
  0
LINE
  8
0
 10
879.339764
 20
414.564907
 30
0.0
 11
921.057157
 21
414.564907
 31
0.0
  0
LINE
  8
0
 10
877.039764
 20
416.864907
 30
0.0
 11
922.385063
 21
416.864907
 31
0.0
  0
LINE
  8
0
 10
926.439764
 20
294.764907
 30
0.0
 11
926.439764
 21
298.664907
 31
0.0
  0
LINE
  8
0
 10
929.139764
 20
299.164907
 30
0.0
 11
926.939764
 21
299.164907
 31
0.0
  0
LINE
  8
0
 10
929.639764
 20
294.764907
 30
0.0
 11
929.639764
 21
296.535278
 31
0.0
  0
LINE
  8
0
 10
930.039764
 20
300.564907
 30
0.0
 11
926.039764
 21
300.564907
 31
0.0
  0
LINE
  8
0
 10
931.039764
 20
294.764907
 30
0.0
 11
931.039764
 21
296.782136
 31
0.0
  0
LINE
  8
0
 10
931.139764
 20
292.864907
 30
0.0
 11
927.581216
 21
292.864907
 31
0.0
  0
LINE
  8
0
 10
931.639764
 20
292.064907
 30
0.0
 11
931.639764
 21
292.364907
 31
0.0
  0
LINE
  8
0
 10
929.539764
 20
288.564907
 30
0.0
 11
928.939764
 21
288.564907
 31
0.0
  0
LINE
  8
0
 10
933.039764
 20
293.764907
 30
0.0
 11
933.039764
 21
292.064907
 31
0.0
  0
LINE
  8
0
 10
931.539764
 20
294.264907
 30
0.0
 11
932.539764
 21
294.264907
 31
0.0
  0
LINE
  8
0
 10
929.139764
 20
294.264907
 30
0.0
 11
926.939764
 21
294.264907
 31
0.0
  0
LINE
  8
0
 10
878.339764
 20
349.364907
 30
0.0
 11
882.349814
 21
349.364907
 31
0.0
  0
LINE
  8
0
 10
878.239764
 20
350.964907
 30
0.0
 11
882.02555
 21
350.964907
 31
0.0
  0
LINE
  8
0
 10
883.08621
 20
348.404247
 30
0.0
 11
881.193317
 21
346.511354
 31
0.0
  0
LINE
  8
0
 10
880.339764
 20
346.864907
 30
0.0
 11
880.339764
 21
348.864907
 31
0.0
  0
LINE
  8
0
 10
881.193317
 20
349.218461
 30
0.0
 11
881.698342
 21
348.713436
 31
0.0
  0
LINE
  8
0
 10
881.698342
 20
348.713436
 30
0.0
 11
882.349814
 21
349.364907
 31
0.0
  0
LINE
  8
0
 10
882.349814
 20
354.364907
 30
0.0
 11
878.339764
 21
354.364907
 31
0.0
  0
LINE
  8
0
 10
882.02555
 20
352.764907
 30
0.0
 11
878.239764
 21
352.764907
 31
0.0
  0
LINE
  8
0
 10
881.193317
 20
357.218461
 30
0.0
 11
883.08621
 21
355.325568
 31
0.0
  0
LINE
  8
0
 10
880.339764
 20
354.864907
 30
0.0
 11
880.339764
 21
356.864907
 31
0.0
  0
LINE
  8
0
 10
881.698342
 20
355.016379
 30
0.0
 11
881.193317
 21
354.511354
 31
0.0
  0
LINE
  8
0
 10
882.349814
 20
354.364907
 30
0.0
 11
881.698342
 21
355.016379
 31
0.0
  0
LINE
  8
0
 10
879.339764
 20
289.164907
 30
0.0
 11
921.057157
 21
289.164907
 31
0.0
  0
LINE
  8
0
 10
929.539764
 20
289.964907
 30
0.0
 11
928.939764
 21
289.964907
 31
0.0
  0
LINE
  8
0
 10
929.539764
 20
415.164907
 30
0.0
 11
928.939764
 21
415.164907
 31
0.0
  0
LINE
  8
0
 10
929.539764
 20
413.764907
 30
0.0
 11
928.939764
 21
413.764907
 31
0.0
  0
LINE
  8
0
 10
925.500533
 20
290.164907
 30
0.0
 11
925.06752
 21
289.414907
 31
0.0
  0
ARC
  8
0
 10
882.02555
 20
379.464907
 30
0.0
 40
1.5
 50
315.0
 51
90.0
  0
ARC
  8
0
 10
880.839764
 20
376.864907
 30
0.0
 40
0.5
 50
270.0
 51
315.0
  0
ARC
  8
0
 10
880.839764
 20
378.864907
 30
0.0
 40
0.5
 50
45.0
 51
180.0
  0
ARC
  8
0
 10
882.02555
 20
384.264907
 30
0.0
 40
1.5
 50
270.0
 51
45.0
  0
ARC
  8
0
 10
880.839764
 20
386.864907
 30
0.0
 40
0.5
 50
90.0
 51
180.0
  0
ARC
  8
0
 10
880.839764
 20
384.864907
 30
0.0
 40
0.5
 50
180.0
 51
315.0
  0
ARC
  8
0
 10
880.839764
 20
386.864907
 30
0.0
 40
0.5
 50
45.0
 51
90.0
  0
ARC
  8
0
 10
880.839764
 20
376.864907
 30
0.0
 40
0.5
 50
180.0
 51
270.0
  0
ARC
  8
0
 10
882.02555
 20
319.464907
 30
0.0
 40
1.5
 50
315.0
 51
90.0
  0
ARC
  8
0
 10
880.839764
 20
316.864907
 30
0.0
 40
0.5
 50
270.0
 51
315.0
  0
ARC
  8
0
 10
880.839764
 20
318.864907
 30
0.0
 40
0.5
 50
45.0
 51
180.0
  0
ARC
  8
0
 10
882.02555
 20
324.264907
 30
0.0
 40
1.5
 50
270.0
 51
45.0
  0
ARC
  8
0
 10
880.839764
 20
326.864907
 30
0.0
 40
0.5
 50
90.0
 51
180.0
  0
ARC
  8
0
 10
880.839764
 20
324.864907
 30
0.0
 40
0.5
 50
180.0
 51
315.0
  0
ARC
  8
0
 10
880.839764
 20
326.864907
 30
0.0
 40
0.5
 50
45.0
 51
90.0
  0
ARC
  8
0
 10
880.839764
 20
316.864907
 30
0.0
 40
0.5
 50
180.0
 51
270.0
  0
ARC
  8
0
 10
882.02555
 20
349.464907
 30
0.0
 40
1.5
 50
315.0
 51
90.0
  0
ARC
  8
0
 10
880.839764
 20
346.864907
 30
0.0
 40
0.5
 50
270.0
 51
315.0
  0
ARC
  8
0
 10
880.839764
 20
348.864907
 30
0.0
 40
0.5
 50
45.0
 51
180.0
  0
ARC
  8
0
 10
882.02555
 20
354.264907
 30
0.0
 40
1.5
 50
270.0
 51
45.0
  0
ARC
  8
0
 10
880.839764
 20
356.864907
 30
0.0
 40
0.5
 50
90.0
 51
180.0
  0
ARC
  8
0
 10
880.839764
 20
354.864907
 30
0.0
 40
0.5
 50
180.0
 51
315.0
  0
ARC
  8
0
 10
880.839764
 20
356.864907
 30
0.0
 40
0.5
 50
45.0
 51
90.0
  0
ARC
  8
0
 10
880.839764
 20
346.864907
 30
0.0
 40
0.5
 50
180.0
 51
270.0
  0
ARC
  8
0
 10
929.139764
 20
408.964907
 30
0.0
 40
0.5
 50
0.0
 51
90.0
  0
ARC
  8
0
 10
878.239764
 20
381.864907
 30
0.0
 40
0.9
 50
90.0
 51
270.0
  0
ARC
  8
0
 10
878.339764
 20
385.364907
 30
0.0
 40
1.0
 50
180.0
 51
270.0
  0
ARC
  8
0
 10
878.339764
 20
378.364907
 30
0.0
 40
1.0
 50
90.0
 51
180.0
  0
ARC
  8
0
 10
878.239764
 20
321.864907
 30
0.0
 40
0.9
 50
90.0
 51
270.0
  0
ARC
  8
0
 10
878.339764
 20
325.364907
 30
0.0
 40
1.0
 50
180.0
 51
270.0
  0
ARC
  8
0
 10
878.339764
 20
318.364907
 30
0.0
 40
1.0
 50
90.0
 51
180.0
  0
ARC
  8
0
 10
877.039764
 20
288.864907
 30
0.0
 40
2.0
 50
180.0
 51
270.0
  0
ARC
  8
0
 10
877.039764
 20
414.864907
 30
0.0
 40
2.0
 50
90.0
 51
180.0
  0
ARC
  8
0
 10
921.057157
 20
412.564907
 30
0.0
 40
2.0
 50
30.0
 51
90.0
  0
ARC
  8
0
 10
921.057157
 20
291.164907
 30
0.0
 40
2.0
 50
270.0
 51
330.0
  0
ARC
  8
0
 10
927.581216
 20
411.864907
 30
0.0
 40
1.0
 50
210.0
 51
270.0
  0
ARC
  8
0
 10
922.385063
 20
414.864907
 30
0.0
 40
2.0
 50
30.0
 51
90.0
  0
ARC
  8
0
 10
927.581216
 20
291.864907
 30
0.0
 40
1.0
 50
90.0
 51
150.0
  0
ARC
  8
0
 10
922.385063
 20
288.864907
 30
0.0
 40
2.0
 50
270.0
 51
330.0
  0
ARC
  8
0
 10
926.939764
 20
405.064907
 30
0.0
 40
0.5
 50
180.0
 51
270.0
  0
ARC
  8
0
 10
929.139764
 20
405.064907
 30
0.0
 40
0.5
 50
270.0
 51
0.0
  0
ARC
  8
0
 10
926.939764
 20
298.664907
 30
0.0
 40
0.5
 50
90.0
 51
180.0
  0
ARC
  8
0
 10
929.139764
 20
298.664907
 30
0.0
 40
0.5
 50
0.0
 51
90.0
  0
ARC
  8
0
 10
928.939764
 20
414.464907
 30
0.0
 40
0.7
 50
180.0
 51
270.0
  0
ARC
  8
0
 10
928.939764
 20
414.464907
 30
0.0
 40
0.7
 50
90.0
 51
180.0
  0
ARC
  8
0
 10
931.139764
 20
411.364907
 30
0.0
 40
0.5
 50
270.0
 51
0.0
  0
ARC
  8
0
 10
929.539764
 20
411.664907
 30
0.0
 40
2.1
 50
0.0
 51
90.0
  0
ARC
  8
0
 10
929.539764
 20
411.664907
 30
0.0
 40
3.5
 50
0.0
 51
90.0
  0
ARC
  8
0
 10
930.039764
 20
404.164907
 30
0.0
 40
1.0
 50
270.0
 51
0.0
  0
ARC
  8
0
 10
926.039764
 20
404.164907
 30
0.0
 40
1.0
 50
180.0
 51
270.0
  0
ARC
  8
0
 10
932.539764
 20
409.964907
 30
0.0
 40
0.5
 50
270.0
 51
0.0
  0
ARC
  8
0
 10
931.539764
 20
408.964907
 30
0.0
 40
0.5
 50
90.0
 51
180.0
  0
ARC
  8
0
 10
926.939764
 20
408.964907
 30
0.0
 40
0.5
 50
90.0
 51
180.0
  0
ARC
  8
0
 10
879.339764
 20
412.564907
 30
0.0
 40
2.0
 50
90.0
 51
180.0
  0
ARC
  8
0
 10
928.939764
 20
289.264907
 30
0.0
 40
0.7
 50
90.0
 51
180.0
  0
ARC
  8
0
 10
928.939764
 20
289.264907
 30
0.0
 40
0.7
 50
180.0
 51
270.0
  0
ARC
  8
0
 10
931.139764
 20
292.364907
 30
0.0
 40
0.5
 50
0.0
 51
90.0
  0
ARC
  8
0
 10
929.539764
 20
292.064907
 30
0.0
 40
2.1
 50
270.0
 51
0.0
  0
ARC
  8
0
 10
929.539764
 20
292.064907
 30
0.0
 40
3.5
 50
270.0
 51
0.0
  0
ARC
  8
0
 10
930.039764
 20
299.564907
 30
0.0
 40
1.0
 50
0.0
 51
90.0
  0
ARC
  8
0
 10
926.039764
 20
299.564907
 30
0.0
 40
1.0
 50
90.0
 51
180.0
  0
ARC
  8
0
 10
932.539764
 20
293.764907
 30
0.0
 40
0.5
 50
0.0
 51
90.0
  0
ARC
  8
0
 10
931.539764
 20
294.764907
 30
0.0
 40
0.5
 50
180.0
 51
270.0
  0
ARC
  8
0
 10
929.139764
 20
294.764907
 30
0.0
 40
0.5
 50
270.0
 51
0.0
  0
ARC
  8
0
 10
926.939764
 20
294.764907
 30
0.0
 40
0.5
 50
180.0
 51
270.0
  0
ARC
  8
0
 10
878.239764
 20
351.864907
 30
0.0
 40
0.9
 50
90.0
 51
270.0
  0
ARC
  8
0
 10
878.339764
 20
355.364907
 30
0.0
 40
1.0
 50
180.0
 51
270.0
  0
ARC
  8
0
 10
878.339764
 20
348.364907
 30
0.0
 40
1.0
 50
90.0
 51
180.0
  0
ARC
  8
0
 10
879.339764
 20
291.164907
 30
0.0
 40
2.0
 50
180.0
 51
270.0
  0
LINE
  8
0
 10
928.321306
 20
286.865161
 30
0.0
 11
926.524797
 21
286.833803
 31
0.0
  0
LINE
  8
0
 10
921.516123
 20
417.526595
 30
0.0
 11
921.516123
 21
417.347511
 31
0.0
  0
LINE
  8
0
 10
921.516123
 20
286.451567
 30
0.0
 11
921.516123
 21
286.272482
 31
0.0
  0
LINE
  8
0
 10
943.016123
 20
416.712328
 30
0.0
 11
943.016123
 21
397.738203
 31
0.0
  0
LINE
  8
0
 10
941.051027
 20
418.712023
 30
0.0
 11
923.042301
 21
419.026367
 31
0.0
  0
LINE
  8
0
 10
943.016123
 20
291.058374
 30
0.0
 11
943.016123
 21
305.414395
 31
0.0
  0
LINE
  8
0
 10
943.016123
 20
287.08675
 30
0.0
 11
943.016123
 21
291.058374
 31
0.0
  0
LINE
  8
0
 10
928.321306
 20
286.865161
 30
0.0
 11
932.760279
 21
286.942643
 31
0.0
  0
LINE
  8
0
 10
941.051027
 20
285.087054
 30
0.0
 11
923.042301
 21
284.772711
 31
0.0
  0
LINE
  8
0
 10
932.760279
 20
286.942643
 30
0.0
 11
935.009686
 21
286.981907
 31
0.0
  0
LINE
  8
0
 10
926.524797
 20
286.833803
 30
0.0
 11
921.810887
 21
286.751521
 31
0.0
  0
LINE
  8
0
 10
943.016123
 20
305.414395
 30
0.0
 11
943.016123
 21
397.738203
 31
0.0
  0
ARC
  8
0
 10
921.816123
 20
417.347511
 30
0.0
 40
0.3
 50
180.0
 51
269.0
  0
ARC
  8
0
 10
923.016123
 20
417.526595
 30
0.0
 40
1.5
 50
89.0
 51
180.0
  0
ARC
  8
0
 10
921.816123
 20
286.451567
 30
0.0
 40
0.3
 50
91.0
 51
180.0
  0
ARC
  8
0
 10
923.016123
 20
286.272482
 30
0.0
 40
1.5
 50
180.0
 51
271.0
  0
ARC
  8
0
 10
941.016123
 20
416.712328
 30
0.0
 40
2.0
 50
0.0
 51
89.0
  0
ARC
  8
0
 10
941.016123
 20
287.08675
 30
0.0
 40
2.0
 50
271.0
 51
0.0
  0
LINE
  8
0
 10
935.009686
 20
416.817171
 30
0.0
 11
935.009686
 21
286.981907
 31
0.0
  0
LINE
  8
0
 10
935.003545
 20
416.817278
 30
0.0
 11
921.810887
 21
417.047557
 31
0.0
  0
LINE
  8
0
 10
945.719899
 20
320.097159
 30
0.0
 11
945.719899
 21
382.514978
 31
0.0
  0
LINE
  8
0
 10
945.719899
 20
382.514978
 30
0.0
 11
945.719854
 21
396.223375
 31
0.0
  0
ARC
  8
0
 10
944.719854
 20
396.223372
 30
0.0
 40
1.0
 50
0.000188
 51
88.999959
  0
LINE
  8
0
 10
943.019948
 20
397.253197
 30
0.0
 11
944.737307
 21
397.223219
 31
0.0
  0
LINE
  8
0
 10
945.719899
 20
320.097159
 30
0.0
 11
945.719854
 21
306.388762
 31
0.0
  0
ARC
  8
0
 10
944.719854
 20
306.388766
 30
0.0
 40
1.0
 50
271.0
 51
359.999812
  0
LINE
  8
0
 10
943.019948
 20
305.358939
 30
0.0
 11
944.737306
 21
305.388918
 31
0.0
  0
LINE
  8
0
 10
928.514893
 20
415.164907
 30
0.0
 11
931.839764
 21
415.164907
 31
0.0
  0
LINE
  8
0
 10
933.339764
 20
413.664907
 30
0.0
 11
933.339764
 21
351.864907
 31
0.0
  0
LINE
  8
0
 10
935.039764
 20
351.864907
 30
0.0
 11
935.039764
 21
414.864907
 31
0.0
  0
LINE
  8
0
 10
933.039764
 20
416.864907
 30
0.0
 11
926.539764
 21
416.864907
 31
0.0
  0
LINE
  8
0
 10
925.06752
 20
414.314907
 30
0.0
 11
925.500533
 21
413.564907
 31
0.0
  0
LINE
  8
0
 10
926.886174
 20
413.564907
 30
0.0
 11
927.736174
 21
415.037151
 31
0.0
  0
LINE
  8
0
 10
926.870148
 20
415.537151
 30
0.0
 11
926.366559
 21
414.664907
 31
0.0
  0
LINE
  8
0
 10
926.020148
 20
414.664907
 30
0.0
 11
925.933546
 21
414.814907
 31
0.0
  0
LINE
  8
0
 10
926.539764
 20
415.864907
 30
0.0
 11
927.302457
 21
415.864907
 31
0.0
  0
LINE
  8
0
 10
927.302457
 20
415.864907
 30
0.0
 11
928.514893
 21
415.164907
 31
0.0
  0
LINE
  8
0
 10
931.839764
 20
288.564907
 30
0.0
 11
928.514893
 21
288.564907
 31
0.0
  0
LINE
  8
0
 10
933.339764
 20
351.864907
 30
0.0
 11
933.339764
 21
290.064907
 31
0.0
  0
LINE
  8
0
 10
935.039764
 20
288.864907
 30
0.0
 11
935.039764
 21
351.864907
 31
0.0
  0
LINE
  8
0
 10
926.539764
 20
286.864907
 30
0.0
 11
933.039764
 21
286.864907
 31
0.0
  0
LINE
  8
0
 10
927.736174
 20
288.692664
 30
0.0
 11
926.886174
 21
290.164907
 31
0.0
  0
LINE
  8
0
 10
926.366559
 20
289.064907
 30
0.0
 11
926.870148
 21
288.192664
 31
0.0
  0
LINE
  8
0
 10
925.933546
 20
288.914907
 30
0.0
 11
926.020148
 21
289.064907
 31
0.0
  0
LINE
  8
0
 10
927.302457
 20
287.864907
 30
0.0
 11
926.539764
 21
287.864907
 31
0.0
  0
LINE
  8
0
 10
928.514893
 20
288.564907
 30
0.0
 11
927.302457
 21
287.864907
 31
0.0
  0
ARC
  8
0
 10
926.539764
 20
415.164907
 30
0.0
 40
1.7
 50
90.0
 51
210.0
  0
ARC
  8
0
 10
926.193353
 20
413.964907
 30
0.0
 40
0.8
 50
210.0
 51
330.0
  0
ARC
  8
0
 10
927.303161
 20
415.287151
 30
0.0
 40
0.5
 50
330.0
 51
150.0
  0
ARC
  8
0
 10
926.193353
 20
414.764907
 30
0.0
 40
0.2
 50
210.0
 51
330.0
  0
ARC
  8
0
 10
926.539764
 20
415.164907
 30
0.0
 40
0.7
 50
90.0
 51
210.0
  0
ARC
  8
0
 10
926.539764
 20
288.564907
 30
0.0
 40
1.7
 50
150.0
 51
270.0
  0
ARC
  8
0
 10
926.193353
 20
289.764907
 30
0.0
 40
0.8
 50
30.0
 51
150.0
  0
ARC
  8
0
 10
927.303161
 20
288.442664
 30
0.0
 40
0.5
 50
210.0
 51
30.0
  0
ARC
  8
0
 10
926.193353
 20
288.964907
 30
0.0
 40
0.2
 50
30.0
 51
150.0
  0
ARC
  8
0
 10
926.539764
 20
288.564907
 30
0.0
 40
0.7
 50
150.0
 51
270.0
  0
ARC
  8
0
 10
931.839764
 20
413.664907
 30
0.0
 40
1.5
 50
0.0
 51
90.0
  0
ARC
  8
0
 10
933.039764
 20
414.864907
 30
0.0
 40
2.0
 50
0.0
 51
90.0
  0
ARC
  8
0
 10
931.839764
 20
290.064907
 30
0.0
 40
1.5
 50
270.0
 51
0.0
  0
ARC
  8
0
 10
933.039764
 20
288.864907
 30
0.0
 40
2.0
 50
270.0
 51
0.0
  0
LINE
  8
0
 10
929.639764
 20
407.490674
 30
0.0
 11
928.296481
 21
407.727531
 31
0.0
  0
LINE
  8
0
 10
931.039764
 20
296.782136
 30
0.0
 11
931.500236
 21
296.863329
 31
0.0
  0
LINE
  8
0
 10
929.639764
 20
298.562457
 30
0.0
 11
927.866115
 21
298.249715
 31
0.0
  0
LINE
  8
0
 10
932.739764
 20
316.864907
 30
0.0
 11
924.239764
 21
316.864907
 31
0.0
  0
LINE
  8
0
 10
932.739764
 20
339.364907
 30
0.0
 11
931.239764
 21
339.312526
 31
0.0
  0
LINE
  8
0
 10
931.239764
 20
340.417289
 30
0.0
 11
932.739764
 21
340.364907
 31
0.0
  0
LINE
  8
0
 10
932.739764
 20
340.364907
 30
0.0
 11
932.739764
 21
339.364907
 31
0.0
  0
LINE
  8
0
 10
931.239764
 20
339.312526
 30
0.0
 11
927.739764
 21
339.190304
 31
0.0
  0
LINE
  8
0
 10
927.739764
 20
340.539511
 30
0.0
 11
931.239764
 21
340.417289
 31
0.0
  0
LINE
  8
0
 10
927.739764
 20
339.190304
 30
0.0
 11
924.669965
 21
339.083104
 31
0.0
  0
LINE
  8
0
 10
922.739764
 20
351.864907
 30
0.0
 11
922.739764
 21
342.645493
 31
0.0
  0
LINE
  8
0
 10
927.739764
 20
340.539511
 30
0.0
 11
927.739764
 21
339.190304
 31
0.0
  0
LINE
  8
0
 10
924.669965
 20
340.646711
 30
0.0
 11
927.739764
 21
340.539511
 31
0.0
  0
LINE
  8
0
 10
931.239764
 20
363.312526
 30
0.0
 11
931.239764
 21
340.417289
 31
0.0
  0
LINE
  8
0
 10
931.239764
 20
364.417289
 30
0.0
 11
932.739764
 21
364.364907
 31
0.0
  0
LINE
  8
0
 10
932.739764
 20
364.364907
 30
0.0
 11
932.739764
 21
363.364907
 31
0.0
  0
LINE
  8
0
 10
932.739764
 20
363.364907
 30
0.0
 11
931.239764
 21
363.312526
 31
0.0
  0
LINE
  8
0
 10
932.739764
 20
340.364907
 30
0.0
 11
932.739764
 21
363.364907
 31
0.0
  0
LINE
  8
0
 10
927.739764
 20
364.539511
 30
0.0
 11
931.239764
 21
364.417289
 31
0.0
  0
LINE
  8
0
 10
931.239764
 20
363.312526
 30
0.0
 11
927.739764
 21
363.190304
 31
0.0
  0
LINE
  8
0
 10
922.739764
 20
361.084322
 30
0.0
 11
922.739764
 21
351.864907
 31
0.0
  0
LINE
  8
0
 10
924.669965
 20
364.646711
 30
0.0
 11
927.739764
 21
364.539511
 31
0.0
  0
LINE
  8
0
 10
927.739764
 20
364.539511
 30
0.0
 11
927.739764
 21
363.190304
 31
0.0
  0
LINE
  8
0
 10
927.739764
 20
363.190304
 30
0.0
 11
924.669965
 21
363.083104
 31
0.0
  0
LINE
  8
0
 10
922.739764
 20
382.584322
 30
0.0
 11
922.739764
 21
366.645493
 31
0.0
  0
LINE
  8
0
 10
924.739764
 20
385.763625
 30
0.0
 11
924.739764
 21
385.203716
 31
0.0
  0
LINE
  8
0
 10
924.839764
 20
385.030511
 30
0.0
 11
925.560813
 21
384.614213
 31
0.0
  0
LINE
  8
0
 10
925.560813
 20
384.614213
 30
0.0
 11
924.669965
 21
384.583104
 31
0.0
  0
LINE
  8
0
 10
925.761859
 20
386.457063
 30
0.0
 11
927.739764
 21
385.927085
 31
0.0
  0
LINE
  8
0
 10
932.739764
 20
364.364907
 30
0.0
 11
932.739764
 21
384.864907
 31
0.0
  0
LINE
  8
0
 10
932.739764
 20
384.864907
 30
0.0
 11
931.239764
 21
384.812526
 31
0.0
  0
LINE
  8
0
 10
931.239764
 20
384.812526
 30
0.0
 11
931.239764
 21
364.417289
 31
0.0
  0
LINE
  8
0
 10
931.239764
 20
384.812526
 30
0.0
 11
924.669965
 21
384.583104
 31
0.0
  0
LINE
  8
0
 10
932.739764
 20
385.927085
 30
0.0
 11
927.739764
 21
385.927085
 31
0.0
  0
LINE
  8
0
 10
932.739764
 20
385.927085
 30
0.0
 11
932.739764
 21
381.864907
 31
0.0
  0
LINE
  8
0
 10
932.739764
 20
386.864907
 30
0.0
 11
932.739764
 21
385.927085
 31
0.0
  0
LINE
  8
0
 10
924.239764
 20
386.864907
 30
0.0
 11
925.761859
 21
386.457063
 31
0.0
  0
LINE
  8
0
 10
924.239764
 20
386.864907
 30
0.0
 11
932.739764
 21
386.864907
 31
0.0
  0
LINE
  8
0
 10
924.239764
 20
388.641187
 30
0.0
 11
924.239764
 21
386.864907
 31
0.0
  0
LINE
  8
0
 10
926.639764
 20
401.464907
 30
0.0
 11
926.639764
 21
388.641187
 31
0.0
  0
LINE
  8
0
 10
924.239764
 20
401.464907
 30
0.0
 11
924.239764
 21
388.641187
 31
0.0
  0
LINE
  8
0
 10
930.739764
 20
402.664907
 30
0.0
 11
925.439764
 21
402.664907
 31
0.0
  0
LINE
  8
0
 10
931.039764
 20
402.964907
 30
0.0
 11
931.039764
 21
404.66877
 31
0.0
  0
LINE
  8
0
 10
932.739764
 20
405.685411
 30
0.0
 11
932.739764
 21
386.864907
 31
0.0
  0
LINE
  8
0
 10
931.500236
 20
407.162623
 30
0.0
 11
931.039764
 21
407.243817
 31
0.0
  0
LINE
  8
0
 10
927.866115
 20
405.776237
 30
0.0
 11
929.639764
 21
405.463495
 31
0.0
  0
LINE
  8
0
 10
922.739764
 20
337.084322
 30
0.0
 11
922.739764
 21
321.145493
 31
0.0
  0
LINE
  8
0
 10
932.739764
 20
318.864907
 30
0.0
 11
932.739764
 21
339.364907
 31
0.0
  0
LINE
  8
0
 10
931.239764
 20
339.312526
 30
0.0
 11
931.239764
 21
318.917289
 31
0.0
  0
LINE
  8
0
 10
932.739764
 20
321.864907
 30
0.0
 11
932.739764
 21
317.80273
 31
0.0
  0
LINE
  8
0
 10
932.739764
 20
317.80273
 30
0.0
 11
932.739764
 21
316.864907
 31
0.0
  0
LINE
  8
0
 10
931.239764
 20
318.917289
 30
0.0
 11
932.739764
 21
318.864907
 31
0.0
  0
LINE
  8
0
 10
927.739764
 20
317.80273
 30
0.0
 11
932.739764
 21
317.80273
 31
0.0
  0
LINE
  8
0
 10
924.669965
 20
319.146711
 30
0.0
 11
931.239764
 21
318.917289
 31
0.0
  0
LINE
  8
0
 10
924.739764
 20
318.526099
 30
0.0
 11
924.739764
 21
317.96619
 31
0.0
  0
LINE
  8
0
 10
925.560813
 20
319.115602
 30
0.0
 11
924.839764
 21
318.699304
 31
0.0
  0
LINE
  8
0
 10
924.669965
 20
319.146711
 30
0.0
 11
925.560813
 21
319.115602
 31
0.0
  0
LINE
  8
0
 10
927.739764
 20
317.80273
 30
0.0
 11
925.761859
 21
317.272752
 31
0.0
  0
LINE
  8
0
 10
926.639764
 20
315.088628
 30
0.0
 11
926.639764
 21
302.264907
 31
0.0
  0
LINE
  8
0
 10
924.239764
 20
315.088628
 30
0.0
 11
924.239764
 21
302.264907
 31
0.0
  0
LINE
  8
0
 10
924.239764
 20
316.864907
 30
0.0
 11
924.239764
 21
315.088628
 31
0.0
  0
LINE
  8
0
 10
925.761859
 20
317.272752
 30
0.0
 11
924.239764
 21
316.864907
 31
0.0
  0
LINE
  8
0
 10
925.439764
 20
301.064907
 30
0.0
 11
930.739764
 21
301.064907
 31
0.0
  0
LINE
  8
0
 10
931.039764
 20
299.061045
 30
0.0
 11
931.039764
 21
300.764907
 31
0.0
  0
LINE
  8
0
 10
932.739764
 20
316.864907
 30
0.0
 11
932.739764
 21
298.340541
 31
0.0
  0
LINE
  8
0
 10
928.296481
 20
296.298421
 30
0.0
 11
929.639764
 21
296.535278
 31
0.0
  0
ARC
  8
0
 10
927.739764
 20
381.864907
 30
0.0
 40
5.0
 50
113.302207
 51
125.685335
  0
ARC
  8
0
 10
925.439764
 20
388.641187
 30
0.0
 40
1.2
 50
270.0
 51
0.0
  0
ARC
  8
0
 10
925.439764
 20
401.464907
 30
0.0
 40
1.2
 50
90.0
 51
180.0
  0
ARC
  8
0
 10
925.439764
 20
401.464907
 30
0.0
 40
1.2
 50
0.0
 51
90.0
  0
ARC
  8
0
 10
928.039764
 20
406.761045
 30
0.0
 40
1.0
 50
75.124638
 51
260.0
  0
ARC
  8
0
 10
928.039764
 20
406.761045
 30
0.0
 40
1.0
 50
260.0
 51
75.124638
  0
ARC
  8
0
 10
927.739764
 20
321.864907
 30
0.0
 40
5.0
 50
234.314665
 51
246.697793
  0
ARC
  8
0
 10
925.439764
 20
315.088628
 30
0.0
 40
1.2
 50
0.0
 51
90.0
  0
ARC
  8
0
 10
925.439764
 20
302.264907
 30
0.0
 40
1.2
 50
270.0
 51
0.0
  0
ARC
  8
0
 10
925.439764
 20
302.264907
 30
0.0
 40
1.2
 50
180.0
 51
270.0
  0
ARC
  8
0
 10
928.039764
 20
297.264907
 30
0.0
 40
1.0
 50
100.0
 51
284.875362
  0
ARC
  8
0
 10
928.039764
 20
297.264907
 30
0.0
 40
1.0
 50
284.875362
 51
100.0
  0
ARC
  8
0
 10
924.739764
 20
337.084322
 30
0.0
 40
2.0
 50
92.0
 51
180.0
  0
ARC
  8
0
 10
924.739764
 20
342.645493
 30
0.0
 40
2.0
 50
180.0
 51
268.0
  0
ARC
  8
0
 10
924.739764
 20
366.645493
 30
0.0
 40
2.0
 50
180.0
 51
268.0
  0
ARC
  8
0
 10
924.739764
 20
361.084322
 30
0.0
 40
2.0
 50
92.0
 51
180.0
  0
ARC
  8
0
 10
924.739764
 20
382.584322
 30
0.0
 40
2.0
 50
92.0
 51
180.0
  0
ARC
  8
0
 10
924.739764
 20
382.584322
 30
0.0
 40
2.0
 50
92.0
 51
180.0
  0
ARC
  8
0
 10
924.939764
 20
385.763625
 30
0.0
 40
0.2
 50
125.685335
 51
180.0
  0
ARC
  8
0
 10
924.939764
 20
385.203716
 30
0.0
 40
0.2
 50
180.0
 51
240.0
  0
ARC
  8
0
 10
925.439764
 20
388.641187
 30
0.0
 40
1.2
 50
180.0
 51
270.0
  0
ARC
  8
0
 10
930.739764
 20
402.964907
 30
0.0
 40
0.3
 50
270.0
 51
0.0
  0
ARC
  8
0
 10
931.239764
 20
405.685411
 30
0.0
 40
1.5
 50
0.0
 51
80.0
  0
ARC
  8
0
 10
924.739764
 20
321.145493
 30
0.0
 40
2.0
 50
180.0
 51
268.0
  0
ARC
  8
0
 10
924.739764
 20
321.145493
 30
0.0
 40
2.0
 50
180.0
 51
268.0
  0
ARC
  8
0
 10
924.939764
 20
317.96619
 30
0.0
 40
0.2
 50
180.0
 51
234.314665
  0
ARC
  8
0
 10
924.939764
 20
318.526099
 30
0.0
 40
0.2
 50
120.0
 51
180.0
  0
ARC
  8
0
 10
925.439764
 20
315.088628
 30
0.0
 40
1.2
 50
90.0
 51
180.0
  0
ARC
  8
0
 10
930.739764
 20
300.764907
 30
0.0
 40
0.3
 50
0.0
 51
90.0
  0
ARC
  8
0
 10
931.239764
 20
298.340541
 30
0.0
 40
1.5
 50
280.0
 51
0.0
  0
LINE
  8
0
 10
901.839915
 20
354.814163
 30
0.0
 11
901.839915
 21
349.006473
 31
0.0
  0
LINE
  8
0
 10
901.839915
 20
324.298756
 30
0.0
 11
901.849241
 21
319.319601
 31
0.0
  0
LINE
  8
0
 10
901.839915
 20
379.319601
 30
0.0
 11
901.839915
 21
384.308118
 31
0.0
  0
LINE
  8
0
 10
924.94194
 20
386.67676
 30
0.0
 11
903.805011
 21
386.307813
 31
0.0
  0
LINE
  8
0
 10
925.260157
 20
317.138321
 30
0.0
 11
903.805011
 21
317.512822
 31
0.0
  0
LINE
  8
0
 10
901.839915
 20
379.319601
 30
0.0
 11
901.839915
 21
374.006473
 31
0.0
  0
LINE
  8
0
 10
922.739764
 20
371.275925
 30
0.0
 11
907.339915
 21
371.410318
 31
0.0
  0
LINE
  8
0
 10
922.739764
 20
372.54471
 30
0.0
 11
907.339915
 21
372.410318
 31
0.0
  0
LINE
  8
0
 10
922.739764
 20
356.775925
 30
0.0
 11
907.339915
 21
356.910318
 31
0.0
  0
LINE
  8
0
 10
922.739764
 20
347.04471
 30
0.0
 11
907.339915
 21
346.910318
 31
0.0
  0
LINE
  8
0
 10
922.739764
 20
332.54471
 30
0.0
 11
907.339915
 21
332.410318
 31
0.0
  0
LINE
  8
0
 10
901.839915
 20
331.399668
 30
0.0
 11
901.839915
 21
329.814163
 31
0.0
  0
LINE
  8
0
 10
907.339915
 20
331.410318
 30
0.0
 11
901.839915
 21
331.399668
 31
0.0
  0
LINE
  8
0
 10
901.839915
 20
372.410318
 30
0.0
 11
901.839915
 21
374.006473
 31
0.0
  0
LINE
  8
0
 10
907.339915
 20
372.410318
 30
0.0
 11
901.839915
 21
372.410318
 31
0.0
  0
LINE
  8
0
 10
901.839915
 20
356.910318
 30
0.0
 11
907.339915
 21
356.910318
 31
0.0
  0
LINE
  8
0
 10
901.839915
 20
354.814163
 30
0.0
 11
901.839915
 21
356.910318
 31
0.0
  0
LINE
  8
0
 10
901.839915
 20
346.910318
 30
0.0
 11
901.839915
 21
349.006473
 31
0.0
  0
LINE
  8
0
 10
907.339915
 20
346.910318
 30
0.0
 11
901.839915
 21
346.910318
 31
0.0
  0
LINE
  8
0
 10
900.857368
 20
330.81401
 30
0.0
 11
897.305011
 21
330.876017
 31
0.0
  0
LINE
  8
0
 10
897.305011
 20
347.944619
 30
0.0
 11
900.857368
 21
348.006625
 31
0.0
  0
LINE
  8
0
 10
895.339915
 20
345.944923
 30
0.0
 11
895.339915
 21
332.875712
 31
0.0
  0
LINE
  8
0
 10
895.339915
 20
357.875712
 30
0.0
 11
895.339915
 21
370.944923
 31
0.0
  0
LINE
  8
0
 10
900.857368
 20
373.006625
 30
0.0
 11
897.305011
 21
372.944619
 31
0.0
  0
LINE
  8
0
 10
897.305011
 20
355.876017
 30
0.0
 11
900.857368
 21
355.81401
 31
0.0
  0
LINE
  8
0
 10
901.839915
 20
324.298756
 30
0.0
 11
901.839915
 21
329.814163
 31
0.0
  0
LINE
  8
0
 10
907.339915
 20
372.410318
 30
0.0
 11
907.339915
 21
371.410318
 31
0.0
  0
LINE
  8
0
 10
907.339915
 20
356.910318
 30
0.0
 11
907.339915
 21
357.910318
 31
0.0
  0
LINE
  8
0
 10
907.339915
 20
331.410318
 30
0.0
 11
907.339915
 21
332.410318
 31
0.0
  0
LINE
  8
0
 10
907.339915
 20
346.910318
 30
0.0
 11
907.339915
 21
345.910318
 31
0.0
  0
LINE
  8
0
 10
907.339915
 20
345.910318
 30
0.0
 11
922.739764
 21
345.775925
 31
0.0
  0
LINE
  8
0
 10
907.339915
 20
357.910318
 30
0.0
 11
922.739764
 21
358.04471
 31
0.0
  0
LINE
  8
0
 10
907.339915
 20
331.410318
 30
0.0
 11
922.739764
 21
331.275925
 31
0.0
  0
ARC
  8
0
 10
900.839915
 20
329.814163
 30
0.0
 40
1.0
 50
0.0
 51
89.0
  0
ARC
  8
0
 10
900.839915
 20
374.006473
 30
0.0
 40
1.0
 50
271.0
 51
0.0
  0
ARC
  8
0
 10
900.839915
 20
349.006473
 30
0.0
 40
1.0
 50
271.0
 51
0.0
  0
ARC
  8
0
 10
900.839915
 20
354.814163
 30
0.0
 40
1.0
 50
0.0
 51
89.0
  0
ARC
  8
0
 10
903.839915
 20
384.308118
 30
0.0
 40
2.0
 50
91.0
 51
180.0
  0
ARC
  8
0
 10
897.339915
 20
370.944923
 30
0.0
 40
2.0
 50
91.0
 51
180.0
  0
ARC
  8
0
 10
897.339915
 20
357.875712
 30
0.0
 40
2.0
 50
180.0
 51
269.0
  0
ARC
  8
0
 10
897.339915
 20
345.944923
 30
0.0
 40
2.0
 50
91.0
 51
180.0
  0
ARC
  8
0
 10
897.339915
 20
332.875712
 30
0.0
 40
2.0
 50
180.0
 51
269.0
  0
ARC
  8
0
 10
903.839915
 20
319.512517
 30
0.0
 40
2.0
 50
185.535261
 51
269.0
  0
LINE
  8
0
 10
875.039764
 20
288.864907
 30
0.0
 11
875.039764
 21
266.864907
 31
0.0
  0
LINE
  8
0
 10
875.039764
 20
414.864907
 30
0.0
 11
875.039764
 21
436.864907
 31
0.0
  0
LINE
  8
0
 10
855.039764
 20
430.775695
 30
0.0
 11
861.128976
 21
436.864907
 31
0.0
  0
LINE
  8
0
 10
855.039764
 20
423.704627
 30
0.0
 11
868.200044
 21
436.864907
 31
0.0
  0
LINE
  8
0
 10
855.039764
 20
416.633559
 30
0.0
 11
875.039764
 21
436.633559
 31
0.0
  0
LINE
  8
0
 10
855.039764
 20
409.562491
 30
0.0
 11
875.039764
 21
429.562491
 31
0.0
  0
LINE
  8
0
 10
855.039764
 20
402.491424
 30
0.0
 11
875.039764
 21
422.491424
 31
0.0
  0
LINE
  8
0
 10
855.039764
 20
395.420356
 30
0.0
 11
875.039764
 21
415.420356
 31
0.0
  0
LINE
  8
0
 10
855.039764
 20
388.349288
 30
0.0
 11
875.039764
 21
408.349288
 31
0.0
  0
LINE
  8
0
 10
855.039764
 20
381.27822
 30
0.0
 11
875.039764
 21
401.27822
 31
0.0
  0
LINE
  8
0
 10
855.039764
 20
374.207152
 30
0.0
 11
875.039764
 21
394.207152
 31
0.0
  0
LINE
  8
0
 10
855.039764
 20
367.136085
 30
0.0
 11
875.039764
 21
387.136085
 31
0.0
  0
LINE
  8
0
 10
855.039764
 20
360.065017
 30
0.0
 11
875.039764
 21
380.065017
 31
0.0
  0
LINE
  8
0
 10
855.039764
 20
352.993949
 30
0.0
 11
875.039764
 21
372.993949
 31
0.0
  0
LINE
  8
0
 10
855.039764
 20
345.922881
 30
0.0
 11
875.039764
 21
365.922881
 31
0.0
  0
LINE
  8
0
 10
855.039764
 20
338.851813
 30
0.0
 11
875.039764
 21
358.851813
 31
0.0
  0
LINE
  8
0
 10
855.039764
 20
331.780746
 30
0.0
 11
875.039764
 21
351.780746
 31
0.0
  0
LINE
  8
0
 10
855.039764
 20
324.709678
 30
0.0
 11
875.039764
 21
344.709678
 31
0.0
  0
LINE
  8
0
 10
855.039764
 20
317.63861
 30
0.0
 11
875.039764
 21
337.63861
 31
0.0
  0
LINE
  8
0
 10
855.039764
 20
310.567542
 30
0.0
 11
875.039764
 21
330.567542
 31
0.0
  0
LINE
  8
0
 10
855.039764
 20
303.496474
 30
0.0
 11
875.039764
 21
323.496474
 31
0.0
  0
LINE
  8
0
 10
855.039764
 20
296.425407
 30
0.0
 11
875.039764
 21
316.425407
 31
0.0
  0
LINE
  8
0
 10
855.039764
 20
289.354339
 30
0.0
 11
875.039764
 21
309.354339
 31
0.0
  0
LINE
  8
0
 10
855.039764
 20
282.283271
 30
0.0
 11
875.039764
 21
302.283271
 31
0.0
  0
LINE
  8
0
 10
855.039764
 20
275.212203
 30
0.0
 11
875.039764
 21
295.212203
 31
0.0
  0
LINE
  8
0
 10
855.039764
 20
268.141135
 30
0.0
 11
875.039764
 21
288.141135
 31
0.0
  0
LINE
  8
0
 10
860.834604
 20
266.864907
 30
0.0
 11
875.039764
 21
281.070067
 31
0.0
  0
LINE
  8
0
 10
867.905671
 20
266.864907
 30
0.0
 11
875.039764
 21
273.999
 31
0.0
  0
LINE
  8
0
 10
874.976739
 20
266.864907
 30
0.0
 11
875.039764
 21
266.927932
 31
0.0
  0
ENDSEC
  0
EOF
