  0
SECTION
  2
HEADER
  9
$ACADVER
  1
AC1009
  9
$INSBASE
 10
0.0
 20
0.0
 30
0.0
  9
$EXTMIN
 10
24.917846
 20
110.261688
 30
0.0
  9
$EXTMAX
 10
93.91003
 20
165.718397
 30
0.0
  9
$LIMMIN
 10
24.917846
 20
110.261688
  9
$LIMMAX
 10
93.91003
 20
165.718397
  9
$ORTHOMODE
 70
     0
  9
$REGENMODE
 70
     1
  9
$FILLMODE
 70
     1
  9
$QTEXTMODE
 70
     0
  9
$MIRRTEXT
 70
     1
  9
$DRAGMODE
 70
     2
  9
$LTSCALE
 40
1.0
  9
$OSMODE
 70
     0
  9
$ATTMODE
 70
     1
  9
$TEXTSIZE
 40
3.5
  9
$TRACEWID
 40
0.5
  9
$TEXTSTYLE
  7
STANDARD
  9
$CLAYER
  8
0
  9
$CELTYPE
  6
BYLAYER
  9
$CECOLOR
 62
   256
  9
$DIMSCALE
 40
1.0
  9
$DIMASZ
 40
0.18
  9
$DIMEXO
 40
0.0625
  9
$DIMDLI
 40
0.38
  9
$DIMRND
 40
0.0
  9
$DIMDLE
 40
0.0
  9
$DIMEXE
 40
0.18
  9
$DIMTP
 40
0.0
  9
$DIMTM
 40
0.0
  9
$DIMTXT
 40
0.18
  9
$DIMCEN
 40
0.09
  9
$DIMTSZ
 40
0.0
  9
$DIMTOL
 70
     0
  9
$DIMLIM
 70
     0
  9
$DIMTIH
 70
     1
  9
$DIMTOH
 70
     1
  9
$DIMSE1
 70
     0
  9
$DIMSE2
 70
     0
  9
$DIMTAD
 70
     0
  9
$DIMZIN
 70
     0
  9
$DIMBLK
  1

  9
$DIMASO
 70
     1
  9
$DIMSHO
 70
     1
  9
$DIMPOST
  1

  9
$DIMAPOST
  1

  9
$DIMALT
 70
     0
  9
$DIMALTD
 70
     2
  9
$DIMALTF
 40
25.4
  9
$DIMLFAC
 40
1.0
  9
$DIMTOFL
 70
     0
  9
$DIMTVP
 40
0.0
  9
$DIMTIX
 70
     0
  9
$DIMSOXD
 70
     0
  9
$DIMSAH
 70
     0
  9
$DIMBLK1
  1

  9
$DIMBLK2
  1

  9
$DIMSTYLE
  2
*UNNAMED
  9
$DIMCLRD
 70
     0
  9
$DIMCLRE
 70
     0
  9
$DIMCLRT
 70
     0
  9
$DIMTFAC
 40
1.0
  9
$DIMGAP
 40
0.09
  9
$LUNITS
 70
     2
  9
$LUPREC
 70
     4
  9
$SKETCHINC
 40
0.1
  9
$FILLETRAD
 40
2.0
  9
$AUNITS
 70
     0
  9
$AUPREC
 70
     0
  9
$MENU
  1
ACAD
  9
$ELEVATION
 40
0.0
  9
$PELEVATION
 40
0.0
  9
$THICKNESS
 40
0.0
  9
$LIMCHECK
 70
     0
  9
$BLIPMODE
 70
     1
  9
$CHAMFERA
 40
0.0
  9
$CHAMFERB
 40
0.0
  9
$SKPOLY
 70
     0
  9
$TDCREATE
 40
2450955.385871296
  9
$TDUPDATE
 40
2450955.387601620
  9
$TDINDWG
 40
0.0000959491
  9
$TDUSRTIMER
 40
0.0000959491
  9
$USRTIMER
 70
     1
  9
$ANGBASE
 50
0.0
  9
$ANGDIR
 70
     0
  9
$PDMODE
 70
     0
  9
$PDSIZE
 40
0.0
  9
$PLINEWID
 40
0.0
  9
$COORDS
 70
     2
  9
$SPLFRAME
 70
     0
  9
$SPLINETYPE
 70
     6
  9
$SPLINESEGS
 70
     8
  9
$ATTDIA
 70
     0
  9
$ATTREQ
 70
     1
  9
$HANDLING
 70
     0
  9
$HANDSEED
  5
0
  9
$SURFTAB1
 70
     6
  9
$SURFTAB2
 70
     6
  9
$SURFTYPE
 70
     6
  9
$SURFU
 70
     6
  9
$SURFV
 70
     6
  9
$UCSNAME
  2

  9
$UCSORG
 10
0.0
 20
0.0
 30
0.0
  9
$UCSXDIR
 10
1.0
 20
0.0
 30
0.0
  9
$UCSYDIR
 10
0.0
 20
1.0
 30
0.0
  9
$PUCSNAME
  2

  9
$PUCSORG
 10
0.0
 20
0.0
 30
0.0
  9
$PUCSXDIR
 10
1.0
 20
0.0
 30
0.0
  9
$PUCSYDIR
 10
0.0
 20
1.0
 30
0.0
  9
$USERI1
 70
     0
  9
$USERI2
 70
     0
  9
$USERI3
 70
     0
  9
$USERI4
 70
     0
  9
$USERI5
 70
     0
  9
$USERR1
 40
0.0
  9
$USERR2
 40
0.0
  9
$USERR3
 40
0.0
  9
$USERR4
 40
0.0
  9
$USERR5
 40
0.0
  9
$WORLDVIEW
 70
     1
  9
$SHADEDGE
 70
     3
  9
$SHADEDIF
 70
    70
  9
$TILEMODE
 70
     1
  9
$MAXACTVP
 70
    16
  9
$PINSBASE
 10
0.0
 20
0.0
 30
0.0
  9
$PLIMCHECK
 70
     0
  9
$PEXTMIN
 10
1.000000E+20
 20
1.000000E+20
 30
1.000000E+20
  9
$PEXTMAX
 10
-1.000000E+20
 20
-1.000000E+20
 30
-1.000000E+20
  9
$PLIMMIN
 10
0.0
 20
0.0
  9
$PLIMMAX
 10
420.0
 20
297.0
  9
$UNITMODE
 70
     0
  9
$VISRETAIN
 70
     0
  9
$PLINEGEN
 70
     0
  9
$PSLTSCALE
 70
     1
  9
$TREEDEPTH
 70
  3020
  9
$DWGCODEPAGE
  3
iso8859-1
  0
ENDSEC
  0
SECTION
  2
TABLES
  0
TABLE
  2
VPORT
 70
     2
  0
VPORT
  2
*ACTIVE
 70
     0
 10
0.0
 20
0.0
 11
1.0
 21
1.0
 12
80.945513
 22
140.509895
 13
0.0
 23
0.0
 14
1.0
 24
1.0
 15
0.0
 25
0.0
 16
0.0
 26
0.0
 36
1.0
 17
0.0
 27
0.0
 37
0.0
 40
88.815725
 41
1.748359
 42
50.0
 43
0.0
 44
0.0
 50
0.0
 51
0.0
 71
     0
 72
   100
 73
     1
 74
     0
 75
     0
 76
     0
 77
     0
 78
     0
  0
ENDTAB
  0
TABLE
  2
LTYPE
 70
     1
  0
LTYPE
  2
CONTINUOUS
 70
    64
  3
Solid line
 72
    65
 73
     0
 40
0.0
  0
ENDTAB
  0
TABLE
  2
LAYER
 70
     1
  0
LAYER
  2
0
 70
    64
 62
     7
  6
CONTINUOUS
  0
ENDTAB
  0
TABLE
  2
STYLE
 70
     1
  0
STYLE
  2
STANDARD
 70
     0
 40
0.0
 41
1.0
 50
0.0
 71
     0
 42
3.5
  3
txt
  4

  0
ENDTAB
  0
TABLE
  2
VIEW
 70
     0
  0
ENDTAB
  0
TABLE
  2
UCS
 70
     0
  0
ENDTAB
  0
TABLE
  2
APPID
 70
     1
  0
APPID
  2
ACAD
 70
    64
  0
ENDTAB
  0
TABLE
  2
DIMSTYLE
 70
     0
  0
ENDTAB
  0
ENDSEC
  0
SECTION
  2
BLOCKS
  0
ENDSEC
  0
SECTION
  2
ENTITIES
  0
POLYLINE
  8
0
  6
CONTINUOUS
 66
     1
 10
0.0
 20
0.0
 30
0.0
  0
VERTEX
  8
0
  6
CONTINUOUS
 10
68.098168
 20
129.610753
 30
0.0
  0
VERTEX
  8
0
  6
CONTINUOUS
 10
68.09892
 20
129.610982
 30
0.0
  0
VERTEX
  8
0
  6
CONTINUOUS
 10
68.099517
 20
129.611165
 30
0.0
  0
VERTEX
  8
0
  6
CONTINUOUS
 10
68.100017
 20
129.611318
 30
0.0
  0
VERTEX
  8
0
  6
CONTINUOUS
 10
68.100476
 20
129.611459
 30
0.0
  0
VERTEX
  8
0
  6
CONTINUOUS
 10
68.100819
 20
129.611564
 30
0.0
  0
VERTEX
  8
0
  6
CONTINUOUS
 10
68.101036
 20
129.611629
 30
0.0
  0
SEQEND
  8
0
  6
CONTINUOUS
  0
POLYLINE
  8
0
  6
CONTINUOUS
 66
     1
 10
0.0
 20
0.0
 30
0.0
  0
VERTEX
  8
0
  6
CONTINUOUS
 10
64.904511
 20
128.855634
 30
0.0
  0
VERTEX
  8
0
  6
CONTINUOUS
 10
64.927791
 20
128.844816
 30
0.0
  0
VERTEX
  8
0
  6
CONTINUOUS
 10
64.956505
 20
128.8338
 30
0.0
  0
VERTEX
  8
0
  6
CONTINUOUS
 10
65.027575
 20
128.815028
 30
0.0
  0
VERTEX
  8
0
  6
CONTINUOUS
 10
65.182163
 20
128.810567
 30
0.0
  0
VERTEX
  8
0
  6
CONTINUOUS
 10
65.224462
 20
128.817773
 30
0.0
  0
VERTEX
  8
0
  6
CONTINUOUS
 10
65.250917
 20
128.824557
 30
0.0
  0
SEQEND
  8
0
  6
CONTINUOUS
  0
POLYLINE
  8
0
  6
CONTINUOUS
 66
     1
 10
0.0
 20
0.0
 30
0.0
  0
VERTEX
  8
0
  6
CONTINUOUS
 10
65.246661
 20
128.823331
 30
0.0
  0
VERTEX
  8
0
  6
CONTINUOUS
 10
66.669965
 20
129.216332
 30
0.0
  0
VERTEX
  8
0
  6
CONTINUOUS
 10
68.093269
 20
129.609333
 30
0.0
  0
SEQEND
  8
0
  6
CONTINUOUS
  0
POLYLINE
  8
0
  6
CONTINUOUS
 66
     1
 10
0.0
 20
0.0
 30
0.0
  0
VERTEX
  8
0
  6
CONTINUOUS
 10
64.075239
 20
129.260896
 30
0.0
  0
VERTEX
  8
0
  6
CONTINUOUS
 10
64.907351
 20
128.854214
 30
0.0
  0
SEQEND
  8
0
  6
CONTINUOUS
  0
POLYLINE
  8
0
  6
CONTINUOUS
 66
     1
 10
0.0
 20
0.0
 30
0.0
  0
VERTEX
  8
0
  6
CONTINUOUS
 10
72.897876
 20
125.327314
 30
0.0
  0
VERTEX
  8
0
  6
CONTINUOUS
 10
72.759863
 20
125.283117
 30
0.0
  0
VERTEX
  8
0
  6
CONTINUOUS
 10
72.597545
 20
125.301093
 30
0.0
  0
VERTEX
  8
0
  6
CONTINUOUS
 10
72.539255
 20
125.324746
 30
0.0
  0
SEQEND
  8
0
  6
CONTINUOUS
  0
POLYLINE
  8
0
  6
CONTINUOUS
 66
     1
 10
0.0
 20
0.0
 30
0.0
  0
VERTEX
  8
0
  6
CONTINUOUS
 10
74.334971
 20
121.892267
 30
0.0
  0
VERTEX
  8
0
  6
CONTINUOUS
 10
74.414022
 20
121.859864
 30
0.0
  0
VERTEX
  8
0
  6
CONTINUOUS
 10
74.492161
 20
121.835271
 30
0.0
  0
VERTEX
  8
0
  6
CONTINUOUS
 10
74.636059
 20
121.804141
 30
0.0
  0
VERTEX
  8
0
  6
CONTINUOUS
 10
74.968674
 20
121.785958
 30
0.0
  0
VERTEX
  8
0
  6
CONTINUOUS
 10
75.210621
 20
121.818449
 30
0.0
  0
VERTEX
  8
0
  6
CONTINUOUS
 10
75.546516
 20
121.922594
 30
0.0
  0
VERTEX
  8
0
  6
CONTINUOUS
 10
75.622226
 20
121.955851
 30
0.0
  0
VERTEX
  8
0
  6
CONTINUOUS
 10
75.650803
 20
121.969897
 30
0.0
  0
VERTEX
  8
0
  6
CONTINUOUS
 10
75.67102
 20
121.980705
 30
0.0
  0
SEQEND
  8
0
  6
CONTINUOUS
  0
POLYLINE
  8
0
  6
CONTINUOUS
 66
     1
 10
0.0
 20
0.0
 30
0.0
  0
VERTEX
  8
0
  6
CONTINUOUS
 10
92.519468
 20
131.415973
 30
0.0
  0
VERTEX
  8
0
  6
CONTINUOUS
 10
92.816911
 20
131.65085
 30
0.0
  0
VERTEX
  8
0
  6
CONTINUOUS
 10
93.145954
 20
131.99699
 30
0.0
  0
VERTEX
  8
0
  6
CONTINUOUS
 10
93.473995
 20
132.505654
 30
0.0
  0
SEQEND
  8
0
  6
CONTINUOUS
  0
POLYLINE
  8
0
  6
CONTINUOUS
 66
     1
 10
0.0
 20
0.0
 30
0.0
  0
VERTEX
  8
0
  6
CONTINUOUS
 10
92.438205
 20
131.364128
 30
0.0
  0
VERTEX
  8
0
  6
CONTINUOUS
 10
92.454336
 20
131.37351
 30
0.0
  0
VERTEX
  8
0
  6
CONTINUOUS
 10
92.473195
 20
131.385218
 30
0.0
  0
VERTEX
  8
0
  6
CONTINUOUS
 10
92.519468
 20
131.415973
 30
0.0
  0
SEQEND
  8
0
  6
CONTINUOUS
  0
POLYLINE
  8
0
  6
CONTINUOUS
 66
     1
 10
0.0
 20
0.0
 30
0.0
  0
VERTEX
  8
0
  6
CONTINUOUS
 10
93.473995
 20
132.505654
 30
0.0
  0
VERTEX
  8
0
  6
CONTINUOUS
 10
93.64132
 20
132.833531
 30
0.0
  0
VERTEX
  8
0
  6
CONTINUOUS
 10
93.773134
 20
133.185398
 30
0.0
  0
VERTEX
  8
0
  6
CONTINUOUS
 10
93.903715
 20
133.871169
 30
0.0
  0
VERTEX
  8
0
  6
CONTINUOUS
 10
93.909039
 20
133.949277
 30
0.0
  0
VERTEX
  8
0
  6
CONTINUOUS
 10
93.909848
 20
133.971434
 30
0.0
  0
VERTEX
  8
0
  6
CONTINUOUS
 10
93.91003
 20
133.985646
 30
0.0
  0
SEQEND
  8
0
  6
CONTINUOUS
  0
POLYLINE
  8
0
  6
CONTINUOUS
 66
     1
 10
0.0
 20
0.0
 30
0.0
  0
VERTEX
  8
0
  6
CONTINUOUS
 10
93.888051
 20
158.559029
 30
0.0
  0
VERTEX
  8
0
  6
CONTINUOUS
 10
93.887965
 20
158.567655
 30
0.0
  0
VERTEX
  8
0
  6
CONTINUOUS
 10
93.887711
 20
158.577413
 30
0.0
  0
VERTEX
  8
0
  6
CONTINUOUS
 10
93.886645
 20
158.600483
 30
0.0
  0
SEQEND
  8
0
  6
CONTINUOUS
  0
POLYLINE
  8
0
  6
CONTINUOUS
 66
     1
 10
0.0
 20
0.0
 30
0.0
  0
VERTEX
  8
0
  6
CONTINUOUS
 10
93.886645
 20
158.600483
 30
0.0
  0
VERTEX
  8
0
  6
CONTINUOUS
 10
93.86715
 20
158.782207
 30
0.0
  0
VERTEX
  8
0
  6
CONTINUOUS
 10
93.820989
 20
159.016773
 30
0.0
  0
VERTEX
  8
0
  6
CONTINUOUS
 10
93.637371
 20
159.474354
 30
0.0
  0
VERTEX
  8
0
  6
CONTINUOUS
 10
93.483832
 20
159.68535
 30
0.0
  0
VERTEX
  8
0
  6
CONTINUOUS
 10
93.348863
 20
159.827863
 30
0.0
  0
VERTEX
  8
0
  6
CONTINUOUS
 10
93.270185
 20
159.898474
 30
0.0
  0
VERTEX
  8
0
  6
CONTINUOUS
 10
93.188469
 20
159.960826
 30
0.0
  0
SEQEND
  8
0
  6
CONTINUOUS
  0
POLYLINE
  8
0
  6
CONTINUOUS
 66
     1
 10
0.0
 20
0.0
 30
0.0
  0
VERTEX
  8
0
  6
CONTINUOUS
 10
93.082169
 20
160.024205
 30
0.0
  0
VERTEX
  8
0
  6
CONTINUOUS
 10
93.188469
 20
159.960826
 30
0.0
  0
SEQEND
  8
0
  6
CONTINUOUS
  0
POLYLINE
  8
0
  6
CONTINUOUS
 66
     1
 10
0.0
 20
0.0
 30
0.0
  0
VERTEX
  8
0
  6
CONTINUOUS
 10
74.332849
 20
121.893258
 30
0.0
  0
VERTEX
  8
0
  6
CONTINUOUS
 10
68.709941
 20
124.527807
 30
0.0
  0
VERTEX
  8
0
  6
CONTINUOUS
 10
63.087227
 20
127.162266
 30
0.0
  0
SEQEND
  8
0
  6
CONTINUOUS
  0
POLYLINE
  8
0
  6
CONTINUOUS
 66
     1
 10
0.0
 20
0.0
 30
0.0
  0
VERTEX
  8
0
  6
CONTINUOUS
 10
82.016709
 20
165.62297
 30
0.0
  0
VERTEX
  8
0
  6
CONTINUOUS
 10
87.548629
 20
162.823998
 30
0.0
  0
VERTEX
  8
0
  6
CONTINUOUS
 10
93.080705
 20
160.024948
 30
0.0
  0
SEQEND
  8
0
  6
CONTINUOUS
  0
POLYLINE
  8
0
  6
CONTINUOUS
 66
     1
 10
0.0
 20
0.0
 30
0.0
  0
VERTEX
  8
0
  6
CONTINUOUS
 10
92.438311
 20
131.364187
 30
0.0
  0
VERTEX
  8
0
  6
CONTINUOUS
 10
84.054612
 20
126.672416
 30
0.0
  0
VERTEX
  8
0
  6
CONTINUOUS
 10
75.670912
 20
121.980644
 30
0.0
  0
SEQEND
  8
0
  6
CONTINUOUS
  0
POLYLINE
  8
0
  6
CONTINUOUS
 66
     1
 10
0.0
 20
0.0
 30
0.0
  0
VERTEX
  8
0
  6
CONTINUOUS
 10
93.888051
 20
158.559021
 30
0.0
  0
VERTEX
  8
0
  6
CONTINUOUS
 10
93.899041
 20
146.272341
 30
0.0
  0
VERTEX
  8
0
  6
CONTINUOUS
 10
93.91003
 20
133.985661
 30
0.0
  0
SEQEND
  8
0
  6
CONTINUOUS
  0
POLYLINE
  8
0
  6
CONTINUOUS
 66
     1
 10
0.0
 20
0.0
 30
0.0
  0
VERTEX
  8
0
  6
CONTINUOUS
 10
86.848134
 20
144.842779
 30
0.0
  0
VERTEX
  8
0
  6
CONTINUOUS
 10
86.857716
 20
144.85001
 30
0.0
  0
VERTEX
  8
0
  6
CONTINUOUS
 10
86.902912
 20
144.894232
 30
0.0
  0
VERTEX
  8
0
  6
CONTINUOUS
 10
86.935435
 20
144.944659
 30
0.0
  0
VERTEX
  8
0
  6
CONTINUOUS
 10
86.956234
 20
145.012024
 30
0.0
  0
VERTEX
  8
0
  6
CONTINUOUS
 10
86.958902
 20
145.032436
 30
0.0
  0
VERTEX
  8
0
  6
CONTINUOUS
 10
86.959559
 20
145.041691
 30
0.0
  0
VERTEX
  8
0
  6
CONTINUOUS
 10
86.959728
 20
145.048361
 30
0.0
  0
SEQEND
  8
0
  6
CONTINUOUS
  0
POLYLINE
  8
0
  6
CONTINUOUS
 66
     1
 10
0.0
 20
0.0
 30
0.0
  0
VERTEX
  8
0
  6
CONTINUOUS
 10
86.83265
 20
144.832896
 30
0.0
  0
VERTEX
  8
0
  6
CONTINUOUS
 10
86.840447
 20
144.837573
 30
0.0
  0
VERTEX
  8
0
  6
CONTINUOUS
 10
86.848134
 20
144.842779
 30
0.0
  0
SEQEND
  8
0
  6
CONTINUOUS
  0
POLYLINE
  8
0
  6
CONTINUOUS
 66
     1
 10
0.0
 20
0.0
 30
0.0
  0
VERTEX
  8
0
  6
CONTINUOUS
 10
84.832919
 20
143.829691
 30
0.0
  0
VERTEX
  8
0
  6
CONTINUOUS
 10
84.842056
 20
143.825777
 30
0.0
  0
VERTEX
  8
0
  6
CONTINUOUS
 10
84.852641
 20
143.821918
 30
0.0
  0
VERTEX
  8
0
  6
CONTINUOUS
 10
84.87866
 20
143.81471
 30
0.0
  0
VERTEX
  8
0
  6
CONTINUOUS
 10
84.944314
 20
143.808867
 30
0.0
  0
VERTEX
  8
0
  6
CONTINUOUS
 10
84.98833
 20
143.814494
 30
0.0
  0
VERTEX
  8
0
  6
CONTINUOUS
 10
85.025512
 20
143.825031
 30
0.0
  0
VERTEX
  8
0
  6
CONTINUOUS
 10
85.041259
 20
143.831275
 30
0.0
  0
VERTEX
  8
0
  6
CONTINUOUS
 10
85.054936
 20
143.838034
 30
0.0
  0
SEQEND
  8
0
  6
CONTINUOUS
  0
POLYLINE
  8
0
  6
CONTINUOUS
 66
     1
 10
0.0
 20
0.0
 30
0.0
  0
VERTEX
  8
0
  6
CONTINUOUS
 10
86.407771
 20
155.29462
 30
0.0
  0
VERTEX
  8
0
  6
CONTINUOUS
 10
86.413224
 20
155.297597
 30
0.0
  0
VERTEX
  8
0
  6
CONTINUOUS
 10
86.420192
 20
155.301115
 30
0.0
  0
VERTEX
  8
0
  6
CONTINUOUS
 10
86.42908
 20
155.304968
 30
0.0
  0
VERTEX
  8
0
  6
CONTINUOUS
 10
86.429631
 20
155.305108
 30
0.0
  0
SEQEND
  8
0
  6
CONTINUOUS
  0
POLYLINE
  8
0
  6
CONTINUOUS
 66
     1
 10
0.0
 20
0.0
 30
0.0
  0
VERTEX
  8
0
  6
CONTINUOUS
 10
86.950537
 20
155.32354
 30
0.0
  0
VERTEX
  8
0
  6
CONTINUOUS
 10
86.950439
 20
155.329902
 30
0.0
  0
VERTEX
  8
0
  6
CONTINUOUS
 10
86.950131
 20
155.337771
 30
0.0
  0
SEQEND
  8
0
  6
CONTINUOUS
  0
POLYLINE
  8
0
  6
CONTINUOUS
 66
     1
 10
0.0
 20
0.0
 30
0.0
  0
VERTEX
  8
0
  6
CONTINUOUS
 10
86.950131
 20
155.337771
 30
0.0
  0
VERTEX
  8
0
  6
CONTINUOUS
 10
86.923484
 20
155.504396
 30
0.0
  0
VERTEX
  8
0
  6
CONTINUOUS
 10
86.878608
 20
155.622814
 30
0.0
  0
SEQEND
  8
0
  6
CONTINUOUS
  0
POLYLINE
  8
0
  6
CONTINUOUS
 66
     1
 10
0.0
 20
0.0
 30
0.0
  0
VERTEX
  8
0
  6
CONTINUOUS
 10
84.832916
 20
143.829692
 30
0.0
  0
VERTEX
  8
0
  6
CONTINUOUS
 10
84.100536
 20
144.171522
 30
0.0
  0
VERTEX
  8
0
  6
CONTINUOUS
 10
83.368954
 20
144.512979
 30
0.0
  0
SEQEND
  8
0
  6
CONTINUOUS
  0
POLYLINE
  8
0
  6
CONTINUOUS
 66
     1
 10
0.0
 20
0.0
 30
0.0
  0
VERTEX
  8
0
  6
CONTINUOUS
 10
86.832711
 20
144.83293
 30
0.0
  0
VERTEX
  8
0
  6
CONTINUOUS
 10
85.943823
 20
144.335482
 30
0.0
  0
VERTEX
  8
0
  6
CONTINUOUS
 10
85.054935
 20
143.838033
 30
0.0
  0
SEQEND
  8
0
  6
CONTINUOUS
  0
POLYLINE
  8
0
  6
CONTINUOUS
 66
     1
 10
0.0
 20
0.0
 30
0.0
  0
VERTEX
  8
0
  6
CONTINUOUS
 10
86.950537
 20
155.323538
 30
0.0
  0
VERTEX
  8
0
  6
CONTINUOUS
 10
86.955132
 20
150.18595
 30
0.0
  0
VERTEX
  8
0
  6
CONTINUOUS
 10
86.959728
 20
145.048362
 30
0.0
  0
SEQEND
  8
0
  6
CONTINUOUS
  0
POLYLINE
  8
0
  6
CONTINUOUS
 66
     1
 10
0.0
 20
0.0
 30
0.0
  0
VERTEX
  8
0
  6
CONTINUOUS
 10
86.407717
 20
155.29459
 30
0.0
  0
VERTEX
  8
0
  6
CONTINUOUS
 10
85.741207
 20
154.921591
 30
0.0
  0
VERTEX
  8
0
  6
CONTINUOUS
 10
85.117887
 20
154.572762
 30
0.0
  0
SEQEND
  8
0
  6
CONTINUOUS
  0
POLYLINE
  8
0
  6
CONTINUOUS
 66
     1
 10
0.0
 20
0.0
 30
0.0
  0
VERTEX
  8
0
  6
CONTINUOUS
 10
89.745438
 20
156.932567
 30
0.0
  0
VERTEX
  8
0
  6
CONTINUOUS
 10
89.754355
 20
156.928866
 30
0.0
  0
VERTEX
  8
0
  6
CONTINUOUS
 10
89.764728
 20
156.925203
 30
0.0
  0
VERTEX
  8
0
  6
CONTINUOUS
 10
89.790201
 20
156.918384
 30
0.0
  0
VERTEX
  8
0
  6
CONTINUOUS
 10
89.854231
 20
156.912986
 30
0.0
  0
VERTEX
  8
0
  6
CONTINUOUS
 10
89.897269
 20
156.918511
 30
0.0
  0
VERTEX
  8
0
  6
CONTINUOUS
 10
89.935124
 20
156.929285
 30
0.0
  0
VERTEX
  8
0
  6
CONTINUOUS
 10
89.950947
 20
156.935604
 30
0.0
  0
VERTEX
  8
0
  6
CONTINUOUS
 10
89.9645
 20
156.942327
 30
0.0
  0
SEQEND
  8
0
  6
CONTINUOUS
  0
POLYLINE
  8
0
  6
CONTINUOUS
 66
     1
 10
0.0
 20
0.0
 30
0.0
  0
VERTEX
  8
0
  6
CONTINUOUS
 10
90.038548
 20
156.983767
 30
0.0
  0
VERTEX
  8
0
  6
CONTINUOUS
 10
90.046345
 20
156.988444
 30
0.0
  0
VERTEX
  8
0
  6
CONTINUOUS
 10
90.054032
 20
156.99365
 30
0.0
  0
SEQEND
  8
0
  6
CONTINUOUS
  0
POLYLINE
  8
0
  6
CONTINUOUS
 66
     1
 10
0.0
 20
0.0
 30
0.0
  0
VERTEX
  8
0
  6
CONTINUOUS
 10
89.453889
 20
157.063842
 30
0.0
  0
VERTEX
  8
0
  6
CONTINUOUS
 10
89.745551
 20
156.932516
 30
0.0
  0
SEQEND
  8
0
  6
CONTINUOUS
  0
POLYLINE
  8
0
  6
CONTINUOUS
 66
     1
 10
0.0
 20
0.0
 30
0.0
  0
VERTEX
  8
0
  6
CONTINUOUS
 10
90.038609
 20
156.983801
 30
0.0
  0
VERTEX
  8
0
  6
CONTINUOUS
 10
90.001525
 20
156.963047
 30
0.0
  0
VERTEX
  8
0
  6
CONTINUOUS
 10
89.964441
 20
156.942294
 30
0.0
  0
SEQEND
  8
0
  6
CONTINUOUS
  0
POLYLINE
  8
0
  6
CONTINUOUS
 66
     1
 10
0.0
 20
0.0
 30
0.0
  0
VERTEX
  8
0
  6
CONTINUOUS
 10
90.050001
 20
138.066869
 30
0.0
  0
VERTEX
  8
0
  6
CONTINUOUS
 10
89.998298
 20
138.094021
 30
0.0
  0
SEQEND
  8
0
  6
CONTINUOUS
  0
POLYLINE
  8
0
  6
CONTINUOUS
 66
     1
 10
0.0
 20
0.0
 30
0.0
  0
VERTEX
  8
0
  6
CONTINUOUS
 10
87.443542
 20
139.43565
 30
0.0
  0
VERTEX
  8
0
  6
CONTINUOUS
 10
85.912158
 20
140.239856
 30
0.0
  0
SEQEND
  8
0
  6
CONTINUOUS
  0
POLYLINE
  8
0
  6
CONTINUOUS
 66
     1
 10
0.0
 20
0.0
 30
0.0
  0
VERTEX
  8
0
  6
CONTINUOUS
 10
90.070562
 20
138.054022
 30
0.0
  0
VERTEX
  8
0
  6
CONTINUOUS
 10
90.062746
 20
138.059353
 30
0.0
  0
VERTEX
  8
0
  6
CONTINUOUS
 10
90.055093
 20
138.064058
 30
0.0
  0
VERTEX
  8
0
  6
CONTINUOUS
 10
90.049942
 20
138.0669
 30
0.0
  0
SEQEND
  8
0
  6
CONTINUOUS
  0
POLYLINE
  8
0
  6
CONTINUOUS
 66
     1
 10
0.0
 20
0.0
 30
0.0
  0
VERTEX
  8
0
  6
CONTINUOUS
 10
90.054032
 20
156.99365
 30
0.0
  0
VERTEX
  8
0
  6
CONTINUOUS
 10
90.063614
 20
157.000881
 30
0.0
  0
VERTEX
  8
0
  6
CONTINUOUS
 10
90.10881
 20
157.045102
 30
0.0
  0
VERTEX
  8
0
  6
CONTINUOUS
 10
90.141333
 20
157.095529
 30
0.0
  0
VERTEX
  8
0
  6
CONTINUOUS
 10
90.162132
 20
157.162895
 30
0.0
  0
VERTEX
  8
0
  6
CONTINUOUS
 10
90.1648
 20
157.183307
 30
0.0
  0
VERTEX
  8
0
  6
CONTINUOUS
 10
90.165458
 20
157.192562
 30
0.0
  0
VERTEX
  8
0
  6
CONTINUOUS
 10
90.165626
 20
157.199232
 30
0.0
  0
SEQEND
  8
0
  6
CONTINUOUS
  0
POLYLINE
  8
0
  6
CONTINUOUS
 66
     1
 10
0.0
 20
0.0
 30
0.0
  0
VERTEX
  8
0
  6
CONTINUOUS
 10
90.165391
 20
157.462074
 30
0.0
  0
VERTEX
  8
0
  6
CONTINUOUS
 10
90.165626
 20
157.199232
 30
0.0
  0
SEQEND
  8
0
  6
CONTINUOUS
  0
POLYLINE
  8
0
  6
CONTINUOUS
 66
     1
 10
0.0
 20
0.0
 30
0.0
  0
VERTEX
  8
0
  6
CONTINUOUS
 10
90.182787
 20
137.853896
 30
0.0
  0
VERTEX
  8
0
  6
CONTINUOUS
 10
90.182934
 20
137.848118
 30
0.0
  0
SEQEND
  8
0
  6
CONTINUOUS
  0
POLYLINE
  8
0
  6
CONTINUOUS
 66
     1
 10
0.0
 20
0.0
 30
0.0
  0
VERTEX
  8
0
  6
CONTINUOUS
 10
90.182787
 20
137.853896
 30
0.0
  0
VERTEX
  8
0
  6
CONTINUOUS
 10
90.182428
 20
137.859563
 30
0.0
  0
VERTEX
  8
0
  6
CONTINUOUS
 10
90.18187
 20
137.865711
 30
0.0
  0
VERTEX
  8
0
  6
CONTINUOUS
 10
90.180085
 20
137.879724
 30
0.0
  0
VERTEX
  8
0
  6
CONTINUOUS
 10
90.172954
 20
137.91357
 30
0.0
  0
VERTEX
  8
0
  6
CONTINUOUS
 10
90.147119
 20
137.973627
 30
0.0
  0
VERTEX
  8
0
  6
CONTINUOUS
 10
90.113985
 20
138.016089
 30
0.0
  0
VERTEX
  8
0
  6
CONTINUOUS
 10
90.090546
 20
138.038289
 30
0.0
  0
VERTEX
  8
0
  6
CONTINUOUS
 10
90.070562
 20
138.054022
 30
0.0
  0
SEQEND
  8
0
  6
CONTINUOUS
  0
POLYLINE
  8
0
  6
CONTINUOUS
 66
     1
 10
0.0
 20
0.0
 30
0.0
  0
VERTEX
  8
0
  6
CONTINUOUS
 10
90.182934
 20
137.848118
 30
0.0
  0
VERTEX
  8
0
  6
CONTINUOUS
 10
90.184082
 20
136.56507
 30
0.0
  0
VERTEX
  8
0
  6
CONTINUOUS
 10
90.184683
 20
135.893029
 30
0.0
  0
SEQEND
  8
0
  6
CONTINUOUS
  0
POLYLINE
  8
0
  6
CONTINUOUS
 66
     1
 10
0.0
 20
0.0
 30
0.0
  0
VERTEX
  8
0
  6
CONTINUOUS
 10
77.481165
 20
126.961658
 30
0.0
  0
VERTEX
  8
0
  6
CONTINUOUS
 10
80.691037
 20
128.757999
 30
0.0
  0
SEQEND
  8
0
  6
CONTINUOUS
  0
POLYLINE
  8
0
  6
CONTINUOUS
 66
     1
 10
0.0
 20
0.0
 30
0.0
  0
VERTEX
  8
0
  6
CONTINUOUS
 10
81.604922
 20
129.269437
 30
0.0
  0
VERTEX
  8
0
  6
CONTINUOUS
 10
82.25127
 20
129.631153
 30
0.0
  0
SEQEND
  8
0
  6
CONTINUOUS
  0
POLYLINE
  8
0
  6
CONTINUOUS
 66
     1
 10
0.0
 20
0.0
 30
0.0
  0
VERTEX
  8
0
  6
CONTINUOUS
 10
83.165155
 20
130.14259
 30
0.0
  0
VERTEX
  8
0
  6
CONTINUOUS
 10
85.990257
 20
131.723602
 30
0.0
  0
SEQEND
  8
0
  6
CONTINUOUS
  0
POLYLINE
  8
0
  6
CONTINUOUS
 66
     1
 10
0.0
 20
0.0
 30
0.0
  0
VERTEX
  8
0
  6
CONTINUOUS
 10
30.67383
 20
123.012634
 30
0.0
  0
VERTEX
  8
0
  6
CONTINUOUS
 10
30.765725
 20
122.939168
 30
0.0
  0
VERTEX
  8
0
  6
CONTINUOUS
 10
30.832617
 20
122.828465
 30
0.0
  0
VERTEX
  8
0
  6
CONTINUOUS
 10
30.856583
 20
122.710188
 30
0.0
  0
SEQEND
  8
0
  6
CONTINUOUS
  0
POLYLINE
  8
0
  6
CONTINUOUS
 66
     1
 10
0.0
 20
0.0
 30
0.0
  0
VERTEX
  8
0
  6
CONTINUOUS
 10
29.051724
 20
123.592286
 30
0.0
  0
VERTEX
  8
0
  6
CONTINUOUS
 10
29.077106
 20
123.686445
 30
0.0
  0
VERTEX
  8
0
  6
CONTINUOUS
 10
29.145035
 20
123.731255
 30
0.0
  0
VERTEX
  8
0
  6
CONTINUOUS
 10
29.23731
 20
123.714711
 30
0.0
  0
SEQEND
  8
0
  6
CONTINUOUS
  0
POLYLINE
  8
0
  6
CONTINUOUS
 66
     1
 10
0.0
 20
0.0
 30
0.0
  0
VERTEX
  8
0
  6
CONTINUOUS
 10
29.525465
 20
122.593491
 30
0.0
  0
VERTEX
  8
0
  6
CONTINUOUS
 10
29.478658
 20
122.453512
 30
0.0
  0
VERTEX
  8
0
  6
CONTINUOUS
 10
29.358279
 20
122.411696
 30
0.0
  0
VERTEX
  8
0
  6
CONTINUOUS
 10
29.210309
 20
122.484014
 30
0.0
  0
VERTEX
  8
0
  6
CONTINUOUS
 10
29.091268
 20
122.642843
 30
0.0
  0
VERTEX
  8
0
  6
CONTINUOUS
 10
29.046625
 20
122.827517
 30
0.0
  0
SEQEND
  8
0
  6
CONTINUOUS
  0
POLYLINE
  8
0
  6
CONTINUOUS
 66
     1
 10
0.0
 20
0.0
 30
0.0
  0
VERTEX
  8
0
  6
CONTINUOUS
 10
29.526881
 20
122.805927
 30
0.0
  0
VERTEX
  8
0
  6
CONTINUOUS
 10
29.581825
 20
122.929779
 30
0.0
  0
VERTEX
  8
0
  6
CONTINUOUS
 10
29.712467
 20
122.928353
 30
0.0
  0
SEQEND
  8
0
  6
CONTINUOUS
  0
POLYLINE
  8
0
  6
CONTINUOUS
 66
     1
 10
0.0
 20
0.0
 30
0.0
  0
VERTEX
  8
0
  6
CONTINUOUS
 10
30.191307
 20
122.694327
 30
0.0
  0
VERTEX
  8
0
  6
CONTINUOUS
 10
30.283202
 20
122.620861
 30
0.0
  0
VERTEX
  8
0
  6
CONTINUOUS
 10
30.350094
 20
122.510158
 30
0.0
  0
VERTEX
  8
0
  6
CONTINUOUS
 10
30.37406
 20
122.391881
 30
0.0
  0
SEQEND
  8
0
  6
CONTINUOUS
  0
POLYLINE
  8
0
  6
CONTINUOUS
 66
     1
 10
0.0
 20
0.0
 30
0.0
  0
VERTEX
  8
0
  6
CONTINUOUS
 10
30.299272
 20
111.175278
 30
0.0
  0
VERTEX
  8
0
  6
CONTINUOUS
 10
30.27389
 20
111.081119
 30
0.0
  0
VERTEX
  8
0
  6
CONTINUOUS
 10
30.205961
 20
111.036308
 30
0.0
  0
VERTEX
  8
0
  6
CONTINUOUS
 10
30.113686
 20
111.052852
 30
0.0
  0
SEQEND
  8
0
  6
CONTINUOUS
  0
POLYLINE
  8
0
  6
CONTINUOUS
 66
     1
 10
0.0
 20
0.0
 30
0.0
  0
VERTEX
  8
0
  6
CONTINUOUS
 10
29.542761
 20
111.331883
 30
0.0
  0
VERTEX
  8
0
  6
CONTINUOUS
 10
29.477855
 20
111.394817
 30
0.0
  0
VERTEX
  8
0
  6
CONTINUOUS
 10
29.451385
 20
111.483106
 30
0.0
  0
SEQEND
  8
0
  6
CONTINUOUS
  0
POLYLINE
  8
0
  6
CONTINUOUS
 66
     1
 10
0.0
 20
0.0
 30
0.0
  0
VERTEX
  8
0
  6
CONTINUOUS
 10
28.975661
 20
112.18449
 30
0.0
  0
VERTEX
  8
0
  6
CONTINUOUS
 10
29.008658
 20
112.306897
 30
0.0
  0
VERTEX
  8
0
  6
CONTINUOUS
 10
29.096966
 20
112.365151
 30
0.0
  0
VERTEX
  8
0
  6
CONTINUOUS
 10
29.216922
 20
112.343644
 30
0.0
  0
VERTEX
  8
0
  6
CONTINUOUS
 10
29.336386
 20
112.248138
 30
0.0
  0
VERTEX
  8
0
  6
CONTINUOUS
 10
29.423346
 20
112.104224
 30
0.0
  0
VERTEX
  8
0
  6
CONTINUOUS
 10
29.454501
 20
111.950464
 30
0.0
  0
SEQEND
  8
0
  6
CONTINUOUS
  0
POLYLINE
  8
0
  6
CONTINUOUS
 66
     1
 10
0.0
 20
0.0
 30
0.0
  0
VERTEX
  8
0
  6
CONTINUOUS
 10
29.152323
 20
110.968571
 30
0.0
  0
VERTEX
  8
0
  6
CONTINUOUS
 10
29.060428
 20
111.042037
 30
0.0
  0
VERTEX
  8
0
  6
CONTINUOUS
 10
28.993536
 20
111.15274
 30
0.0
  0
VERTEX
  8
0
  6
CONTINUOUS
 10
28.96957
 20
111.271017
 30
0.0
  0
SEQEND
  8
0
  6
CONTINUOUS
  0
POLYLINE
  8
0
  6
CONTINUOUS
 66
     1
 10
0.0
 20
0.0
 30
0.0
  0
VERTEX
  8
0
  6
CONTINUOUS
 10
30.774429
 20
110.388919
 30
0.0
  0
VERTEX
  8
0
  6
CONTINUOUS
 10
30.719486
 20
110.265068
 30
0.0
  0
VERTEX
  8
0
  6
CONTINUOUS
 10
30.588844
 20
110.266494
 30
0.0
  0
SEQEND
  8
0
  6
CONTINUOUS
  0
POLYLINE
  8
0
  6
CONTINUOUS
 66
     1
 10
0.0
 20
0.0
 30
0.0
  0
VERTEX
  8
0
  6
CONTINUOUS
 10
30.305498
 20
117.651324
 30
0.0
  0
VERTEX
  8
0
  6
CONTINUOUS
 10
30.224912
 20
117.362391
 30
0.0
  0
VERTEX
  8
0
  6
CONTINUOUS
 10
30.010389
 20
117.232098
 30
0.0
  0
VERTEX
  8
0
  6
CONTINUOUS
 10
29.722814
 20
117.297423
 30
0.0
  0
SEQEND
  8
0
  6
CONTINUOUS
  0
POLYLINE
  8
0
  6
CONTINUOUS
 66
     1
 10
0.0
 20
0.0
 30
0.0
  0
VERTEX
  8
0
  6
CONTINUOUS
 10
29.829123
 20
118.255121
 30
0.0
  0
VERTEX
  8
0
  6
CONTINUOUS
 10
29.86212
 20
118.377527
 30
0.0
  0
VERTEX
  8
0
  6
CONTINUOUS
 10
29.950428
 20
118.435781
 30
0.0
  0
VERTEX
  8
0
  6
CONTINUOUS
 10
30.070385
 20
118.414274
 30
0.0
  0
VERTEX
  8
0
  6
CONTINUOUS
 10
30.189848
 20
118.318768
 30
0.0
  0
VERTEX
  8
0
  6
CONTINUOUS
 10
30.276808
 20
118.174855
 30
0.0
  0
VERTEX
  8
0
  6
CONTINUOUS
 10
30.307963
 20
118.021095
 30
0.0
  0
SEQEND
  8
0
  6
CONTINUOUS
  0
POLYLINE
  8
0
  6
CONTINUOUS
 66
     1
 10
0.0
 20
0.0
 30
0.0
  0
VERTEX
  8
0
  6
CONTINUOUS
 10
29.827549
 20
118.018941
 30
0.0
  0
VERTEX
  8
0
  6
CONTINUOUS
 10
29.800687
 20
117.92263
 30
0.0
  0
VERTEX
  8
0
  6
CONTINUOUS
 10
29.729179
 20
117.879199
 30
0.0
  0
VERTEX
  8
0
  6
CONTINUOUS
 10
29.63332
 20
117.900974
 30
0.0
  0
SEQEND
  8
0
  6
CONTINUOUS
  0
POLYLINE
  8
0
  6
CONTINUOUS
 66
     1
 10
0.0
 20
0.0
 30
0.0
  0
VERTEX
  8
0
  6
CONTINUOUS
 10
25.619881
 20
120.080791
 30
0.0
  0
VERTEX
  8
0
  6
CONTINUOUS
 10
25.495714
 20
120.207244
 30
0.0
  0
VERTEX
  8
0
  6
CONTINUOUS
 10
25.445771
 20
120.378778
 30
0.0
  0
SEQEND
  8
0
  6
CONTINUOUS
  0
POLYLINE
  8
0
  6
CONTINUOUS
 66
     1
 10
0.0
 20
0.0
 30
0.0
  0
VERTEX
  8
0
  6
CONTINUOUS
 10
25.473741
 20
124.57371
 30
0.0
  0
VERTEX
  8
0
  6
CONTINUOUS
 10
25.524505
 20
124.762028
 30
0.0
  0
VERTEX
  8
0
  6
CONTINUOUS
 10
25.660364
 20
124.851649
 30
0.0
  0
VERTEX
  8
0
  6
CONTINUOUS
 10
25.844912
 20
124.818562
 30
0.0
  0
SEQEND
  8
0
  6
CONTINUOUS
  0
POLYLINE
  8
0
  6
CONTINUOUS
 66
     1
 10
0.0
 20
0.0
 30
0.0
  0
VERTEX
  8
0
  6
CONTINUOUS
 10
28.202279
 20
123.666434
 30
0.0
  0
VERTEX
  8
0
  6
CONTINUOUS
 10
28.386069
 20
123.519502
 30
0.0
  0
VERTEX
  8
0
  6
CONTINUOUS
 10
28.519853
 20
123.298097
 30
0.0
  0
VERTEX
  8
0
  6
CONTINUOUS
 10
28.567785
 20
123.061543
 30
0.0
  0
SEQEND
  8
0
  6
CONTINUOUS
  0
POLYLINE
  8
0
  6
CONTINUOUS
 66
     1
 10
0.0
 20
0.0
 30
0.0
  0
VERTEX
  8
0
  6
CONTINUOUS
 10
28.929608
 20
121.904319
 30
0.0
  0
VERTEX
  8
0
  6
CONTINUOUS
 10
28.669983
 20
122.156054
 30
0.0
  0
VERTEX
  8
0
  6
CONTINUOUS
 10
28.564102
 20
122.50921
 30
0.0
  0
SEQEND
  8
0
  6
CONTINUOUS
  0
POLYLINE
  8
0
  6
CONTINUOUS
 66
     1
 10
0.0
 20
0.0
 30
0.0
  0
VERTEX
  8
0
  6
CONTINUOUS
 10
30.280874
 20
122.011169
 30
0.0
  0
VERTEX
  8
0
  6
CONTINUOUS
 10
30.338392
 20
121.727304
 30
0.0
  0
VERTEX
  8
0
  6
CONTINUOUS
 10
30.277475
 20
121.501323
 30
0.0
  0
VERTEX
  8
0
  6
CONTINUOUS
 10
30.114445
 20
121.393777
 30
0.0
  0
VERTEX
  8
0
  6
CONTINUOUS
 10
29.892986
 20
121.433483
 30
0.0
  0
SEQEND
  8
0
  6
CONTINUOUS
  0
POLYLINE
  8
0
  6
CONTINUOUS
 66
     1
 10
0.0
 20
0.0
 30
0.0
  0
VERTEX
  8
0
  6
CONTINUOUS
 10
29.674217
 20
122.733919
 30
0.0
  0
VERTEX
  8
0
  6
CONTINUOUS
 10
29.699599
 20
122.828078
 30
0.0
  0
VERTEX
  8
0
  6
CONTINUOUS
 10
29.767528
 20
122.872889
 30
0.0
  0
VERTEX
  8
0
  6
CONTINUOUS
 10
29.859803
 20
122.856345
 30
0.0
  0
VERTEX
  8
0
  6
CONTINUOUS
 10
29.951697
 20
122.782879
 30
0.0
  0
VERTEX
  8
0
  6
CONTINUOUS
 10
30.01859
 20
122.672176
 30
0.0
  0
SEQEND
  8
0
  6
CONTINUOUS
  0
POLYLINE
  8
0
  6
CONTINUOUS
 66
     1
 10
0.0
 20
0.0
 30
0.0
  0
VERTEX
  8
0
  6
CONTINUOUS
 10
29.670534
 20
122.181586
 30
0.0
  0
VERTEX
  8
0
  6
CONTINUOUS
 10
29.660381
 20
122.143923
 30
0.0
  0
VERTEX
  8
0
  6
CONTINUOUS
 10
29.63321
 20
122.125999
 30
0.0
  0
VERTEX
  8
0
  6
CONTINUOUS
 10
29.5963
 20
122.132616
 30
0.0
  0
SEQEND
  8
0
  6
CONTINUOUS
  0
POLYLINE
  8
0
  6
CONTINUOUS
 66
     1
 10
0.0
 20
0.0
 30
0.0
  0
VERTEX
  8
0
  6
CONTINUOUS
 10
29.11746
 20
122.366642
 30
0.0
  0
VERTEX
  8
0
  6
CONTINUOUS
 10
29.065535
 20
122.416989
 30
0.0
  0
VERTEX
  8
0
  6
CONTINUOUS
 10
29.044359
 20
122.48762
 30
0.0
  0
SEQEND
  8
0
  6
CONTINUOUS
  0
POLYLINE
  8
0
  6
CONTINUOUS
 66
     1
 10
0.0
 20
0.0
 30
0.0
  0
VERTEX
  8
0
  6
CONTINUOUS
 10
28.868971
 20
123.894731
 30
0.0
  0
VERTEX
  8
0
  6
CONTINUOUS
 10
28.960866
 20
123.821265
 30
0.0
  0
VERTEX
  8
0
  6
CONTINUOUS
 10
29.027758
 20
123.710563
 30
0.0
  0
VERTEX
  8
0
  6
CONTINUOUS
 10
29.051724
 20
123.592286
 30
0.0
  0
SEQEND
  8
0
  6
CONTINUOUS
  0
POLYLINE
  8
0
  6
CONTINUOUS
 66
     1
 10
0.0
 20
0.0
 30
0.0
  0
VERTEX
  8
0
  6
CONTINUOUS
 10
25.0
 20
125.572504
 30
0.0
  0
VERTEX
  8
0
  6
CONTINUOUS
 10
25.025382
 20
125.666663
 30
0.0
  0
VERTEX
  8
0
  6
CONTINUOUS
 10
25.093311
 20
125.711474
 30
0.0
  0
VERTEX
  8
0
  6
CONTINUOUS
 10
25.185586
 20
125.69493
 30
0.0
  0
SEQEND
  8
0
  6
CONTINUOUS
  0
POLYLINE
  8
0
  6
CONTINUOUS
 66
     1
 10
0.0
 20
0.0
 30
0.0
  0
VERTEX
  8
0
  6
CONTINUOUS
 10
25.100599
 20
112.94879
 30
0.0
  0
VERTEX
  8
0
  6
CONTINUOUS
 10
25.008704
 20
113.022256
 30
0.0
  0
VERTEX
  8
0
  6
CONTINUOUS
 10
24.941812
 20
113.132958
 30
0.0
  0
VERTEX
  8
0
  6
CONTINUOUS
 10
24.917846
 20
113.251235
 30
0.0
  0
SEQEND
  8
0
  6
CONTINUOUS
  0
POLYLINE
  8
0
  6
CONTINUOUS
 66
     1
 10
0.0
 20
0.0
 30
0.0
  0
VERTEX
  8
0
  6
CONTINUOUS
 10
28.96957
 20
111.271017
 30
0.0
  0
VERTEX
  8
0
  6
CONTINUOUS
 10
28.914627
 20
111.147165
 30
0.0
  0
VERTEX
  8
0
  6
CONTINUOUS
 10
28.783985
 20
111.148591
 30
0.0
  0
SEQEND
  8
0
  6
CONTINUOUS
  0
POLYLINE
  8
0
  6
CONTINUOUS
 66
     1
 10
0.0
 20
0.0
 30
0.0
  0
VERTEX
  8
0
  6
CONTINUOUS
 10
28.976936
 20
112.375682
 30
0.0
  0
VERTEX
  8
0
  6
CONTINUOUS
 10
28.987089
 20
112.413346
 30
0.0
  0
VERTEX
  8
0
  6
CONTINUOUS
 10
29.01426
 20
112.43127
 30
0.0
  0
VERTEX
  8
0
  6
CONTINUOUS
 10
29.05117
 20
112.424652
 30
0.0
  0
SEQEND
  8
0
  6
CONTINUOUS
  0
POLYLINE
  8
0
  6
CONTINUOUS
 66
     1
 10
0.0
 20
0.0
 30
0.0
  0
VERTEX
  8
0
  6
CONTINUOUS
 10
29.53001
 20
112.190627
 30
0.0
  0
VERTEX
  8
0
  6
CONTINUOUS
 10
29.581935
 20
112.14028
 30
0.0
  0
VERTEX
  8
0
  6
CONTINUOUS
 10
29.603111
 20
112.069648
 30
0.0
  0
SEQEND
  8
0
  6
CONTINUOUS
  0
POLYLINE
  8
0
  6
CONTINUOUS
 66
     1
 10
0.0
 20
0.0
 30
0.0
  0
VERTEX
  8
0
  6
CONTINUOUS
 10
29.942385
 20
111.243137
 30
0.0
  0
VERTEX
  8
0
  6
CONTINUOUS
 10
29.852768
 20
111.196595
 30
0.0
  0
VERTEX
  8
0
  6
CONTINUOUS
 10
29.734563
 20
111.245405
 30
0.0
  0
VERTEX
  8
0
  6
CONTINUOUS
 10
29.636624
 20
111.369393
 30
0.0
  0
VERTEX
  8
0
  6
CONTINUOUS
 10
29.599429
 20
111.517316
 30
0.0
  0
SEQEND
  8
0
  6
CONTINUOUS
  0
POLYLINE
  8
0
  6
CONTINUOUS
 66
     1
 10
0.0
 20
0.0
 30
0.0
  0
VERTEX
  8
0
  6
CONTINUOUS
 10
29.834062
 20
112.596159
 30
0.0
  0
VERTEX
  8
0
  6
CONTINUOUS
 10
30.05461
 20
112.41984
 30
0.0
  0
VERTEX
  8
0
  6
CONTINUOUS
 10
30.215151
 20
112.154154
 30
0.0
  0
VERTEX
  8
0
  6
CONTINUOUS
 10
30.272669
 20
111.870289
 30
0.0
  0
VERTEX
  8
0
  6
CONTINUOUS
 10
30.211752
 20
111.644308
 30
0.0
  0
SEQEND
  8
0
  6
CONTINUOUS
  0
POLYLINE
  8
0
  6
CONTINUOUS
 66
     1
 10
0.0
 20
0.0
 30
0.0
  0
VERTEX
  8
0
  6
CONTINUOUS
 10
28.499512
 20
112.822144
 30
0.0
  0
VERTEX
  8
0
  6
CONTINUOUS
 10
28.550277
 20
113.010461
 30
0.0
  0
VERTEX
  8
0
  6
CONTINUOUS
 10
28.686135
 20
113.100083
 30
0.0
  0
VERTEX
  8
0
  6
CONTINUOUS
 10
28.870684
 20
113.066995
 30
0.0
  0
SEQEND
  8
0
  6
CONTINUOUS
  0
POLYLINE
  8
0
  6
CONTINUOUS
 66
     1
 10
0.0
 20
0.0
 30
0.0
  0
VERTEX
  8
0
  6
CONTINUOUS
 10
28.495829
 20
112.269811
 30
0.0
  0
VERTEX
  8
0
  6
CONTINUOUS
 10
28.445065
 20
112.081493
 30
0.0
  0
VERTEX
  8
0
  6
CONTINUOUS
 10
28.309207
 20
111.991872
 30
0.0
  0
VERTEX
  8
0
  6
CONTINUOUS
 10
28.124658
 20
112.024959
 30
0.0
  0
SEQEND
  8
0
  6
CONTINUOUS
  0
POLYLINE
  8
0
  6
CONTINUOUS
 66
     1
 10
0.0
 20
0.0
 30
0.0
  0
VERTEX
  8
0
  6
CONTINUOUS
 10
25.767291
 20
113.177087
 30
0.0
  0
VERTEX
  8
0
  6
CONTINUOUS
 10
25.583501
 20
113.324019
 30
0.0
  0
VERTEX
  8
0
  6
CONTINUOUS
 10
25.449717
 20
113.545424
 30
0.0
  0
VERTEX
  8
0
  6
CONTINUOUS
 10
25.401786
 20
113.781978
 30
0.0
  0
SEQEND
  8
0
  6
CONTINUOUS
  0
POLYLINE
  8
0
  6
CONTINUOUS
 66
     1
 10
0.0
 20
0.0
 30
0.0
  0
VERTEX
  8
0
  6
CONTINUOUS
 10
25.429756
 20
117.97691
 30
0.0
  0
VERTEX
  8
0
  6
CONTINUOUS
 10
25.481655
 20
118.09867
 30
0.0
  0
VERTEX
  8
0
  6
CONTINUOUS
 10
25.606696
 20
118.103326
 30
0.0
  0
SEQEND
  8
0
  6
CONTINUOUS
  0
POLYLINE
  8
0
  6
CONTINUOUS
 66
     1
 10
0.0
 20
0.0
 30
0.0
  0
VERTEX
  8
0
  6
CONTINUOUS
 10
29.623037
 20
116.35871
 30
0.0
  0
VERTEX
  8
0
  6
CONTINUOUS
 10
29.718562
 20
116.286949
 30
0.0
  0
VERTEX
  8
0
  6
CONTINUOUS
 10
29.789028
 20
116.174131
 30
0.0
  0
VERTEX
  8
0
  6
CONTINUOUS
 10
29.814436
 20
116.052274
 30
0.0
  0
SEQEND
  8
0
  6
CONTINUOUS
  0
POLYLINE
  8
0
  6
CONTINUOUS
 66
     1
 10
0.0
 20
0.0
 30
0.0
  0
VERTEX
  8
0
  6
CONTINUOUS
 10
30.291753
 20
115.589923
 30
0.0
  0
VERTEX
  8
0
  6
CONTINUOUS
 10
30.244946
 20
115.449944
 30
0.0
  0
VERTEX
  8
0
  6
CONTINUOUS
 10
30.124567
 20
115.408127
 30
0.0
  0
VERTEX
  8
0
  6
CONTINUOUS
 10
29.976597
 20
115.480445
 30
0.0
  0
VERTEX
  8
0
  6
CONTINUOUS
 10
29.857556
 20
115.639275
 30
0.0
  0
VERTEX
  8
0
  6
CONTINUOUS
 10
29.812913
 20
115.823949
 30
0.0
  0
SEQEND
  8
0
  6
CONTINUOUS
  0
POLYLINE
  8
0
  6
CONTINUOUS
 66
     1
 10
0.0
 20
0.0
 30
0.0
  0
VERTEX
  8
0
  6
CONTINUOUS
 10
29.719971
 20
116.871147
 30
0.0
  0
VERTEX
  8
0
  6
CONTINUOUS
 10
30.006547
 20
116.655865
 30
0.0
  0
VERTEX
  8
0
  6
CONTINUOUS
 10
30.217944
 20
116.31741
 30
0.0
  0
VERTEX
  8
0
  6
CONTINUOUS
 10
30.294166
 20
115.951839
 30
0.0
  0
SEQEND
  8
0
  6
CONTINUOUS
  0
POLYLINE
  8
0
  6
CONTINUOUS
 66
     1
 10
0.0
 20
0.0
 30
0.0
  0
VERTEX
  8
0
  6
CONTINUOUS
 10
25.82056
 20
118.564972
 30
0.0
  0
VERTEX
  8
0
  6
CONTINUOUS
 10
25.629509
 20
118.708493
 30
0.0
  0
VERTEX
  8
0
  6
CONTINUOUS
 10
25.488578
 20
118.93413
 30
0.0
  0
VERTEX
  8
0
  6
CONTINUOUS
 10
25.437763
 20
119.177844
 30
0.0
  0
VERTEX
  8
0
  6
CONTINUOUS
 10
25.491487
 20
119.370466
 30
0.0
  0
VERTEX
  8
0
  6
CONTINUOUS
 10
25.634502
 20
119.457328
 30
0.0
  0
VERTEX
  8
0
  6
CONTINUOUS
 10
25.82622
 20
119.413778
 30
0.0
  0
SEQEND
  8
0
  6
CONTINUOUS
  0
POLYLINE
  8
0
  6
CONTINUOUS
 66
     1
 10
0.0
 20
0.0
 30
0.0
  0
VERTEX
  8
0
  6
CONTINUOUS
 10
65.306079
 20
128.850544
 30
0.0
  0
VERTEX
  8
0
  6
CONTINUOUS
 10
65.246784
 20
128.823365
 30
0.0
  0
SEQEND
  8
0
  6
CONTINUOUS
  0
POLYLINE
  8
0
  6
CONTINUOUS
 66
     1
 10
0.0
 20
0.0
 30
0.0
  0
VERTEX
  8
0
  6
CONTINUOUS
 10
65.438914
 20
129.095908
 30
0.0
  0
VERTEX
  8
0
  6
CONTINUOUS
 10
65.306079
 20
128.850544
 30
0.0
  0
SEQEND
  8
0
  6
CONTINUOUS
  0
POLYLINE
  8
0
  6
CONTINUOUS
 66
     1
 10
0.0
 20
0.0
 30
0.0
  0
VERTEX
  8
0
  6
CONTINUOUS
 10
68.152687
 20
129.636546
 30
0.0
  0
VERTEX
  8
0
  6
CONTINUOUS
 10
68.285522
 20
129.88191
 30
0.0
  0
SEQEND
  8
0
  6
CONTINUOUS
  0
POLYLINE
  8
0
  6
CONTINUOUS
 66
     1
 10
0.0
 20
0.0
 30
0.0
  0
VERTEX
  8
0
  6
CONTINUOUS
 10
68.093392
 20
129.609366
 30
0.0
  0
VERTEX
  8
0
  6
CONTINUOUS
 10
68.152687
 20
129.636546
 30
0.0
  0
SEQEND
  8
0
  6
CONTINUOUS
  0
POLYLINE
  8
0
  6
CONTINUOUS
 66
     1
 10
0.0
 20
0.0
 30
0.0
  0
VERTEX
  8
0
  6
CONTINUOUS
 10
65.107835
 20
129.040329
 30
0.0
  0
VERTEX
  8
0
  6
CONTINUOUS
 10
65.438914
 20
129.095908
 30
0.0
  0
SEQEND
  8
0
  6
CONTINUOUS
  0
POLYLINE
  8
0
  6
CONTINUOUS
 66
     1
 10
0.0
 20
0.0
 30
0.0
  0
VERTEX
  8
0
  6
CONTINUOUS
 10
64.783105
 20
129.10842
 30
0.0
  0
VERTEX
  8
0
  6
CONTINUOUS
 10
65.107835
 20
129.040329
 30
0.0
  0
SEQEND
  8
0
  6
CONTINUOUS
  0
POLYLINE
  8
0
  6
CONTINUOUS
 66
     1
 10
0.0
 20
0.0
 30
0.0
  0
VERTEX
  8
0
  6
CONTINUOUS
 10
65.195829
 20
142.237439
 30
0.0
  0
VERTEX
  8
0
  6
CONTINUOUS
 10
64.871099
 20
142.30553
 30
0.0
  0
SEQEND
  8
0
  6
CONTINUOUS
  0
POLYLINE
  8
0
  6
CONTINUOUS
 66
     1
 10
0.0
 20
0.0
 30
0.0
  0
VERTEX
  8
0
  6
CONTINUOUS
 10
65.526907
 20
142.293018
 30
0.0
  0
VERTEX
  8
0
  6
CONTINUOUS
 10
65.195829
 20
142.237439
 30
0.0
  0
SEQEND
  8
0
  6
CONTINUOUS
  0
POLYLINE
  8
0
  6
CONTINUOUS
 66
     1
 10
0.0
 20
0.0
 30
0.0
  0
VERTEX
  8
0
  6
CONTINUOUS
 10
64.958567
 20
142.630094
 30
0.0
  0
VERTEX
  8
0
  6
CONTINUOUS
 10
65.164959
 20
142.892023
 30
0.0
  0
SEQEND
  8
0
  6
CONTINUOUS
  0
POLYLINE
  8
0
  6
CONTINUOUS
 66
     1
 10
0.0
 20
0.0
 30
0.0
  0
VERTEX
  8
0
  6
CONTINUOUS
 10
64.871099
 20
142.30553
 30
0.0
  0
VERTEX
  8
0
  6
CONTINUOUS
 10
64.958567
 20
142.630094
 30
0.0
  0
SEQEND
  8
0
  6
CONTINUOUS
  0
POLYLINE
  8
0
  6
CONTINUOUS
 66
     1
 10
0.0
 20
0.0
 30
0.0
  0
VERTEX
  8
0
  6
CONTINUOUS
 10
68.120582
 20
144.681827
 30
0.0
  0
VERTEX
  8
0
  6
CONTINUOUS
 10
68.164316
 20
144.844109
 30
0.0
  0
SEQEND
  8
0
  6
CONTINUOUS
  0
POLYLINE
  8
0
  6
CONTINUOUS
 66
     1
 10
0.0
 20
0.0
 30
0.0
  0
VERTEX
  8
0
  6
CONTINUOUS
 10
68.017387
 20
144.550863
 30
0.0
  0
VERTEX
  8
0
  6
CONTINUOUS
 10
68.120582
 20
144.681827
 30
0.0
  0
SEQEND
  8
0
  6
CONTINUOUS
  0
POLYLINE
  8
0
  6
CONTINUOUS
 66
     1
 10
0.0
 20
0.0
 30
0.0
  0
VERTEX
  8
0
  6
CONTINUOUS
 10
68.250373
 20
144.287285
 30
0.0
  0
VERTEX
  8
0
  6
CONTINUOUS
 10
68.017387
 20
144.550863
 30
0.0
  0
SEQEND
  8
0
  6
CONTINUOUS
  0
POLYLINE
  8
0
  6
CONTINUOUS
 66
     1
 10
0.0
 20
0.0
 30
0.0
  0
VERTEX
  8
0
  6
CONTINUOUS
 10
68.379335
 20
143.951858
 30
0.0
  0
VERTEX
  8
0
  6
CONTINUOUS
 10
68.250373
 20
144.287285
 30
0.0
  0
SEQEND
  8
0
  6
CONTINUOUS
  0
POLYLINE
  8
0
  6
CONTINUOUS
 66
     1
 10
0.0
 20
0.0
 30
0.0
  0
VERTEX
  8
0
  6
CONTINUOUS
 10
65.397945
 20
142.628445
 30
0.0
  0
VERTEX
  8
0
  6
CONTINUOUS
 10
65.526907
 20
142.293018
 30
0.0
  0
SEQEND
  8
0
  6
CONTINUOUS
  0
POLYLINE
  8
0
  6
CONTINUOUS
 66
     1
 10
0.0
 20
0.0
 30
0.0
  0
VERTEX
  8
0
  6
CONTINUOUS
 10
65.164959
 20
142.892023
 30
0.0
  0
VERTEX
  8
0
  6
CONTINUOUS
 10
65.397945
 20
142.628445
 30
0.0
  0
SEQEND
  8
0
  6
CONTINUOUS
  0
POLYLINE
  8
0
  6
CONTINUOUS
 66
     1
 10
0.0
 20
0.0
 30
0.0
  0
VERTEX
  8
0
  6
CONTINUOUS
 10
68.451061
 20
129.909699
 30
0.0
  0
VERTEX
  8
0
  6
CONTINUOUS
 10
68.613426
 20
129.875654
 30
0.0
  0
SEQEND
  8
0
  6
CONTINUOUS
  0
POLYLINE
  8
0
  6
CONTINUOUS
 66
     1
 10
0.0
 20
0.0
 30
0.0
  0
VERTEX
  8
0
  6
CONTINUOUS
 10
68.285522
 20
129.88191
 30
0.0
  0
VERTEX
  8
0
  6
CONTINUOUS
 10
68.451061
 20
129.909699
 30
0.0
  0
SEQEND
  8
0
  6
CONTINUOUS
  0
POLYLINE
  8
0
  6
CONTINUOUS
 66
     1
 10
0.0
 20
0.0
 30
0.0
  0
VERTEX
  8
0
  6
CONTINUOUS
 10
68.544874
 20
143.979648
 30
0.0
  0
VERTEX
  8
0
  6
CONTINUOUS
 10
68.379335
 20
143.951858
 30
0.0
  0
SEQEND
  8
0
  6
CONTINUOUS
  0
POLYLINE
  8
0
  6
CONTINUOUS
 66
     1
 10
0.0
 20
0.0
 30
0.0
  0
VERTEX
  8
0
  6
CONTINUOUS
 10
68.707239
 20
143.945602
 30
0.0
  0
VERTEX
  8
0
  6
CONTINUOUS
 10
68.544874
 20
143.979648
 30
0.0
  0
SEQEND
  8
0
  6
CONTINUOUS
  0
POLYLINE
  8
0
  6
CONTINUOUS
 66
     1
 10
0.0
 20
0.0
 30
0.0
  0
VERTEX
  8
0
  6
CONTINUOUS
 10
68.062087
 20
129.511951
 30
0.0
  0
VERTEX
  8
0
  6
CONTINUOUS
 10
68.043354
 20
129.595921
 30
0.0
  0
SEQEND
  8
0
  6
CONTINUOUS
  0
POLYLINE
  8
0
  6
CONTINUOUS
 66
     1
 10
0.0
 20
0.0
 30
0.0
  0
VERTEX
  8
0
  6
CONTINUOUS
 10
64.866896
 20
128.881388
 30
0.0
  0
VERTEX
  8
0
  6
CONTINUOUS
 10
64.783105
 20
129.10842
 30
0.0
  0
SEQEND
  8
0
  6
CONTINUOUS
  0
POLYLINE
  8
0
  6
CONTINUOUS
 66
     1
 10
0.0
 20
0.0
 30
0.0
  0
VERTEX
  8
0
  6
CONTINUOUS
 10
64.907316
 20
128.854231
 30
0.0
  0
VERTEX
  8
0
  6
CONTINUOUS
 10
64.866896
 20
128.881388
 30
0.0
  0
SEQEND
  8
0
  6
CONTINUOUS
  0
POLYLINE
  8
0
  6
CONTINUOUS
 66
     1
 10
0.0
 20
0.0
 30
0.0
  0
VERTEX
  8
0
  6
CONTINUOUS
 10
65.526907
 20
142.293018
 30
0.0
  0
VERTEX
  8
0
  6
CONTINUOUS
 10
65.482911
 20
135.694463
 30
0.0
  0
VERTEX
  8
0
  6
CONTINUOUS
 10
65.438914
 20
129.095908
 30
0.0
  0
SEQEND
  8
0
  6
CONTINUOUS
  0
POLYLINE
  8
0
  6
CONTINUOUS
 66
     1
 10
0.0
 20
0.0
 30
0.0
  0
VERTEX
  8
0
  6
CONTINUOUS
 10
68.379335
 20
143.951858
 30
0.0
  0
VERTEX
  8
0
  6
CONTINUOUS
 10
66.921383
 20
143.103981
 30
0.0
  0
VERTEX
  8
0
  6
CONTINUOUS
 10
65.526907
 20
142.293018
 30
0.0
  0
SEQEND
  8
0
  6
CONTINUOUS
  0
POLYLINE
  8
0
  6
CONTINUOUS
 66
     1
 10
0.0
 20
0.0
 30
0.0
  0
VERTEX
  8
0
  6
CONTINUOUS
 10
68.379335
 20
143.951858
 30
0.0
  0
VERTEX
  8
0
  6
CONTINUOUS
 10
68.332428
 20
136.916884
 30
0.0
  0
VERTEX
  8
0
  6
CONTINUOUS
 10
68.285522
 20
129.88191
 30
0.0
  0
SEQEND
  8
0
  6
CONTINUOUS
  0
POLYLINE
  8
0
  6
CONTINUOUS
 66
     1
 10
0.0
 20
0.0
 30
0.0
  0
VERTEX
  8
0
  6
CONTINUOUS
 10
65.438914
 20
129.095908
 30
0.0
  0
VERTEX
  8
0
  6
CONTINUOUS
 10
66.830544
 20
129.480163
 30
0.0
  0
VERTEX
  8
0
  6
CONTINUOUS
 10
68.285522
 20
129.88191
 30
0.0
  0
SEQEND
  8
0
  6
CONTINUOUS
  0
POLYLINE
  8
0
  6
CONTINUOUS
 66
     1
 10
0.0
 20
0.0
 30
0.0
  0
VERTEX
  8
0
  6
CONTINUOUS
 10
61.692
 20
148.007355
 30
0.0
  0
VERTEX
  8
0
  6
CONTINUOUS
 10
65.121676
 20
146.331153
 30
0.0
  0
VERTEX
  8
0
  6
CONTINUOUS
 10
68.164316
 20
144.844109
 30
0.0
  0
SEQEND
  8
0
  6
CONTINUOUS
  0
POLYLINE
  8
0
  6
CONTINUOUS
 66
     1
 10
0.0
 20
0.0
 30
0.0
  0
VERTEX
  8
0
  6
CONTINUOUS
 10
68.062087
 20
129.511951
 30
0.0
  0
VERTEX
  8
0
  6
CONTINUOUS
 10
67.94608
 20
129.568648
 30
0.0
  0
SEQEND
  8
0
  6
CONTINUOUS
  0
POLYLINE
  8
0
  6
CONTINUOUS
 66
     1
 10
0.0
 20
0.0
 30
0.0
  0
VERTEX
  8
0
  6
CONTINUOUS
 10
68.444359
 20
129.517381
 30
0.0
  0
VERTEX
  8
0
  6
CONTINUOUS
 10
68.062087
 20
129.511951
 30
0.0
  0
SEQEND
  8
0
  6
CONTINUOUS
  0
POLYLINE
  8
0
  6
CONTINUOUS
 66
     1
 10
0.0
 20
0.0
 30
0.0
  0
VERTEX
  8
0
  6
CONTINUOUS
 10
68.613426
 20
129.875654
 30
0.0
  0
VERTEX
  8
0
  6
CONTINUOUS
 10
68.444359
 20
129.517381
 30
0.0
  0
SEQEND
  8
0
  6
CONTINUOUS
  0
POLYLINE
  8
0
  6
CONTINUOUS
 66
     1
 10
0.0
 20
0.0
 30
0.0
  0
VERTEX
  8
0
  6
CONTINUOUS
 10
68.707239
 20
143.945602
 30
0.0
  0
VERTEX
  8
0
  6
CONTINUOUS
 10
68.660333
 20
136.910628
 30
0.0
  0
VERTEX
  8
0
  6
CONTINUOUS
 10
68.613426
 20
129.875654
 30
0.0
  0
SEQEND
  8
0
  6
CONTINUOUS
  0
POLYLINE
  8
0
  6
CONTINUOUS
 66
     1
 10
0.0
 20
0.0
 30
0.0
  0
VERTEX
  8
0
  6
CONTINUOUS
 10
68.544033
 20
144.466268
 30
0.0
  0
VERTEX
  8
0
  6
CONTINUOUS
 10
68.707239
 20
143.945602
 30
0.0
  0
SEQEND
  8
0
  6
CONTINUOUS
  0
POLYLINE
  8
0
  6
CONTINUOUS
 66
     1
 10
0.0
 20
0.0
 30
0.0
  0
VERTEX
  8
0
  6
CONTINUOUS
 10
68.164316
 20
144.844109
 30
0.0
  0
VERTEX
  8
0
  6
CONTINUOUS
 10
68.544033
 20
144.466268
 30
0.0
  0
SEQEND
  8
0
  6
CONTINUOUS
  0
POLYLINE
  8
0
  6
CONTINUOUS
 66
     1
 10
0.0
 20
0.0
 30
0.0
  0
VERTEX
  8
0
  6
CONTINUOUS
 10
72.665552
 20
125.575509
 30
0.0
  0
VERTEX
  8
0
  6
CONTINUOUS
 10
72.64017
 20
125.48135
 30
0.0
  0
VERTEX
  8
0
  6
CONTINUOUS
 10
72.572241
 20
125.436539
 30
0.0
  0
VERTEX
  8
0
  6
CONTINUOUS
 10
72.479967
 20
125.453083
 30
0.0
  0
SEQEND
  8
0
  6
CONTINUOUS
  0
POLYLINE
  8
0
  6
CONTINUOUS
 66
     1
 10
0.0
 20
0.0
 30
0.0
  0
VERTEX
  8
0
  6
CONTINUOUS
 10
64.871099
 20
142.30553
 30
0.0
  0
VERTEX
  8
0
  6
CONTINUOUS
 10
64.827102
 20
135.706975
 30
0.0
  0
VERTEX
  8
0
  6
CONTINUOUS
 10
64.783105
 20
129.10842
 30
0.0
  0
SEQEND
  8
0
  6
CONTINUOUS
  0
POLYLINE
  8
0
  6
CONTINUOUS
 66
     1
 10
0.0
 20
0.0
 30
0.0
  0
VERTEX
  8
0
  6
CONTINUOUS
 10
64.783105
 20
129.10842
 30
0.0
  0
VERTEX
  8
0
  6
CONTINUOUS
 10
64.258036
 20
129.36504
 30
0.0
  0
SEQEND
  8
0
  6
CONTINUOUS
  0
POLYLINE
  8
0
  6
CONTINUOUS
 66
     1
 10
0.0
 20
0.0
 30
0.0
  0
VERTEX
  8
0
  6
CONTINUOUS
 10
58.777132
 20
145.283864
 30
0.0
  0
VERTEX
  8
0
  6
CONTINUOUS
 10
61.984211
 20
143.716453
 30
0.0
  0
VERTEX
  8
0
  6
CONTINUOUS
 10
64.871099
 20
142.30553
 30
0.0
  0
SEQEND
  8
0
  6
CONTINUOUS
  0
POLYLINE
  8
0
  6
CONTINUOUS
 66
     1
 10
0.0
 20
0.0
 30
0.0
  0
VERTEX
  8
0
  6
CONTINUOUS
 10
68.017387
 20
144.550863
 30
0.0
  0
VERTEX
  8
0
  6
CONTINUOUS
 10
66.559435
 20
143.702985
 30
0.0
  0
VERTEX
  8
0
  6
CONTINUOUS
 10
65.164959
 20
142.892023
 30
0.0
  0
SEQEND
  8
0
  6
CONTINUOUS
  0
POLYLINE
  8
0
  6
CONTINUOUS
 66
     1
 10
0.0
 20
0.0
 30
0.0
  0
VERTEX
  8
0
  6
CONTINUOUS
 10
59.070992
 20
145.870356
 30
0.0
  0
VERTEX
  8
0
  6
CONTINUOUS
 10
62.278071
 20
144.302945
 30
0.0
  0
VERTEX
  8
0
  6
CONTINUOUS
 10
65.164959
 20
142.892023
 30
0.0
  0
SEQEND
  8
0
  6
CONTINUOUS
  0
POLYLINE
  8
0
  6
CONTINUOUS
 66
     1
 10
0.0
 20
0.0
 30
0.0
  0
VERTEX
  8
0
  6
CONTINUOUS
 10
61.54507
 20
147.714109
 30
0.0
  0
VERTEX
  8
0
  6
CONTINUOUS
 10
64.974746
 20
146.037907
 30
0.0
  0
VERTEX
  8
0
  6
CONTINUOUS
 10
68.017387
 20
144.550863
 30
0.0
  0
SEQEND
  8
0
  6
CONTINUOUS
  0
POLYLINE
  8
0
  6
CONTINUOUS
 66
     1
 10
0.0
 20
0.0
 30
0.0
  0
VERTEX
  8
0
  6
CONTINUOUS
 10
72.539276
 20
125.324736
 30
0.0
  0
VERTEX
  8
0
  6
CONTINUOUS
 10
72.495209
 20
125.372321
 30
0.0
  0
VERTEX
  8
0
  6
CONTINUOUS
 10
72.479967
 20
125.453083
 30
0.0
  0
SEQEND
  8
0
  6
CONTINUOUS
  0
POLYLINE
  8
0
  6
CONTINUOUS
 66
     1
 10
0.0
 20
0.0
 30
0.0
  0
VERTEX
  8
0
  6
CONTINUOUS
 10
73.018777
 20
125.581776
 30
0.0
  0
VERTEX
  8
0
  6
CONTINUOUS
 10
72.986609
 20
125.426257
 30
0.0
  0
VERTEX
  8
0
  6
CONTINUOUS
 10
72.897802
 20
125.327272
 30
0.0
  0
SEQEND
  8
0
  6
CONTINUOUS
  0
POLYLINE
  8
0
  6
CONTINUOUS
 66
     1
 10
0.0
 20
0.0
 30
0.0
  0
VERTEX
  8
0
  6
CONTINUOUS
 10
73.018777
 20
125.581776
 30
0.0
  0
VERTEX
  8
0
  6
CONTINUOUS
 10
72.845295
 20
125.540061
 30
0.0
  0
VERTEX
  8
0
  6
CONTINUOUS
 10
72.665552
 20
125.575509
 30
0.0
  0
SEQEND
  8
0
  6
CONTINUOUS
  0
POLYLINE
  8
0
  6
CONTINUOUS
 66
     1
 10
0.0
 20
0.0
 30
0.0
  0
VERTEX
  8
0
  6
CONTINUOUS
 10
59.070992
 20
145.870356
 30
0.0
  0
VERTEX
  8
0
  6
CONTINUOUS
 10
58.9579
 20
145.757069
 30
0.0
  0
VERTEX
  8
0
  6
CONTINUOUS
 10
58.864701
 20
145.608629
 30
0.0
  0
VERTEX
  8
0
  6
CONTINUOUS
 10
58.801202
 20
145.444518
 30
0.0
  0
VERTEX
  8
0
  6
CONTINUOUS
 10
58.777132
 20
145.283864
 30
0.0
  0
SEQEND
  8
0
  6
CONTINUOUS
  0
POLYLINE
  8
0
  6
CONTINUOUS
 66
     1
 10
0.0
 20
0.0
 30
0.0
  0
VERTEX
  8
0
  6
CONTINUOUS
 10
61.704625
 20
149.900882
 30
0.0
  0
VERTEX
  8
0
  6
CONTINUOUS
 10
61.727983
 20
150.019998
 30
0.0
  0
VERTEX
  8
0
  6
CONTINUOUS
 10
61.79038
 20
150.132995
 30
0.0
  0
VERTEX
  8
0
  6
CONTINUOUS
 10
61.875097
 20
150.209595
 30
0.0
  0
SEQEND
  8
0
  6
CONTINUOUS
  0
POLYLINE
  8
0
  6
CONTINUOUS
 66
     1
 10
0.0
 20
0.0
 30
0.0
  0
VERTEX
  8
0
  6
CONTINUOUS
 10
61.692
 20
148.007355
 30
0.0
  0
VERTEX
  8
0
  6
CONTINUOUS
 10
61.680022
 20
147.927238
 30
0.0
  0
VERTEX
  8
0
  6
CONTINUOUS
 10
61.648316
 20
147.845174
 30
0.0
  0
VERTEX
  8
0
  6
CONTINUOUS
 10
61.601749
 20
147.770923
 30
0.0
  0
VERTEX
  8
0
  6
CONTINUOUS
 10
61.54507
 20
147.714109
 30
0.0
  0
SEQEND
  8
0
  6
CONTINUOUS
  0
POLYLINE
  8
0
  6
CONTINUOUS
 66
     1
 10
0.0
 20
0.0
 30
0.0
  0
VERTEX
  8
0
  6
CONTINUOUS
 10
73.143424
 20
144.276115
 30
0.0
  0
VERTEX
  8
0
  6
CONTINUOUS
 10
72.969942
 20
144.2344
 30
0.0
  0
VERTEX
  8
0
  6
CONTINUOUS
 10
72.790199
 20
144.269848
 30
0.0
  0
SEQEND
  8
0
  6
CONTINUOUS
  0
POLYLINE
  8
0
  6
CONTINUOUS
 66
     1
 10
0.0
 20
0.0
 30
0.0
  0
VERTEX
  8
0
  6
CONTINUOUS
 10
72.607447
 20
144.572293
 30
0.0
  0
VERTEX
  8
0
  6
CONTINUOUS
 10
72.699341
 20
144.498827
 30
0.0
  0
VERTEX
  8
0
  6
CONTINUOUS
 10
72.766234
 20
144.388125
 30
0.0
  0
VERTEX
  8
0
  6
CONTINUOUS
 10
72.790199
 20
144.269848
 30
0.0
  0
SEQEND
  8
0
  6
CONTINUOUS
  0
POLYLINE
  8
0
  6
CONTINUOUS
 66
     1
 10
0.0
 20
0.0
 30
0.0
  0
VERTEX
  8
0
  6
CONTINUOUS
 10
72.607447
 20
144.572293
 30
0.0
  0
VERTEX
  8
0
  6
CONTINUOUS
 10
72.657963
 20
144.750707
 30
0.0
  0
VERTEX
  8
0
  6
CONTINUOUS
 10
72.777918
 20
144.881006
 30
0.0
  0
SEQEND
  8
0
  6
CONTINUOUS
  0
POLYLINE
  8
0
  6
CONTINUOUS
 66
     1
 10
0.0
 20
0.0
 30
0.0
  0
VERTEX
  8
0
  6
CONTINUOUS
 10
72.777918
 20
144.881006
 30
0.0
  0
VERTEX
  8
0
  6
CONTINUOUS
 10
73.037543
 20
144.629271
 30
0.0
  0
VERTEX
  8
0
  6
CONTINUOUS
 10
73.143424
 20
144.276115
 30
0.0
  0
SEQEND
  8
0
  6
CONTINUOUS
  0
POLYLINE
  8
0
  6
CONTINUOUS
 66
     1
 10
0.0
 20
0.0
 30
0.0
  0
VERTEX
  8
0
  6
CONTINUOUS
 10
73.323076
 20
125.755075
 30
0.0
  0
VERTEX
  8
0
  6
CONTINUOUS
 10
73.290908
 20
125.599556
 30
0.0
  0
VERTEX
  8
0
  6
CONTINUOUS
 10
73.202101
 20
125.50057
 30
0.0
  0
SEQEND
  8
0
  6
CONTINUOUS
  0
POLYLINE
  8
0
  6
CONTINUOUS
 66
     1
 10
0.0
 20
0.0
 30
0.0
  0
VERTEX
  8
0
  6
CONTINUOUS
 10
73.082218
 20
145.054305
 30
0.0
  0
VERTEX
  8
0
  6
CONTINUOUS
 10
73.341843
 20
144.80257
 30
0.0
  0
VERTEX
  8
0
  6
CONTINUOUS
 10
73.447723
 20
144.449414
 30
0.0
  0
SEQEND
  8
0
  6
CONTINUOUS
  0
POLYLINE
  8
0
  6
CONTINUOUS
 66
     1
 10
0.0
 20
0.0
 30
0.0
  0
VERTEX
  8
0
  6
CONTINUOUS
 10
92.464059
 20
131.38024
 30
0.0
  0
VERTEX
  8
0
  6
CONTINUOUS
 10
92.519591
 20
131.416057
 30
0.0
  0
SEQEND
  8
0
  6
CONTINUOUS
  0
POLYLINE
  8
0
  6
CONTINUOUS
 66
     1
 10
0.0
 20
0.0
 30
0.0
  0
VERTEX
  8
0
  6
CONTINUOUS
 10
73.712277
 20
123.09156
 30
0.0
  0
VERTEX
  8
0
  6
CONTINUOUS
 10
73.849928
 20
122.407787
 30
0.0
  0
VERTEX
  8
0
  6
CONTINUOUS
 10
74.206536
 20
121.965782
 30
0.0
  0
SEQEND
  8
0
  6
CONTINUOUS
  0
POLYLINE
  8
0
  6
CONTINUOUS
 66
     1
 10
0.0
 20
0.0
 30
0.0
  0
VERTEX
  8
0
  6
CONTINUOUS
 10
74.334971
 20
121.892267
 30
0.0
  0
VERTEX
  8
0
  6
CONTINUOUS
 10
74.206536
 20
121.965782
 30
0.0
  0
SEQEND
  8
0
  6
CONTINUOUS
  0
POLYLINE
  8
0
  6
CONTINUOUS
 66
     1
 10
0.0
 20
0.0
 30
0.0
  0
VERTEX
  8
0
  6
CONTINUOUS
 10
93.082169
 20
160.024205
 30
0.0
  0
VERTEX
  8
0
  6
CONTINUOUS
 10
92.606178
 20
160.11916
 30
0.0
  0
VERTEX
  8
0
  6
CONTINUOUS
 10
92.060009
 20
159.950296
 30
0.0
  0
SEQEND
  8
0
  6
CONTINUOUS
  0
POLYLINE
  8
0
  6
CONTINUOUS
 66
     1
 10
0.0
 20
0.0
 30
0.0
  0
VERTEX
  8
0
  6
CONTINUOUS
 10
75.29261
 20
150.566753
 30
0.0
  0
VERTEX
  8
0
  6
CONTINUOUS
 10
74.69222
 20
150.060434
 30
0.0
  0
VERTEX
  8
0
  6
CONTINUOUS
 10
74.18206
 20
149.330188
 30
0.0
  0
SEQEND
  8
0
  6
CONTINUOUS
  0
POLYLINE
  8
0
  6
CONTINUOUS
 66
     1
 10
0.0
 20
0.0
 30
0.0
  0
VERTEX
  8
0
  6
CONTINUOUS
 10
74.18206
 20
149.330188
 30
0.0
  0
VERTEX
  8
0
  6
CONTINUOUS
 10
73.826597
 20
148.492767
 30
0.0
  0
VERTEX
  8
0
  6
CONTINUOUS
 10
73.690297
 20
147.664921
 30
0.0
  0
SEQEND
  8
0
  6
CONTINUOUS
  0
POLYLINE
  8
0
  6
CONTINUOUS
 66
     1
 10
0.0
 20
0.0
 30
0.0
  0
VERTEX
  8
0
  6
CONTINUOUS
 10
74.225838
 20
147.56827
 30
0.0
  0
VERTEX
  8
0
  6
CONTINUOUS
 10
73.690297
 20
147.664921
 30
0.0
  0
SEQEND
  8
0
  6
CONTINUOUS
  0
POLYLINE
  8
0
  6
CONTINUOUS
 66
     1
 10
0.0
 20
0.0
 30
0.0
  0
VERTEX
  8
0
  6
CONTINUOUS
 10
74.74554
 20
147.686784
 30
0.0
  0
VERTEX
  8
0
  6
CONTINUOUS
 10
74.225838
 20
147.56827
 30
0.0
  0
SEQEND
  8
0
  6
CONTINUOUS
  0
POLYLINE
  8
0
  6
CONTINUOUS
 66
     1
 10
0.0
 20
0.0
 30
0.0
  0
VERTEX
  8
0
  6
CONTINUOUS
 10
74.247817
 20
122.99491
 30
0.0
  0
VERTEX
  8
0
  6
CONTINUOUS
 10
74.76752
 20
123.113423
 30
0.0
  0
SEQEND
  8
0
  6
CONTINUOUS
  0
POLYLINE
  8
0
  6
CONTINUOUS
 66
     1
 10
0.0
 20
0.0
 30
0.0
  0
VERTEX
  8
0
  6
CONTINUOUS
 10
73.712277
 20
123.09156
 30
0.0
  0
VERTEX
  8
0
  6
CONTINUOUS
 10
74.247817
 20
122.99491
 30
0.0
  0
SEQEND
  8
0
  6
CONTINUOUS
  0
POLYLINE
  8
0
  6
CONTINUOUS
 66
     1
 10
0.0
 20
0.0
 30
0.0
  0
VERTEX
  8
0
  6
CONTINUOUS
 10
92.464059
 20
131.38024
 30
0.0
  0
VERTEX
  8
0
  6
CONTINUOUS
 10
92.628296
 20
131.743659
 30
0.0
  0
SEQEND
  8
0
  6
CONTINUOUS
  0
POLYLINE
  8
0
  6
CONTINUOUS
 66
     1
 10
0.0
 20
0.0
 30
0.0
  0
VERTEX
  8
0
  6
CONTINUOUS
 10
92.438456
 20
131.364268
 30
0.0
  0
VERTEX
  8
0
  6
CONTINUOUS
 10
92.464059
 20
131.38024
 30
0.0
  0
SEQEND
  8
0
  6
CONTINUOUS
  0
POLYLINE
  8
0
  6
CONTINUOUS
 66
     1
 10
0.0
 20
0.0
 30
0.0
  0
VERTEX
  8
0
  6
CONTINUOUS
 10
75.696659
 20
121.996697
 30
0.0
  0
VERTEX
  8
0
  6
CONTINUOUS
 10
75.671057
 20
121.980725
 30
0.0
  0
SEQEND
  8
0
  6
CONTINUOUS
  0
POLYLINE
  8
0
  6
CONTINUOUS
 66
     1
 10
0.0
 20
0.0
 30
0.0
  0
VERTEX
  8
0
  6
CONTINUOUS
 10
75.860897
 20
122.360116
 30
0.0
  0
VERTEX
  8
0
  6
CONTINUOUS
 10
75.696659
 20
121.996697
 30
0.0
  0
SEQEND
  8
0
  6
CONTINUOUS
  0
POLYLINE
  8
0
  6
CONTINUOUS
 66
     1
 10
0.0
 20
0.0
 30
0.0
  0
VERTEX
  8
0
  6
CONTINUOUS
 10
93.888051
 20
158.559076
 30
0.0
  0
VERTEX
  8
0
  6
CONTINUOUS
 10
93.697253
 20
158.292734
 30
0.0
  0
SEQEND
  8
0
  6
CONTINUOUS
  0
POLYLINE
  8
0
  6
CONTINUOUS
 66
     1
 10
0.0
 20
0.0
 30
0.0
  0
VERTEX
  8
0
  6
CONTINUOUS
 10
93.719232
 20
133.719374
 30
0.0
  0
VERTEX
  8
0
  6
CONTINUOUS
 10
93.91003
 20
133.985716
 30
0.0
  0
SEQEND
  8
0
  6
CONTINUOUS
  0
POLYLINE
  8
0
  6
CONTINUOUS
 66
     1
 10
0.0
 20
0.0
 30
0.0
  0
VERTEX
  8
0
  6
CONTINUOUS
 10
75.671445
 20
150.186305
 30
0.0
  0
VERTEX
  8
0
  6
CONTINUOUS
 10
75.836476
 20
149.662499
 30
0.0
  0
SEQEND
  8
0
  6
CONTINUOUS
  0
POLYLINE
  8
0
  6
CONTINUOUS
 66
     1
 10
0.0
 20
0.0
 30
0.0
  0
VERTEX
  8
0
  6
CONTINUOUS
 10
75.29261
 20
150.566753
 30
0.0
  0
VERTEX
  8
0
  6
CONTINUOUS
 10
75.671445
 20
150.186305
 30
0.0
  0
SEQEND
  8
0
  6
CONTINUOUS
  0
POLYLINE
  8
0
  6
CONTINUOUS
 66
     1
 10
0.0
 20
0.0
 30
0.0
  0
VERTEX
  8
0
  6
CONTINUOUS
 10
92.438844
 20
159.569848
 30
0.0
  0
VERTEX
  8
0
  6
CONTINUOUS
 10
92.060009
 20
159.950296
 30
0.0
  0
SEQEND
  8
0
  6
CONTINUOUS
  0
POLYLINE
  8
0
  6
CONTINUOUS
 66
     1
 10
0.0
 20
0.0
 30
0.0
  0
VERTEX
  8
0
  6
CONTINUOUS
 10
92.603875
 20
159.046042
 30
0.0
  0
VERTEX
  8
0
  6
CONTINUOUS
 10
92.438844
 20
159.569848
 30
0.0
  0
SEQEND
  8
0
  6
CONTINUOUS
  0
POLYLINE
  8
0
  6
CONTINUOUS
 66
     1
 10
0.0
 20
0.0
 30
0.0
  0
VERTEX
  8
0
  6
CONTINUOUS
 10
77.906868
 20
128.276897
 30
0.0
  0
VERTEX
  8
0
  6
CONTINUOUS
 10
77.011307
 20
128.092829
 30
0.0
  0
VERTEX
  8
0
  6
CONTINUOUS
 10
76.381442
 20
128.5974
 30
0.0
  0
SEQEND
  8
0
  6
CONTINUOUS
  0
POLYLINE
  8
0
  6
CONTINUOUS
 66
     1
 10
0.0
 20
0.0
 30
0.0
  0
VERTEX
  8
0
  6
CONTINUOUS
 10
62.450294
 20
153.158302
 30
0.0
  0
VERTEX
  8
0
  6
CONTINUOUS
 10
62.582482
 20
153.989458
 30
0.0
  0
VERTEX
  8
0
  6
CONTINUOUS
 10
62.935838
 20
154.82595
 30
0.0
  0
VERTEX
  8
0
  6
CONTINUOUS
 10
63.446761
 20
155.554864
 30
0.0
  0
VERTEX
  8
0
  6
CONTINUOUS
 10
64.052607
 20
156.060134
 30
0.0
  0
SEQEND
  8
0
  6
CONTINUOUS
  0
POLYLINE
  8
0
  6
CONTINUOUS
 66
     1
 10
0.0
 20
0.0
 30
0.0
  0
VERTEX
  8
0
  6
CONTINUOUS
 10
88.459204
 20
149.402534
 30
0.0
  0
VERTEX
  8
0
  6
CONTINUOUS
 10
88.45469
 20
149.42043
 30
0.0
  0
VERTEX
  8
0
  6
CONTINUOUS
 10
88.450166
 20
149.438273
 30
0.0
  0
SEQEND
  8
0
  6
CONTINUOUS
  0
POLYLINE
  8
0
  6
CONTINUOUS
 66
     1
 10
0.0
 20
0.0
 30
0.0
  0
VERTEX
  8
0
  6
CONTINUOUS
 10
88.959326
 20
151.17765
 30
0.0
  0
VERTEX
  8
0
  6
CONTINUOUS
 10
88.907135
 20
151.187186
 30
0.0
  0
VERTEX
  8
0
  6
CONTINUOUS
 10
88.847412
 20
151.167247
 30
0.0
  0
SEQEND
  8
0
  6
CONTINUOUS
  0
POLYLINE
  8
0
  6
CONTINUOUS
 66
     1
 10
0.0
 20
0.0
 30
0.0
  0
VERTEX
  8
0
  6
CONTINUOUS
 10
89.475597
 20
146.704627
 30
0.0
  0
VERTEX
  8
0
  6
CONTINUOUS
 10
89.525435
 20
146.883338
 30
0.0
  0
VERTEX
  8
0
  6
CONTINUOUS
 10
89.646036
 20
147.013297
 30
0.0
  0
SEQEND
  8
0
  6
CONTINUOUS
  0
POLYLINE
  8
0
  6
CONTINUOUS
 66
     1
 10
0.0
 20
0.0
 30
0.0
  0
VERTEX
  8
0
  6
CONTINUOUS
 10
89.536715
 20
149.239394
 30
0.0
  0
VERTEX
  8
0
  6
CONTINUOUS
 10
89.489946
 20
149.287183
 30
0.0
  0
VERTEX
  8
0
  6
CONTINUOUS
 10
89.473213
 20
149.369724
 30
0.0
  0
SEQEND
  8
0
  6
CONTINUOUS
  0
POLYLINE
  8
0
  6
CONTINUOUS
 66
     1
 10
0.0
 20
0.0
 30
0.0
  0
VERTEX
  8
0
  6
CONTINUOUS
 10
89.352666
 20
134.704401
 30
0.0
  0
VERTEX
  8
0
  6
CONTINUOUS
 10
89.302817
 20
134.525664
 30
0.0
  0
VERTEX
  8
0
  6
CONTINUOUS
 10
89.182201
 20
134.395684
 30
0.0
  0
SEQEND
  8
0
  6
CONTINUOUS
  0
POLYLINE
  8
0
  6
CONTINUOUS
 66
     1
 10
0.0
 20
0.0
 30
0.0
  0
VERTEX
  8
0
  6
CONTINUOUS
 10
87.266969
 20
136.030749
 30
0.0
  0
VERTEX
  8
0
  6
CONTINUOUS
 10
87.039286
 20
134.836732
 30
0.0
  0
VERTEX
  8
0
  6
CONTINUOUS
 10
86.41534
 20
133.706749
 30
0.0
  0
VERTEX
  8
0
  6
CONTINUOUS
 10
85.562316
 20
132.943576
 30
0.0
  0
SEQEND
  8
0
  6
CONTINUOUS
  0
POLYLINE
  8
0
  6
CONTINUOUS
 66
     1
 10
0.0
 20
0.0
 30
0.0
  0
VERTEX
  8
0
  6
CONTINUOUS
 10
77.541484
 20
128.454876
 30
0.0
  0
VERTEX
  8
0
  6
CONTINUOUS
 10
77.072635
 20
128.274553
 30
0.0
  0
VERTEX
  8
0
  6
CONTINUOUS
 10
76.63971
 20
128.272136
 30
0.0
  0
SEQEND
  8
0
  6
CONTINUOUS
  0
POLYLINE
  8
0
  6
CONTINUOUS
 66
     1
 10
0.0
 20
0.0
 30
0.0
  0
VERTEX
  8
0
  6
CONTINUOUS
 10
76.344041
 20
139.533991
 30
0.0
  0
VERTEX
  8
0
  6
CONTINUOUS
 10
76.388524
 20
139.494799
 30
0.0
  0
VERTEX
  8
0
  6
CONTINUOUS
 10
76.414265
 20
139.480499
 30
0.0
  0
SEQEND
  8
0
  6
CONTINUOUS
  0
POLYLINE
  8
0
  6
CONTINUOUS
 66
     1
 10
0.0
 20
0.0
 30
0.0
  0
VERTEX
  8
0
  6
CONTINUOUS
 10
87.874066
 20
140.643924
 30
0.0
  0
VERTEX
  8
0
  6
CONTINUOUS
 10
87.827297
 20
140.691712
 30
0.0
  0
VERTEX
  8
0
  6
CONTINUOUS
 10
87.810564
 20
140.774254
 30
0.0
  0
SEQEND
  8
0
  6
CONTINUOUS
  0
POLYLINE
  8
0
  6
CONTINUOUS
 66
     1
 10
0.0
 20
0.0
 30
0.0
  0
VERTEX
  8
0
  6
CONTINUOUS
 10
90.224246
 20
139.687442
 30
0.0
  0
VERTEX
  8
0
  6
CONTINUOUS
 10
90.274354
 20
139.564664
 30
0.0
  0
VERTEX
  8
0
  6
CONTINUOUS
 10
90.395066
 20
139.569752
 30
0.0
  0
SEQEND
  8
0
  6
CONTINUOUS
  0
POLYLINE
  8
0
  6
CONTINUOUS
 66
     1
 10
0.0
 20
0.0
 30
0.0
  0
VERTEX
  8
0
  6
CONTINUOUS
 10
90.394551
 20
140.146123
 30
0.0
  0
VERTEX
  8
0
  6
CONTINUOUS
 10
90.27395
 20
140.016164
 30
0.0
  0
VERTEX
  8
0
  6
CONTINUOUS
 10
90.224112
 20
139.837452
 30
0.0
  0
SEQEND
  8
0
  6
CONTINUOUS
  0
POLYLINE
  8
0
  6
CONTINUOUS
 66
     1
 10
0.0
 20
0.0
 30
0.0
  0
VERTEX
  8
0
  6
CONTINUOUS
 10
90.221701
 20
142.532324
 30
0.0
  0
VERTEX
  8
0
  6
CONTINUOUS
 10
90.271809
 20
142.409545
 30
0.0
  0
VERTEX
  8
0
  6
CONTINUOUS
 10
90.392522
 20
142.414633
 30
0.0
  0
SEQEND
  8
0
  6
CONTINUOUS
  0
POLYLINE
  8
0
  6
CONTINUOUS
 66
     1
 10
0.0
 20
0.0
 30
0.0
  0
VERTEX
  8
0
  6
CONTINUOUS
 10
90.388734
 20
146.64912
 30
0.0
  0
VERTEX
  8
0
  6
CONTINUOUS
 10
90.268133
 20
146.519162
 30
0.0
  0
VERTEX
  8
0
  6
CONTINUOUS
 10
90.218295
 20
146.34045
 30
0.0
  0
SEQEND
  8
0
  6
CONTINUOUS
  0
POLYLINE
  8
0
  6
CONTINUOUS
 66
     1
 10
0.0
 20
0.0
 30
0.0
  0
VERTEX
  8
0
  6
CONTINUOUS
 10
90.215885
 20
149.035321
 30
0.0
  0
VERTEX
  8
0
  6
CONTINUOUS
 10
90.265993
 20
148.912542
 30
0.0
  0
VERTEX
  8
0
  6
CONTINUOUS
 10
90.386705
 20
148.91763
 30
0.0
  0
SEQEND
  8
0
  6
CONTINUOUS
  0
POLYLINE
  8
0
  6
CONTINUOUS
 66
     1
 10
0.0
 20
0.0
 30
0.0
  0
VERTEX
  8
0
  6
CONTINUOUS
 10
91.354552
 20
149.822639
 30
0.0
  0
VERTEX
  8
0
  6
CONTINUOUS
 10
91.304444
 20
149.945418
 30
0.0
  0
VERTEX
  8
0
  6
CONTINUOUS
 10
91.183732
 20
149.94033
 30
0.0
  0
SEQEND
  8
0
  6
CONTINUOUS
  0
POLYLINE
  8
0
  6
CONTINUOUS
 66
     1
 10
0.0
 20
0.0
 30
0.0
  0
VERTEX
  8
0
  6
CONTINUOUS
 10
91.360326
 20
143.368023
 30
0.0
  0
VERTEX
  8
0
  6
CONTINUOUS
 10
91.310218
 20
143.490802
 30
0.0
  0
VERTEX
  8
0
  6
CONTINUOUS
 10
91.189505
 20
143.485714
 30
0.0
  0
SEQEND
  8
0
  6
CONTINUOUS
  0
POLYLINE
  8
0
  6
CONTINUOUS
 66
     1
 10
0.0
 20
0.0
 30
0.0
  0
VERTEX
  8
0
  6
CONTINUOUS
 10
91.192608
 20
140.01608
 30
0.0
  0
VERTEX
  8
0
  6
CONTINUOUS
 10
91.313209
 20
140.146038
 30
0.0
  0
VERTEX
  8
0
  6
CONTINUOUS
 10
91.363048
 20
140.32475
 30
0.0
  0
SEQEND
  8
0
  6
CONTINUOUS
  0
POLYLINE
  8
0
  6
CONTINUOUS
 66
     1
 10
0.0
 20
0.0
 30
0.0
  0
VERTEX
  8
0
  6
CONTINUOUS
 10
89.47903
 20
142.866727
 30
0.0
  0
VERTEX
  8
0
  6
CONTINUOUS
 10
89.495762
 20
142.784185
 30
0.0
  0
VERTEX
  8
0
  6
CONTINUOUS
 10
89.542531
 20
142.736397
 30
0.0
  0
SEQEND
  8
0
  6
CONTINUOUS
  0
POLYLINE
  8
0
  6
CONTINUOUS
 66
     1
 10
0.0
 20
0.0
 30
0.0
  0
VERTEX
  8
0
  6
CONTINUOUS
 10
89.651853
 20
140.510299
 30
0.0
  0
VERTEX
  8
0
  6
CONTINUOUS
 10
89.531252
 20
140.380341
 30
0.0
  0
VERTEX
  8
0
  6
CONTINUOUS
 10
89.481414
 20
140.201629
 30
0.0
  0
SEQEND
  8
0
  6
CONTINUOUS
  0
POLYLINE
  8
0
  6
CONTINUOUS
 66
     1
 10
0.0
 20
0.0
 30
0.0
  0
VERTEX
  8
0
  6
CONTINUOUS
 10
87.972421
 20
150.677575
 30
0.0
  0
VERTEX
  8
0
  6
CONTINUOUS
 10
87.85182
 20
150.547617
 30
0.0
  0
VERTEX
  8
0
  6
CONTINUOUS
 10
87.801982
 20
150.368905
 30
0.0
  0
SEQEND
  8
0
  6
CONTINUOUS
  0
POLYLINE
  8
0
  6
CONTINUOUS
 66
     1
 10
0.0
 20
0.0
 30
0.0
  0
VERTEX
  8
0
  6
CONTINUOUS
 10
90.38619
 20
149.494001
 30
0.0
  0
VERTEX
  8
0
  6
CONTINUOUS
 10
90.265589
 20
149.364043
 30
0.0
  0
VERTEX
  8
0
  6
CONTINUOUS
 10
90.21575
 20
149.185331
 30
0.0
  0
SEQEND
  8
0
  6
CONTINUOUS
  0
POLYLINE
  8
0
  6
CONTINUOUS
 66
     1
 10
0.0
 20
0.0
 30
0.0
  0
VERTEX
  8
0
  6
CONTINUOUS
 10
85.816274
 20
137.123613
 30
0.0
  0
VERTEX
  8
0
  6
CONTINUOUS
 10
85.695673
 20
136.993655
 30
0.0
  0
VERTEX
  8
0
  6
CONTINUOUS
 10
85.645835
 20
136.814943
 30
0.0
  0
SEQEND
  8
0
  6
CONTINUOUS
  0
POLYLINE
  8
0
  6
CONTINUOUS
 66
     1
 10
0.0
 20
0.0
 30
0.0
  0
VERTEX
  8
0
  6
CONTINUOUS
 10
85.47551
 20
136.37828
 30
0.0
  0
VERTEX
  8
0
  6
CONTINUOUS
 10
85.596111
 20
136.508238
 30
0.0
  0
VERTEX
  8
0
  6
CONTINUOUS
 10
85.64595
 20
136.68695
 30
0.0
  0
SEQEND
  8
0
  6
CONTINUOUS
  0
POLYLINE
  8
0
  6
CONTINUOUS
 66
     1
 10
0.0
 20
0.0
 30
0.0
  0
VERTEX
  8
0
  6
CONTINUOUS
 10
85.373065
 20
136.320948
 30
0.0
  0
VERTEX
  8
0
  6
CONTINUOUS
 10
85.252464
 20
136.19099
 30
0.0
  0
VERTEX
  8
0
  6
CONTINUOUS
 10
85.202625
 20
136.012278
 30
0.0
  0
SEQEND
  8
0
  6
CONTINUOUS
  0
POLYLINE
  8
0
  6
CONTINUOUS
 66
     1
 10
0.0
 20
0.0
 30
0.0
  0
VERTEX
  8
0
  6
CONTINUOUS
 10
85.202816
 20
135.799
 30
0.0
  0
VERTEX
  8
0
  6
CONTINUOUS
 10
85.218279
 20
135.71914
 30
0.0
  0
VERTEX
  8
0
  6
CONTINUOUS
 10
85.261723
 20
135.670906
 30
0.0
  0
SEQEND
  8
0
  6
CONTINUOUS
  0
POLYLINE
  8
0
  6
CONTINUOUS
 66
     1
 10
0.0
 20
0.0
 30
0.0
  0
VERTEX
  8
0
  6
CONTINUOUS
 10
86.094302
 20
137.231786
 30
0.0
  0
VERTEX
  8
0
  6
CONTINUOUS
 10
86.043889
 20
137.238789
 30
0.0
  0
VERTEX
  8
0
  6
CONTINUOUS
 10
85.986982
 20
137.219147
 30
0.0
  0
SEQEND
  8
0
  6
CONTINUOUS
  0
POLYLINE
  8
0
  6
CONTINUOUS
 66
     1
 10
0.0
 20
0.0
 30
0.0
  0
VERTEX
  8
0
  6
CONTINUOUS
 10
92.667844
 20
158.86296
 30
0.0
  0
VERTEX
  8
0
  6
CONTINUOUS
 10
93.150755
 20
158.883292
 30
0.0
  0
VERTEX
  8
0
  6
CONTINUOUS
 10
93.35123
 20
158.392125
 30
0.0
  0
SEQEND
  8
0
  6
CONTINUOUS
  0
POLYLINE
  8
0
  6
CONTINUOUS
 66
     1
 10
0.0
 20
0.0
 30
0.0
  0
VERTEX
  8
0
  6
CONTINUOUS
 10
76.28563
 20
148.8417
 30
0.0
  0
VERTEX
  8
0
  6
CONTINUOUS
 10
76.485027
 20
149.556648
 30
0.0
  0
VERTEX
  8
0
  6
CONTINUOUS
 10
76.967492
 20
150.076569
 30
0.0
  0
SEQEND
  8
0
  6
CONTINUOUS
  0
POLYLINE
  8
0
  6
CONTINUOUS
 66
     1
 10
0.0
 20
0.0
 30
0.0
  0
VERTEX
  8
0
  6
CONTINUOUS
 10
76.991521
 20
123.211727
 30
0.0
  0
VERTEX
  8
0
  6
CONTINUOUS
 10
76.508609
 20
123.191395
 30
0.0
  0
VERTEX
  8
0
  6
CONTINUOUS
 10
76.308134
 20
123.682562
 30
0.0
  0
SEQEND
  8
0
  6
CONTINUOUS
  0
POLYLINE
  8
0
  6
CONTINUOUS
 66
     1
 10
0.0
 20
0.0
 30
0.0
  0
VERTEX
  8
0
  6
CONTINUOUS
 10
93.373734
 20
133.232988
 30
0.0
  0
VERTEX
  8
0
  6
CONTINUOUS
 10
93.174337
 20
132.51804
 30
0.0
  0
VERTEX
  8
0
  6
CONTINUOUS
 10
92.691873
 20
131.998118
 30
0.0
  0
SEQEND
  8
0
  6
CONTINUOUS
  0
POLYLINE
  8
0
  6
CONTINUOUS
 66
     1
 10
0.0
 20
0.0
 30
0.0
  0
VERTEX
  8
0
  6
CONTINUOUS
 10
74.74554
 20
147.686784
 30
0.0
  0
VERTEX
  8
0
  6
CONTINUOUS
 10
74.75653
 20
135.400103
 30
0.0
  0
VERTEX
  8
0
  6
CONTINUOUS
 10
74.76752
 20
123.113423
 30
0.0
  0
SEQEND
  8
0
  6
CONTINUOUS
  0
POLYLINE
  8
0
  6
CONTINUOUS
 66
     1
 10
0.0
 20
0.0
 30
0.0
  0
VERTEX
  8
0
  6
CONTINUOUS
 10
74.74554
 20
147.686784
 30
0.0
  0
VERTEX
  8
0
  6
CONTINUOUS
 10
74.835313
 20
148.251897
 30
0.0
  0
VERTEX
  8
0
  6
CONTINUOUS
 10
75.076324
 20
148.822553
 30
0.0
  0
SEQEND
  8
0
  6
CONTINUOUS
  0
POLYLINE
  8
0
  6
CONTINUOUS
 66
     1
 10
0.0
 20
0.0
 30
0.0
  0
VERTEX
  8
0
  6
CONTINUOUS
 10
75.076324
 20
148.822553
 30
0.0
  0
VERTEX
  8
0
  6
CONTINUOUS
 10
75.424678
 20
149.319253
 30
0.0
  0
VERTEX
  8
0
  6
CONTINUOUS
 10
75.836476
 20
149.662499
 30
0.0
  0
SEQEND
  8
0
  6
CONTINUOUS
  0
POLYLINE
  8
0
  6
CONTINUOUS
 66
     1
 10
0.0
 20
0.0
 30
0.0
  0
VERTEX
  8
0
  6
CONTINUOUS
 10
92.603875
 20
159.046042
 30
0.0
  0
VERTEX
  8
0
  6
CONTINUOUS
 10
84.220176
 20
154.35427
 30
0.0
  0
VERTEX
  8
0
  6
CONTINUOUS
 10
75.836476
 20
149.662499
 30
0.0
  0
SEQEND
  8
0
  6
CONTINUOUS
  0
POLYLINE
  8
0
  6
CONTINUOUS
 66
     1
 10
0.0
 20
0.0
 30
0.0
  0
VERTEX
  8
0
  6
CONTINUOUS
 10
92.603875
 20
159.046042
 30
0.0
  0
VERTEX
  8
0
  6
CONTINUOUS
 10
93.015876
 20
159.163819
 30
0.0
  0
VERTEX
  8
0
  6
CONTINUOUS
 10
93.364769
 20
159.057319
 30
0.0
  0
SEQEND
  8
0
  6
CONTINUOUS
  0
POLYLINE
  8
0
  6
CONTINUOUS
 66
     1
 10
0.0
 20
0.0
 30
0.0
  0
VERTEX
  8
0
  6
CONTINUOUS
 10
93.364769
 20
159.057319
 30
0.0
  0
VERTEX
  8
0
  6
CONTINUOUS
 10
93.60656
 20
158.756854
 30
0.0
  0
VERTEX
  8
0
  6
CONTINUOUS
 10
93.697253
 20
158.292734
 30
0.0
  0
SEQEND
  8
0
  6
CONTINUOUS
  0
POLYLINE
  8
0
  6
CONTINUOUS
 66
     1
 10
0.0
 20
0.0
 30
0.0
  0
VERTEX
  8
0
  6
CONTINUOUS
 10
93.697253
 20
158.292734
 30
0.0
  0
VERTEX
  8
0
  6
CONTINUOUS
 10
93.708243
 20
146.006054
 30
0.0
  0
VERTEX
  8
0
  6
CONTINUOUS
 10
93.719232
 20
133.719374
 30
0.0
  0
SEQEND
  8
0
  6
CONTINUOUS
  0
POLYLINE
  8
0
  6
CONTINUOUS
 66
     1
 10
0.0
 20
0.0
 30
0.0
  0
VERTEX
  8
0
  6
CONTINUOUS
 10
93.719232
 20
133.719374
 30
0.0
  0
VERTEX
  8
0
  6
CONTINUOUS
 10
93.62946
 20
133.154261
 30
0.0
  0
VERTEX
  8
0
  6
CONTINUOUS
 10
93.388448
 20
132.583605
 30
0.0
  0
SEQEND
  8
0
  6
CONTINUOUS
  0
POLYLINE
  8
0
  6
CONTINUOUS
 66
     1
 10
0.0
 20
0.0
 30
0.0
  0
VERTEX
  8
0
  6
CONTINUOUS
 10
93.388448
 20
132.583605
 30
0.0
  0
VERTEX
  8
0
  6
CONTINUOUS
 10
93.040095
 20
132.086905
 30
0.0
  0
VERTEX
  8
0
  6
CONTINUOUS
 10
92.628296
 20
131.743659
 30
0.0
  0
SEQEND
  8
0
  6
CONTINUOUS
  0
POLYLINE
  8
0
  6
CONTINUOUS
 66
     1
 10
0.0
 20
0.0
 30
0.0
  0
VERTEX
  8
0
  6
CONTINUOUS
 10
92.628296
 20
131.743659
 30
0.0
  0
VERTEX
  8
0
  6
CONTINUOUS
 10
84.244597
 20
127.051887
 30
0.0
  0
VERTEX
  8
0
  6
CONTINUOUS
 10
75.860897
 20
122.360116
 30
0.0
  0
SEQEND
  8
0
  6
CONTINUOUS
  0
POLYLINE
  8
0
  6
CONTINUOUS
 66
     1
 10
0.0
 20
0.0
 30
0.0
  0
VERTEX
  8
0
  6
CONTINUOUS
 10
75.860897
 20
122.360116
 30
0.0
  0
VERTEX
  8
0
  6
CONTINUOUS
 10
75.448897
 20
122.242339
 30
0.0
  0
VERTEX
  8
0
  6
CONTINUOUS
 10
75.100003
 20
122.348839
 30
0.0
  0
SEQEND
  8
0
  6
CONTINUOUS
  0
POLYLINE
  8
0
  6
CONTINUOUS
 66
     1
 10
0.0
 20
0.0
 30
0.0
  0
VERTEX
  8
0
  6
CONTINUOUS
 10
75.100003
 20
122.348839
 30
0.0
  0
VERTEX
  8
0
  6
CONTINUOUS
 10
74.858213
 20
122.649304
 30
0.0
  0
VERTEX
  8
0
  6
CONTINUOUS
 10
74.76752
 20
123.113423
 30
0.0
  0
SEQEND
  8
0
  6
CONTINUOUS
  0
POLYLINE
  8
0
  6
CONTINUOUS
 66
     1
 10
0.0
 20
0.0
 30
0.0
  0
VERTEX
  8
0
  6
CONTINUOUS
 10
91.032424
 20
146.384224
 30
0.0
  0
VERTEX
  8
0
  6
CONTINUOUS
 10
90.964534
 20
145.539374
 30
0.0
  0
VERTEX
  8
0
  6
CONTINUOUS
 10
90.693653
 20
144.848664
 30
0.0
  0
SEQEND
  8
0
  6
CONTINUOUS
  0
POLYLINE
  8
0
  6
CONTINUOUS
 66
     1
 10
0.0
 20
0.0
 30
0.0
  0
VERTEX
  8
0
  6
CONTINUOUS
 10
76.309123
 20
144.098214
 30
0.0
  0
VERTEX
  8
0
  6
CONTINUOUS
 10
76.299759
 20
144.102425
 30
0.0
  0
VERTEX
  8
0
  6
CONTINUOUS
 10
76.289885
 20
144.105504
 30
0.0
  0
SEQEND
  8
0
  6
CONTINUOUS
  0
POLYLINE
  8
0
  6
CONTINUOUS
 66
     1
 10
0.0
 20
0.0
 30
0.0
  0
VERTEX
  8
0
  6
CONTINUOUS
 10
76.346869
 20
136.372666
 30
0.0
  0
VERTEX
  8
0
  6
CONTINUOUS
 10
76.328006
 20
136.348729
 30
0.0
  0
VERTEX
  8
0
  6
CONTINUOUS
 10
76.311065
 20
136.325578
 30
0.0
  0
VERTEX
  8
0
  6
CONTINUOUS
 10
76.296723
 20
136.304337
 30
0.0
  0
SEQEND
  8
0
  6
CONTINUOUS
  0
POLYLINE
  8
0
  6
CONTINUOUS
 66
     1
 10
0.0
 20
0.0
 30
0.0
  0
VERTEX
  8
0
  6
CONTINUOUS
 10
76.293795
 20
139.611126
 30
0.0
  0
VERTEX
  8
0
  6
CONTINUOUS
 10
76.308151
 20
139.583933
 30
0.0
  0
VERTEX
  8
0
  6
CONTINUOUS
 10
76.325136
 20
139.557688
 30
0.0
  0
VERTEX
  8
0
  6
CONTINUOUS
 10
76.344041
 20
139.533991
 30
0.0
  0
SEQEND
  8
0
  6
CONTINUOUS
  0
POLYLINE
  8
0
  6
CONTINUOUS
 66
     1
 10
0.0
 20
0.0
 30
0.0
  0
VERTEX
  8
0
  6
CONTINUOUS
 10
73.690297
 20
147.664921
 30
0.0
  0
VERTEX
  8
0
  6
CONTINUOUS
 10
73.701287
 20
135.378241
 30
0.0
  0
VERTEX
  8
0
  6
CONTINUOUS
 10
73.712277
 20
123.09156
 30
0.0
  0
SEQEND
  8
0
  6
CONTINUOUS
  0
POLYLINE
  8
0
  6
CONTINUOUS
 66
     1
 10
0.0
 20
0.0
 30
0.0
  0
VERTEX
  8
0
  6
CONTINUOUS
 10
62.482451
 20
128.353168
 30
0.0
  0
VERTEX
  8
0
  6
CONTINUOUS
 10
68.35113
 20
125.603465
 30
0.0
  0
VERTEX
  8
0
  6
CONTINUOUS
 10
73.712277
 20
123.09156
 30
0.0
  0
SEQEND
  8
0
  6
CONTINUOUS
  0
POLYLINE
  8
0
  6
CONTINUOUS
 66
     1
 10
0.0
 20
0.0
 30
0.0
  0
VERTEX
  8
0
  6
CONTINUOUS
 10
73.690297
 20
147.664921
 30
0.0
  0
VERTEX
  8
0
  6
CONTINUOUS
 10
68.329054
 20
150.285147
 30
0.0
  0
VERTEX
  8
0
  6
CONTINUOUS
 10
62.450294
 20
153.158302
 30
0.0
  0
SEQEND
  8
0
  6
CONTINUOUS
  0
POLYLINE
  8
0
  6
CONTINUOUS
 66
     1
 10
0.0
 20
0.0
 30
0.0
  0
VERTEX
  8
0
  6
CONTINUOUS
 10
76.542744
 20
136.547879
 30
0.0
  0
VERTEX
  8
0
  6
CONTINUOUS
 10
76.492675
 20
136.514953
 30
0.0
  0
VERTEX
  8
0
  6
CONTINUOUS
 10
76.440893
 20
136.472055
 30
0.0
  0
VERTEX
  8
0
  6
CONTINUOUS
 10
76.391287
 20
136.423274
 30
0.0
  0
VERTEX
  8
0
  6
CONTINUOUS
 10
76.346869
 20
136.372666
 30
0.0
  0
SEQEND
  8
0
  6
CONTINUOUS
  0
POLYLINE
  8
0
  6
CONTINUOUS
 66
     1
 10
0.0
 20
0.0
 30
0.0
  0
VERTEX
  8
0
  6
CONTINUOUS
 10
76.39135
 20
136.463154
 30
0.0
  0
VERTEX
  8
0
  6
CONTINUOUS
 10
76.369519
 20
136.417488
 30
0.0
  0
VERTEX
  8
0
  6
CONTINUOUS
 10
76.346869
 20
136.372666
 30
0.0
  0
SEQEND
  8
0
  6
CONTINUOUS
  0
POLYLINE
  8
0
  6
CONTINUOUS
 66
     1
 10
0.0
 20
0.0
 30
0.0
  0
VERTEX
  8
0
  6
CONTINUOUS
 10
62.472515
 20
128.346862
 30
0.0
  0
VERTEX
  8
0
  6
CONTINUOUS
 10
62.60613
 20
127.675145
 30
0.0
  0
VERTEX
  8
0
  6
CONTINUOUS
 10
62.96109
 20
127.234644
 30
0.0
  0
VERTEX
  8
0
  6
CONTINUOUS
 10
63.086231
 20
127.162805
 30
0.0
  0
SEQEND
  8
0
  6
CONTINUOUS
  0
POLYLINE
  8
0
  6
CONTINUOUS
 66
     1
 10
0.0
 20
0.0
 30
0.0
  0
VERTEX
  8
0
  6
CONTINUOUS
 10
91.186835
 20
146.470696
 30
0.0
  0
VERTEX
  8
0
  6
CONTINUOUS
 10
91.307436
 20
146.600654
 30
0.0
  0
VERTEX
  8
0
  6
CONTINUOUS
 10
91.357274
 20
146.779366
 30
0.0
  0
SEQEND
  8
0
  6
CONTINUOUS
  0
POLYLINE
  8
0
  6
CONTINUOUS
 66
     1
 10
0.0
 20
0.0
 30
0.0
  0
VERTEX
  8
0
  6
CONTINUOUS
 10
76.344041
 20
139.533991
 30
0.0
  0
VERTEX
  8
0
  6
CONTINUOUS
 10
76.366792
 20
139.467053
 30
0.0
  0
VERTEX
  8
0
  6
CONTINUOUS
 10
76.388723
 20
139.400071
 30
0.0
  0
SEQEND
  8
0
  6
CONTINUOUS
  0
POLYLINE
  8
0
  6
CONTINUOUS
 66
     1
 10
0.0
 20
0.0
 30
0.0
  0
VERTEX
  8
0
  6
CONTINUOUS
 10
92.060009
 20
159.950296
 30
0.0
  0
VERTEX
  8
0
  6
CONTINUOUS
 10
86.785467
 20
162.619043
 30
0.0
  0
VERTEX
  8
0
  6
CONTINUOUS
 10
81.001777
 20
165.545401
 30
0.0
  0
SEQEND
  8
0
  6
CONTINUOUS
  0
POLYLINE
  8
0
  6
CONTINUOUS
 66
     1
 10
0.0
 20
0.0
 30
0.0
  0
VERTEX
  8
0
  6
CONTINUOUS
 10
92.060009
 20
159.950296
 30
0.0
  0
VERTEX
  8
0
  6
CONTINUOUS
 10
83.67631
 20
155.258524
 30
0.0
  0
VERTEX
  8
0
  6
CONTINUOUS
 10
75.29261
 20
150.566753
 30
0.0
  0
SEQEND
  8
0
  6
CONTINUOUS
  0
POLYLINE
  8
0
  6
CONTINUOUS
 66
     1
 10
0.0
 20
0.0
 30
0.0
  0
VERTEX
  8
0
  6
CONTINUOUS
 10
75.29261
 20
150.566753
 30
0.0
  0
VERTEX
  8
0
  6
CONTINUOUS
 10
69.931366
 20
153.186979
 30
0.0
  0
VERTEX
  8
0
  6
CONTINUOUS
 10
64.052607
 20
156.060134
 30
0.0
  0
SEQEND
  8
0
  6
CONTINUOUS
  0
POLYLINE
  8
0
  6
CONTINUOUS
 66
     1
 10
0.0
 20
0.0
 30
0.0
  0
VERTEX
  8
0
  6
CONTINUOUS
 10
82.017595
 20
165.622465
 30
0.0
  0
VERTEX
  8
0
  6
CONTINUOUS
 10
81.607671
 20
165.718397
 30
0.0
  0
VERTEX
  8
0
  6
CONTINUOUS
 10
81.001777
 20
165.545401
 30
0.0
  0
SEQEND
  8
0
  6
CONTINUOUS
  0
POLYLINE
  8
0
  6
CONTINUOUS
 66
     1
 10
0.0
 20
0.0
 30
0.0
  0
VERTEX
  8
0
  6
CONTINUOUS
 10
77.744864
 20
132.490316
 30
0.0
  0
VERTEX
  8
0
  6
CONTINUOUS
 10
77.624151
 20
132.485228
 30
0.0
  0
VERTEX
  8
0
  6
CONTINUOUS
 10
77.574043
 20
132.608007
 30
0.0
  0
SEQEND
  8
0
  6
CONTINUOUS
  0
POLYLINE
  8
0
  6
CONTINUOUS
 66
     1
 10
0.0
 20
0.0
 30
0.0
  0
VERTEX
  8
0
  6
CONTINUOUS
 10
77.571321
 20
135.651279
 30
0.0
  0
VERTEX
  8
0
  6
CONTINUOUS
 10
77.621159
 20
135.829991
 30
0.0
  0
VERTEX
  8
0
  6
CONTINUOUS
 10
77.74176
 20
135.95995
 30
0.0
  0
SEQEND
  8
0
  6
CONTINUOUS
  0
POLYLINE
  8
0
  6
CONTINUOUS
 66
     1
 10
0.0
 20
0.0
 30
0.0
  0
VERTEX
  8
0
  6
CONTINUOUS
 10
77.73909
 20
138.944932
 30
0.0
  0
VERTEX
  8
0
  6
CONTINUOUS
 10
77.618378
 20
138.939844
 30
0.0
  0
VERTEX
  8
0
  6
CONTINUOUS
 10
77.56827
 20
139.062623
 30
0.0
  0
SEQEND
  8
0
  6
CONTINUOUS
  0
POLYLINE
  8
0
  6
CONTINUOUS
 66
     1
 10
0.0
 20
0.0
 30
0.0
  0
VERTEX
  8
0
  6
CONTINUOUS
 10
77.565547
 20
142.105895
 30
0.0
  0
VERTEX
  8
0
  6
CONTINUOUS
 10
77.615386
 20
142.284607
 30
0.0
  0
VERTEX
  8
0
  6
CONTINUOUS
 10
77.735987
 20
142.414566
 30
0.0
  0
SEQEND
  8
0
  6
CONTINUOUS
  0
POLYLINE
  8
0
  6
CONTINUOUS
 66
     1
 10
0.0
 20
0.0
 30
0.0
  0
VERTEX
  8
0
  6
CONTINUOUS
 10
78.533529
 20
142.860894
 30
0.0
  0
VERTEX
  8
0
  6
CONTINUOUS
 10
78.654241
 20
142.865982
 30
0.0
  0
VERTEX
  8
0
  6
CONTINUOUS
 10
78.704349
 20
142.743203
 30
0.0
  0
SEQEND
  8
0
  6
CONTINUOUS
  0
POLYLINE
  8
0
  6
CONTINUOUS
 66
     1
 10
0.0
 20
0.0
 30
0.0
  0
VERTEX
  8
0
  6
CONTINUOUS
 10
78.704483
 20
142.593193
 30
0.0
  0
VERTEX
  8
0
  6
CONTINUOUS
 10
78.654645
 20
142.414481
 30
0.0
  0
VERTEX
  8
0
  6
CONTINUOUS
 10
78.534044
 20
142.284523
 30
0.0
  0
SEQEND
  8
0
  6
CONTINUOUS
  0
POLYLINE
  8
0
  6
CONTINUOUS
 66
     1
 10
0.0
 20
0.0
 30
0.0
  0
VERTEX
  8
0
  6
CONTINUOUS
 10
78.536073
 20
140.016013
 30
0.0
  0
VERTEX
  8
0
  6
CONTINUOUS
 10
78.656786
 20
140.021101
 30
0.0
  0
VERTEX
  8
0
  6
CONTINUOUS
 10
78.706894
 20
139.898322
 30
0.0
  0
SEQEND
  8
0
  6
CONTINUOUS
  0
POLYLINE
  8
0
  6
CONTINUOUS
 66
     1
 10
0.0
 20
0.0
 30
0.0
  0
VERTEX
  8
0
  6
CONTINUOUS
 10
78.7103
 20
136.090196
 30
0.0
  0
VERTEX
  8
0
  6
CONTINUOUS
 10
78.660462
 20
135.911484
 30
0.0
  0
VERTEX
  8
0
  6
CONTINUOUS
 10
78.539861
 20
135.781526
 30
0.0
  0
SEQEND
  8
0
  6
CONTINUOUS
  0
POLYLINE
  8
0
  6
CONTINUOUS
 66
     1
 10
0.0
 20
0.0
 30
0.0
  0
VERTEX
  8
0
  6
CONTINUOUS
 10
78.54189
 20
133.513016
 30
0.0
  0
VERTEX
  8
0
  6
CONTINUOUS
 10
78.662602
 20
133.518104
 30
0.0
  0
VERTEX
  8
0
  6
CONTINUOUS
 10
78.712711
 20
133.395325
 30
0.0
  0
SEQEND
  8
0
  6
CONTINUOUS
  0
POLYLINE
  8
0
  6
CONTINUOUS
 66
     1
 10
0.0
 20
0.0
 30
0.0
  0
VERTEX
  8
0
  6
CONTINUOUS
 10
78.712845
 20
133.245315
 30
0.0
  0
VERTEX
  8
0
  6
CONTINUOUS
 10
78.663006
 20
133.066603
 30
0.0
  0
VERTEX
  8
0
  6
CONTINUOUS
 10
78.542405
 20
132.936645
 30
0.0
  0
SEQEND
  8
0
  6
CONTINUOUS
  0
POLYLINE
  8
0
  6
CONTINUOUS
 66
     1
 10
0.0
 20
0.0
 30
0.0
  0
VERTEX
  8
0
  6
CONTINUOUS
 10
87.242853
 20
155.827317
 30
0.0
  0
VERTEX
  8
0
  6
CONTINUOUS
 10
87.247739
 20
155.737815
 30
0.0
  0
VERTEX
  8
0
  6
CONTINUOUS
 10
87.249423
 20
155.646348
 30
0.0
  0
SEQEND
  8
0
  6
CONTINUOUS
  0
POLYLINE
  8
0
  6
CONTINUOUS
 66
     1
 10
0.0
 20
0.0
 30
0.0
  0
VERTEX
  8
0
  6
CONTINUOUS
 10
87.552358
 20
156.002924
 30
0.0
  0
VERTEX
  8
0
  6
CONTINUOUS
 10
87.598995
 20
155.746891
 30
0.0
  0
VERTEX
  8
0
  6
CONTINUOUS
 10
87.614808
 20
155.468368
 30
0.0
  0
SEQEND
  8
0
  6
CONTINUOUS
  0
POLYLINE
  8
0
  6
CONTINUOUS
 66
     1
 10
0.0
 20
0.0
 30
0.0
  0
VERTEX
  8
0
  6
CONTINUOUS
 10
90.450656
 20
134.656821
 30
0.0
  0
VERTEX
  8
0
  6
CONTINUOUS
 10
90.359584
 20
134.179214
 30
0.0
  0
VERTEX
  8
0
  6
CONTINUOUS
 10
90.110005
 20
133.72722
 30
0.0
  0
VERTEX
  8
0
  6
CONTINUOUS
 10
89.768795
 20
133.421951
 30
0.0
  0
SEQEND
  8
0
  6
CONTINUOUS
  0
POLYLINE
  8
0
  6
CONTINUOUS
 66
     1
 10
0.0
 20
0.0
 30
0.0
  0
VERTEX
  8
0
  6
CONTINUOUS
 10
87.632353
 20
135.85277
 30
0.0
  0
VERTEX
  8
0
  6
CONTINUOUS
 10
87.133862
 20
134.065401
 30
0.0
  0
VERTEX
  8
0
  6
CONTINUOUS
 10
85.9277
 20
132.765597
 30
0.0
  0
SEQEND
  8
0
  6
CONTINUOUS
  0
POLYLINE
  8
0
  6
CONTINUOUS
 66
     1
 10
0.0
 20
0.0
 30
0.0
  0
VERTEX
  8
0
  6
CONTINUOUS
 10
91.355635
 20
149.117973
 30
0.0
  0
VERTEX
  8
0
  6
CONTINUOUS
 10
92.075996
 20
146.181435
 30
0.0
  0
VERTEX
  8
0
  6
CONTINUOUS
 10
91.052807
 20
144.239247
 30
0.0
  0
SEQEND
  8
0
  6
CONTINUOUS
  0
POLYLINE
  8
0
  6
CONTINUOUS
 66
     1
 10
0.0
 20
0.0
 30
0.0
  0
VERTEX
  8
0
  6
CONTINUOUS
 10
90.436544
 20
150.434585
 30
0.0
  0
VERTEX
  8
0
  6
CONTINUOUS
 10
90.463556
 20
150.404431
 30
0.0
  0
VERTEX
  8
0
  6
CONTINUOUS
 10
90.490422
 20
150.374038
 30
0.0
  0
SEQEND
  8
0
  6
CONTINUOUS
  0
POLYLINE
  8
0
  6
CONTINUOUS
 66
     1
 10
0.0
 20
0.0
 30
0.0
  0
VERTEX
  8
0
  6
CONTINUOUS
 10
91.351097
 20
146.721014
 30
0.0
  0
VERTEX
  8
0
  6
CONTINUOUS
 10
91.301058
 20
145.186725
 30
0.0
  0
VERTEX
  8
0
  6
CONTINUOUS
 10
90.69388
 20
144.093496
 30
0.0
  0
SEQEND
  8
0
  6
CONTINUOUS
  0
POLYLINE
  8
0
  6
CONTINUOUS
 66
     1
 10
0.0
 20
0.0
 30
0.0
  0
VERTEX
  8
0
  6
CONTINUOUS
 10
86.848134
 20
144.842779
 30
0.0
  0
VERTEX
  8
0
  6
CONTINUOUS
 10
86.841898
 20
144.838703
 30
0.0
  0
SEQEND
  8
0
  6
CONTINUOUS
  0
POLYLINE
  8
0
  6
CONTINUOUS
 66
     1
 10
0.0
 20
0.0
 30
0.0
  0
VERTEX
  8
0
  6
CONTINUOUS
 10
85.064123
 20
143.843806
 30
0.0
  0
VERTEX
  8
0
  6
CONTINUOUS
 10
84.943815
 20
143.82883
 30
0.0
  0
SEQEND
  8
0
  6
CONTINUOUS
  0
POLYLINE
  8
0
  6
CONTINUOUS
 66
     1
 10
0.0
 20
0.0
 30
0.0
  0
VERTEX
  8
0
  6
CONTINUOUS
 10
84.943965
 20
143.925148
 30
0.0
  0
VERTEX
  8
0
  6
CONTINUOUS
 10
84.943815
 20
143.82883
 30
0.0
  0
SEQEND
  8
0
  6
CONTINUOUS
  0
POLYLINE
  8
0
  6
CONTINUOUS
 66
     1
 10
0.0
 20
0.0
 30
0.0
  0
VERTEX
  8
0
  6
CONTINUOUS
 10
84.943815
 20
143.82883
 30
0.0
  0
VERTEX
  8
0
  6
CONTINUOUS
 10
84.8191
 20
143.837587
 30
0.0
  0
SEQEND
  8
0
  6
CONTINUOUS
  0
POLYLINE
  8
0
  6
CONTINUOUS
 66
     1
 10
0.0
 20
0.0
 30
0.0
  0
VERTEX
  8
0
  6
CONTINUOUS
 10
85.083236
 20
149.521021
 30
0.0
  0
VERTEX
  8
0
  6
CONTINUOUS
 10
84.939385
 20
149.04595
 30
0.0
  0
SEQEND
  8
0
  6
CONTINUOUS
  0
POLYLINE
  8
0
  6
CONTINUOUS
 66
     1
 10
0.0
 20
0.0
 30
0.0
  0
VERTEX
  8
0
  6
CONTINUOUS
 10
85.217069
 20
149.440374
 30
0.0
  0
VERTEX
  8
0
  6
CONTINUOUS
 10
85.083236
 20
149.521021
 30
0.0
  0
SEQEND
  8
0
  6
CONTINUOUS
  0
POLYLINE
  8
0
  6
CONTINUOUS
 66
     1
 10
0.0
 20
0.0
 30
0.0
  0
VERTEX
  8
0
  6
CONTINUOUS
 10
85.399019
 20
149.87836
 30
0.0
  0
VERTEX
  8
0
  6
CONTINUOUS
 10
85.083236
 20
149.521021
 30
0.0
  0
SEQEND
  8
0
  6
CONTINUOUS
  0
POLYLINE
  8
0
  6
CONTINUOUS
 66
     1
 10
0.0
 20
0.0
 30
0.0
  0
VERTEX
  8
0
  6
CONTINUOUS
 10
84.915408
 20
149.61133
 30
0.0
  0
VERTEX
  8
0
  6
CONTINUOUS
 10
85.083236
 20
149.521021
 30
0.0
  0
SEQEND
  8
0
  6
CONTINUOUS
  0
POLYLINE
  8
0
  6
CONTINUOUS
 66
     1
 10
0.0
 20
0.0
 30
0.0
  0
VERTEX
  8
0
  6
CONTINUOUS
 10
86.70881
 20
155.424712
 30
0.0
  0
VERTEX
  8
0
  6
CONTINUOUS
 10
86.576834
 20
155.309934
 30
0.0
  0
SEQEND
  8
0
  6
CONTINUOUS
  0
POLYLINE
  8
0
  6
CONTINUOUS
 66
     1
 10
0.0
 20
0.0
 30
0.0
  0
VERTEX
  8
0
  6
CONTINUOUS
 10
86.416905
 20
155.300363
 30
0.0
  0
VERTEX
  8
0
  6
CONTINUOUS
 10
86.576834
 20
155.309934
 30
0.0
  0
SEQEND
  8
0
  6
CONTINUOUS
  0
POLYLINE
  8
0
  6
CONTINUOUS
 66
     1
 10
0.0
 20
0.0
 30
0.0
  0
VERTEX
  8
0
  6
CONTINUOUS
 10
86.950131
 20
155.337771
 30
0.0
  0
VERTEX
  8
0
  6
CONTINUOUS
 10
86.866105
 20
155.617127
 30
0.0
  0
SEQEND
  8
0
  6
CONTINUOUS
  0
POLYLINE
  8
0
  6
CONTINUOUS
 66
     1
 10
0.0
 20
0.0
 30
0.0
  0
VERTEX
  8
0
  6
CONTINUOUS
 10
86.78031
 20
155.567319
 30
0.0
  0
VERTEX
  8
0
  6
CONTINUOUS
 10
86.762193
 20
155.521391
 30
0.0
  0
SEQEND
  8
0
  6
CONTINUOUS
  0
POLYLINE
  8
0
  6
CONTINUOUS
 66
     1
 10
0.0
 20
0.0
 30
0.0
  0
VERTEX
  8
0
  6
CONTINUOUS
 10
84.8191
 20
143.837587
 30
0.0
  0
VERTEX
  8
0
  6
CONTINUOUS
 10
84.764928
 20
143.958116
 30
0.0
  0
SEQEND
  8
0
  6
CONTINUOUS
  0
POLYLINE
  8
0
  6
CONTINUOUS
 66
     1
 10
0.0
 20
0.0
 30
0.0
  0
VERTEX
  8
0
  6
CONTINUOUS
 10
84.832837
 20
143.829729
 30
0.0
  0
VERTEX
  8
0
  6
CONTINUOUS
 10
84.8191
 20
143.837587
 30
0.0
  0
SEQEND
  8
0
  6
CONTINUOUS
  0
POLYLINE
  8
0
  6
CONTINUOUS
 66
     1
 10
0.0
 20
0.0
 30
0.0
  0
VERTEX
  8
0
  6
CONTINUOUS
 10
84.915408
 20
149.61133
 30
0.0
  0
VERTEX
  8
0
  6
CONTINUOUS
 10
85.271743
 20
150.00507
 30
0.0
  0
SEQEND
  8
0
  6
CONTINUOUS
  0
POLYLINE
  8
0
  6
CONTINUOUS
 66
     1
 10
0.0
 20
0.0
 30
0.0
  0
VERTEX
  8
0
  6
CONTINUOUS
 10
84.760347
 20
149.078918
 30
0.0
  0
VERTEX
  8
0
  6
CONTINUOUS
 10
84.915408
 20
149.61133
 30
0.0
  0
SEQEND
  8
0
  6
CONTINUOUS
  0
POLYLINE
  8
0
  6
CONTINUOUS
 66
     1
 10
0.0
 20
0.0
 30
0.0
  0
VERTEX
  8
0
  6
CONTINUOUS
 10
85.064123
 20
143.843806
 30
0.0
  0
VERTEX
  8
0
  6
CONTINUOUS
 10
85.054987
 20
143.838062
 30
0.0
  0
SEQEND
  8
0
  6
CONTINUOUS
  0
POLYLINE
  8
0
  6
CONTINUOUS
 66
     1
 10
0.0
 20
0.0
 30
0.0
  0
VERTEX
  8
0
  6
CONTINUOUS
 10
85.118276
 20
143.964631
 30
0.0
  0
VERTEX
  8
0
  6
CONTINUOUS
 10
85.064123
 20
143.843806
 30
0.0
  0
SEQEND
  8
0
  6
CONTINUOUS
  0
POLYLINE
  8
0
  6
CONTINUOUS
 66
     1
 10
0.0
 20
0.0
 30
0.0
  0
VERTEX
  8
0
  6
CONTINUOUS
 10
86.841898
 20
144.838703
 30
0.0
  0
VERTEX
  8
0
  6
CONTINUOUS
 10
86.896051
 20
144.959528
 30
0.0
  0
SEQEND
  8
0
  6
CONTINUOUS
  0
POLYLINE
  8
0
  6
CONTINUOUS
 66
     1
 10
0.0
 20
0.0
 30
0.0
  0
VERTEX
  8
0
  6
CONTINUOUS
 10
86.83265
 20
144.832896
 30
0.0
  0
VERTEX
  8
0
  6
CONTINUOUS
 10
86.841898
 20
144.838703
 30
0.0
  0
SEQEND
  8
0
  6
CONTINUOUS
  0
POLYLINE
  8
0
  6
CONTINUOUS
 66
     1
 10
0.0
 20
0.0
 30
0.0
  0
VERTEX
  8
0
  6
CONTINUOUS
 10
86.950537
 20
155.323552
 30
0.0
  0
VERTEX
  8
0
  6
CONTINUOUS
 10
86.88686
 20
155.234704
 30
0.0
  0
SEQEND
  8
0
  6
CONTINUOUS
  0
POLYLINE
  8
0
  6
CONTINUOUS
 66
     1
 10
0.0
 20
0.0
 30
0.0
  0
VERTEX
  8
0
  6
CONTINUOUS
 10
86.896051
 20
144.959528
 30
0.0
  0
VERTEX
  8
0
  6
CONTINUOUS
 10
86.959728
 20
145.048376
 30
0.0
  0
SEQEND
  8
0
  6
CONTINUOUS
  0
POLYLINE
  8
0
  6
CONTINUOUS
 66
     1
 10
0.0
 20
0.0
 30
0.0
  0
VERTEX
  8
0
  6
CONTINUOUS
 10
84.939385
 20
149.04595
 30
0.0
  0
VERTEX
  8
0
  6
CONTINUOUS
 10
84.760347
 20
149.078918
 30
0.0
  0
SEQEND
  8
0
  6
CONTINUOUS
  0
POLYLINE
  8
0
  6
CONTINUOUS
 66
     1
 10
0.0
 20
0.0
 30
0.0
  0
VERTEX
  8
0
  6
CONTINUOUS
 10
85.113696
 20
149.085433
 30
0.0
  0
VERTEX
  8
0
  6
CONTINUOUS
 10
84.939385
 20
149.04595
 30
0.0
  0
SEQEND
  8
0
  6
CONTINUOUS
  0
POLYLINE
  8
0
  6
CONTINUOUS
 66
     1
 10
0.0
 20
0.0
 30
0.0
  0
VERTEX
  8
0
  6
CONTINUOUS
 10
84.943965
 20
143.925148
 30
0.0
  0
VERTEX
  8
0
  6
CONTINUOUS
 10
85.118276
 20
143.964631
 30
0.0
  0
SEQEND
  8
0
  6
CONTINUOUS
  0
POLYLINE
  8
0
  6
CONTINUOUS
 66
     1
 10
0.0
 20
0.0
 30
0.0
  0
VERTEX
  8
0
  6
CONTINUOUS
 10
84.764928
 20
143.958116
 30
0.0
  0
VERTEX
  8
0
  6
CONTINUOUS
 10
84.943965
 20
143.925148
 30
0.0
  0
SEQEND
  8
0
  6
CONTINUOUS
  0
POLYLINE
  8
0
  6
CONTINUOUS
 66
     1
 10
0.0
 20
0.0
 30
0.0
  0
VERTEX
  8
0
  6
CONTINUOUS
 10
85.399019
 20
149.87836
 30
0.0
  0
VERTEX
  8
0
  6
CONTINUOUS
 10
85.454626
 20
149.702868
 30
0.0
  0
SEQEND
  8
0
  6
CONTINUOUS
  0
POLYLINE
  8
0
  6
CONTINUOUS
 66
     1
 10
0.0
 20
0.0
 30
0.0
  0
VERTEX
  8
0
  6
CONTINUOUS
 10
85.271743
 20
150.00507
 30
0.0
  0
VERTEX
  8
0
  6
CONTINUOUS
 10
85.399019
 20
149.87836
 30
0.0
  0
SEQEND
  8
0
  6
CONTINUOUS
  0
POLYLINE
  8
0
  6
CONTINUOUS
 66
     1
 10
0.0
 20
0.0
 30
0.0
  0
VERTEX
  8
0
  6
CONTINUOUS
 10
86.816921
 20
150.465249
 30
0.0
  0
VERTEX
  8
0
  6
CONTINUOUS
 10
86.749578
 20
150.509263
 30
0.0
  0
VERTEX
  8
0
  6
CONTINUOUS
 10
86.664014
 20
150.561389
 30
0.0
  0
VERTEX
  8
0
  6
CONTINUOUS
 10
86.565439
 20
150.618005
 30
0.0
  0
VERTEX
  8
0
  6
CONTINUOUS
 10
86.466597
 20
150.670371
 30
0.0
  0
SEQEND
  8
0
  6
CONTINUOUS
  0
POLYLINE
  8
0
  6
CONTINUOUS
 66
     1
 10
0.0
 20
0.0
 30
0.0
  0
VERTEX
  8
0
  6
CONTINUOUS
 10
86.812699
 20
155.185806
 30
0.0
  0
VERTEX
  8
0
  6
CONTINUOUS
 10
86.640542
 20
155.146283
 30
0.0
  0
SEQEND
  8
0
  6
CONTINUOUS
  0
POLYLINE
  8
0
  6
CONTINUOUS
 66
     1
 10
0.0
 20
0.0
 30
0.0
  0
VERTEX
  8
0
  6
CONTINUOUS
 10
86.416905
 20
155.300363
 30
0.0
  0
VERTEX
  8
0
  6
CONTINUOUS
 10
86.46909
 20
155.392758
 30
0.0
  0
SEQEND
  8
0
  6
CONTINUOUS
  0
POLYLINE
  8
0
  6
CONTINUOUS
 66
     1
 10
0.0
 20
0.0
 30
0.0
  0
VERTEX
  8
0
  6
CONTINUOUS
 10
86.407769
 20
155.294619
 30
0.0
  0
VERTEX
  8
0
  6
CONTINUOUS
 10
86.416905
 20
155.300363
 30
0.0
  0
SEQEND
  8
0
  6
CONTINUOUS
  0
POLYLINE
  8
0
  6
CONTINUOUS
 66
     1
 10
0.0
 20
0.0
 30
0.0
  0
VERTEX
  8
0
  6
CONTINUOUS
 10
85.28393
 20
154.729923
 30
0.0
  0
VERTEX
  8
0
  6
CONTINUOUS
 10
85.24209
 20
154.676459
 30
0.0
  0
VERTEX
  8
0
  6
CONTINUOUS
 10
85.156644
 20
154.597678
 30
0.0
  0
VERTEX
  8
0
  6
CONTINUOUS
 10
85.058669
 20
154.547536
 30
0.0
  0
VERTEX
  8
0
  6
CONTINUOUS
 10
84.962163
 20
154.549808
 30
0.0
  0
SEQEND
  8
0
  6
CONTINUOUS
  0
POLYLINE
  8
0
  6
CONTINUOUS
 66
     1
 10
0.0
 20
0.0
 30
0.0
  0
VERTEX
  8
0
  6
CONTINUOUS
 10
89.973628
 20
156.948067
 30
0.0
  0
VERTEX
  8
0
  6
CONTINUOUS
 10
89.855088
 20
156.933122
 30
0.0
  0
SEQEND
  8
0
  6
CONTINUOUS
  0
POLYLINE
  8
0
  6
CONTINUOUS
 66
     1
 10
0.0
 20
0.0
 30
0.0
  0
VERTEX
  8
0
  6
CONTINUOUS
 10
89.855624
 20
157.029369
 30
0.0
  0
VERTEX
  8
0
  6
CONTINUOUS
 10
89.855088
 20
156.933122
 30
0.0
  0
SEQEND
  8
0
  6
CONTINUOUS
  0
POLYLINE
  8
0
  6
CONTINUOUS
 66
     1
 10
0.0
 20
0.0
 30
0.0
  0
VERTEX
  8
0
  6
CONTINUOUS
 10
89.855088
 20
156.933122
 30
0.0
  0
VERTEX
  8
0
  6
CONTINUOUS
 10
89.73086
 20
156.940807
 30
0.0
  0
SEQEND
  8
0
  6
CONTINUOUS
  0
POLYLINE
  8
0
  6
CONTINUOUS
 66
     1
 10
0.0
 20
0.0
 30
0.0
  0
VERTEX
  8
0
  6
CONTINUOUS
 10
89.73086
 20
156.940807
 30
0.0
  0
VERTEX
  8
0
  6
CONTINUOUS
 10
89.677647
 20
157.060839
 30
0.0
  0
SEQEND
  8
0
  6
CONTINUOUS
  0
POLYLINE
  8
0
  6
CONTINUOUS
 66
     1
 10
0.0
 20
0.0
 30
0.0
  0
VERTEX
  8
0
  6
CONTINUOUS
 10
89.74547
 20
156.932552
 30
0.0
  0
VERTEX
  8
0
  6
CONTINUOUS
 10
89.73086
 20
156.940807
 30
0.0
  0
SEQEND
  8
0
  6
CONTINUOUS
  0
POLYLINE
  8
0
  6
CONTINUOUS
 66
     1
 10
0.0
 20
0.0
 30
0.0
  0
VERTEX
  8
0
  6
CONTINUOUS
 10
90.038548
 20
156.983767
 30
0.0
  0
VERTEX
  8
0
  6
CONTINUOUS
 10
90.047797
 20
156.989574
 30
0.0
  0
SEQEND
  8
0
  6
CONTINUOUS
  0
POLYLINE
  8
0
  6
CONTINUOUS
 66
     1
 10
0.0
 20
0.0
 30
0.0
  0
VERTEX
  8
0
  6
CONTINUOUS
 10
89.973628
 20
156.948067
 30
0.0
  0
VERTEX
  8
0
  6
CONTINUOUS
 10
89.964493
 20
156.942323
 30
0.0
  0
SEQEND
  8
0
  6
CONTINUOUS
  0
POLYLINE
  8
0
  6
CONTINUOUS
 66
     1
 10
0.0
 20
0.0
 30
0.0
  0
VERTEX
  8
0
  6
CONTINUOUS
 10
90.027781
 20
157.068892
 30
0.0
  0
VERTEX
  8
0
  6
CONTINUOUS
 10
89.973628
 20
156.948067
 30
0.0
  0
SEQEND
  8
0
  6
CONTINUOUS
  0
POLYLINE
  8
0
  6
CONTINUOUS
 66
     1
 10
0.0
 20
0.0
 30
0.0
  0
VERTEX
  8
0
  6
CONTINUOUS
 10
89.855624
 20
157.029369
 30
0.0
  0
VERTEX
  8
0
  6
CONTINUOUS
 10
90.027781
 20
157.068892
 30
0.0
  0
SEQEND
  8
0
  6
CONTINUOUS
  0
POLYLINE
  8
0
  6
CONTINUOUS
 66
     1
 10
0.0
 20
0.0
 30
0.0
  0
VERTEX
  8
0
  6
CONTINUOUS
 10
89.677647
 20
157.060839
 30
0.0
  0
VERTEX
  8
0
  6
CONTINUOUS
 10
89.855624
 20
157.029369
 30
0.0
  0
SEQEND
  8
0
  6
CONTINUOUS
  0
POLYLINE
  8
0
  6
CONTINUOUS
 66
     1
 10
0.0
 20
0.0
 30
0.0
  0
VERTEX
  8
0
  6
CONTINUOUS
 10
89.939563
 20
138.059902
 30
0.0
  0
VERTEX
  8
0
  6
CONTINUOUS
 10
90.050001
 20
138.066869
 30
0.0
  0
SEQEND
  8
0
  6
CONTINUOUS
  0
POLYLINE
  8
0
  6
CONTINUOUS
 66
     1
 10
0.0
 20
0.0
 30
0.0
  0
VERTEX
  8
0
  6
CONTINUOUS
 10
89.694956
 20
137.709725
 30
0.0
  0
VERTEX
  8
0
  6
CONTINUOUS
 10
89.747903
 20
137.886547
 30
0.0
  0
SEQEND
  8
0
  6
CONTINUOUS
  0
POLYLINE
  8
0
  6
CONTINUOUS
 66
     1
 10
0.0
 20
0.0
 30
0.0
  0
VERTEX
  8
0
  6
CONTINUOUS
 10
82.769994
 20
138.547747
 30
0.0
  0
VERTEX
  8
0
  6
CONTINUOUS
 10
85.761136
 20
137.081062
 30
0.0
  0
SEQEND
  8
0
  6
CONTINUOUS
  0
POLYLINE
  8
0
  6
CONTINUOUS
 66
     1
 10
0.0
 20
0.0
 30
0.0
  0
VERTEX
  8
0
  6
CONTINUOUS
 10
89.694956
 20
137.709725
 30
0.0
  0
VERTEX
  8
0
  6
CONTINUOUS
 10
89.490649
 20
137.809905
 30
0.0
  0
SEQEND
  8
0
  6
CONTINUOUS
  0
POLYLINE
  8
0
  6
CONTINUOUS
 66
     1
 10
0.0
 20
0.0
 30
0.0
  0
VERTEX
  8
0
  6
CONTINUOUS
 10
87.264245
 20
138.901607
 30
0.0
  0
VERTEX
  8
0
  6
CONTINUOUS
 10
85.421202
 20
139.80533
 30
0.0
  0
SEQEND
  8
0
  6
CONTINUOUS
  0
POLYLINE
  8
0
  6
CONTINUOUS
 66
     1
 10
0.0
 20
0.0
 30
0.0
  0
VERTEX
  8
0
  6
CONTINUOUS
 10
89.677647
 20
157.060839
 30
0.0
  0
VERTEX
  8
0
  6
CONTINUOUS
 10
89.677533
 20
157.189037
 30
0.0
  0
SEQEND
  8
0
  6
CONTINUOUS
  0
POLYLINE
  8
0
  6
CONTINUOUS
 66
     1
 10
0.0
 20
0.0
 30
0.0
  0
VERTEX
  8
0
  6
CONTINUOUS
 10
89.550658
 20
157.118018
 30
0.0
  0
VERTEX
  8
0
  6
CONTINUOUS
 10
89.677647
 20
157.060839
 30
0.0
  0
SEQEND
  8
0
  6
CONTINUOUS
  0
POLYLINE
  8
0
  6
CONTINUOUS
 66
     1
 10
0.0
 20
0.0
 30
0.0
  0
VERTEX
  8
0
  6
CONTINUOUS
 10
82.91728
 20
151.243985
 30
0.0
  0
VERTEX
  8
0
  6
CONTINUOUS
 10
82.532186
 20
150.865146
 30
0.0
  0
VERTEX
  8
0
  6
CONTINUOUS
 10
82.326573
 20
150.355699
 30
0.0
  0
SEQEND
  8
0
  6
CONTINUOUS
  0
POLYLINE
  8
0
  6
CONTINUOUS
 66
     1
 10
0.0
 20
0.0
 30
0.0
  0
VERTEX
  8
0
  6
CONTINUOUS
 10
84.764928
 20
143.958116
 30
0.0
  0
VERTEX
  8
0
  6
CONTINUOUS
 10
84.762445
 20
146.733575
 30
0.0
  0
VERTEX
  8
0
  6
CONTINUOUS
 10
84.760347
 20
149.078918
 30
0.0
  0
SEQEND
  8
0
  6
CONTINUOUS
  0
POLYLINE
  8
0
  6
CONTINUOUS
 66
     1
 10
0.0
 20
0.0
 30
0.0
  0
VERTEX
  8
0
  6
CONTINUOUS
 10
83.303415
 20
144.64026
 30
0.0
  0
VERTEX
  8
0
  6
CONTINUOUS
 10
84.122328
 20
144.258042
 30
0.0
  0
VERTEX
  8
0
  6
CONTINUOUS
 10
84.764928
 20
143.958116
 30
0.0
  0
SEQEND
  8
0
  6
CONTINUOUS
  0
POLYLINE
  8
0
  6
CONTINUOUS
 66
     1
 10
0.0
 20
0.0
 30
0.0
  0
VERTEX
  8
0
  6
CONTINUOUS
 10
84.760347
 20
149.078918
 30
0.0
  0
VERTEX
  8
0
  6
CONTINUOUS
 10
84.577655
 20
149.167908
 30
0.0
  0
VERTEX
  8
0
  6
CONTINUOUS
 10
84.21227
 20
149.345887
 30
0.0
  0
SEQEND
  8
0
  6
CONTINUOUS
  0
POLYLINE
  8
0
  6
CONTINUOUS
 66
     1
 10
0.0
 20
0.0
 30
0.0
  0
VERTEX
  8
0
  6
CONTINUOUS
 10
81.653443
 20
137.683162
 30
0.0
  0
VERTEX
  8
0
  6
CONTINUOUS
 10
81.885352
 20
137.876535
 30
0.0
  0
VERTEX
  8
0
  6
CONTINUOUS
 10
82.080884
 20
138.15537
 30
0.0
  0
VERTEX
  8
0
  6
CONTINUOUS
 10
82.086134
 20
138.164949
 30
0.0
  0
SEQEND
  8
0
  6
CONTINUOUS
  0
POLYLINE
  8
0
  6
CONTINUOUS
 66
     1
 10
0.0
 20
0.0
 30
0.0
  0
VERTEX
  8
0
  6
CONTINUOUS
 10
83.797792
 20
141.327003
 30
0.0
  0
VERTEX
  8
0
  6
CONTINUOUS
 10
83.695368
 20
141.303979
 30
0.0
  0
VERTEX
  8
0
  6
CONTINUOUS
 10
83.620327
 20
141.35568
 30
0.0
  0
VERTEX
  8
0
  6
CONTINUOUS
 10
83.592776
 20
141.468254
 30
0.0
  0
SEQEND
  8
0
  6
CONTINUOUS
  0
POLYLINE
  8
0
  6
CONTINUOUS
 66
     1
 10
0.0
 20
0.0
 30
0.0
  0
VERTEX
  8
0
  6
CONTINUOUS
 10
83.865545
 20
141.876887
 30
0.0
  0
VERTEX
  8
0
  6
CONTINUOUS
 10
84.036278
 20
141.915276
 30
0.0
  0
VERTEX
  8
0
  6
CONTINUOUS
 10
84.161365
 20
141.829118
 30
0.0
  0
VERTEX
  8
0
  6
CONTINUOUS
 10
84.20729
 20
141.641499
 30
0.0
  0
SEQEND
  8
0
  6
CONTINUOUS
  0
POLYLINE
  8
0
  6
CONTINUOUS
 66
     1
 10
0.0
 20
0.0
 30
0.0
  0
VERTEX
  8
0
  6
CONTINUOUS
 10
84.208955
 20
139.780046
 30
0.0
  0
VERTEX
  8
0
  6
CONTINUOUS
 10
84.109278
 20
139.422622
 30
0.0
  0
VERTEX
  8
0
  6
CONTINUOUS
 10
83.868076
 20
139.162705
 30
0.0
  0
SEQEND
  8
0
  6
CONTINUOUS
  0
POLYLINE
  8
0
  6
CONTINUOUS
 66
     1
 10
0.0
 20
0.0
 30
0.0
  0
VERTEX
  8
0
  6
CONTINUOUS
 10
80.625534
 20
137.348081
 30
0.0
  0
VERTEX
  8
0
  6
CONTINUOUS
 10
80.504822
 20
137.342993
 30
0.0
  0
VERTEX
  8
0
  6
CONTINUOUS
 10
80.454714
 20
137.465772
 30
0.0
  0
SEQEND
  8
0
  6
CONTINUOUS
  0
POLYLINE
  8
0
  6
CONTINUOUS
 66
     1
 10
0.0
 20
0.0
 30
0.0
  0
VERTEX
  8
0
  6
CONTINUOUS
 10
80.454637
 20
137.551122
 30
0.0
  0
VERTEX
  8
0
  6
CONTINUOUS
 10
80.504476
 20
137.729834
 30
0.0
  0
VERTEX
  8
0
  6
CONTINUOUS
 10
80.625077
 20
137.859792
 30
0.0
  0
SEQEND
  8
0
  6
CONTINUOUS
  0
POLYLINE
  8
0
  6
CONTINUOUS
 66
     1
 10
0.0
 20
0.0
 30
0.0
  0
VERTEX
  8
0
  6
CONTINUOUS
 10
79.711939
 20
137.915298
 30
0.0
  0
VERTEX
  8
0
  6
CONTINUOUS
 10
79.761778
 20
138.09401
 30
0.0
  0
VERTEX
  8
0
  6
CONTINUOUS
 10
79.882379
 20
138.223969
 30
0.0
  0
SEQEND
  8
0
  6
CONTINUOUS
  0
POLYLINE
  8
0
  6
CONTINUOUS
 66
     1
 10
0.0
 20
0.0
 30
0.0
  0
VERTEX
  8
0
  6
CONTINUOUS
 10
79.775544
 20
137.669845
 30
0.0
  0
VERTEX
  8
0
  6
CONTINUOUS
 10
79.728775
 20
137.717633
 30
0.0
  0
VERTEX
  8
0
  6
CONTINUOUS
 10
79.712042
 20
137.800175
 30
0.0
  0
SEQEND
  8
0
  6
CONTINUOUS
  0
POLYLINE
  8
0
  6
CONTINUOUS
 66
     1
 10
0.0
 20
0.0
 30
0.0
  0
VERTEX
  8
0
  6
CONTINUOUS
 10
82.313856
 20
145.263202
 30
0.0
  0
VERTEX
  8
0
  6
CONTINUOUS
 10
82.217268
 20
145.259103
 30
0.0
  0
VERTEX
  8
0
  6
CONTINUOUS
 10
82.177178
 20
145.357291
 30
0.0
  0
SEQEND
  8
0
  6
CONTINUOUS
  0
POLYLINE
  8
0
  6
CONTINUOUS
 66
     1
 10
0.0
 20
0.0
 30
0.0
  0
VERTEX
  8
0
  6
CONTINUOUS
 10
83.368847
 20
144.513037
 30
0.0
  0
VERTEX
  8
0
  6
CONTINUOUS
 10
83.355394
 20
144.520748
 30
0.0
  0
VERTEX
  8
0
  6
CONTINUOUS
 10
83.317633
 20
144.567622
 30
0.0
  0
VERTEX
  8
0
  6
CONTINUOUS
 10
83.303415
 20
144.64026
 30
0.0
  0
SEQEND
  8
0
  6
CONTINUOUS
  0
POLYLINE
  8
0
  6
CONTINUOUS
 66
     1
 10
0.0
 20
0.0
 30
0.0
  0
VERTEX
  8
0
  6
CONTINUOUS
 10
85.802939
 20
140.232248
 30
0.0
  0
VERTEX
  8
0
  6
CONTINUOUS
 10
85.86739
 20
140.250653
 30
0.0
  0
VERTEX
  8
0
  6
CONTINUOUS
 10
85.912244
 20
140.239806
 30
0.0
  0
SEQEND
  8
0
  6
CONTINUOUS
  0
POLYLINE
  8
0
  6
CONTINUOUS
 66
     1
 10
0.0
 20
0.0
 30
0.0
  0
VERTEX
  8
0
  6
CONTINUOUS
 10
85.421202
 20
139.80533
 30
0.0
  0
VERTEX
  8
0
  6
CONTINUOUS
 10
85.435261
 20
139.893741
 30
0.0
  0
VERTEX
  8
0
  6
CONTINUOUS
 10
85.472847
 20
139.982721
 30
0.0
  0
VERTEX
  8
0
  6
CONTINUOUS
 10
85.527196
 20
140.060256
 30
0.0
  0
VERTEX
  8
0
  6
CONTINUOUS
 10
85.591641
 20
140.114
 30
0.0
  0
SEQEND
  8
0
  6
CONTINUOUS
  0
POLYLINE
  8
0
  6
CONTINUOUS
 66
     1
 10
0.0
 20
0.0
 30
0.0
  0
VERTEX
  8
0
  6
CONTINUOUS
 10
85.249699
 20
140.685928
 30
0.0
  0
VERTEX
  8
0
  6
CONTINUOUS
 10
85.370412
 20
140.691016
 30
0.0
  0
VERTEX
  8
0
  6
CONTINUOUS
 10
85.42052
 20
140.568237
 30
0.0
  0
SEQEND
  8
0
  6
CONTINUOUS
  0
POLYLINE
  8
0
  6
CONTINUOUS
 66
     1
 10
0.0
 20
0.0
 30
0.0
  0
VERTEX
  8
0
  6
CONTINUOUS
 10
83.14669
 20
142.239514
 30
0.0
  0
VERTEX
  8
0
  6
CONTINUOUS
 10
83.264652
 20
142.279257
 30
0.0
  0
VERTEX
  8
0
  6
CONTINUOUS
 10
83.368133
 20
142.261589
 30
0.0
  0
SEQEND
  8
0
  6
CONTINUOUS
  0
POLYLINE
  8
0
  6
CONTINUOUS
 66
     1
 10
0.0
 20
0.0
 30
0.0
  0
VERTEX
  8
0
  6
CONTINUOUS
 10
89.865395
 20
138.018395
 30
0.0
  0
VERTEX
  8
0
  6
CONTINUOUS
 10
89.864199
 20
138.018981
 30
0.0
  0
SEQEND
  8
0
  6
CONTINUOUS
  0
POLYLINE
  8
0
  6
CONTINUOUS
 66
     1
 10
0.0
 20
0.0
 30
0.0
  0
VERTEX
  8
0
  6
CONTINUOUS
 10
87.263884
 20
139.294028
 30
0.0
  0
VERTEX
  8
0
  6
CONTINUOUS
 10
85.591641
 20
140.114
 30
0.0
  0
SEQEND
  8
0
  6
CONTINUOUS
  0
POLYLINE
  8
0
  6
CONTINUOUS
 66
     1
 10
0.0
 20
0.0
 30
0.0
  0
VERTEX
  8
0
  6
CONTINUOUS
 10
89.939563
 20
138.059902
 30
0.0
  0
VERTEX
  8
0
  6
CONTINUOUS
 10
89.938405
 20
138.06051
 30
0.0
  0
SEQEND
  8
0
  6
CONTINUOUS
  0
POLYLINE
  8
0
  6
CONTINUOUS
 66
     1
 10
0.0
 20
0.0
 30
0.0
  0
VERTEX
  8
0
  6
CONTINUOUS
 10
87.383649
 20
139.402139
 30
0.0
  0
VERTEX
  8
0
  6
CONTINUOUS
 10
85.802939
 20
140.232248
 30
0.0
  0
SEQEND
  8
0
  6
CONTINUOUS
  0
POLYLINE
  8
0
  6
CONTINUOUS
 66
     1
 10
0.0
 20
0.0
 30
0.0
  0
VERTEX
  8
0
  6
CONTINUOUS
 10
83.592776
 20
141.468254
 30
0.0
  0
VERTEX
  8
0
  6
CONTINUOUS
 10
83.652595
 20
141.682738
 30
0.0
  0
VERTEX
  8
0
  6
CONTINUOUS
 10
83.797334
 20
141.838715
 30
0.0
  0
SEQEND
  8
0
  6
CONTINUOUS
  0
POLYLINE
  8
0
  6
CONTINUOUS
 66
     1
 10
0.0
 20
0.0
 30
0.0
  0
VERTEX
  8
0
  6
CONTINUOUS
 10
85.454626
 20
149.702868
 30
0.0
  0
VERTEX
  8
0
  6
CONTINUOUS
 10
85.795938
 20
149.893876
 30
0.0
  0
VERTEX
  8
0
  6
CONTINUOUS
 10
86.816921
 20
150.465249
 30
0.0
  0
SEQEND
  8
0
  6
CONTINUOUS
  0
POLYLINE
  8
0
  6
CONTINUOUS
 66
     1
 10
0.0
 20
0.0
 30
0.0
  0
VERTEX
  8
0
  6
CONTINUOUS
 10
86.816921
 20
150.465249
 30
0.0
  0
VERTEX
  8
0
  6
CONTINUOUS
 10
86.814618
 20
153.040553
 30
0.0
  0
VERTEX
  8
0
  6
CONTINUOUS
 10
86.812699
 20
155.185806
 30
0.0
  0
SEQEND
  8
0
  6
CONTINUOUS
  0
POLYLINE
  8
0
  6
CONTINUOUS
 66
     1
 10
0.0
 20
0.0
 30
0.0
  0
VERTEX
  8
0
  6
CONTINUOUS
 10
86.70881
 20
155.424712
 30
0.0
  0
VERTEX
  8
0
  6
CONTINUOUS
 10
86.812699
 20
155.185806
 30
0.0
  0
SEQEND
  8
0
  6
CONTINUOUS
  0
POLYLINE
  8
0
  6
CONTINUOUS
 66
     1
 10
0.0
 20
0.0
 30
0.0
  0
VERTEX
  8
0
  6
CONTINUOUS
 10
86.58435
 20
155.457405
 30
0.0
  0
VERTEX
  8
0
  6
CONTINUOUS
 10
86.70881
 20
155.424712
 30
0.0
  0
SEQEND
  8
0
  6
CONTINUOUS
  0
POLYLINE
  8
0
  6
CONTINUOUS
 66
     1
 10
0.0
 20
0.0
 30
0.0
  0
VERTEX
  8
0
  6
CONTINUOUS
 10
86.762193
 20
155.521391
 30
0.0
  0
VERTEX
  8
0
  6
CONTINUOUS
 10
86.730675
 20
155.539562
 30
0.0
  0
SEQEND
  8
0
  6
CONTINUOUS
  0
POLYLINE
  8
0
  6
CONTINUOUS
 66
     1
 10
0.0
 20
0.0
 30
0.0
  0
VERTEX
  8
0
  6
CONTINUOUS
 10
86.88686
 20
155.234704
 30
0.0
  0
VERTEX
  8
0
  6
CONTINUOUS
 10
86.762193
 20
155.521391
 30
0.0
  0
SEQEND
  8
0
  6
CONTINUOUS
  0
POLYLINE
  8
0
  6
CONTINUOUS
 66
     1
 10
0.0
 20
0.0
 30
0.0
  0
VERTEX
  8
0
  6
CONTINUOUS
 10
86.88686
 20
155.234704
 30
0.0
  0
VERTEX
  8
0
  6
CONTINUOUS
 10
86.891227
 20
150.352933
 30
0.0
  0
VERTEX
  8
0
  6
CONTINUOUS
 10
86.896051
 20
144.959528
 30
0.0
  0
SEQEND
  8
0
  6
CONTINUOUS
  0
POLYLINE
  8
0
  6
CONTINUOUS
 66
     1
 10
0.0
 20
0.0
 30
0.0
  0
VERTEX
  8
0
  6
CONTINUOUS
 10
86.896051
 20
144.959528
 30
0.0
  0
VERTEX
  8
0
  6
CONTINUOUS
 10
86.005687
 20
144.461253
 30
0.0
  0
VERTEX
  8
0
  6
CONTINUOUS
 10
85.118276
 20
143.964631
 30
0.0
  0
SEQEND
  8
0
  6
CONTINUOUS
  0
POLYLINE
  8
0
  6
CONTINUOUS
 66
     1
 10
0.0
 20
0.0
 30
0.0
  0
VERTEX
  8
0
  6
CONTINUOUS
 10
85.118276
 20
143.964631
 30
0.0
  0
VERTEX
  8
0
  6
CONTINUOUS
 10
85.115793
 20
146.74009
 30
0.0
  0
VERTEX
  8
0
  6
CONTINUOUS
 10
85.113696
 20
149.085433
 30
0.0
  0
SEQEND
  8
0
  6
CONTINUOUS
  0
POLYLINE
  8
0
  6
CONTINUOUS
 66
     1
 10
0.0
 20
0.0
 30
0.0
  0
VERTEX
  8
0
  6
CONTINUOUS
 10
85.217069
 20
149.440374
 30
0.0
  0
VERTEX
  8
0
  6
CONTINUOUS
 10
85.113696
 20
149.085433
 30
0.0
  0
SEQEND
  8
0
  6
CONTINUOUS
  0
POLYLINE
  8
0
  6
CONTINUOUS
 66
     1
 10
0.0
 20
0.0
 30
0.0
  0
VERTEX
  8
0
  6
CONTINUOUS
 10
85.454626
 20
149.702868
 30
0.0
  0
VERTEX
  8
0
  6
CONTINUOUS
 10
85.217069
 20
149.440374
 30
0.0
  0
SEQEND
  8
0
  6
CONTINUOUS
  0
POLYLINE
  8
0
  6
CONTINUOUS
 66
     1
 10
0.0
 20
0.0
 30
0.0
  0
VERTEX
  8
0
  6
CONTINUOUS
 10
81.653443
 20
137.683162
 30
0.0
  0
VERTEX
  8
0
  6
CONTINUOUS
 10
85.202667
 20
135.942825
 30
0.0
  0
SEQEND
  8
0
  6
CONTINUOUS
  0
POLYLINE
  8
0
  6
CONTINUOUS
 66
     1
 10
0.0
 20
0.0
 30
0.0
  0
VERTEX
  8
0
  6
CONTINUOUS
 10
85.271743
 20
150.00507
 30
0.0
  0
VERTEX
  8
0
  6
CONTINUOUS
 10
85.613055
 20
150.196079
 30
0.0
  0
VERTEX
  8
0
  6
CONTINUOUS
 10
86.463356
 20
150.671933
 30
0.0
  0
SEQEND
  8
0
  6
CONTINUOUS
  0
POLYLINE
  8
0
  6
CONTINUOUS
 66
     1
 10
0.0
 20
0.0
 30
0.0
  0
VERTEX
  8
0
  6
CONTINUOUS
 10
85.271743
 20
150.00507
 30
0.0
  0
VERTEX
  8
0
  6
CONTINUOUS
 10
85.089051
 20
150.09406
 30
0.0
  0
VERTEX
  8
0
  6
CONTINUOUS
 10
84.723666
 20
150.272039
 30
0.0
  0
SEQEND
  8
0
  6
CONTINUOUS
  0
POLYLINE
  8
0
  6
CONTINUOUS
 66
     1
 10
0.0
 20
0.0
 30
0.0
  0
VERTEX
  8
0
  6
CONTINUOUS
 10
86.411654
 20
155.2968
 30
0.0
  0
VERTEX
  8
0
  6
CONTINUOUS
 10
86.576834
 20
155.309934
 30
0.0
  0
SEQEND
  8
0
  6
CONTINUOUS
  0
POLYLINE
  8
0
  6
CONTINUOUS
 66
     1
 10
0.0
 20
0.0
 30
0.0
  0
VERTEX
  8
0
  6
CONTINUOUS
 10
86.576834
 20
155.309934
 30
0.0
  0
VERTEX
  8
0
  6
CONTINUOUS
 10
86.640542
 20
155.146283
 30
0.0
  0
SEQEND
  8
0
  6
CONTINUOUS
  0
POLYLINE
  8
0
  6
CONTINUOUS
 66
     1
 10
0.0
 20
0.0
 30
0.0
  0
VERTEX
  8
0
  6
CONTINUOUS
 10
86.640542
 20
155.146283
 30
0.0
  0
VERTEX
  8
0
  6
CONTINUOUS
 10
86.462565
 20
155.177753
 30
0.0
  0
SEQEND
  8
0
  6
CONTINUOUS
  0
POLYLINE
  8
0
  6
CONTINUOUS
 66
     1
 10
0.0
 20
0.0
 30
0.0
  0
VERTEX
  8
0
  6
CONTINUOUS
 10
86.462565
 20
155.177753
 30
0.0
  0
VERTEX
  8
0
  6
CONTINUOUS
 10
86.411139
 20
155.296524
 30
0.0
  0
SEQEND
  8
0
  6
CONTINUOUS
  0
POLYLINE
  8
0
  6
CONTINUOUS
 66
     1
 10
0.0
 20
0.0
 30
0.0
  0
VERTEX
  8
0
  6
CONTINUOUS
 10
90.054032
 20
156.99365
 30
0.0
  0
VERTEX
  8
0
  6
CONTINUOUS
 10
90.047797
 20
156.989574
 30
0.0
  0
SEQEND
  8
0
  6
CONTINUOUS
  0
POLYLINE
  8
0
  6
CONTINUOUS
 66
     1
 10
0.0
 20
0.0
 30
0.0
  0
VERTEX
  8
0
  6
CONTINUOUS
 10
90.047797
 20
156.989574
 30
0.0
  0
VERTEX
  8
0
  6
CONTINUOUS
 10
90.101949
 20
157.110399
 30
0.0
  0
SEQEND
  8
0
  6
CONTINUOUS
  0
POLYLINE
  8
0
  6
CONTINUOUS
 66
     1
 10
0.0
 20
0.0
 30
0.0
  0
VERTEX
  8
0
  6
CONTINUOUS
 10
90.101949
 20
157.110399
 30
0.0
  0
VERTEX
  8
0
  6
CONTINUOUS
 10
90.165626
 20
157.199247
 30
0.0
  0
SEQEND
  8
0
  6
CONTINUOUS
  0
POLYLINE
  8
0
  6
CONTINUOUS
 66
     1
 10
0.0
 20
0.0
 30
0.0
  0
VERTEX
  8
0
  6
CONTINUOUS
 10
89.872933
 20
137.678255
 30
0.0
  0
VERTEX
  8
0
  6
CONTINUOUS
 10
89.872182
 20
137.82136
 30
0.0
  0
SEQEND
  8
0
  6
CONTINUOUS
  0
POLYLINE
  8
0
  6
CONTINUOUS
 66
     1
 10
0.0
 20
0.0
 30
0.0
  0
VERTEX
  8
0
  6
CONTINUOUS
 10
89.990674
 20
137.891487
 30
0.0
  0
VERTEX
  8
0
  6
CONTINUOUS
 10
89.872182
 20
137.82136
 30
0.0
  0
SEQEND
  8
0
  6
CONTINUOUS
  0
POLYLINE
  8
0
  6
CONTINUOUS
 66
     1
 10
0.0
 20
0.0
 30
0.0
  0
VERTEX
  8
0
  6
CONTINUOUS
 10
89.872182
 20
137.82136
 30
0.0
  0
VERTEX
  8
0
  6
CONTINUOUS
 10
89.747903
 20
137.886547
 30
0.0
  0
SEQEND
  8
0
  6
CONTINUOUS
  0
POLYLINE
  8
0
  6
CONTINUOUS
 66
     1
 10
0.0
 20
0.0
 30
0.0
  0
VERTEX
  8
0
  6
CONTINUOUS
 10
89.747903
 20
137.886547
 30
0.0
  0
VERTEX
  8
0
  6
CONTINUOUS
 10
89.865395
 20
138.018395
 30
0.0
  0
SEQEND
  8
0
  6
CONTINUOUS
  0
POLYLINE
  8
0
  6
CONTINUOUS
 66
     1
 10
0.0
 20
0.0
 30
0.0
  0
VERTEX
  8
0
  6
CONTINUOUS
 10
90.064842
 20
137.932993
 30
0.0
  0
VERTEX
  8
0
  6
CONTINUOUS
 10
90.137928
 20
137.970079
 30
0.0
  0
SEQEND
  8
0
  6
CONTINUOUS
  0
POLYLINE
  8
0
  6
CONTINUOUS
 66
     1
 10
0.0
 20
0.0
 30
0.0
  0
VERTEX
  8
0
  6
CONTINUOUS
 10
90.182787
 20
137.853896
 30
0.0
  0
VERTEX
  8
0
  6
CONTINUOUS
 10
90.137928
 20
137.970079
 30
0.0
  0
SEQEND
  8
0
  6
CONTINUOUS
  0
POLYLINE
  8
0
  6
CONTINUOUS
 66
     1
 10
0.0
 20
0.0
 30
0.0
  0
VERTEX
  8
0
  6
CONTINUOUS
 10
90.137928
 20
137.970079
 30
0.0
  0
VERTEX
  8
0
  6
CONTINUOUS
 10
90.070562
 20
138.054022
 30
0.0
  0
SEQEND
  8
0
  6
CONTINUOUS
  0
POLYLINE
  8
0
  6
CONTINUOUS
 66
     1
 10
0.0
 20
0.0
 30
0.0
  0
VERTEX
  8
0
  6
CONTINUOUS
 10
89.696825
 20
135.619992
 30
0.0
  0
VERTEX
  8
0
  6
CONTINUOUS
 10
89.696351
 20
136.14958
 30
0.0
  0
VERTEX
  8
0
  6
CONTINUOUS
 10
89.694956
 20
137.709725
 30
0.0
  0
SEQEND
  8
0
  6
CONTINUOUS
  0
POLYLINE
  8
0
  6
CONTINUOUS
 66
     1
 10
0.0
 20
0.0
 30
0.0
  0
VERTEX
  8
0
  6
CONTINUOUS
 10
89.872933
 20
137.678255
 30
0.0
  0
VERTEX
  8
0
  6
CONTINUOUS
 10
89.694956
 20
137.709725
 30
0.0
  0
SEQEND
  8
0
  6
CONTINUOUS
  0
POLYLINE
  8
0
  6
CONTINUOUS
 66
     1
 10
0.0
 20
0.0
 30
0.0
  0
VERTEX
  8
0
  6
CONTINUOUS
 10
90.04509
 20
137.717778
 30
0.0
  0
VERTEX
  8
0
  6
CONTINUOUS
 10
89.872933
 20
137.678255
 30
0.0
  0
SEQEND
  8
0
  6
CONTINUOUS
  0
POLYLINE
  8
0
  6
CONTINUOUS
 66
     1
 10
0.0
 20
0.0
 30
0.0
  0
VERTEX
  8
0
  6
CONTINUOUS
 10
89.939563
 20
138.059902
 30
0.0
  0
VERTEX
  8
0
  6
CONTINUOUS
 10
89.902479
 20
138.039148
 30
0.0
  0
VERTEX
  8
0
  6
CONTINUOUS
 10
89.865395
 20
138.018395
 30
0.0
  0
SEQEND
  8
0
  6
CONTINUOUS
  0
POLYLINE
  8
0
  6
CONTINUOUS
 66
     1
 10
0.0
 20
0.0
 30
0.0
  0
VERTEX
  8
0
  6
CONTINUOUS
 10
90.064842
 20
137.932993
 30
0.0
  0
VERTEX
  8
0
  6
CONTINUOUS
 10
89.939563
 20
138.059902
 30
0.0
  0
SEQEND
  8
0
  6
CONTINUOUS
  0
POLYLINE
  8
0
  6
CONTINUOUS
 66
     1
 10
0.0
 20
0.0
 30
0.0
  0
VERTEX
  8
0
  6
CONTINUOUS
 10
90.119258
 20
137.759285
 30
0.0
  0
VERTEX
  8
0
  6
CONTINUOUS
 10
90.064842
 20
137.932993
 30
0.0
  0
SEQEND
  8
0
  6
CONTINUOUS
  0
POLYLINE
  8
0
  6
CONTINUOUS
 66
     1
 10
0.0
 20
0.0
 30
0.0
  0
VERTEX
  8
0
  6
CONTINUOUS
 10
89.990674
 20
137.891487
 30
0.0
  0
VERTEX
  8
0
  6
CONTINUOUS
 10
90.04509
 20
137.717778
 30
0.0
  0
SEQEND
  8
0
  6
CONTINUOUS
  0
POLYLINE
  8
0
  6
CONTINUOUS
 66
     1
 10
0.0
 20
0.0
 30
0.0
  0
VERTEX
  8
0
  6
CONTINUOUS
 10
89.865395
 20
138.018395
 30
0.0
  0
VERTEX
  8
0
  6
CONTINUOUS
 10
89.990674
 20
137.891487
 30
0.0
  0
SEQEND
  8
0
  6
CONTINUOUS
  0
POLYLINE
  8
0
  6
CONTINUOUS
 66
     1
 10
0.0
 20
0.0
 30
0.0
  0
VERTEX
  8
0
  6
CONTINUOUS
 10
90.182934
 20
137.848133
 30
0.0
  0
VERTEX
  8
0
  6
CONTINUOUS
 10
90.119258
 20
137.759285
 30
0.0
  0
SEQEND
  8
0
  6
CONTINUOUS
  0
POLYLINE
  8
0
  6
CONTINUOUS
 66
     1
 10
0.0
 20
0.0
 30
0.0
  0
VERTEX
  8
0
  6
CONTINUOUS
 10
90.046791
 20
135.815867
 30
0.0
  0
VERTEX
  8
0
  6
CONTINUOUS
 10
90.046485
 20
136.157634
 30
0.0
  0
VERTEX
  8
0
  6
CONTINUOUS
 10
90.04509
 20
137.717778
 30
0.0
  0
SEQEND
  8
0
  6
CONTINUOUS
  0
POLYLINE
  8
0
  6
CONTINUOUS
 66
     1
 10
0.0
 20
0.0
 30
0.0
  0
VERTEX
  8
0
  6
CONTINUOUS
 10
90.119258
 20
137.759285
 30
0.0
  0
VERTEX
  8
0
  6
CONTINUOUS
 10
90.082174
 20
137.738531
 30
0.0
  0
VERTEX
  8
0
  6
CONTINUOUS
 10
90.04509
 20
137.717778
 30
0.0
  0
SEQEND
  8
0
  6
CONTINUOUS
  0
POLYLINE
  8
0
  6
CONTINUOUS
 66
     1
 10
0.0
 20
0.0
 30
0.0
  0
VERTEX
  8
0
  6
CONTINUOUS
 10
90.119258
 20
137.759285
 30
0.0
  0
VERTEX
  8
0
  6
CONTINUOUS
 10
90.120882
 20
135.943285
 30
0.0
  0
VERTEX
  8
0
  6
CONTINUOUS
 10
90.120959
 20
135.857374
 30
0.0
  0
SEQEND
  8
0
  6
CONTINUOUS
  0
POLYLINE
  8
0
  6
CONTINUOUS
 66
     1
 10
0.0
 20
0.0
 30
0.0
  0
VERTEX
  8
0
  6
CONTINUOUS
 10
81.610963
 20
129.363968
 30
0.0
  0
VERTEX
  8
0
  6
CONTINUOUS
 10
82.148224
 20
129.664635
 30
0.0
  0
SEQEND
  8
0
  6
CONTINUOUS
  0
POLYLINE
  8
0
  6
CONTINUOUS
 66
     1
 10
0.0
 20
0.0
 30
0.0
  0
VERTEX
  8
0
  6
CONTINUOUS
 10
84.21227
 20
149.345887
 30
0.0
  0
VERTEX
  8
0
  6
CONTINUOUS
 10
84.254461
 20
149.611159
 30
0.0
  0
VERTEX
  8
0
  6
CONTINUOUS
 10
84.36724
 20
149.878134
 30
0.0
  0
VERTEX
  8
0
  6
CONTINUOUS
 10
84.530305
 20
150.110775
 30
0.0
  0
VERTEX
  8
0
  6
CONTINUOUS
 10
84.723666
 20
150.272039
 30
0.0
  0
SEQEND
  8
0
  6
CONTINUOUS
  0
POLYLINE
  8
0
  6
CONTINUOUS
 66
     1
 10
0.0
 20
0.0
 30
0.0
  0
VERTEX
  8
0
  6
CONTINUOUS
 10
86.466597
 20
150.670371
 30
0.0
  0
VERTEX
  8
0
  6
CONTINUOUS
 10
86.464484
 20
153.0325
 30
0.0
  0
VERTEX
  8
0
  6
CONTINUOUS
 10
86.462565
 20
155.177753
 30
0.0
  0
SEQEND
  8
0
  6
CONTINUOUS
  0
POLYLINE
  8
0
  6
CONTINUOUS
 66
     1
 10
0.0
 20
0.0
 30
0.0
  0
VERTEX
  8
0
  6
CONTINUOUS
 10
86.463356
 20
150.671933
 30
0.0
  0
VERTEX
  8
0
  6
CONTINUOUS
 10
86.464166
 20
150.67155
 30
0.0
  0
VERTEX
  8
0
  6
CONTINUOUS
 10
86.464976
 20
150.671162
 30
0.0
  0
VERTEX
  8
0
  6
CONTINUOUS
 10
86.465786
 20
150.670769
 30
0.0
  0
VERTEX
  8
0
  6
CONTINUOUS
 10
86.466597
 20
150.670371
 30
0.0
  0
SEQEND
  8
0
  6
CONTINUOUS
  0
POLYLINE
  8
0
  6
CONTINUOUS
 66
     1
 10
0.0
 20
0.0
 30
0.0
  0
VERTEX
  8
0
  6
CONTINUOUS
 10
86.316514
 20
155.243516
 30
0.0
  0
VERTEX
  8
0
  6
CONTINUOUS
 10
86.462565
 20
155.177753
 30
0.0
  0
SEQEND
  8
0
  6
CONTINUOUS
  0
POLYLINE
  8
0
  6
CONTINUOUS
 66
     1
 10
0.0
 20
0.0
 30
0.0
  0
VERTEX
  8
0
  6
CONTINUOUS
 10
90.101949
 20
157.110399
 30
0.0
  0
VERTEX
  8
0
  6
CONTINUOUS
 10
90.101667
 20
157.426419
 30
0.0
  0
SEQEND
  8
0
  6
CONTINUOUS
  0
POLYLINE
  8
0
  6
CONTINUOUS
 66
     1
 10
0.0
 20
0.0
 30
0.0
  0
VERTEX
  8
0
  6
CONTINUOUS
 10
90.027781
 20
157.068892
 30
0.0
  0
VERTEX
  8
0
  6
CONTINUOUS
 10
90.064865
 20
157.089645
 30
0.0
  0
VERTEX
  8
0
  6
CONTINUOUS
 10
90.101949
 20
157.110399
 30
0.0
  0
SEQEND
  8
0
  6
CONTINUOUS
  0
POLYLINE
  8
0
  6
CONTINUOUS
 66
     1
 10
0.0
 20
0.0
 30
0.0
  0
VERTEX
  8
0
  6
CONTINUOUS
 10
90.027781
 20
157.068892
 30
0.0
  0
VERTEX
  8
0
  6
CONTINUOUS
 10
90.027498
 20
157.384912
 30
0.0
  0
SEQEND
  8
0
  6
CONTINUOUS
  0
POLYLINE
  8
0
  6
CONTINUOUS
 66
     1
 10
0.0
 20
0.0
 30
0.0
  0
VERTEX
  8
0
  6
CONTINUOUS
 10
82.622626
 20
141.940814
 30
0.0
  0
VERTEX
  8
0
  6
CONTINUOUS
 10
82.610051
 20
142.10353
 30
0.0
  0
VERTEX
  8
0
  6
CONTINUOUS
 10
82.655718
 20
142.253355
 30
0.0
  0
VERTEX
  8
0
  6
CONTINUOUS
 10
82.747391
 20
142.350143
 30
0.0
  0
SEQEND
  8
0
  6
CONTINUOUS
  0
POLYLINE
  8
0
  6
CONTINUOUS
 66
     1
 10
0.0
 20
0.0
 30
0.0
  0
VERTEX
  8
0
  6
CONTINUOUS
 10
82.757195
 20
141.755925
 30
0.0
  0
VERTEX
  8
0
  6
CONTINUOUS
 10
82.675676
 20
141.826936
 30
0.0
  0
VERTEX
  8
0
  6
CONTINUOUS
 10
82.622626
 20
141.940814
 30
0.0
  0
SEQEND
  8
0
  6
CONTINUOUS
  0
LINE
  8
0
  6
CONTINUOUS
 10
62.976472
 20
143.005281
 30
0.0
 11
29.112174
 21
123.719517
 31
0.0
  0
LINE
  8
0
  6
CONTINUOUS
 10
29.44688
 20
122.428091
 30
0.0
 11
29.673023
 21
122.55688
 31
0.0
  0
LINE
  8
0
  6
CONTINUOUS
 10
29.123461
 20
112.389308
 30
0.0
 11
29.054246
 21
112.34989
 31
0.0
  0
LINE
  8
0
  6
CONTINUOUS
 10
30.713979
 20
110.261688
 30
0.0
 11
64.584854
 21
129.551198
 31
0.0
  0
LINE
  8
0
  6
CONTINUOUS
 10
30.124147
 20
117.269631
 30
0.0
 11
30.340716
 21
117.392968
 31
0.0
  0
LINE
  8
0
  6
CONTINUOUS
 10
30.349231
 20
118.671968
 30
0.0
 11
29.907709
 21
118.420521
 31
0.0
  0
LINE
  8
0
  6
CONTINUOUS
 10
30.193311
 20
121.42195
 30
0.0
 11
30.368247
 21
121.521576
 31
0.0
  0
LINE
  8
0
  6
CONTINUOUS
 10
29.787909
 20
122.891471
 30
0.0
 11
29.734667
 21
122.86115
 31
0.0
  0
LINE
  8
0
  6
CONTINUOUS
 10
58.924748
 20
144.985499
 30
0.0
 11
25.06045
 21
125.699735
 31
0.0
  0
LINE
  8
0
  6
CONTINUOUS
 10
28.90912
 20
111.143786
 30
0.0
 11
28.982374
 21
111.185504
 31
0.0
  0
LINE
  8
0
  6
CONTINUOUS
 10
29.907317
 20
111.210065
 30
0.0
 11
30.300975
 21
111.434254
 31
0.0
  0
LINE
  8
0
  6
CONTINUOUS
 10
30.318295
 20
114.043552
 30
0.0
 11
28.620413
 21
113.076606
 31
0.0
  0
LINE
  8
0
  6
CONTINUOUS
 10
30.213168
 20
115.424522
 30
0.0
 11
30.328034
 21
115.489939
 31
0.0
  0
LINE
  8
0
  6
CONTINUOUS
 10
65.332886
 20
128.84675
 30
0.0
 11
72.539247
 21
125.32475
 31
0.0
  0
LINE
  8
0
  6
CONTINUOUS
 10
72.897876
 20
125.327314
 30
0.0
 11
73.202176
 21
125.500613
 31
0.0
  0
LINE
  8
0
  6
CONTINUOUS
 10
89.542513
 20
142.736405
 30
0.0
 11
90.285184
 21
142.402002
 31
0.0
  0
LINE
  8
0
  6
CONTINUOUS
 10
78.653839
 20
133.5234
 30
0.0
 11
78.073219
 21
133.828313
 31
0.0
  0
LINE
  8
0
  6
CONTINUOUS
 10
89.536696
 20
149.239403
 30
0.0
 11
90.279367
 21
148.904999
 31
0.0
  0
LINE
  8
0
  6
CONTINUOUS
 10
76.299626
 20
133.080103
 30
0.0
 11
77.637526
 21
132.477685
 31
0.0
  0
LINE
  8
0
  6
CONTINUOUS
 10
91.295681
 20
149.950714
 30
0.0
 11
88.959361
 21
151.177631
 31
0.0
  0
LINE
  8
0
  6
CONTINUOUS
 10
85.261688
 20
135.670925
 30
0.0
 11
87.007913
 21
134.753895
 31
0.0
  0
LINE
  8
0
  6
CONTINUOUS
 10
89.686599
 20
135.614278
 30
0.0
 11
89.351657
 21
135.765093
 31
0.0
  0
LINE
  8
0
  6
CONTINUOUS
 10
87.266215
 20
136.704107
 30
0.0
 11
86.09432
 21
137.231778
 31
0.0
  0
LINE
  8
0
  6
CONTINUOUS
 10
91.301454
 20
143.496098
 30
0.0
 11
90.693997
 21
143.815104
 31
0.0
  0
LINE
  8
0
  6
CONTINUOUS
 10
76.414275
 20
139.480496
 30
0.0
 11
77.631752
 21
138.932301
 31
0.0
  0
LINE
  8
0
  6
CONTINUOUS
 10
87.874047
 20
140.643932
 30
0.0
 11
90.287729
 21
139.557121
 31
0.0
  0
LINE
  8
0
  6
CONTINUOUS
 10
78.645478
 20
142.871279
 30
0.0
 11
76.309158
 21
144.098196
 31
0.0
  0
LINE
  8
0
  6
CONTINUOUS
 10
78.648022
 20
140.026398
 30
0.0
 11
78.067402
 21
140.33131
 31
0.0
  0
LINE
  8
0
  6
CONTINUOUS
 10
90.693716
 20
144.038289
 30
0.0
 11
91.053386
 21
144.239571
 31
0.0
  0
LINE
  8
0
  6
CONTINUOUS
 10
82.757193
 20
141.755926
 30
0.0
 11
83.666189
 21
141.313154
 31
0.0
  0
LINE
  8
0
  6
CONTINUOUS
 10
84.087052
 20
141.89893
 30
0.0
 11
83.368198
 21
142.261556
 31
0.0
  0
LINE
  8
0
  6
CONTINUOUS
 10
79.775525
 20
137.669853
 30
0.0
 11
80.518197
 21
137.33545
 31
0.0
  0
LINE
  8
0
  6
CONTINUOUS
 10
64.484876
 20
142.268071
 30
0.0
 11
30.67383
 21
123.012634
 31
0.0
  0
LINE
  8
0
  6
CONTINUOUS
 10
29.23731
 20
123.714711
 30
0.0
 11
30.67383
 21
123.012634
 31
0.0
  0
LINE
  8
0
  6
CONTINUOUS
 10
63.048356
 20
142.970148
 30
0.0
 11
29.23731
 21
123.714711
 31
0.0
  0
LINE
  8
0
  6
CONTINUOUS
 10
29.046625
 20
122.827517
 30
0.0
 11
29.051724
 21
123.592286
 31
0.0
  0
LINE
  8
0
  6
CONTINUOUS
 10
29.673835
 20
122.677988
 30
0.0
 11
29.525465
 21
122.593491
 31
0.0
  0
LINE
  8
0
  6
CONTINUOUS
 10
29.526881
 20
122.805927
 30
0.0
 11
29.525465
 21
122.593491
 31
0.0
  0
LINE
  8
0
  6
CONTINUOUS
 10
29.728244
 20
122.920603
 30
0.0
 11
29.526881
 21
122.805927
 31
0.0
  0
LINE
  8
0
  6
CONTINUOUS
 10
30.191307
 20
122.694327
 30
0.0
 11
29.712467
 21
122.928353
 31
0.0
  0
LINE
  8
0
  6
CONTINUOUS
 10
30.299272
 20
111.175278
 30
0.0
 11
30.37406
 21
122.391881
 31
0.0
  0
LINE
  8
0
  6
CONTINUOUS
 10
30.298189
 20
111.157927
 30
0.0
 11
30.113686
 21
111.052852
 31
0.0
  0
LINE
  8
0
  6
CONTINUOUS
 10
29.542761
 20
111.331883
 30
0.0
 11
30.113686
 21
111.052852
 31
0.0
  0
LINE
  8
0
  6
CONTINUOUS
 10
29.630655
 20
111.381938
 30
0.0
 11
29.542761
 21
111.331883
 31
0.0
  0
LINE
  8
0
  6
CONTINUOUS
 10
29.599755
 20
111.567603
 30
0.0
 11
29.451385
 21
111.483106
 31
0.0
  0
LINE
  8
0
  6
CONTINUOUS
 10
29.454501
 20
111.950464
 30
0.0
 11
29.451385
 21
111.483106
 31
0.0
  0
LINE
  8
0
  6
CONTINUOUS
 10
29.602871
 20
112.034961
 30
0.0
 11
29.454501
 21
111.950464
 31
0.0
  0
LINE
  8
0
  6
CONTINUOUS
 10
28.96957
 20
111.271017
 30
0.0
 11
28.975661
 21
112.18449
 31
0.0
  0
LINE
  8
0
  6
CONTINUOUS
 10
30.588844
 20
110.266494
 30
0.0
 11
29.152323
 21
110.968571
 31
0.0
  0
LINE
  8
0
  6
CONTINUOUS
 10
64.667629
 20
141.965625
 30
0.0
 11
30.856583
 21
122.710188
 31
0.0
  0
LINE
  8
0
  6
CONTINUOUS
 10
64.585475
 20
129.644356
 30
0.0
 11
64.667629
 21
141.965625
 31
0.0
  0
LINE
  8
0
  6
CONTINUOUS
 10
64.585475
 20
129.644356
 30
0.0
 11
30.774429
 21
110.388919
 31
0.0
  0
LINE
  8
0
  6
CONTINUOUS
 10
30.856583
 20
122.710188
 30
0.0
 11
30.774429
 21
110.388919
 31
0.0
  0
LINE
  8
0
  6
CONTINUOUS
 10
29.722814
 20
117.297423
 30
0.0
 11
25.82622
 21
119.413778
 31
0.0
  0
LINE
  8
0
  6
CONTINUOUS
 10
30.34259
 20
117.672449
 30
0.0
 11
30.305498
 21
117.651324
 31
0.0
  0
LINE
  8
0
  6
CONTINUOUS
 10
30.307963
 20
118.021095
 30
0.0
 11
30.305498
 21
117.651324
 31
0.0
  0
LINE
  8
0
  6
CONTINUOUS
 10
30.345056
 20
118.042219
 30
0.0
 11
30.307963
 21
118.021095
 31
0.0
  0
LINE
  8
0
  6
CONTINUOUS
 10
29.827549
 20
118.018941
 30
0.0
 11
29.829123
 21
118.255121
 31
0.0
  0
LINE
  8
0
  6
CONTINUOUS
 10
29.827414
 20
118.011511
 30
0.0
 11
29.63332
 21
117.900974
 31
0.0
  0
LINE
  8
0
  6
CONTINUOUS
 10
25.619881
 20
120.080791
 30
0.0
 11
29.63332
 21
117.900974
 31
0.0
  0
LINE
  8
0
  6
CONTINUOUS
 10
28.875362
 20
121.934792
 30
0.0
 11
25.619881
 21
120.080791
 31
0.0
  0
LINE
  8
0
  6
CONTINUOUS
 10
28.644564
 20
122.200495
 30
0.0
 11
25.445771
 21
120.378778
 31
0.0
  0
LINE
  8
0
  6
CONTINUOUS
 10
25.473741
 20
124.57371
 30
0.0
 11
25.445771
 21
120.378778
 31
0.0
  0
LINE
  8
0
  6
CONTINUOUS
 10
25.876465
 20
124.803062
 30
0.0
 11
25.473741
 21
124.57371
 31
0.0
  0
LINE
  8
0
  6
CONTINUOUS
 10
28.202279
 20
123.666434
 30
0.0
 11
25.844912
 21
124.818562
 31
0.0
  0
LINE
  8
0
  6
CONTINUOUS
 10
28.564102
 20
122.50921
 30
0.0
 11
28.567785
 21
123.061543
 31
0.0
  0
LINE
  8
0
  6
CONTINUOUS
 10
29.892986
 20
121.433483
 30
0.0
 11
28.929608
 21
121.904319
 31
0.0
  0
LINE
  8
0
  6
CONTINUOUS
 10
30.371862
 20
122.062987
 30
0.0
 11
30.280874
 21
122.011169
 31
0.0
  0
LINE
  8
0
  6
CONTINUOUS
 10
30.01859
 20
122.672176
 30
0.0
 11
30.280874
 21
122.011169
 31
0.0
  0
LINE
  8
0
  6
CONTINUOUS
 10
30.119271
 20
122.729514
 30
0.0
 11
30.01859
 21
122.672176
 31
0.0
  0
LINE
  8
0
  6
CONTINUOUS
 10
29.670534
 20
122.181586
 30
0.0
 11
29.674217
 21
122.733919
 31
0.0
  0
LINE
  8
0
  6
CONTINUOUS
 10
29.670101
 20
122.174646
 30
0.0
 11
29.5963
 21
122.132616
 31
0.0
  0
LINE
  8
0
  6
CONTINUOUS
 10
29.11746
 20
122.366642
 30
0.0
 11
29.5963
 21
122.132616
 31
0.0
  0
LINE
  8
0
  6
CONTINUOUS
 10
29.260117
 20
122.447885
 30
0.0
 11
29.11746
 21
122.366642
 31
0.0
  0
LINE
  8
0
  6
CONTINUOUS
 10
29.150001
 20
122.547784
 30
0.0
 11
29.044359
 21
122.48762
 31
0.0
  0
LINE
  8
0
  6
CONTINUOUS
 10
29.051724
 20
123.592286
 30
0.0
 11
29.044359
 21
122.48762
 31
0.0
  0
LINE
  8
0
  6
CONTINUOUS
 10
62.680017
 20
143.150168
 30
0.0
 11
58.996632
 21
144.950367
 31
0.0
  0
LINE
  8
0
  6
CONTINUOUS
 10
62.680017
 20
143.150168
 30
0.0
 11
28.868971
 21
123.894731
 31
0.0
  0
LINE
  8
0
  6
CONTINUOUS
 10
25.185586
 20
125.69493
 30
0.0
 11
28.868971
 21
123.894731
 31
0.0
  0
LINE
  8
0
  6
CONTINUOUS
 10
58.996632
 20
144.950367
 30
0.0
 11
25.185586
 21
125.69493
 31
0.0
  0
LINE
  8
0
  6
CONTINUOUS
 10
24.917846
 20
113.251235
 30
0.0
 11
25.0
 21
125.572504
 31
0.0
  0
LINE
  8
0
  6
CONTINUOUS
 10
28.783985
 20
111.148591
 30
0.0
 11
25.100599
 21
112.94879
 31
0.0
  0
LINE
  8
0
  6
CONTINUOUS
 10
28.976936
 20
112.375682
 30
0.0
 11
28.96957
 21
111.271017
 31
0.0
  0
LINE
  8
0
  6
CONTINUOUS
 10
29.057481
 20
112.421553
 30
0.0
 11
28.976936
 21
112.375682
 31
0.0
  0
LINE
  8
0
  6
CONTINUOUS
 10
29.53001
 20
112.190627
 30
0.0
 11
29.05117
 21
112.424652
 31
0.0
  0
LINE
  8
0
  6
CONTINUOUS
 10
29.599429
 20
111.517316
 30
0.0
 11
29.603111
 21
112.069648
 31
0.0
  0
LINE
  8
0
  6
CONTINUOUS
 10
30.301065
 20
111.447406
 30
0.0
 11
29.942385
 21
111.243137
 31
0.0
  0
LINE
  8
0
  6
CONTINUOUS
 10
30.211752
 20
111.644308
 30
0.0
 11
29.942385
 21
111.243137
 31
0.0
  0
LINE
  8
0
  6
CONTINUOUS
 10
30.302739
 20
111.696126
 30
0.0
 11
30.211752
 21
111.644308
 31
0.0
  0
LINE
  8
0
  6
CONTINUOUS
 10
30.310527
 20
112.867506
 30
0.0
 11
29.834062
 21
112.596159
 31
0.0
  0
LINE
  8
0
  6
CONTINUOUS
 10
28.870684
 20
113.066995
 30
0.0
 11
29.834062
 21
112.596159
 31
0.0
  0
LINE
  8
0
  6
CONTINUOUS
 10
30.317292
 20
113.890841
 30
0.0
 11
28.870684
 21
113.066995
 31
0.0
  0
LINE
  8
0
  6
CONTINUOUS
 10
28.495829
 20
112.269811
 30
0.0
 11
28.499512
 21
112.822144
 31
0.0
  0
LINE
  8
0
  6
CONTINUOUS
 10
28.493665
 20
112.235109
 30
0.0
 11
28.124658
 21
112.024959
 31
0.0
  0
LINE
  8
0
  6
CONTINUOUS
 10
25.767291
 20
113.177087
 30
0.0
 11
28.124658
 21
112.024959
 31
0.0
  0
LINE
  8
0
  6
CONTINUOUS
 10
29.918077
 20
115.540965
 30
0.0
 11
25.767291
 21
113.177087
 31
0.0
  0
LINE
  8
0
  6
CONTINUOUS
 10
29.743689
 20
116.254698
 30
0.0
 11
25.401786
 21
113.781978
 31
0.0
  0
LINE
  8
0
  6
CONTINUOUS
 10
25.429756
 20
117.97691
 30
0.0
 11
25.401786
 21
113.781978
 31
0.0
  0
LINE
  8
0
  6
CONTINUOUS
 10
25.632207
 20
118.092206
 30
0.0
 11
25.429756
 21
117.97691
 31
0.0
  0
LINE
  8
0
  6
CONTINUOUS
 10
29.623037
 20
116.35871
 30
0.0
 11
25.606696
 21
118.103326
 31
0.0
  0
LINE
  8
0
  6
CONTINUOUS
 10
29.812913
 20
115.823949
 30
0.0
 11
29.814436
 21
116.052274
 31
0.0
  0
LINE
  8
0
  6
CONTINUOUS
 10
30.328846
 20
115.611047
 30
0.0
 11
30.291753
 21
115.589923
 31
0.0
  0
LINE
  8
0
  6
CONTINUOUS
 10
30.294166
 20
115.951839
 30
0.0
 11
30.291753
 21
115.589923
 31
0.0
  0
LINE
  8
0
  6
CONTINUOUS
 10
30.331259
 20
115.972963
 30
0.0
 11
30.294166
 21
115.951839
 31
0.0
  0
LINE
  8
0
  6
CONTINUOUS
 10
30.339566
 20
117.224007
 30
0.0
 11
29.719971
 21
116.871147
 31
0.0
  0
LINE
  8
0
  6
CONTINUOUS
 10
25.82056
 20
118.564972
 30
0.0
 11
29.719971
 21
116.871147
 31
0.0
  0
LINE
  8
0
  6
CONTINUOUS
 10
26.586069
 20
119.00093
 30
0.0
 11
25.82056
 21
118.564972
 31
0.0
  0
LINE
  8
0
  6
CONTINUOUS
 10
64.584059
 20
129.431921
 30
0.0
 11
64.47178
 21
129.486795
 31
0.0
  0
LINE
  8
0
  6
CONTINUOUS
 10
64.584059
 20
129.431921
 30
0.0
 11
64.669046
 21
142.178061
 31
0.0
  0
LINE
  8
0
  6
CONTINUOUS
 10
61.704625
 20
149.900882
 30
0.0
 11
72.607447
 21
144.572293
 31
0.0
  0
LINE
  8
0
  6
CONTINUOUS
 10
61.875097
 20
150.209595
 30
0.0
 11
72.777918
 21
144.881006
 31
0.0
  0
LINE
  8
0
  6
CONTINUOUS
 10
65.462759
 20
128.882636
 30
0.0
 11
72.479967
 21
125.453083
 31
0.0
  0
LINE
  8
0
  6
CONTINUOUS
 10
73.323076
 20
125.755075
 30
0.0
 11
73.018777
 21
125.581776
 31
0.0
  0
LINE
  8
0
  6
CONTINUOUS
 10
73.143424
 20
144.276115
 30
0.0
 11
73.018777
 21
125.581776
 31
0.0
  0
LINE
  8
0
  6
CONTINUOUS
 10
72.790199
 20
144.269848
 30
0.0
 11
72.665552
 21
125.575509
 31
0.0
  0
LINE
  8
0
  6
CONTINUOUS
 10
64.669046
 20
142.178061
 30
0.0
 11
62.680017
 21
143.150168
 31
0.0
  0
LINE
  8
0
  6
CONTINUOUS
 10
58.996632
 20
144.950367
 30
0.0
 11
58.775629
 21
145.058379
 31
0.0
  0
LINE
  8
0
  6
CONTINUOUS
 10
58.775629
 20
145.058379
 30
0.0
 11
58.777132
 21
145.283864
 31
0.0
  0
LINE
  8
0
  6
CONTINUOUS
 10
62.179396
 20
150.382893
 30
0.0
 11
61.875097
 21
150.209595
 31
0.0
  0
LINE
  8
0
  6
CONTINUOUS
 10
61.692
 20
148.007355
 30
0.0
 11
61.704625
 21
149.900882
 31
0.0
  0
LINE
  8
0
  6
CONTINUOUS
 10
59.070992
 20
145.870356
 30
0.0
 11
61.54507
 21
147.714109
 31
0.0
  0
LINE
  8
0
  6
CONTINUOUS
 10
73.082218
 20
145.054305
 30
0.0
 11
72.777918
 21
144.881006
 31
0.0
  0
LINE
  8
0
  6
CONTINUOUS
 10
73.447723
 20
144.449414
 30
0.0
 11
73.143424
 21
144.276115
 31
0.0
  0
LINE
  8
0
  6
CONTINUOUS
 10
73.447723
 20
144.449414
 30
0.0
 11
73.323076
 21
125.755075
 31
0.0
  0
LINE
  8
0
  6
CONTINUOUS
 10
62.179396
 20
150.382893
 30
0.0
 11
73.082218
 21
145.054305
 31
0.0
  0
LINE
  8
0
  6
CONTINUOUS
 10
73.33043
 20
126.861897
 30
0.0
 11
73.335849
 21
126.864983
 31
0.0
  0
LINE
  8
0
  6
CONTINUOUS
 10
89.075743
 20
142.829069
 30
0.0
 11
89.077667
 21
140.677741
 31
0.0
  0
LINE
  8
0
  6
CONTINUOUS
 10
88.362275
 20
146.44065
 30
0.0
 11
88.361379
 21
147.441742
 31
0.0
  0
LINE
  8
0
  6
CONTINUOUS
 10
89.475597
 20
146.704627
 30
0.0
 11
90.218295
 21
146.34045
 31
0.0
  0
LINE
  8
0
  6
CONTINUOUS
 10
89.47903
 20
142.866727
 30
0.0
 11
90.221701
 21
142.532324
 31
0.0
  0
LINE
  8
0
  6
CONTINUOUS
 10
90.224112
 20
139.837452
 30
0.0
 11
89.481414
 21
140.201629
 31
0.0
  0
LINE
  8
0
  6
CONTINUOUS
 10
90.215885
 20
149.035321
 30
0.0
 11
89.473213
 21
149.369724
 31
0.0
  0
LINE
  8
0
  6
CONTINUOUS
 10
88.847412
 20
151.167247
 30
0.0
 11
91.183732
 21
149.94033
 31
0.0
  0
LINE
  8
0
  6
CONTINUOUS
 10
76.388723
 20
139.400071
 30
0.0
 11
76.479743
 21
139.451009
 31
0.0
  0
LINE
  8
0
  6
CONTINUOUS
 10
77.565547
 20
142.105895
 30
0.0
 11
76.290998
 21
142.730862
 31
0.0
  0
LINE
  8
0
  6
CONTINUOUS
 10
77.735987
 20
142.414566
 30
0.0
 11
76.290637
 21
143.123283
 31
0.0
  0
LINE
  8
0
  6
CONTINUOUS
 10
89.071903
 20
147.121814
 30
0.0
 11
89.069979
 21
149.273142
 31
0.0
  0
LINE
  8
0
  6
CONTINUOUS
 10
90.431452
 20
156.127373
 30
0.0
 11
89.334042
 21
155.513229
 31
0.0
  0
LINE
  8
0
  6
CONTINUOUS
 10
88.847412
 20
151.167247
 30
0.0
 11
87.972421
 21
150.677575
 31
0.0
  0
LINE
  8
0
  6
CONTINUOUS
 10
89.338109
 20
150.978656
 30
0.0
 11
89.332727
 21
156.996169
 31
0.0
  0
LINE
  8
0
  6
CONTINUOUS
 10
89.646036
 20
147.013297
 30
0.0
 11
90.388734
 21
146.64912
 31
0.0
  0
LINE
  8
0
  6
CONTINUOUS
 10
89.475597
 20
146.704627
 30
0.0
 11
89.473213
 21
149.369724
 31
0.0
  0
LINE
  8
0
  6
CONTINUOUS
 10
90.114155
 20
147.27527
 30
0.0
 11
89.646036
 21
147.013297
 31
0.0
  0
LINE
  8
0
  6
CONTINUOUS
 10
90.856853
 20
146.911094
 30
0.0
 11
90.114155
 21
147.27527
 31
0.0
  0
LINE
  8
0
  6
CONTINUOUS
 10
90.112631
 20
148.979967
 30
0.0
 11
90.114155
 21
147.27527
 31
0.0
  0
LINE
  8
0
  6
CONTINUOUS
 10
87.796823
 20
156.136631
 30
0.0
 11
87.801982
 21
150.368905
 31
0.0
  0
LINE
  8
0
  6
CONTINUOUS
 10
87.802383
 20
149.92011
 30
0.0
 11
87.801982
 21
150.368905
 31
0.0
  0
LINE
  8
0
  6
CONTINUOUS
 10
87.619099
 20
150.671075
 30
0.0
 11
87.253714
 21
150.849054
 31
0.0
  0
LINE
  8
0
  6
CONTINUOUS
 10
87.617764
 20
152.163566
 30
0.0
 11
87.619099
 21
150.671075
 31
0.0
  0
LINE
  8
0
  6
CONTINUOUS
 10
87.617764
 20
152.163566
 30
0.0
 11
87.252379
 21
152.341546
 31
0.0
  0
LINE
  8
0
  6
CONTINUOUS
 10
87.802383
 20
149.92011
 30
0.0
 11
89.069979
 21
149.273142
 31
0.0
  0
LINE
  8
0
  6
CONTINUOUS
 10
87.802383
 20
149.92011
 30
0.0
 11
87.254286
 21
150.209415
 31
0.0
  0
LINE
  8
0
  6
CONTINUOUS
 10
88.361379
 20
147.441742
 30
0.0
 11
89.071903
 21
147.121814
 31
0.0
  0
LINE
  8
0
  6
CONTINUOUS
 10
88.361379
 20
147.441742
 30
0.0
 11
88.830067
 21
147.704034
 31
0.0
  0
LINE
  8
0
  6
CONTINUOUS
 10
89.071903
 20
147.121814
 30
0.0
 11
88.830067
 21
147.704034
 31
0.0
  0
LINE
  8
0
  6
CONTINUOUS
 10
90.694065
 20
143.745893
 30
0.0
 11
91.189505
 21
143.485714
 31
0.0
  0
LINE
  8
0
  6
CONTINUOUS
 10
89.476322
 20
145.894385
 30
0.0
 11
88.362275
 21
146.44065
 31
0.0
  0
LINE
  8
0
  6
CONTINUOUS
 10
87.252379
 20
152.341546
 30
0.0
 11
87.249423
 21
155.646348
 31
0.0
  0
LINE
  8
0
  6
CONTINUOUS
 10
87.618735
 20
151.053331
 30
0.0
 11
87.253714
 21
150.849054
 31
0.0
  0
LINE
  8
0
  6
CONTINUOUS
 10
87.254286
 20
150.209415
 30
0.0
 11
87.253714
 21
150.849054
 31
0.0
  0
LINE
  8
0
  6
CONTINUOUS
 10
88.450031
 20
149.589325
 30
0.0
 11
88.450166
 21
149.438273
 31
0.0
  0
LINE
  8
0
  6
CONTINUOUS
 10
89.333678
 20
155.895485
 30
0.0
 11
90.365902
 21
156.473148
 31
0.0
  0
LINE
  8
0
  6
CONTINUOUS
 10
88.456698
 20
142.136211
 30
0.0
 11
88.455806
 21
143.13282
 31
0.0
  0
LINE
  8
0
  6
CONTINUOUS
 10
89.476322
 20
145.894385
 30
0.0
 11
89.478305
 21
143.676969
 31
0.0
  0
LINE
  8
0
  6
CONTINUOUS
 10
88.897118
 20
144.476756
 30
0.0
 11
89.47781
 21
144.195846
 31
0.0
  0
LINE
  8
0
  6
CONTINUOUS
 10
89.478305
 20
143.676969
 30
0.0
 11
88.364298
 21
144.178574
 31
0.0
  0
LINE
  8
0
  6
CONTINUOUS
 10
88.364298
 20
144.178574
 30
0.0
 11
88.365194
 21
143.177482
 31
0.0
  0
LINE
  8
0
  6
CONTINUOUS
 10
89.207971
 20
144.32632
 30
0.0
 11
89.477523
 21
144.477169
 31
0.0
  0
LINE
  8
0
  6
CONTINUOUS
 10
88.364298
 20
144.178574
 30
0.0
 11
88.897118
 21
144.476756
 31
0.0
  0
LINE
  8
0
  6
CONTINUOUS
 10
88.365194
 20
143.177482
 30
0.0
 11
89.075743
 21
142.829069
 31
0.0
  0
LINE
  8
0
  6
CONTINUOUS
 10
88.456698
 20
142.136211
 30
0.0
 11
87.262106
 21
141.467681
 31
0.0
  0
LINE
  8
0
  6
CONTINUOUS
 10
89.077667
 20
140.677741
 30
0.0
 11
88.456698
 21
142.136211
 31
0.0
  0
LINE
  8
0
  6
CONTINUOUS
 10
87.810163
 20
141.223049
 30
0.0
 11
89.077667
 21
140.677741
 31
0.0
  0
LINE
  8
0
  6
CONTINUOUS
 10
93.373734
 20
133.232988
 30
0.0
 11
90.450656
 21
134.656821
 31
0.0
  0
LINE
  8
0
  6
CONTINUOUS
 10
90.431452
 20
156.127373
 30
0.0
 11
90.436544
 21
150.434585
 31
0.0
  0
LINE
  8
0
  6
CONTINUOUS
 10
90.614144
 20
156.038383
 30
0.0
 11
90.431452
 21
156.127373
 31
0.0
  0
LINE
  8
0
  6
CONTINUOUS
 10
90.614144
 20
156.038383
 30
0.0
 11
90.612647
 21
157.712451
 31
0.0
  0
LINE
  8
0
  6
CONTINUOUS
 10
93.35123
 20
158.392125
 30
0.0
 11
92.536148
 21
158.789152
 31
0.0
  0
LINE
  8
0
  6
CONTINUOUS
 10
90.613847
 20
156.350241
 30
0.0
 11
90.365902
 21
156.473148
 31
0.0
  0
LINE
  8
0
  6
CONTINUOUS
 10
77.56827
 20
139.062623
 30
0.0
 11
76.293766
 21
139.636495
 31
0.0
  0
LINE
  8
0
  6
CONTINUOUS
 10
87.264013
 20
139.335551
 30
0.0
 11
87.629033
 21
139.539827
 31
0.0
  0
LINE
  8
0
  6
CONTINUOUS
 10
87.810163
 20
141.223049
 30
0.0
 11
87.810564
 21
140.774254
 31
0.0
  0
LINE
  8
0
  6
CONTINUOUS
 10
87.816953
 20
133.63165
 30
0.0
 11
87.810564
 21
140.774254
 31
0.0
  0
LINE
  8
0
  6
CONTINUOUS
 10
87.266969
 20
136.030749
 30
0.0
 11
87.632353
 21
135.85277
 31
0.0
  0
LINE
  8
0
  6
CONTINUOUS
 10
87.264013
 20
139.335551
 30
0.0
 11
87.266969
 21
136.030749
 31
0.0
  0
LINE
  8
0
  6
CONTINUOUS
 10
87.629397
 20
139.157572
 30
0.0
 11
87.264013
 21
139.335551
 31
0.0
  0
LINE
  8
0
  6
CONTINUOUS
 10
87.629397
 20
139.157572
 30
0.0
 11
87.628062
 21
140.650063
 31
0.0
  0
LINE
  8
0
  6
CONTINUOUS
 10
87.628062
 20
140.650063
 30
0.0
 11
87.262678
 21
140.828042
 31
0.0
  0
LINE
  8
0
  6
CONTINUOUS
 10
87.262106
 20
141.467681
 30
0.0
 11
87.262678
 21
140.828042
 31
0.0
  0
LINE
  8
0
  6
CONTINUOUS
 10
87.810163
 20
141.223049
 30
0.0
 11
87.262106
 21
141.467681
 31
0.0
  0
LINE
  8
0
  6
CONTINUOUS
 10
90.224246
 20
139.687442
 30
0.0
 11
87.810564
 21
140.774254
 31
0.0
  0
LINE
  8
0
  6
CONTINUOUS
 10
90.224112
 20
139.837452
 30
0.0
 11
90.224246
 21
139.687442
 31
0.0
  0
LINE
  8
0
  6
CONTINUOUS
 10
90.218295
 20
146.34045
 30
0.0
 11
90.221701
 21
142.532324
 31
0.0
  0
LINE
  8
0
  6
CONTINUOUS
 10
90.856853
 20
146.911094
 30
0.0
 11
90.388734
 21
146.64912
 31
0.0
  0
LINE
  8
0
  6
CONTINUOUS
 10
90.854824
 20
149.179604
 30
0.0
 11
90.856853
 21
146.911094
 31
0.0
  0
LINE
  8
0
  6
CONTINUOUS
 10
90.386705
 20
148.91763
 30
0.0
 11
90.854824
 21
149.179604
 31
0.0
  0
LINE
  8
0
  6
CONTINUOUS
 10
90.215885
 20
149.035321
 30
0.0
 11
90.21575
 21
149.185331
 31
0.0
  0
LINE
  8
0
  6
CONTINUOUS
 10
90.38619
 20
149.494001
 30
0.0
 11
91.183732
 21
149.94033
 31
0.0
  0
LINE
  8
0
  6
CONTINUOUS
 10
91.357274
 20
146.779366
 30
0.0
 11
91.354552
 21
149.822639
 31
0.0
  0
LINE
  8
0
  6
CONTINUOUS
 10
91.186835
 20
146.470696
 30
0.0
 11
90.691907
 21
146.193719
 31
0.0
  0
LINE
  8
0
  6
CONTINUOUS
 10
90.691907
 20
146.193719
 30
0.0
 11
90.694576
 21
143.208737
 31
0.0
  0
LINE
  8
0
  6
CONTINUOUS
 10
91.189505
 20
143.485714
 30
0.0
 11
90.694576
 21
143.208737
 31
0.0
  0
LINE
  8
0
  6
CONTINUOUS
 10
91.360326
 20
143.368023
 30
0.0
 11
91.363048
 21
140.32475
 31
0.0
  0
LINE
  8
0
  6
CONTINUOUS
 10
90.86267
 20
140.408096
 30
0.0
 11
90.860641
 21
142.676606
 31
0.0
  0
LINE
  8
0
  6
CONTINUOUS
 10
90.119972
 20
140.772273
 30
0.0
 11
90.118447
 21
142.47697
 31
0.0
  0
LINE
  8
0
  6
CONTINUOUS
 10
89.47903
 20
142.866727
 30
0.0
 11
89.481414
 21
140.201629
 31
0.0
  0
LINE
  8
0
  6
CONTINUOUS
 10
90.395066
 20
139.569752
 30
0.0
 11
91.192608
 21
140.01608
 31
0.0
  0
LINE
  8
0
  6
CONTINUOUS
 10
90.860641
 20
142.676606
 30
0.0
 11
90.392522
 21
142.414633
 31
0.0
  0
LINE
  8
0
  6
CONTINUOUS
 10
90.38619
 20
149.494001
 30
0.0
 11
87.972421
 21
150.677575
 31
0.0
  0
LINE
  8
0
  6
CONTINUOUS
 10
90.21575
 20
149.185331
 30
0.0
 11
87.801982
 21
150.368905
 31
0.0
  0
LINE
  8
0
  6
CONTINUOUS
 10
76.31945
 20
123.539093
 30
0.0
 11
76.991521
 21
123.211727
 31
0.0
  0
LINE
  8
0
  6
CONTINUOUS
 10
76.305984
 20
125.887756
 30
0.0
 11
77.481563
 21
126.545645
 31
0.0
  0
LINE
  8
0
  6
CONTINUOUS
 10
77.481199
 20
126.927901
 30
0.0
 11
80.775524
 21
128.771505
 31
0.0
  0
LINE
  8
0
  6
CONTINUOUS
 10
81.584982
 20
129.224502
 30
0.0
 11
82.335758
 21
129.644658
 31
0.0
  0
LINE
  8
0
  6
CONTINUOUS
 10
83.145215
 20
130.097656
 30
0.0
 11
85.990291
 21
131.689846
 31
0.0
  0
LINE
  8
0
  6
CONTINUOUS
 10
92.691873
 20
131.998118
 30
0.0
 11
89.768795
 21
133.421951
 31
0.0
  0
LINE
  8
0
  6
CONTINUOUS
 10
89.347947
 20
139.979999
 30
0.0
 11
89.352666
 21
134.704401
 31
0.0
  0
LINE
  8
0
  6
CONTINUOUS
 10
90.63005
 20
138.256416
 30
0.0
 11
90.447357
 21
138.345406
 31
0.0
  0
LINE
  8
0
  6
CONTINUOUS
 10
88.459208
 20
149.397303
 30
0.0
 11
88.830067
 21
147.704034
 31
0.0
  0
LINE
  8
0
  6
CONTINUOUS
 10
85.373065
 20
136.320948
 30
0.0
 11
85.47551
 21
136.37828
 31
0.0
  0
LINE
  8
0
  6
CONTINUOUS
 10
85.47551
 20
136.37828
 30
0.0
 11
87.224732
 21
135.532093
 31
0.0
  0
LINE
  8
0
  6
CONTINUOUS
 10
87.206825
 20
135.433865
 30
0.0
 11
85.373065
 21
136.320948
 31
0.0
  0
LINE
  8
0
  6
CONTINUOUS
 10
85.64595
 20
136.68695
 30
0.0
 11
85.645835
 21
136.814943
 31
0.0
  0
LINE
  8
0
  6
CONTINUOUS
 10
85.645835
 20
136.814943
 30
0.0
 11
87.266847
 21
136.030777
 31
0.0
  0
LINE
  8
0
  6
CONTINUOUS
 10
85.64595
 20
136.68695
 30
0.0
 11
87.262208
 21
135.905084
 31
0.0
  0
LINE
  8
0
  6
CONTINUOUS
 10
85.816274
 20
137.123613
 30
0.0
 11
85.986982
 21
137.219147
 31
0.0
  0
LINE
  8
0
  6
CONTINUOUS
 10
85.986982
 20
137.219147
 30
0.0
 11
87.266276
 21
136.643118
 31
0.0
  0
LINE
  8
0
  6
CONTINUOUS
 10
89.351718
 20
135.704103
 30
0.0
 11
89.626229
 21
135.580499
 31
0.0
  0
LINE
  8
0
  6
CONTINUOUS
 10
85.816274
 20
137.123613
 30
0.0
 11
87.266486
 21
136.422072
 31
0.0
  0
LINE
  8
0
  6
CONTINUOUS
 10
85.202816
 20
135.799
 30
0.0
 11
85.202625
 21
136.012278
 31
0.0
  0
LINE
  8
0
  6
CONTINUOUS
 10
87.120532
 20
135.084489
 30
0.0
 11
85.202625
 21
136.012278
 31
0.0
  0
LINE
  8
0
  6
CONTINUOUS
 10
87.038623
 20
134.834927
 30
0.0
 11
85.202816
 21
135.799
 31
0.0
  0
LINE
  8
0
  6
CONTINUOUS
 10
76.967492
 20
150.076569
 30
0.0
 11
92.667844
 21
158.86296
 31
0.0
  0
LINE
  8
0
  6
CONTINUOUS
 10
76.991521
 20
123.211727
 30
0.0
 11
92.691873
 21
131.998118
 31
0.0
  0
LINE
  8
0
  6
CONTINUOUS
 10
93.373734
 20
133.232988
 30
0.0
 11
93.35123
 21
158.392125
 31
0.0
  0
LINE
  8
0
  6
CONTINUOUS
 10
90.63005
 20
138.256416
 30
0.0
 11
90.632452
 21
135.569932
 31
0.0
  0
LINE
  8
0
  6
CONTINUOUS
 10
90.394551
 20
140.146123
 30
0.0
 11
89.651853
 21
140.510299
 31
0.0
  0
LINE
  8
0
  6
CONTINUOUS
 10
89.651853
 20
140.510299
 30
0.0
 11
90.119972
 21
140.772273
 31
0.0
  0
LINE
  8
0
  6
CONTINUOUS
 10
90.86267
 20
140.408096
 30
0.0
 11
90.119972
 21
140.772273
 31
0.0
  0
LINE
  8
0
  6
CONTINUOUS
 10
90.394551
 20
140.146123
 30
0.0
 11
90.86267
 21
140.408096
 31
0.0
  0
LINE
  8
0
  6
CONTINUOUS
 10
87.63426
 20
133.720639
 30
0.0
 11
87.816953
 21
133.63165
 31
0.0
  0
LINE
  8
0
  6
CONTINUOUS
 10
89.182201
 20
134.395684
 30
0.0
 11
87.816953
 21
133.63165
 31
0.0
  0
LINE
  8
0
  6
CONTINUOUS
 10
90.447357
 20
138.345406
 30
0.0
 11
90.446237
 21
139.598053
 31
0.0
  0
LINE
  8
0
  6
CONTINUOUS
 10
90.447357
 20
138.345406
 30
0.0
 11
89.349948
 21
137.731262
 31
0.0
  0
LINE
  8
0
  6
CONTINUOUS
 10
90.38421
 20
136.004697
 30
0.0
 11
89.351986
 21
135.427034
 31
0.0
  0
LINE
  8
0
  6
CONTINUOUS
 10
90.38421
 20
136.004697
 30
0.0
 11
90.632155
 21
135.88179
 31
0.0
  0
LINE
  8
0
  6
CONTINUOUS
 10
90.44976
 20
135.658922
 30
0.0
 11
90.632452
 21
135.569932
 31
0.0
  0
LINE
  8
0
  6
CONTINUOUS
 10
78.54189
 20
133.513016
 30
0.0
 11
78.073287
 21
133.759102
 31
0.0
  0
LINE
  8
0
  6
CONTINUOUS
 10
76.363279
 20
149.281425
 30
0.0
 11
76.367943
 21
144.067313
 31
0.0
  0
LINE
  8
0
  6
CONTINUOUS
 10
77.574043
 20
132.608007
 30
0.0
 11
76.299539
 21
133.181879
 31
0.0
  0
LINE
  8
0
  6
CONTINUOUS
 10
78.533529
 20
142.860894
 30
0.0
 11
76.289766
 21
144.039205
 31
0.0
  0
LINE
  8
0
  6
CONTINUOUS
 10
76.383001
 20
127.232865
 30
0.0
 11
76.377802
 21
133.044684
 31
0.0
  0
LINE
  8
0
  6
CONTINUOUS
 10
78.067471
 20
140.262099
 30
0.0
 11
78.536073
 21
140.016013
 31
0.0
  0
LINE
  8
0
  6
CONTINUOUS
 10
77.571321
 20
135.651279
 30
0.0
 11
76.296771
 21
136.276246
 31
0.0
  0
LINE
  8
0
  6
CONTINUOUS
 10
76.28563
 20
148.8417
 30
0.0
 11
76.308134
 21
123.682562
 31
0.0
  0
LINE
  8
0
  6
CONTINUOUS
 10
88.459204
 20
149.402534
 30
0.0
 11
88.459208
 21
149.397303
 31
0.0
  0
LINE
  8
0
  6
CONTINUOUS
 10
62.452896
 20
150.249225
 30
0.0
 11
72.954559
 21
145.116696
 31
0.0
  0
LINE
  8
0
  6
CONTINUOUS
 10
62.452896
 20
150.249225
 30
0.0
 11
62.450294
 21
153.158302
 31
0.0
  0
LINE
  8
0
  6
CONTINUOUS
 10
86.355675
 20
131.511866
 30
0.0
 11
85.990291
 21
131.689846
 31
0.0
  0
LINE
  8
0
  6
CONTINUOUS
 10
85.990291
 20
131.689846
 30
0.0
 11
85.990251
 21
131.733956
 31
0.0
  0
LINE
  8
0
  6
CONTINUOUS
 10
83.17129
 20
130.156428
 30
0.0
 11
82.990662
 21
129.749375
 31
0.0
  0
LINE
  8
0
  6
CONTINUOUS
 10
82.989709
 20
130.815441
 30
0.0
 11
82.990662
 21
129.749375
 31
0.0
  0
LINE
  8
0
  6
CONTINUOUS
 10
82.990662
 20
129.749375
 30
0.0
 11
82.225419
 21
129.62709
 31
0.0
  0
LINE
  8
0
  6
CONTINUOUS
 10
82.225419
 20
129.62709
 30
0.0
 11
81.860034
 21
129.805069
 31
0.0
  0
LINE
  8
0
  6
CONTINUOUS
 10
81.860034
 20
129.805069
 30
0.0
 11
81.85908
 21
130.871134
 31
0.0
  0
LINE
  8
0
  6
CONTINUOUS
 10
82.224465
 20
130.693155
 30
0.0
 11
82.225419
 21
129.62709
 31
0.0
  0
LINE
  8
0
  6
CONTINUOUS
 10
80.665186
 20
128.753936
 30
0.0
 11
77.481182
 21
126.972071
 31
0.0
  0
LINE
  8
0
  6
CONTINUOUS
 10
77.481182
 20
126.972071
 30
0.0
 11
77.481563
 21
126.545645
 31
0.0
  0
LINE
  8
0
  6
CONTINUOUS
 10
81.430429
 20
128.876222
 30
0.0
 11
80.665186
 21
128.753936
 31
0.0
  0
LINE
  8
0
  6
CONTINUOUS
 10
80.664232
 20
129.820001
 30
0.0
 11
80.665186
 21
128.753936
 31
0.0
  0
LINE
  8
0
  6
CONTINUOUS
 10
81.611057
 20
129.283274
 30
0.0
 11
81.430429
 21
128.876222
 31
0.0
  0
LINE
  8
0
  6
CONTINUOUS
 10
81.429476
 20
129.942287
 30
0.0
 11
81.430429
 21
128.876222
 31
0.0
  0
LINE
  8
0
  6
CONTINUOUS
 10
87.614808
 20
155.468368
 30
0.0
 11
87.614302
 21
156.034462
 31
0.0
  0
LINE
  8
0
  6
CONTINUOUS
 10
76.293937
 20
139.444311
 30
0.0
 11
76.388723
 21
139.400071
 31
0.0
  0
LINE
  8
0
  6
CONTINUOUS
 10
64.052607
 20
156.060134
 30
0.0
 11
72.100552
 21
160.564007
 31
0.0
  0
LINE
  8
0
  6
CONTINUOUS
 10
72.46594
 20
160.382306
 30
0.0
 11
72.100552
 21
160.564007
 31
0.0
  0
LINE
  8
0
  6
CONTINUOUS
 10
74.513812
 20
161.528357
 30
0.0
 11
72.46594
 21
160.382306
 31
0.0
  0
LINE
  8
0
  6
CONTINUOUS
 10
74.148424
 20
161.710058
 30
0.0
 11
74.513812
 21
161.528357
 31
0.0
  0
LINE
  8
0
  6
CONTINUOUS
 10
81.611057
 20
129.283274
 30
0.0
 11
81.610104
 21
130.349339
 31
0.0
  0
LINE
  8
0
  6
CONTINUOUS
 10
77.906868
 20
128.276897
 30
0.0
 11
80.664232
 21
129.820001
 31
0.0
  0
LINE
  8
0
  6
CONTINUOUS
 10
77.541484
 20
128.454876
 30
0.0
 11
77.906868
 21
128.276897
 31
0.0
  0
LINE
  8
0
  6
CONTINUOUS
 10
81.244719
 20
130.527319
 30
0.0
 11
77.541484
 21
128.454876
 31
0.0
  0
LINE
  8
0
  6
CONTINUOUS
 10
81.610104
 20
130.349339
 30
0.0
 11
81.244719
 21
130.527319
 31
0.0
  0
LINE
  8
0
  6
CONTINUOUS
 10
81.610104
 20
130.349339
 30
0.0
 11
81.429476
 21
129.942287
 31
0.0
  0
LINE
  8
0
  6
CONTINUOUS
 10
81.429476
 20
129.942287
 30
0.0
 11
80.664232
 21
129.820001
 31
0.0
  0
LINE
  8
0
  6
CONTINUOUS
 10
76.304831
 20
127.189119
 30
0.0
 11
76.383001
 21
127.232865
 31
0.0
  0
LINE
  8
0
  6
CONTINUOUS
 10
76.542744
 20
136.547879
 30
0.0
 11
76.39135
 21
136.463154
 31
0.0
  0
LINE
  8
0
  6
CONTINUOUS
 10
76.29656
 20
136.511256
 30
0.0
 11
76.39135
 21
136.463154
 31
0.0
  0
LINE
  8
0
  6
CONTINUOUS
 10
76.296
 20
137.100391
 30
0.0
 11
76.379944
 21
137.147368
 31
0.0
  0
LINE
  8
0
  6
CONTINUOUS
 10
77.74176
 20
135.95995
 30
0.0
 11
76.542744
 21
136.547879
 31
0.0
  0
LINE
  8
0
  6
CONTINUOUS
 10
76.379654
 20
137.471605
 30
0.0
 11
76.912473
 21
137.769787
 31
0.0
  0
LINE
  8
0
  6
CONTINUOUS
 10
77.493166
 20
137.488877
 30
0.0
 11
76.912473
 21
137.769787
 31
0.0
  0
LINE
  8
0
  6
CONTINUOUS
 10
73.332743
 20
126.54882
 30
0.0
 11
73.328331
 21
126.546351
 31
0.0
  0
LINE
  8
0
  6
CONTINUOUS
 10
74.148424
 20
161.710058
 30
0.0
 11
81.001777
 21
165.545401
 31
0.0
  0
LINE
  8
0
  6
CONTINUOUS
 10
74.148769
 20
161.32402
 30
0.0
 11
74.148424
 21
161.710058
 31
0.0
  0
LINE
  8
0
  6
CONTINUOUS
 10
77.574043
 20
132.608007
 30
0.0
 11
77.571321
 21
135.651279
 31
0.0
  0
LINE
  8
0
  6
CONTINUOUS
 10
77.74176
 20
135.95995
 30
0.0
 11
78.236689
 21
136.236926
 31
0.0
  0
LINE
  8
0
  6
CONTINUOUS
 10
77.73909
 20
138.944932
 30
0.0
 11
78.234019
 21
139.221909
 31
0.0
  0
LINE
  8
0
  6
CONTINUOUS
 10
77.565547
 20
142.105895
 30
0.0
 11
77.56827
 21
139.062623
 31
0.0
  0
LINE
  8
0
  6
CONTINUOUS
 10
77.735987
 20
142.414566
 30
0.0
 11
78.533529
 21
142.860894
 31
0.0
  0
LINE
  8
0
  6
CONTINUOUS
 10
78.704483
 20
142.593193
 30
0.0
 11
78.704349
 21
142.743203
 31
0.0
  0
LINE
  8
0
  6
CONTINUOUS
 10
78.065925
 20
142.022549
 30
0.0
 11
78.534044
 21
142.284523
 31
0.0
  0
LINE
  8
0
  6
CONTINUOUS
 10
78.067954
 20
139.754039
 30
0.0
 11
78.065925
 21
142.022549
 31
0.0
  0
LINE
  8
0
  6
CONTINUOUS
 10
78.536073
 20
140.016013
 30
0.0
 11
78.067954
 21
139.754039
 31
0.0
  0
LINE
  8
0
  6
CONTINUOUS
 10
78.706894
 20
139.898322
 30
0.0
 11
78.7103
 21
136.090196
 31
0.0
  0
LINE
  8
0
  6
CONTINUOUS
 10
78.539861
 20
135.781526
 30
0.0
 11
78.071742
 21
135.519552
 31
0.0
  0
LINE
  8
0
  6
CONTINUOUS
 10
78.071742
 20
135.519552
 30
0.0
 11
78.073771
 21
133.251042
 31
0.0
  0
LINE
  8
0
  6
CONTINUOUS
 10
78.073771
 20
133.251042
 30
0.0
 11
78.54189
 21
133.513016
 31
0.0
  0
LINE
  8
0
  6
CONTINUOUS
 10
78.712711
 20
133.395325
 30
0.0
 11
78.712845
 21
133.245315
 31
0.0
  0
LINE
  8
0
  6
CONTINUOUS
 10
77.744864
 20
132.490316
 30
0.0
 11
78.542405
 21
132.936645
 31
0.0
  0
LINE
  8
0
  6
CONTINUOUS
 10
87.249423
 20
155.646348
 30
0.0
 11
87.614808
 21
155.468368
 31
0.0
  0
LINE
  8
0
  6
CONTINUOUS
 10
81.85908
 20
130.871134
 30
0.0
 11
82.224465
 21
130.693155
 31
0.0
  0
LINE
  8
0
  6
CONTINUOUS
 10
85.562316
 20
132.943576
 30
0.0
 11
81.85908
 21
130.871134
 31
0.0
  0
LINE
  8
0
  6
CONTINUOUS
 10
85.562316
 20
132.943576
 30
0.0
 11
85.9277
 21
132.765597
 31
0.0
  0
LINE
  8
0
  6
CONTINUOUS
 10
83.170337
 20
131.222493
 30
0.0
 11
82.989709
 21
130.815441
 31
0.0
  0
LINE
  8
0
  6
CONTINUOUS
 10
82.989709
 20
130.815441
 30
0.0
 11
82.224465
 21
130.693155
 31
0.0
  0
LINE
  8
0
  6
CONTINUOUS
 10
76.379944
 20
137.147368
 30
0.0
 11
78.236689
 21
136.236926
 31
0.0
  0
LINE
  8
0
  6
CONTINUOUS
 10
76.379654
 20
137.471605
 30
0.0
 11
76.379944
 21
137.147368
 31
0.0
  0
LINE
  8
0
  6
CONTINUOUS
 10
77.493661
 20
136.97
 30
0.0
 11
76.379654
 21
137.471605
 31
0.0
  0
LINE
  8
0
  6
CONTINUOUS
 10
77.491849
 20
138.995181
 30
0.0
 11
77.493661
 21
136.97
 31
0.0
  0
LINE
  8
0
  6
CONTINUOUS
 10
78.236689
 20
136.236926
 30
0.0
 11
78.234019
 21
139.221909
 31
0.0
  0
LINE
  8
0
  6
CONTINUOUS
 10
89.35235
 20
135.044778
 30
0.0
 11
90.44976
 21
135.658922
 31
0.0
  0
LINE
  8
0
  6
CONTINUOUS
 10
90.450656
 20
134.656821
 30
0.0
 11
90.44976
 21
135.658922
 31
0.0
  0
LINE
  8
0
  6
CONTINUOUS
 10
86.355675
 20
131.511866
 30
0.0
 11
89.768795
 21
133.421951
 31
0.0
  0
LINE
  8
0
  6
CONTINUOUS
 10
86.355675
 20
131.511866
 30
0.0
 11
86.355294
 21
131.938292
 31
0.0
  0
LINE
  8
0
  6
CONTINUOUS
 10
86.355294
 20
131.938292
 30
0.0
 11
83.17129
 21
130.156428
 31
0.0
  0
LINE
  8
0
  6
CONTINUOUS
 10
83.17129
 20
130.156428
 30
0.0
 11
83.170337
 21
131.222493
 31
0.0
  0
LINE
  8
0
  6
CONTINUOUS
 10
83.170337
 20
131.222493
 30
0.0
 11
85.9277
 21
132.765597
 31
0.0
  0
LINE
  8
0
  6
CONTINUOUS
 10
87.632353
 20
135.85277
 30
0.0
 11
87.63426
 21
133.720639
 31
0.0
  0
LINE
  8
0
  6
CONTINUOUS
 10
90.436544
 20
150.434585
 30
0.0
 11
90.406104
 21
150.41755
 31
0.0
  0
LINE
  8
0
  6
CONTINUOUS
 10
85.42052
 20
140.568237
 30
0.0
 11
85.209351
 21
140.66332
 31
0.0
  0
LINE
  8
0
  6
CONTINUOUS
 10
77.460003
 20
128.413111
 30
0.0
 11
76.380787
 21
129.554012
 31
0.0
  0
LINE
  8
0
  6
CONTINUOUS
 10
76.381657
 20
128.621139
 30
0.0
 11
76.74561
 21
128.255255
 31
0.0
  0
LINE
  8
0
  6
CONTINUOUS
 10
80.581276
 20
133.76894
 30
0.0
 11
84.02235
 21
132.081634
 31
0.0
  0
LINE
  8
0
  6
CONTINUOUS
 10
82.180797
 20
145.320991
 30
0.0
 11
82.313856
 21
145.263202
 31
0.0
  0
LINE
  8
0
  6
CONTINUOUS
 10
84.216479
 20
144.640411
 30
0.0
 11
83.303034
 21
145.066751
 31
0.0
  0
LINE
  8
0
  6
CONTINUOUS
 10
83.799304
 20
139.636186
 30
0.0
 11
83.797792
 21
141.327003
 31
0.0
  0
LINE
  8
0
  6
CONTINUOUS
 10
83.865545
 20
141.876887
 30
0.0
 11
83.797334
 21
141.838715
 31
0.0
  0
LINE
  8
0
  6
CONTINUOUS
 10
83.14669
 20
142.239514
 30
0.0
 11
83.865545
 21
141.876887
 31
0.0
  0
LINE
  8
0
  6
CONTINUOUS
 10
81.260723
 20
137.703456
 30
0.0
 11
81.261769
 21
136.534284
 31
0.0
  0
LINE
  8
0
  6
CONTINUOUS
 10
80.579145
 20
136.152267
 30
0.0
 11
80.581276
 21
133.76894
 31
0.0
  0
LINE
  8
0
  6
CONTINUOUS
 10
76.378959
 20
131.417197
 30
0.0
 11
80.581276
 21
133.76894
 31
0.0
  0
LINE
  8
0
  6
CONTINUOUS
 10
83.055565
 20
141.164582
 30
0.0
 11
83.056606
 21
140.000362
 31
0.0
  0
LINE
  8
0
  6
CONTINUOUS
 10
84.20729
 20
141.641499
 30
0.0
 11
84.208955
 21
139.780046
 31
0.0
  0
LINE
  8
0
  6
CONTINUOUS
 10
80.454637
 20
137.551122
 30
0.0
 11
80.454714
 21
137.465772
 31
0.0
  0
LINE
  8
0
  6
CONTINUOUS
 10
79.712042
 20
137.800175
 30
0.0
 11
80.454714
 21
137.465772
 31
0.0
  0
LINE
  8
0
  6
CONTINUOUS
 10
79.711939
 20
137.915298
 30
0.0
 11
79.712042
 21
137.800175
 31
0.0
  0
LINE
  8
0
  6
CONTINUOUS
 10
80.454637
 20
137.551122
 30
0.0
 11
79.711939
 21
137.915298
 31
0.0
  0
LINE
  8
0
  6
CONTINUOUS
 10
83.056606
 20
140.000362
 30
0.0
 11
79.882379
 21
138.223969
 31
0.0
  0
LINE
  8
0
  6
CONTINUOUS
 10
83.056606
 20
140.000362
 30
0.0
 11
83.799304
 21
139.636186
 31
0.0
  0
LINE
  8
0
  6
CONTINUOUS
 10
80.625077
 20
137.859792
 30
0.0
 11
83.799304
 21
139.636186
 31
0.0
  0
LINE
  8
0
  6
CONTINUOUS
 10
80.625077
 20
137.859792
 30
0.0
 11
79.882379
 21
138.223969
 31
0.0
  0
LINE
  8
0
  6
CONTINUOUS
 10
82.173752
 20
149.187736
 30
0.0
 11
76.365927
 21
145.937502
 31
0.0
  0
LINE
  8
0
  6
CONTINUOUS
 10
82.333359
 20
145.274116
 30
0.0
 11
82.313856
 21
145.263202
 31
0.0
  0
LINE
  8
0
  6
CONTINUOUS
 10
83.028016
 20
145.475361
 30
0.0
 11
84.215049
 21
146.139661
 31
0.0
  0
LINE
  8
0
  6
CONTINUOUS
 10
80.625534
 20
137.348081
 30
0.0
 11
83.868076
 21
139.162705
 31
0.0
  0
LINE
  8
0
  6
CONTINUOUS
 10
83.303034
 20
145.066751
 30
0.0
 11
83.303415
 21
144.64026
 31
0.0
  0
LINE
  8
0
  6
CONTINUOUS
 10
85.42052
 20
140.568237
 30
0.0
 11
85.421202
 21
139.80533
 31
0.0
  0
LINE
  8
0
  6
CONTINUOUS
 10
84.208622
 20
140.103309
 30
0.0
 11
85.249699
 21
140.685928
 31
0.0
  0
LINE
  8
0
  6
CONTINUOUS
 10
83.14669
 20
142.239514
 30
0.0
 11
83.066565
 21
142.194673
 31
0.0
  0
LINE
  8
0
  6
CONTINUOUS
 10
83.303034
 20
145.066751
 30
0.0
 11
83.064115
 21
144.933045
 31
0.0
  0
LINE
  8
0
  6
CONTINUOUS
 10
85.802939
 20
140.232248
 30
0.0
 11
85.591641
 21
140.114
 31
0.0
  0
LINE
  8
0
  6
CONTINUOUS
 10
83.066565
 20
142.194673
 30
0.0
 11
83.797334
 21
141.838715
 31
0.0
  0
LINE
  8
0
  6
CONTINUOUS
 10
82.622626
 20
141.940814
 30
0.0
 11
83.592776
 21
141.468254
 31
0.0
  0
LINE
  8
0
  6
CONTINUOUS
 10
83.028016
 20
145.475361
 30
0.0
 11
82.29726
 21
145.816433
 31
0.0
  0
LINE
  8
0
  6
CONTINUOUS
 10
82.173752
 20
149.187736
 30
0.0
 11
82.177178
 21
145.357291
 31
0.0
  0
LINE
  8
0
  6
CONTINUOUS
 10
82.173752
 20
149.187736
 30
0.0
 11
82.326573
 21
150.355699
 31
0.0
  0
LINE
  8
0
  6
CONTINUOUS
 10
83.066565
 20
142.194673
 30
0.0
 11
83.064115
 21
144.933045
 31
0.0
  0
LINE
  8
0
  6
CONTINUOUS
 10
82.747391
 20
142.350143
 30
0.0
 11
83.066565
 21
142.194673
 31
0.0
  0
LINE
  8
0
  6
CONTINUOUS
 10
82.333359
 20
145.274116
 30
0.0
 11
82.334615
 21
143.8704
 31
0.0
  0
LINE
  8
0
  6
CONTINUOUS
 10
83.064115
 20
144.933045
 30
0.0
 11
82.333359
 21
145.274116
 31
0.0
  0
LINE
  8
0
  6
CONTINUOUS
 10
82.176795
 20
145.749017
 30
0.0
 11
82.29726
 21
145.816433
 31
0.0
  0
LINE
  8
0
  6
CONTINUOUS
 10
81.653443
 20
137.683162
 30
0.0
 11
81.260749
 21
137.463399
 31
0.0
  0
LINE
  8
0
  6
CONTINUOUS
 10
81.261769
 20
136.534284
 30
0.0
 11
84.971288
 21
132.612739
 31
0.0
  0
LINE
  8
0
  6
CONTINUOUS
 10
84.411576
 20
132.299507
 30
0.0
 11
80.579145
 21
136.152267
 31
0.0
  0
LINE
  8
0
  6
CONTINUOUS
 10
81.261769
 20
136.534284
 30
0.0
 11
80.579145
 21
136.152267
 31
0.0
  0
LINE
  8
0
  6
CONTINUOUS
 10
81.61051
 20
129.857604
 30
0.0
 11
81.859851
 21
129.997143
 31
0.0
  0
LINE
  8
0
  6
CONTINUOUS
 10
81.61088
 20
129.456631
 30
0.0
 11
82.059669
 21
129.707787
 31
0.0
  0
LINE
  8
0
  6
CONTINUOUS
 10
84.723666
 20
150.272039
 30
0.0
 11
85.906343
 21
150.9339
 31
0.0
  0
LINE
  8
0
  6
CONTINUOUS
 10
84.216479
 20
144.640411
 30
0.0
 11
84.21227
 21
149.345887
 31
0.0
  0
LINE
  8
0
  6
CONTINUOUS
 10
85.906343
 20
150.9339
 30
0.0
 11
86.463356
 21
150.671933
 31
0.0
  0
LINE
  8
0
  6
CONTINUOUS
 10
84.464409
 20
152.109805
 30
0.0
 11
84.76468
 21
154.439079
 31
0.0
  0
LINE
  8
0
  6
CONTINUOUS
 10
85.973676
 20
140.207537
 30
0.0
 11
85.969971
 21
144.349908
 31
0.0
  0
LINE
  8
0
  6
CONTINUOUS
 10
85.906343
 20
150.9339
 30
0.0
 11
85.905923
 21
151.402969
 31
0.0
  0
LINE
  8
0
  6
CONTINUOUS
 10
84.458177
 20
150.021175
 30
0.0
 11
84.456313
 21
152.105269
 31
0.0
  0
LINE
  8
0
  6
CONTINUOUS
 10
82.91728
 20
151.243985
 30
0.0
 11
84.464409
 21
152.109805
 31
0.0
  0
LINE
  8
0
  6
CONTINUOUS
 10
85.905923
 20
151.402969
 30
0.0
 11
84.464409
 21
152.109805
 31
0.0
  0
LINE
  8
0
  6
CONTINUOUS
 10
76.295416
 20
137.381398
 30
0.0
 11
76.37936
 21
137.428376
 31
0.0
  0
LINE
  8
0
  6
CONTINUOUS
 10
76.95272
 20
137.749246
 30
0.0
 11
77.492295
 21
138.051208
 31
0.0
  0
LINE
  8
0
  6
CONTINUOUS
 10
78.707495
 20
138.731271
 30
0.0
 11
83.055565
 21
141.164582
 31
0.0
  0
LINE
  8
0
  6
CONTINUOUS
 10
82.334615
 20
143.8704
 30
0.0
 11
78.065922
 21
141.481511
 31
0.0
  0
LINE
  8
0
  6
CONTINUOUS
 10
82.334615
 20
143.8704
 30
0.0
 11
82.747391
 21
142.350143
 31
0.0
  0
LINE
  8
0
  6
CONTINUOUS
 10
82.912988
 20
141.680015
 30
0.0
 11
83.055565
 21
141.164582
 31
0.0
  0
ENDSEC
  0
EOF
