  0
SECTION
  2
HEADER
  9
$ACADVER
  1
AC1009
  9
$INSBASE
 10
0.0
 20
0.0
 30
0.0
  9
$EXTMIN
 10
25.0
 20
49.757338
 30
0.0
  9
$EXTMAX
 10
74.569177
 20
169.527586
 30
0.0
  9
$LIMMIN
 10
25.0
 20
49.757338
  9
$LIMMAX
 10
74.569177
 20
169.527586
  9
$ORTHOMODE
 70
     0
  9
$REGENMODE
 70
     1
  9
$FILLMODE
 70
     1
  9
$QTEXTMODE
 70
     0
  9
$MIRRTEXT
 70
     1
  9
$DRAGMODE
 70
     2
  9
$LTSCALE
 40
1.0
  9
$OSMODE
 70
     0
  9
$ATTMODE
 70
     1
  9
$TEXTSIZE
 40
3.5
  9
$TRACEWID
 40
0.5
  9
$TEXTSTYLE
  7
STANDARD
  9
$CLAYER
  8
0
  9
$CELTYPE
  6
BYLAYER
  9
$CECOLOR
 62
   256
  9
$DIMSCALE
 40
1.0
  9
$DIMASZ
 40
0.18
  9
$DIMEXO
 40
0.0625
  9
$DIMDLI
 40
0.38
  9
$DIMRND
 40
0.0
  9
$DIMDLE
 40
0.0
  9
$DIMEXE
 40
0.18
  9
$DIMTP
 40
0.0
  9
$DIMTM
 40
0.0
  9
$DIMTXT
 40
0.18
  9
$DIMCEN
 40
0.09
  9
$DIMTSZ
 40
0.0
  9
$DIMTOL
 70
     0
  9
$DIMLIM
 70
     0
  9
$DIMTIH
 70
     1
  9
$DIMTOH
 70
     1
  9
$DIMSE1
 70
     0
  9
$DIMSE2
 70
     0
  9
$DIMTAD
 70
     0
  9
$DIMZIN
 70
     0
  9
$DIMBLK
  1

  9
$DIMASO
 70
     1
  9
$DIMSHO
 70
     1
  9
$DIMPOST
  1

  9
$DIMAPOST
  1

  9
$DIMALT
 70
     0
  9
$DIMALTD
 70
     2
  9
$DIMALTF
 40
25.4
  9
$DIMLFAC
 40
1.0
  9
$DIMTOFL
 70
     0
  9
$DIMTVP
 40
0.0
  9
$DIMTIX
 70
     0
  9
$DIMSOXD
 70
     0
  9
$DIMSAH
 70
     0
  9
$DIMBLK1
  1

  9
$DIMBLK2
  1

  9
$DIMSTYLE
  2
*UNNAMED
  9
$DIMCLRD
 70
     0
  9
$DIMCLRE
 70
     0
  9
$DIMCLRT
 70
     0
  9
$DIMTFAC
 40
1.0
  9
$DIMGAP
 40
0.09
  9
$LUNITS
 70
     2
  9
$LUPREC
 70
     4
  9
$SKETCHINC
 40
0.1
  9
$FILLETRAD
 40
2.0
  9
$AUNITS
 70
     0
  9
$AUPREC
 70
     0
  9
$MENU
  1
ACAD
  9
$ELEVATION
 40
0.0
  9
$PELEVATION
 40
0.0
  9
$THICKNESS
 40
0.0
  9
$LIMCHECK
 70
     0
  9
$BLIPMODE
 70
     1
  9
$CHAMFERA
 40
0.0
  9
$CHAMFERB
 40
0.0
  9
$SKPOLY
 70
     0
  9
$TDCREATE
 40
2450955.384458680
  9
$TDUPDATE
 40
2450955.384751736
  9
$TDINDWG
 40
0.0000819444
  9
$TDUSRTIMER
 40
0.0000819444
  9
$USRTIMER
 70
     1
  9
$ANGBASE
 50
0.0
  9
$ANGDIR
 70
     0
  9
$PDMODE
 70
     0
  9
$PDSIZE
 40
0.0
  9
$PLINEWID
 40
0.0
  9
$COORDS
 70
     2
  9
$SPLFRAME
 70
     0
  9
$SPLINETYPE
 70
     6
  9
$SPLINESEGS
 70
     8
  9
$ATTDIA
 70
     0
  9
$ATTREQ
 70
     1
  9
$HANDLING
 70
     0
  9
$HANDSEED
  5
0
  9
$SURFTAB1
 70
     6
  9
$SURFTAB2
 70
     6
  9
$SURFTYPE
 70
     6
  9
$SURFU
 70
     6
  9
$SURFV
 70
     6
  9
$UCSNAME
  2

  9
$UCSORG
 10
0.0
 20
0.0
 30
0.0
  9
$UCSXDIR
 10
1.0
 20
0.0
 30
0.0
  9
$UCSYDIR
 10
0.0
 20
1.0
 30
0.0
  9
$PUCSNAME
  2

  9
$PUCSORG
 10
0.0
 20
0.0
 30
0.0
  9
$PUCSXDIR
 10
1.0
 20
0.0
 30
0.0
  9
$PUCSYDIR
 10
0.0
 20
1.0
 30
0.0
  9
$USERI1
 70
     0
  9
$USERI2
 70
     0
  9
$USERI3
 70
     0
  9
$USERI4
 70
     0
  9
$USERI5
 70
     0
  9
$USERR1
 40
0.0
  9
$USERR2
 40
0.0
  9
$USERR3
 40
0.0
  9
$USERR4
 40
0.0
  9
$USERR5
 40
0.0
  9
$WORLDVIEW
 70
     1
  9
$SHADEDGE
 70
     3
  9
$SHADEDIF
 70
    70
  9
$TILEMODE
 70
     1
  9
$MAXACTVP
 70
    16
  9
$PINSBASE
 10
0.0
 20
0.0
 30
0.0
  9
$PLIMCHECK
 70
     0
  9
$PEXTMIN
 10
1.000000E+20
 20
1.000000E+20
 30
1.000000E+20
  9
$PEXTMAX
 10
-1.000000E+20
 20
-1.000000E+20
 30
-1.000000E+20
  9
$PLIMMIN
 10
0.0
 20
0.0
  9
$PLIMMAX
 10
420.0
 20
297.0
  9
$UNITMODE
 70
     0
  9
$VISRETAIN
 70
     0
  9
$PLINEGEN
 70
     0
  9
$PSLTSCALE
 70
     1
  9
$TREEDEPTH
 70
  3020
  9
$DWGCODEPAGE
  3
iso8859-1
  0
ENDSEC
  0
SECTION
  2
TABLES
  0
TABLE
  2
VPORT
 70
     2
  0
VPORT
  2
*ACTIVE
 70
     0
 10
0.0
 20
0.0
 11
1.0
 21
1.0
 12
131.545656
 22
111.382463
 13
0.0
 23
0.0
 14
1.0
 24
1.0
 15
0.0
 25
0.0
 16
0.0
 26
0.0
 36
1.0
 17
0.0
 27
0.0
 37
0.0
 40
164.557896
 41
1.748359
 42
50.0
 43
0.0
 44
0.0
 50
0.0
 51
0.0
 71
     0
 72
   100
 73
     1
 74
     0
 75
     0
 76
     0
 77
     0
 78
     0
  0
ENDTAB
  0
TABLE
  2
LTYPE
 70
     1
  0
LTYPE
  2
CONTINUOUS
 70
    64
  3
Solid line
 72
    65
 73
     0
 40
0.0
  0
ENDTAB
  0
TABLE
  2
LAYER
 70
     1
  0
LAYER
  2
0
 70
    64
 62
     7
  6
CONTINUOUS
  0
ENDTAB
  0
TABLE
  2
STYLE
 70
     1
  0
STYLE
  2
STANDARD
 70
     0
 40
0.0
 41
1.0
 50
0.0
 71
     0
 42
3.5
  3
txt
  4

  0
ENDTAB
  0
TABLE
  2
VIEW
 70
     0
  0
ENDTAB
  0
TABLE
  2
UCS
 70
     0
  0
ENDTAB
  0
TABLE
  2
APPID
 70
     1
  0
APPID
  2
ACAD
 70
    64
  0
ENDTAB
  0
TABLE
  2
DIMSTYLE
 70
     0
  0
ENDTAB
  0
ENDSEC
  0
SECTION
  2
BLOCKS
  0
ENDSEC
  0
SECTION
  2
ENTITIES
  0
POLYLINE
  8
0
  6
CONTINUOUS
 66
     1
 10
0.0
 20
0.0
 30
0.0
  0
VERTEX
  8
0
  6
CONTINUOUS
 10
56.330167
 20
97.420423
 30
0.0
  0
VERTEX
  8
0
  6
CONTINUOUS
 10
56.30995
 20
97.409615
 30
0.0
  0
VERTEX
  8
0
  6
CONTINUOUS
 10
56.281373
 20
97.395569
 30
0.0
  0
VERTEX
  8
0
  6
CONTINUOUS
 10
56.205663
 20
97.362312
 30
0.0
  0
VERTEX
  8
0
  6
CONTINUOUS
 10
55.869768
 20
97.258167
 30
0.0
  0
VERTEX
  8
0
  6
CONTINUOUS
 10
55.627821
 20
97.225676
 30
0.0
  0
VERTEX
  8
0
  6
CONTINUOUS
 10
55.295206
 20
97.243859
 30
0.0
  0
VERTEX
  8
0
  6
CONTINUOUS
 10
55.151308
 20
97.274989
 30
0.0
  0
VERTEX
  8
0
  6
CONTINUOUS
 10
55.073169
 20
97.299582
 30
0.0
  0
VERTEX
  8
0
  6
CONTINUOUS
 10
54.994118
 20
97.331985
 30
0.0
  0
SEQEND
  8
0
  6
CONTINUOUS
  0
POLYLINE
  8
0
  6
CONTINUOUS
 66
     1
 10
0.0
 20
0.0
 30
0.0
  0
VERTEX
  8
0
  6
CONTINUOUS
 10
74.133142
 20
107.945372
 30
0.0
  0
VERTEX
  8
0
  6
CONTINUOUS
 10
73.805101
 20
107.436708
 30
0.0
  0
VERTEX
  8
0
  6
CONTINUOUS
 10
73.476058
 20
107.090568
 30
0.0
  0
VERTEX
  8
0
  6
CONTINUOUS
 10
73.178615
 20
106.855691
 30
0.0
  0
SEQEND
  8
0
  6
CONTINUOUS
  0
POLYLINE
  8
0
  6
CONTINUOUS
 66
     1
 10
0.0
 20
0.0
 30
0.0
  0
VERTEX
  8
0
  6
CONTINUOUS
 10
73.178615
 20
106.855691
 30
0.0
  0
VERTEX
  8
0
  6
CONTINUOUS
 10
73.132342
 20
106.824936
 30
0.0
  0
VERTEX
  8
0
  6
CONTINUOUS
 10
73.113483
 20
106.813228
 30
0.0
  0
VERTEX
  8
0
  6
CONTINUOUS
 10
73.097352
 20
106.803846
 30
0.0
  0
SEQEND
  8
0
  6
CONTINUOUS
  0
POLYLINE
  8
0
  6
CONTINUOUS
 66
     1
 10
0.0
 20
0.0
 30
0.0
  0
VERTEX
  8
0
  6
CONTINUOUS
 10
74.569177
 20
109.425364
 30
0.0
  0
VERTEX
  8
0
  6
CONTINUOUS
 10
74.568995
 20
109.411152
 30
0.0
  0
VERTEX
  8
0
  6
CONTINUOUS
 10
74.568186
 20
109.388995
 30
0.0
  0
VERTEX
  8
0
  6
CONTINUOUS
 10
74.562862
 20
109.310887
 30
0.0
  0
VERTEX
  8
0
  6
CONTINUOUS
 10
74.432281
 20
108.625116
 30
0.0
  0
VERTEX
  8
0
  6
CONTINUOUS
 10
74.300467
 20
108.273249
 30
0.0
  0
VERTEX
  8
0
  6
CONTINUOUS
 10
74.133142
 20
107.945372
 30
0.0
  0
SEQEND
  8
0
  6
CONTINUOUS
  0
POLYLINE
  8
0
  6
CONTINUOUS
 66
     1
 10
0.0
 20
0.0
 30
0.0
  0
VERTEX
  8
0
  6
CONTINUOUS
 10
74.545792
 20
134.040201
 30
0.0
  0
VERTEX
  8
0
  6
CONTINUOUS
 10
74.546858
 20
134.017131
 30
0.0
  0
VERTEX
  8
0
  6
CONTINUOUS
 10
74.547112
 20
134.007373
 30
0.0
  0
VERTEX
  8
0
  6
CONTINUOUS
 10
74.547198
 20
133.998747
 30
0.0
  0
SEQEND
  8
0
  6
CONTINUOUS
  0
POLYLINE
  8
0
  6
CONTINUOUS
 66
     1
 10
0.0
 20
0.0
 30
0.0
  0
VERTEX
  8
0
  6
CONTINUOUS
 10
73.847616
 20
135.400544
 30
0.0
  0
VERTEX
  8
0
  6
CONTINUOUS
 10
73.929332
 20
135.338192
 30
0.0
  0
VERTEX
  8
0
  6
CONTINUOUS
 10
74.00801
 20
135.267581
 30
0.0
  0
VERTEX
  8
0
  6
CONTINUOUS
 10
74.142979
 20
135.125068
 30
0.0
  0
VERTEX
  8
0
  6
CONTINUOUS
 10
74.296518
 20
134.914072
 30
0.0
  0
VERTEX
  8
0
  6
CONTINUOUS
 10
74.480136
 20
134.456491
 30
0.0
  0
VERTEX
  8
0
  6
CONTINUOUS
 10
74.526297
 20
134.221925
 30
0.0
  0
VERTEX
  8
0
  6
CONTINUOUS
 10
74.545792
 20
134.040201
 30
0.0
  0
SEQEND
  8
0
  6
CONTINUOUS
  0
POLYLINE
  8
0
  6
CONTINUOUS
 66
     1
 10
0.0
 20
0.0
 30
0.0
  0
VERTEX
  8
0
  6
CONTINUOUS
 10
73.741316
 20
135.463923
 30
0.0
  0
VERTEX
  8
0
  6
CONTINUOUS
 10
73.847616
 20
135.400544
 30
0.0
  0
SEQEND
  8
0
  6
CONTINUOUS
  0
POLYLINE
  8
0
  6
CONTINUOUS
 66
     1
 10
0.0
 20
0.0
 30
0.0
  0
VERTEX
  8
0
  6
CONTINUOUS
 10
73.739852
 20
135.464666
 30
0.0
  0
VERTEX
  8
0
  6
CONTINUOUS
 10
68.207776
 20
138.263716
 30
0.0
  0
VERTEX
  8
0
  6
CONTINUOUS
 10
62.675856
 20
141.062688
 30
0.0
  0
SEQEND
  8
0
  6
CONTINUOUS
  0
POLYLINE
  8
0
  6
CONTINUOUS
 66
     1
 10
0.0
 20
0.0
 30
0.0
  0
VERTEX
  8
0
  6
CONTINUOUS
 10
56.330059
 20
97.420362
 30
0.0
  0
VERTEX
  8
0
  6
CONTINUOUS
 10
64.713759
 20
102.112134
 30
0.0
  0
VERTEX
  8
0
  6
CONTINUOUS
 10
73.097458
 20
106.803905
 30
0.0
  0
SEQEND
  8
0
  6
CONTINUOUS
  0
POLYLINE
  8
0
  6
CONTINUOUS
 66
     1
 10
0.0
 20
0.0
 30
0.0
  0
VERTEX
  8
0
  6
CONTINUOUS
 10
74.569177
 20
109.425379
 30
0.0
  0
VERTEX
  8
0
  6
CONTINUOUS
 10
74.558188
 20
121.712059
 30
0.0
  0
VERTEX
  8
0
  6
CONTINUOUS
 10
74.547198
 20
133.998739
 30
0.0
  0
SEQEND
  8
0
  6
CONTINUOUS
  0
POLYLINE
  8
0
  6
CONTINUOUS
 66
     1
 10
0.0
 20
0.0
 30
0.0
  0
VERTEX
  8
0
  6
CONTINUOUS
 10
67.618875
 20
120.488079
 30
0.0
  0
VERTEX
  8
0
  6
CONTINUOUS
 10
67.618706
 20
120.481409
 30
0.0
  0
VERTEX
  8
0
  6
CONTINUOUS
 10
67.618049
 20
120.472154
 30
0.0
  0
VERTEX
  8
0
  6
CONTINUOUS
 10
67.615381
 20
120.451742
 30
0.0
  0
VERTEX
  8
0
  6
CONTINUOUS
 10
67.594582
 20
120.384377
 30
0.0
  0
VERTEX
  8
0
  6
CONTINUOUS
 10
67.562059
 20
120.33395
 30
0.0
  0
VERTEX
  8
0
  6
CONTINUOUS
 10
67.516863
 20
120.289728
 30
0.0
  0
VERTEX
  8
0
  6
CONTINUOUS
 10
67.507281
 20
120.282497
 30
0.0
  0
SEQEND
  8
0
  6
CONTINUOUS
  0
POLYLINE
  8
0
  6
CONTINUOUS
 66
     1
 10
0.0
 20
0.0
 30
0.0
  0
VERTEX
  8
0
  6
CONTINUOUS
 10
67.507281
 20
120.282497
 30
0.0
  0
VERTEX
  8
0
  6
CONTINUOUS
 10
67.499594
 20
120.277291
 30
0.0
  0
VERTEX
  8
0
  6
CONTINUOUS
 10
67.491797
 20
120.272614
 30
0.0
  0
SEQEND
  8
0
  6
CONTINUOUS
  0
POLYLINE
  8
0
  6
CONTINUOUS
 66
     1
 10
0.0
 20
0.0
 30
0.0
  0
VERTEX
  8
0
  6
CONTINUOUS
 10
65.714083
 20
119.277752
 30
0.0
  0
VERTEX
  8
0
  6
CONTINUOUS
 10
65.700406
 20
119.270993
 30
0.0
  0
VERTEX
  8
0
  6
CONTINUOUS
 10
65.684659
 20
119.264749
 30
0.0
  0
VERTEX
  8
0
  6
CONTINUOUS
 10
65.647477
 20
119.254212
 30
0.0
  0
VERTEX
  8
0
  6
CONTINUOUS
 10
65.603461
 20
119.248585
 30
0.0
  0
VERTEX
  8
0
  6
CONTINUOUS
 10
65.537807
 20
119.254428
 30
0.0
  0
VERTEX
  8
0
  6
CONTINUOUS
 10
65.511788
 20
119.261636
 30
0.0
  0
VERTEX
  8
0
  6
CONTINUOUS
 10
65.501203
 20
119.265495
 30
0.0
  0
VERTEX
  8
0
  6
CONTINUOUS
 10
65.492066
 20
119.269409
 30
0.0
  0
SEQEND
  8
0
  6
CONTINUOUS
  0
POLYLINE
  8
0
  6
CONTINUOUS
 66
     1
 10
0.0
 20
0.0
 30
0.0
  0
VERTEX
  8
0
  6
CONTINUOUS
 10
67.088778
 20
130.744826
 30
0.0
  0
VERTEX
  8
0
  6
CONTINUOUS
 10
67.088227
 20
130.744686
 30
0.0
  0
VERTEX
  8
0
  6
CONTINUOUS
 10
67.079339
 20
130.740833
 30
0.0
  0
VERTEX
  8
0
  6
CONTINUOUS
 10
67.072371
 20
130.737315
 30
0.0
  0
VERTEX
  8
0
  6
CONTINUOUS
 10
67.066918
 20
130.734338
 30
0.0
  0
SEQEND
  8
0
  6
CONTINUOUS
  0
POLYLINE
  8
0
  6
CONTINUOUS
 66
     1
 10
0.0
 20
0.0
 30
0.0
  0
VERTEX
  8
0
  6
CONTINUOUS
 10
67.609278
 20
130.777489
 30
0.0
  0
VERTEX
  8
0
  6
CONTINUOUS
 10
67.609586
 20
130.76962
 30
0.0
  0
VERTEX
  8
0
  6
CONTINUOUS
 10
67.609684
 20
130.763258
 30
0.0
  0
SEQEND
  8
0
  6
CONTINUOUS
  0
POLYLINE
  8
0
  6
CONTINUOUS
 66
     1
 10
0.0
 20
0.0
 30
0.0
  0
VERTEX
  8
0
  6
CONTINUOUS
 10
67.537755
 20
131.062532
 30
0.0
  0
VERTEX
  8
0
  6
CONTINUOUS
 10
67.582631
 20
130.944114
 30
0.0
  0
VERTEX
  8
0
  6
CONTINUOUS
 10
67.609278
 20
130.777489
 30
0.0
  0
SEQEND
  8
0
  6
CONTINUOUS
  0
POLYLINE
  8
0
  6
CONTINUOUS
 66
     1
 10
0.0
 20
0.0
 30
0.0
  0
VERTEX
  8
0
  6
CONTINUOUS
 10
64.028101
 20
119.952697
 30
0.0
  0
VERTEX
  8
0
  6
CONTINUOUS
 10
64.759683
 20
119.61124
 30
0.0
  0
VERTEX
  8
0
  6
CONTINUOUS
 10
65.492063
 20
119.26941
 30
0.0
  0
SEQEND
  8
0
  6
CONTINUOUS
  0
POLYLINE
  8
0
  6
CONTINUOUS
 66
     1
 10
0.0
 20
0.0
 30
0.0
  0
VERTEX
  8
0
  6
CONTINUOUS
 10
65.714082
 20
119.277751
 30
0.0
  0
VERTEX
  8
0
  6
CONTINUOUS
 10
66.60297
 20
119.7752
 30
0.0
  0
VERTEX
  8
0
  6
CONTINUOUS
 10
67.491858
 20
120.272648
 30
0.0
  0
SEQEND
  8
0
  6
CONTINUOUS
  0
POLYLINE
  8
0
  6
CONTINUOUS
 66
     1
 10
0.0
 20
0.0
 30
0.0
  0
VERTEX
  8
0
  6
CONTINUOUS
 10
67.618875
 20
120.48808
 30
0.0
  0
VERTEX
  8
0
  6
CONTINUOUS
 10
67.614279
 20
125.625668
 30
0.0
  0
VERTEX
  8
0
  6
CONTINUOUS
 10
67.609684
 20
130.763256
 30
0.0
  0
SEQEND
  8
0
  6
CONTINUOUS
  0
POLYLINE
  8
0
  6
CONTINUOUS
 66
     1
 10
0.0
 20
0.0
 30
0.0
  0
VERTEX
  8
0
  6
CONTINUOUS
 10
65.777034
 20
130.01248
 30
0.0
  0
VERTEX
  8
0
  6
CONTINUOUS
 10
66.400354
 20
130.361309
 30
0.0
  0
VERTEX
  8
0
  6
CONTINUOUS
 10
67.066864
 20
130.734308
 30
0.0
  0
SEQEND
  8
0
  6
CONTINUOUS
  0
POLYLINE
  8
0
  6
CONTINUOUS
 66
     1
 10
0.0
 20
0.0
 30
0.0
  0
VERTEX
  8
0
  6
CONTINUOUS
 10
70.623647
 20
132.382045
 30
0.0
  0
VERTEX
  8
0
  6
CONTINUOUS
 10
70.610094
 20
132.375322
 30
0.0
  0
VERTEX
  8
0
  6
CONTINUOUS
 10
70.594271
 20
132.369003
 30
0.0
  0
VERTEX
  8
0
  6
CONTINUOUS
 10
70.556416
 20
132.358229
 30
0.0
  0
VERTEX
  8
0
  6
CONTINUOUS
 10
70.513378
 20
132.352704
 30
0.0
  0
VERTEX
  8
0
  6
CONTINUOUS
 10
70.449348
 20
132.358102
 30
0.0
  0
VERTEX
  8
0
  6
CONTINUOUS
 10
70.423875
 20
132.364921
 30
0.0
  0
VERTEX
  8
0
  6
CONTINUOUS
 10
70.413502
 20
132.368584
 30
0.0
  0
VERTEX
  8
0
  6
CONTINUOUS
 10
70.404585
 20
132.372285
 30
0.0
  0
SEQEND
  8
0
  6
CONTINUOUS
  0
POLYLINE
  8
0
  6
CONTINUOUS
 66
     1
 10
0.0
 20
0.0
 30
0.0
  0
VERTEX
  8
0
  6
CONTINUOUS
 10
70.713179
 20
132.433368
 30
0.0
  0
VERTEX
  8
0
  6
CONTINUOUS
 10
70.705492
 20
132.428162
 30
0.0
  0
VERTEX
  8
0
  6
CONTINUOUS
 10
70.697695
 20
132.423485
 30
0.0
  0
SEQEND
  8
0
  6
CONTINUOUS
  0
POLYLINE
  8
0
  6
CONTINUOUS
 66
     1
 10
0.0
 20
0.0
 30
0.0
  0
VERTEX
  8
0
  6
CONTINUOUS
 10
70.113036
 20
132.50356
 30
0.0
  0
VERTEX
  8
0
  6
CONTINUOUS
 10
70.404698
 20
132.372234
 30
0.0
  0
SEQEND
  8
0
  6
CONTINUOUS
  0
POLYLINE
  8
0
  6
CONTINUOUS
 66
     1
 10
0.0
 20
0.0
 30
0.0
  0
VERTEX
  8
0
  6
CONTINUOUS
 10
70.623588
 20
132.382012
 30
0.0
  0
VERTEX
  8
0
  6
CONTINUOUS
 10
70.660672
 20
132.402765
 30
0.0
  0
VERTEX
  8
0
  6
CONTINUOUS
 10
70.697756
 20
132.423519
 30
0.0
  0
SEQEND
  8
0
  6
CONTINUOUS
  0
POLYLINE
  8
0
  6
CONTINUOUS
 66
     1
 10
0.0
 20
0.0
 30
0.0
  0
VERTEX
  8
0
  6
CONTINUOUS
 10
70.709148
 20
113.506587
 30
0.0
  0
VERTEX
  8
0
  6
CONTINUOUS
 10
70.657445
 20
113.533739
 30
0.0
  0
SEQEND
  8
0
  6
CONTINUOUS
  0
POLYLINE
  8
0
  6
CONTINUOUS
 66
     1
 10
0.0
 20
0.0
 30
0.0
  0
VERTEX
  8
0
  6
CONTINUOUS
 10
68.102689
 20
114.875368
 30
0.0
  0
VERTEX
  8
0
  6
CONTINUOUS
 10
66.571305
 20
115.679574
 30
0.0
  0
SEQEND
  8
0
  6
CONTINUOUS
  0
POLYLINE
  8
0
  6
CONTINUOUS
 66
     1
 10
0.0
 20
0.0
 30
0.0
  0
VERTEX
  8
0
  6
CONTINUOUS
 10
70.709089
 20
113.506618
 30
0.0
  0
VERTEX
  8
0
  6
CONTINUOUS
 10
70.71424
 20
113.503776
 30
0.0
  0
VERTEX
  8
0
  6
CONTINUOUS
 10
70.721893
 20
113.499071
 30
0.0
  0
VERTEX
  8
0
  6
CONTINUOUS
 10
70.729709
 20
113.49374
 30
0.0
  0
SEQEND
  8
0
  6
CONTINUOUS
  0
POLYLINE
  8
0
  6
CONTINUOUS
 66
     1
 10
0.0
 20
0.0
 30
0.0
  0
VERTEX
  8
0
  6
CONTINUOUS
 10
70.824773
 20
132.63895
 30
0.0
  0
VERTEX
  8
0
  6
CONTINUOUS
 10
70.824605
 20
132.63228
 30
0.0
  0
VERTEX
  8
0
  6
CONTINUOUS
 10
70.823947
 20
132.623025
 30
0.0
  0
VERTEX
  8
0
  6
CONTINUOUS
 10
70.821279
 20
132.602613
 30
0.0
  0
VERTEX
  8
0
  6
CONTINUOUS
 10
70.80048
 20
132.535247
 30
0.0
  0
VERTEX
  8
0
  6
CONTINUOUS
 10
70.767957
 20
132.48482
 30
0.0
  0
VERTEX
  8
0
  6
CONTINUOUS
 10
70.722761
 20
132.440599
 30
0.0
  0
VERTEX
  8
0
  6
CONTINUOUS
 10
70.713179
 20
132.433368
 30
0.0
  0
SEQEND
  8
0
  6
CONTINUOUS
  0
POLYLINE
  8
0
  6
CONTINUOUS
 66
     1
 10
0.0
 20
0.0
 30
0.0
  0
VERTEX
  8
0
  6
CONTINUOUS
 10
70.824538
 20
132.901792
 30
0.0
  0
VERTEX
  8
0
  6
CONTINUOUS
 10
70.824773
 20
132.63895
 30
0.0
  0
SEQEND
  8
0
  6
CONTINUOUS
  0
POLYLINE
  8
0
  6
CONTINUOUS
 66
     1
 10
0.0
 20
0.0
 30
0.0
  0
VERTEX
  8
0
  6
CONTINUOUS
 10
70.841934
 20
113.293614
 30
0.0
  0
VERTEX
  8
0
  6
CONTINUOUS
 10
70.842081
 20
113.287836
 30
0.0
  0
SEQEND
  8
0
  6
CONTINUOUS
  0
POLYLINE
  8
0
  6
CONTINUOUS
 66
     1
 10
0.0
 20
0.0
 30
0.0
  0
VERTEX
  8
0
  6
CONTINUOUS
 10
70.729709
 20
113.49374
 30
0.0
  0
VERTEX
  8
0
  6
CONTINUOUS
 10
70.749693
 20
113.478007
 30
0.0
  0
VERTEX
  8
0
  6
CONTINUOUS
 10
70.773132
 20
113.455807
 30
0.0
  0
VERTEX
  8
0
  6
CONTINUOUS
 10
70.806266
 20
113.413345
 30
0.0
  0
VERTEX
  8
0
  6
CONTINUOUS
 10
70.832101
 20
113.353288
 30
0.0
  0
VERTEX
  8
0
  6
CONTINUOUS
 10
70.839232
 20
113.319442
 30
0.0
  0
VERTEX
  8
0
  6
CONTINUOUS
 10
70.841017
 20
113.305429
 30
0.0
  0
VERTEX
  8
0
  6
CONTINUOUS
 10
70.841575
 20
113.299281
 30
0.0
  0
VERTEX
  8
0
  6
CONTINUOUS
 10
70.841934
 20
113.293614
 30
0.0
  0
SEQEND
  8
0
  6
CONTINUOUS
  0
POLYLINE
  8
0
  6
CONTINUOUS
 66
     1
 10
0.0
 20
0.0
 30
0.0
  0
VERTEX
  8
0
  6
CONTINUOUS
 10
70.84383
 20
111.332747
 30
0.0
  0
VERTEX
  8
0
  6
CONTINUOUS
 10
70.843229
 20
112.004788
 30
0.0
  0
VERTEX
  8
0
  6
CONTINUOUS
 10
70.842081
 20
113.287836
 30
0.0
  0
SEQEND
  8
0
  6
CONTINUOUS
  0
POLYLINE
  8
0
  6
CONTINUOUS
 66
     1
 10
0.0
 20
0.0
 30
0.0
  0
VERTEX
  8
0
  6
CONTINUOUS
 10
58.140312
 20
102.401376
 30
0.0
  0
VERTEX
  8
0
  6
CONTINUOUS
 10
61.350184
 20
104.197717
 30
0.0
  0
SEQEND
  8
0
  6
CONTINUOUS
  0
POLYLINE
  8
0
  6
CONTINUOUS
 66
     1
 10
0.0
 20
0.0
 30
0.0
  0
VERTEX
  8
0
  6
CONTINUOUS
 10
62.264069
 20
104.709155
 30
0.0
  0
VERTEX
  8
0
  6
CONTINUOUS
 10
62.910417
 20
105.070871
 30
0.0
  0
SEQEND
  8
0
  6
CONTINUOUS
  0
POLYLINE
  8
0
  6
CONTINUOUS
 66
     1
 10
0.0
 20
0.0
 30
0.0
  0
VERTEX
  8
0
  6
CONTINUOUS
 10
63.824302
 20
105.582308
 30
0.0
  0
VERTEX
  8
0
  6
CONTINUOUS
 10
66.649404
 20
107.16332
 30
0.0
  0
SEQEND
  8
0
  6
CONTINUOUS
  0
POLYLINE
  8
0
  6
CONTINUOUS
 66
     1
 10
0.0
 20
0.0
 30
0.0
  0
VERTEX
  8
0
  6
CONTINUOUS
 10
73.123206
 20
106.819958
 30
0.0
  0
VERTEX
  8
0
  6
CONTINUOUS
 10
73.178738
 20
106.855775
 30
0.0
  0
SEQEND
  8
0
  6
CONTINUOUS
  0
POLYLINE
  8
0
  6
CONTINUOUS
 66
     1
 10
0.0
 20
0.0
 30
0.0
  0
VERTEX
  8
0
  6
CONTINUOUS
 10
54.865683
 20
97.4055
 30
0.0
  0
VERTEX
  8
0
  6
CONTINUOUS
 10
54.509075
 20
97.847505
 30
0.0
  0
VERTEX
  8
0
  6
CONTINUOUS
 10
54.371424
 20
98.531278
 30
0.0
  0
SEQEND
  8
0
  6
CONTINUOUS
  0
POLYLINE
  8
0
  6
CONTINUOUS
 66
     1
 10
0.0
 20
0.0
 30
0.0
  0
VERTEX
  8
0
  6
CONTINUOUS
 10
54.994118
 20
97.331985
 30
0.0
  0
VERTEX
  8
0
  6
CONTINUOUS
 10
54.865683
 20
97.4055
 30
0.0
  0
SEQEND
  8
0
  6
CONTINUOUS
  0
POLYLINE
  8
0
  6
CONTINUOUS
 66
     1
 10
0.0
 20
0.0
 30
0.0
  0
VERTEX
  8
0
  6
CONTINUOUS
 10
72.719156
 20
135.390014
 30
0.0
  0
VERTEX
  8
0
  6
CONTINUOUS
 10
73.265325
 20
135.558878
 30
0.0
  0
VERTEX
  8
0
  6
CONTINUOUS
 10
73.741316
 20
135.463923
 30
0.0
  0
SEQEND
  8
0
  6
CONTINUOUS
  0
POLYLINE
  8
0
  6
CONTINUOUS
 66
     1
 10
0.0
 20
0.0
 30
0.0
  0
VERTEX
  8
0
  6
CONTINUOUS
 10
54.841207
 20
124.769906
 30
0.0
  0
VERTEX
  8
0
  6
CONTINUOUS
 10
55.351367
 20
125.500152
 30
0.0
  0
VERTEX
  8
0
  6
CONTINUOUS
 10
55.951757
 20
126.006471
 30
0.0
  0
SEQEND
  8
0
  6
CONTINUOUS
  0
POLYLINE
  8
0
  6
CONTINUOUS
 66
     1
 10
0.0
 20
0.0
 30
0.0
  0
VERTEX
  8
0
  6
CONTINUOUS
 10
54.349444
 20
123.104639
 30
0.0
  0
VERTEX
  8
0
  6
CONTINUOUS
 10
54.485744
 20
123.932485
 30
0.0
  0
VERTEX
  8
0
  6
CONTINUOUS
 10
54.841207
 20
124.769906
 30
0.0
  0
SEQEND
  8
0
  6
CONTINUOUS
  0
POLYLINE
  8
0
  6
CONTINUOUS
 66
     1
 10
0.0
 20
0.0
 30
0.0
  0
VERTEX
  8
0
  6
CONTINUOUS
 10
54.884985
 20
123.007988
 30
0.0
  0
VERTEX
  8
0
  6
CONTINUOUS
 10
54.349444
 20
123.104639
 30
0.0
  0
SEQEND
  8
0
  6
CONTINUOUS
  0
POLYLINE
  8
0
  6
CONTINUOUS
 66
     1
 10
0.0
 20
0.0
 30
0.0
  0
VERTEX
  8
0
  6
CONTINUOUS
 10
55.404687
 20
123.126502
 30
0.0
  0
VERTEX
  8
0
  6
CONTINUOUS
 10
54.884985
 20
123.007988
 30
0.0
  0
SEQEND
  8
0
  6
CONTINUOUS
  0
POLYLINE
  8
0
  6
CONTINUOUS
 66
     1
 10
0.0
 20
0.0
 30
0.0
  0
VERTEX
  8
0
  6
CONTINUOUS
 10
54.906964
 20
98.434628
 30
0.0
  0
VERTEX
  8
0
  6
CONTINUOUS
 10
55.426667
 20
98.553141
 30
0.0
  0
SEQEND
  8
0
  6
CONTINUOUS
  0
POLYLINE
  8
0
  6
CONTINUOUS
 66
     1
 10
0.0
 20
0.0
 30
0.0
  0
VERTEX
  8
0
  6
CONTINUOUS
 10
54.371424
 20
98.531278
 30
0.0
  0
VERTEX
  8
0
  6
CONTINUOUS
 10
54.906964
 20
98.434628
 30
0.0
  0
SEQEND
  8
0
  6
CONTINUOUS
  0
POLYLINE
  8
0
  6
CONTINUOUS
 66
     1
 10
0.0
 20
0.0
 30
0.0
  0
VERTEX
  8
0
  6
CONTINUOUS
 10
73.123206
 20
106.819958
 30
0.0
  0
VERTEX
  8
0
  6
CONTINUOUS
 10
73.287443
 20
107.183377
 30
0.0
  0
SEQEND
  8
0
  6
CONTINUOUS
  0
POLYLINE
  8
0
  6
CONTINUOUS
 66
     1
 10
0.0
 20
0.0
 30
0.0
  0
VERTEX
  8
0
  6
CONTINUOUS
 10
73.097603
 20
106.803986
 30
0.0
  0
VERTEX
  8
0
  6
CONTINUOUS
 10
73.123206
 20
106.819958
 30
0.0
  0
SEQEND
  8
0
  6
CONTINUOUS
  0
POLYLINE
  8
0
  6
CONTINUOUS
 66
     1
 10
0.0
 20
0.0
 30
0.0
  0
VERTEX
  8
0
  6
CONTINUOUS
 10
56.355806
 20
97.436415
 30
0.0
  0
VERTEX
  8
0
  6
CONTINUOUS
 10
56.330204
 20
97.420443
 30
0.0
  0
SEQEND
  8
0
  6
CONTINUOUS
  0
POLYLINE
  8
0
  6
CONTINUOUS
 66
     1
 10
0.0
 20
0.0
 30
0.0
  0
VERTEX
  8
0
  6
CONTINUOUS
 10
56.520044
 20
97.799834
 30
0.0
  0
VERTEX
  8
0
  6
CONTINUOUS
 10
56.355806
 20
97.436415
 30
0.0
  0
SEQEND
  8
0
  6
CONTINUOUS
  0
POLYLINE
  8
0
  6
CONTINUOUS
 66
     1
 10
0.0
 20
0.0
 30
0.0
  0
VERTEX
  8
0
  6
CONTINUOUS
 10
74.547198
 20
133.998794
 30
0.0
  0
VERTEX
  8
0
  6
CONTINUOUS
 10
74.3564
 20
133.732452
 30
0.0
  0
SEQEND
  8
0
  6
CONTINUOUS
  0
POLYLINE
  8
0
  6
CONTINUOUS
 66
     1
 10
0.0
 20
0.0
 30
0.0
  0
VERTEX
  8
0
  6
CONTINUOUS
 10
74.378379
 20
109.159092
 30
0.0
  0
VERTEX
  8
0
  6
CONTINUOUS
 10
74.569177
 20
109.425434
 30
0.0
  0
SEQEND
  8
0
  6
CONTINUOUS
  0
POLYLINE
  8
0
  6
CONTINUOUS
 66
     1
 10
0.0
 20
0.0
 30
0.0
  0
VERTEX
  8
0
  6
CONTINUOUS
 10
56.330592
 20
125.626023
 30
0.0
  0
VERTEX
  8
0
  6
CONTINUOUS
 10
56.495623
 20
125.102217
 30
0.0
  0
SEQEND
  8
0
  6
CONTINUOUS
  0
POLYLINE
  8
0
  6
CONTINUOUS
 66
     1
 10
0.0
 20
0.0
 30
0.0
  0
VERTEX
  8
0
  6
CONTINUOUS
 10
55.951757
 20
126.006471
 30
0.0
  0
VERTEX
  8
0
  6
CONTINUOUS
 10
56.330592
 20
125.626023
 30
0.0
  0
SEQEND
  8
0
  6
CONTINUOUS
  0
POLYLINE
  8
0
  6
CONTINUOUS
 66
     1
 10
0.0
 20
0.0
 30
0.0
  0
VERTEX
  8
0
  6
CONTINUOUS
 10
73.097991
 20
135.009566
 30
0.0
  0
VERTEX
  8
0
  6
CONTINUOUS
 10
72.719156
 20
135.390014
 30
0.0
  0
SEQEND
  8
0
  6
CONTINUOUS
  0
POLYLINE
  8
0
  6
CONTINUOUS
 66
     1
 10
0.0
 20
0.0
 30
0.0
  0
VERTEX
  8
0
  6
CONTINUOUS
 10
73.263022
 20
134.48576
 30
0.0
  0
VERTEX
  8
0
  6
CONTINUOUS
 10
73.097991
 20
135.009566
 30
0.0
  0
SEQEND
  8
0
  6
CONTINUOUS
  0
POLYLINE
  8
0
  6
CONTINUOUS
 66
     1
 10
0.0
 20
0.0
 30
0.0
  0
VERTEX
  8
0
  6
CONTINUOUS
 10
57.040589
 20
104.037118
 30
0.0
  0
VERTEX
  8
0
  6
CONTINUOUS
 10
57.670454
 20
103.532547
 30
0.0
  0
VERTEX
  8
0
  6
CONTINUOUS
 10
58.566015
 20
103.716615
 30
0.0
  0
SEQEND
  8
0
  6
CONTINUOUS
  0
POLYLINE
  8
0
  6
CONTINUOUS
 66
     1
 10
0.0
 20
0.0
 30
0.0
  0
VERTEX
  8
0
  6
CONTINUOUS
 10
69.109313
 20
124.877991
 30
0.0
  0
VERTEX
  8
0
  6
CONTINUOUS
 10
69.113837
 20
124.860148
 30
0.0
  0
VERTEX
  8
0
  6
CONTINUOUS
 10
69.118351
 20
124.842252
 30
0.0
  0
SEQEND
  8
0
  6
CONTINUOUS
  0
POLYLINE
  8
0
  6
CONTINUOUS
 66
     1
 10
0.0
 20
0.0
 30
0.0
  0
VERTEX
  8
0
  6
CONTINUOUS
 10
69.506559
 20
126.606965
 30
0.0
  0
VERTEX
  8
0
  6
CONTINUOUS
 10
69.566282
 20
126.626904
 30
0.0
  0
VERTEX
  8
0
  6
CONTINUOUS
 10
69.618473
 20
126.617368
 30
0.0
  0
SEQEND
  8
0
  6
CONTINUOUS
  0
POLYLINE
  8
0
  6
CONTINUOUS
 66
     1
 10
0.0
 20
0.0
 30
0.0
  0
VERTEX
  8
0
  6
CONTINUOUS
 10
70.305183
 20
122.453015
 30
0.0
  0
VERTEX
  8
0
  6
CONTINUOUS
 10
70.184582
 20
122.323056
 30
0.0
  0
VERTEX
  8
0
  6
CONTINUOUS
 10
70.134744
 20
122.144345
 30
0.0
  0
SEQEND
  8
0
  6
CONTINUOUS
  0
POLYLINE
  8
0
  6
CONTINUOUS
 66
     1
 10
0.0
 20
0.0
 30
0.0
  0
VERTEX
  8
0
  6
CONTINUOUS
 10
70.13236
 20
124.809442
 30
0.0
  0
VERTEX
  8
0
  6
CONTINUOUS
 10
70.149093
 20
124.726901
 30
0.0
  0
VERTEX
  8
0
  6
CONTINUOUS
 10
70.195862
 20
124.679112
 30
0.0
  0
SEQEND
  8
0
  6
CONTINUOUS
  0
POLYLINE
  8
0
  6
CONTINUOUS
 66
     1
 10
0.0
 20
0.0
 30
0.0
  0
VERTEX
  8
0
  6
CONTINUOUS
 10
69.841348
 20
109.835402
 30
0.0
  0
VERTEX
  8
0
  6
CONTINUOUS
 10
69.961964
 20
109.965382
 30
0.0
  0
VERTEX
  8
0
  6
CONTINUOUS
 10
70.011813
 20
110.144119
 30
0.0
  0
SEQEND
  8
0
  6
CONTINUOUS
  0
POLYLINE
  8
0
  6
CONTINUOUS
 66
     1
 10
0.0
 20
0.0
 30
0.0
  0
VERTEX
  8
0
  6
CONTINUOUS
 10
66.221463
 20
108.383294
 30
0.0
  0
VERTEX
  8
0
  6
CONTINUOUS
 10
67.074487
 20
109.146467
 30
0.0
  0
VERTEX
  8
0
  6
CONTINUOUS
 10
67.698433
 20
110.27645
 30
0.0
  0
VERTEX
  8
0
  6
CONTINUOUS
 10
67.926116
 20
111.470467
 30
0.0
  0
SEQEND
  8
0
  6
CONTINUOUS
  0
POLYLINE
  8
0
  6
CONTINUOUS
 66
     1
 10
0.0
 20
0.0
 30
0.0
  0
VERTEX
  8
0
  6
CONTINUOUS
 10
57.298857
 20
103.711854
 30
0.0
  0
VERTEX
  8
0
  6
CONTINUOUS
 10
57.731782
 20
103.714271
 30
0.0
  0
VERTEX
  8
0
  6
CONTINUOUS
 10
58.200631
 20
103.894594
 30
0.0
  0
SEQEND
  8
0
  6
CONTINUOUS
  0
POLYLINE
  8
0
  6
CONTINUOUS
 66
     1
 10
0.0
 20
0.0
 30
0.0
  0
VERTEX
  8
0
  6
CONTINUOUS
 10
57.073412
 20
114.920217
 30
0.0
  0
VERTEX
  8
0
  6
CONTINUOUS
 10
57.047671
 20
114.934517
 30
0.0
  0
VERTEX
  8
0
  6
CONTINUOUS
 10
57.003188
 20
114.973709
 30
0.0
  0
SEQEND
  8
0
  6
CONTINUOUS
  0
POLYLINE
  8
0
  6
CONTINUOUS
 66
     1
 10
0.0
 20
0.0
 30
0.0
  0
VERTEX
  8
0
  6
CONTINUOUS
 10
68.469711
 20
116.213972
 30
0.0
  0
VERTEX
  8
0
  6
CONTINUOUS
 10
68.486444
 20
116.13143
 30
0.0
  0
VERTEX
  8
0
  6
CONTINUOUS
 10
68.533213
 20
116.083642
 30
0.0
  0
SEQEND
  8
0
  6
CONTINUOUS
  0
POLYLINE
  8
0
  6
CONTINUOUS
 66
     1
 10
0.0
 20
0.0
 30
0.0
  0
VERTEX
  8
0
  6
CONTINUOUS
 10
71.054213
 20
115.00947
 30
0.0
  0
VERTEX
  8
0
  6
CONTINUOUS
 10
70.933501
 20
115.004382
 30
0.0
  0
VERTEX
  8
0
  6
CONTINUOUS
 10
70.883393
 20
115.12716
 30
0.0
  0
SEQEND
  8
0
  6
CONTINUOUS
  0
POLYLINE
  8
0
  6
CONTINUOUS
 66
     1
 10
0.0
 20
0.0
 30
0.0
  0
VERTEX
  8
0
  6
CONTINUOUS
 10
70.883259
 20
115.27717
 30
0.0
  0
VERTEX
  8
0
  6
CONTINUOUS
 10
70.933097
 20
115.455882
 30
0.0
  0
VERTEX
  8
0
  6
CONTINUOUS
 10
71.053698
 20
115.585841
 30
0.0
  0
SEQEND
  8
0
  6
CONTINUOUS
  0
POLYLINE
  8
0
  6
CONTINUOUS
 66
     1
 10
0.0
 20
0.0
 30
0.0
  0
VERTEX
  8
0
  6
CONTINUOUS
 10
71.051669
 20
117.854351
 30
0.0
  0
VERTEX
  8
0
  6
CONTINUOUS
 10
70.930956
 20
117.849263
 30
0.0
  0
VERTEX
  8
0
  6
CONTINUOUS
 10
70.880848
 20
117.972042
 30
0.0
  0
SEQEND
  8
0
  6
CONTINUOUS
  0
POLYLINE
  8
0
  6
CONTINUOUS
 66
     1
 10
0.0
 20
0.0
 30
0.0
  0
VERTEX
  8
0
  6
CONTINUOUS
 10
70.877442
 20
121.780168
 30
0.0
  0
VERTEX
  8
0
  6
CONTINUOUS
 10
70.92728
 20
121.95888
 30
0.0
  0
VERTEX
  8
0
  6
CONTINUOUS
 10
71.047881
 20
122.088838
 30
0.0
  0
SEQEND
  8
0
  6
CONTINUOUS
  0
POLYLINE
  8
0
  6
CONTINUOUS
 66
     1
 10
0.0
 20
0.0
 30
0.0
  0
VERTEX
  8
0
  6
CONTINUOUS
 10
71.045852
 20
124.357348
 30
0.0
  0
VERTEX
  8
0
  6
CONTINUOUS
 10
70.92514
 20
124.35226
 30
0.0
  0
VERTEX
  8
0
  6
CONTINUOUS
 10
70.875032
 20
124.475039
 30
0.0
  0
SEQEND
  8
0
  6
CONTINUOUS
  0
POLYLINE
  8
0
  6
CONTINUOUS
 66
     1
 10
0.0
 20
0.0
 30
0.0
  0
VERTEX
  8
0
  6
CONTINUOUS
 10
71.842879
 20
125.380048
 30
0.0
  0
VERTEX
  8
0
  6
CONTINUOUS
 10
71.963591
 20
125.385136
 30
0.0
  0
VERTEX
  8
0
  6
CONTINUOUS
 10
72.013699
 20
125.262357
 30
0.0
  0
SEQEND
  8
0
  6
CONTINUOUS
  0
POLYLINE
  8
0
  6
CONTINUOUS
 66
     1
 10
0.0
 20
0.0
 30
0.0
  0
VERTEX
  8
0
  6
CONTINUOUS
 10
71.848652
 20
118.925432
 30
0.0
  0
VERTEX
  8
0
  6
CONTINUOUS
 10
71.969365
 20
118.93052
 30
0.0
  0
VERTEX
  8
0
  6
CONTINUOUS
 10
72.019473
 20
118.807741
 30
0.0
  0
SEQEND
  8
0
  6
CONTINUOUS
  0
POLYLINE
  8
0
  6
CONTINUOUS
 66
     1
 10
0.0
 20
0.0
 30
0.0
  0
VERTEX
  8
0
  6
CONTINUOUS
 10
72.022195
 20
115.764468
 30
0.0
  0
VERTEX
  8
0
  6
CONTINUOUS
 10
71.972356
 20
115.585756
 30
0.0
  0
VERTEX
  8
0
  6
CONTINUOUS
 10
71.851755
 20
115.455798
 30
0.0
  0
SEQEND
  8
0
  6
CONTINUOUS
  0
POLYLINE
  8
0
  6
CONTINUOUS
 66
     1
 10
0.0
 20
0.0
 30
0.0
  0
VERTEX
  8
0
  6
CONTINUOUS
 10
70.201678
 20
118.176115
 30
0.0
  0
VERTEX
  8
0
  6
CONTINUOUS
 10
70.154909
 20
118.223903
 30
0.0
  0
VERTEX
  8
0
  6
CONTINUOUS
 10
70.138177
 20
118.306445
 30
0.0
  0
SEQEND
  8
0
  6
CONTINUOUS
  0
POLYLINE
  8
0
  6
CONTINUOUS
 66
     1
 10
0.0
 20
0.0
 30
0.0
  0
VERTEX
  8
0
  6
CONTINUOUS
 10
70.140561
 20
115.641347
 30
0.0
  0
VERTEX
  8
0
  6
CONTINUOUS
 10
70.190399
 20
115.820059
 30
0.0
  0
VERTEX
  8
0
  6
CONTINUOUS
 10
70.311
 20
115.950017
 30
0.0
  0
SEQEND
  8
0
  6
CONTINUOUS
  0
POLYLINE
  8
0
  6
CONTINUOUS
 66
     1
 10
0.0
 20
0.0
 30
0.0
  0
VERTEX
  8
0
  6
CONTINUOUS
 10
68.461129
 20
125.808623
 30
0.0
  0
VERTEX
  8
0
  6
CONTINUOUS
 10
68.510967
 20
125.987335
 30
0.0
  0
VERTEX
  8
0
  6
CONTINUOUS
 10
68.631568
 20
126.117293
 30
0.0
  0
SEQEND
  8
0
  6
CONTINUOUS
  0
POLYLINE
  8
0
  6
CONTINUOUS
 66
     1
 10
0.0
 20
0.0
 30
0.0
  0
VERTEX
  8
0
  6
CONTINUOUS
 10
70.874897
 20
124.625049
 30
0.0
  0
VERTEX
  8
0
  6
CONTINUOUS
 10
70.924736
 20
124.803761
 30
0.0
  0
VERTEX
  8
0
  6
CONTINUOUS
 10
71.045337
 20
124.933719
 30
0.0
  0
SEQEND
  8
0
  6
CONTINUOUS
  0
POLYLINE
  8
0
  6
CONTINUOUS
 66
     1
 10
0.0
 20
0.0
 30
0.0
  0
VERTEX
  8
0
  6
CONTINUOUS
 10
66.304982
 20
112.254661
 30
0.0
  0
VERTEX
  8
0
  6
CONTINUOUS
 10
66.35482
 20
112.433373
 30
0.0
  0
VERTEX
  8
0
  6
CONTINUOUS
 10
66.475421
 20
112.563331
 30
0.0
  0
SEQEND
  8
0
  6
CONTINUOUS
  0
POLYLINE
  8
0
  6
CONTINUOUS
 66
     1
 10
0.0
 20
0.0
 30
0.0
  0
VERTEX
  8
0
  6
CONTINUOUS
 10
66.305097
 20
112.126668
 30
0.0
  0
VERTEX
  8
0
  6
CONTINUOUS
 10
66.255258
 20
111.947956
 30
0.0
  0
VERTEX
  8
0
  6
CONTINUOUS
 10
66.134657
 20
111.817998
 30
0.0
  0
SEQEND
  8
0
  6
CONTINUOUS
  0
POLYLINE
  8
0
  6
CONTINUOUS
 66
     1
 10
0.0
 20
0.0
 30
0.0
  0
VERTEX
  8
0
  6
CONTINUOUS
 10
65.861772
 20
111.451996
 30
0.0
  0
VERTEX
  8
0
  6
CONTINUOUS
 10
65.911611
 20
111.630708
 30
0.0
  0
VERTEX
  8
0
  6
CONTINUOUS
 10
66.032212
 20
111.760666
 30
0.0
  0
SEQEND
  8
0
  6
CONTINUOUS
  0
POLYLINE
  8
0
  6
CONTINUOUS
 66
     1
 10
0.0
 20
0.0
 30
0.0
  0
VERTEX
  8
0
  6
CONTINUOUS
 10
65.92087
 20
111.110624
 30
0.0
  0
VERTEX
  8
0
  6
CONTINUOUS
 10
65.877426
 20
111.158858
 30
0.0
  0
VERTEX
  8
0
  6
CONTINUOUS
 10
65.861963
 20
111.238718
 30
0.0
  0
SEQEND
  8
0
  6
CONTINUOUS
  0
POLYLINE
  8
0
  6
CONTINUOUS
 66
     1
 10
0.0
 20
0.0
 30
0.0
  0
VERTEX
  8
0
  6
CONTINUOUS
 10
66.646129
 20
112.658865
 30
0.0
  0
VERTEX
  8
0
  6
CONTINUOUS
 10
66.703036
 20
112.678507
 30
0.0
  0
VERTEX
  8
0
  6
CONTINUOUS
 10
66.753449
 20
112.671504
 30
0.0
  0
SEQEND
  8
0
  6
CONTINUOUS
  0
POLYLINE
  8
0
  6
CONTINUOUS
 66
     1
 10
0.0
 20
0.0
 30
0.0
  0
VERTEX
  8
0
  6
CONTINUOUS
 10
74.010377
 20
133.831843
 30
0.0
  0
VERTEX
  8
0
  6
CONTINUOUS
 10
73.809902
 20
134.32301
 30
0.0
  0
VERTEX
  8
0
  6
CONTINUOUS
 10
73.326991
 20
134.302678
 30
0.0
  0
SEQEND
  8
0
  6
CONTINUOUS
  0
POLYLINE
  8
0
  6
CONTINUOUS
 66
     1
 10
0.0
 20
0.0
 30
0.0
  0
VERTEX
  8
0
  6
CONTINUOUS
 10
57.626639
 20
125.516287
 30
0.0
  0
VERTEX
  8
0
  6
CONTINUOUS
 10
57.144174
 20
124.996366
 30
0.0
  0
VERTEX
  8
0
  6
CONTINUOUS
 10
56.944777
 20
124.281418
 30
0.0
  0
SEQEND
  8
0
  6
CONTINUOUS
  0
POLYLINE
  8
0
  6
CONTINUOUS
 66
     1
 10
0.0
 20
0.0
 30
0.0
  0
VERTEX
  8
0
  6
CONTINUOUS
 10
56.967281
 20
99.12228
 30
0.0
  0
VERTEX
  8
0
  6
CONTINUOUS
 10
57.167756
 20
98.631113
 30
0.0
  0
VERTEX
  8
0
  6
CONTINUOUS
 10
57.650668
 20
98.651445
 30
0.0
  0
SEQEND
  8
0
  6
CONTINUOUS
  0
POLYLINE
  8
0
  6
CONTINUOUS
 66
     1
 10
0.0
 20
0.0
 30
0.0
  0
VERTEX
  8
0
  6
CONTINUOUS
 10
73.35102
 20
107.437836
 30
0.0
  0
VERTEX
  8
0
  6
CONTINUOUS
 10
73.833484
 20
107.957758
 30
0.0
  0
VERTEX
  8
0
  6
CONTINUOUS
 10
74.032881
 20
108.672706
 30
0.0
  0
SEQEND
  8
0
  6
CONTINUOUS
  0
POLYLINE
  8
0
  6
CONTINUOUS
 66
     1
 10
0.0
 20
0.0
 30
0.0
  0
VERTEX
  8
0
  6
CONTINUOUS
 10
55.426667
 20
98.553141
 30
0.0
  0
VERTEX
  8
0
  6
CONTINUOUS
 10
55.415677
 20
110.839821
 30
0.0
  0
VERTEX
  8
0
  6
CONTINUOUS
 10
55.404687
 20
123.126502
 30
0.0
  0
SEQEND
  8
0
  6
CONTINUOUS
  0
POLYLINE
  8
0
  6
CONTINUOUS
 66
     1
 10
0.0
 20
0.0
 30
0.0
  0
VERTEX
  8
0
  6
CONTINUOUS
 10
55.735471
 20
124.262271
 30
0.0
  0
VERTEX
  8
0
  6
CONTINUOUS
 10
55.49446
 20
123.691615
 30
0.0
  0
VERTEX
  8
0
  6
CONTINUOUS
 10
55.404687
 20
123.126502
 30
0.0
  0
SEQEND
  8
0
  6
CONTINUOUS
  0
POLYLINE
  8
0
  6
CONTINUOUS
 66
     1
 10
0.0
 20
0.0
 30
0.0
  0
VERTEX
  8
0
  6
CONTINUOUS
 10
56.495623
 20
125.102217
 30
0.0
  0
VERTEX
  8
0
  6
CONTINUOUS
 10
56.083825
 20
124.758971
 30
0.0
  0
VERTEX
  8
0
  6
CONTINUOUS
 10
55.735471
 20
124.262271
 30
0.0
  0
SEQEND
  8
0
  6
CONTINUOUS
  0
POLYLINE
  8
0
  6
CONTINUOUS
 66
     1
 10
0.0
 20
0.0
 30
0.0
  0
VERTEX
  8
0
  6
CONTINUOUS
 10
56.495623
 20
125.102217
 30
0.0
  0
VERTEX
  8
0
  6
CONTINUOUS
 10
64.879323
 20
129.793988
 30
0.0
  0
VERTEX
  8
0
  6
CONTINUOUS
 10
73.263022
 20
134.48576
 30
0.0
  0
SEQEND
  8
0
  6
CONTINUOUS
  0
POLYLINE
  8
0
  6
CONTINUOUS
 66
     1
 10
0.0
 20
0.0
 30
0.0
  0
VERTEX
  8
0
  6
CONTINUOUS
 10
74.023916
 20
134.497037
 30
0.0
  0
VERTEX
  8
0
  6
CONTINUOUS
 10
73.675023
 20
134.603537
 30
0.0
  0
VERTEX
  8
0
  6
CONTINUOUS
 10
73.263022
 20
134.48576
 30
0.0
  0
SEQEND
  8
0
  6
CONTINUOUS
  0
POLYLINE
  8
0
  6
CONTINUOUS
 66
     1
 10
0.0
 20
0.0
 30
0.0
  0
VERTEX
  8
0
  6
CONTINUOUS
 10
74.3564
 20
133.732452
 30
0.0
  0
VERTEX
  8
0
  6
CONTINUOUS
 10
74.265707
 20
134.196572
 30
0.0
  0
VERTEX
  8
0
  6
CONTINUOUS
 10
74.023916
 20
134.497037
 30
0.0
  0
SEQEND
  8
0
  6
CONTINUOUS
  0
POLYLINE
  8
0
  6
CONTINUOUS
 66
     1
 10
0.0
 20
0.0
 30
0.0
  0
VERTEX
  8
0
  6
CONTINUOUS
 10
74.378379
 20
109.159092
 30
0.0
  0
VERTEX
  8
0
  6
CONTINUOUS
 10
74.36739
 20
121.445772
 30
0.0
  0
VERTEX
  8
0
  6
CONTINUOUS
 10
74.3564
 20
133.732452
 30
0.0
  0
SEQEND
  8
0
  6
CONTINUOUS
  0
POLYLINE
  8
0
  6
CONTINUOUS
 66
     1
 10
0.0
 20
0.0
 30
0.0
  0
VERTEX
  8
0
  6
CONTINUOUS
 10
74.047595
 20
108.023323
 30
0.0
  0
VERTEX
  8
0
  6
CONTINUOUS
 10
74.288607
 20
108.593979
 30
0.0
  0
VERTEX
  8
0
  6
CONTINUOUS
 10
74.378379
 20
109.159092
 30
0.0
  0
SEQEND
  8
0
  6
CONTINUOUS
  0
POLYLINE
  8
0
  6
CONTINUOUS
 66
     1
 10
0.0
 20
0.0
 30
0.0
  0
VERTEX
  8
0
  6
CONTINUOUS
 10
73.287443
 20
107.183377
 30
0.0
  0
VERTEX
  8
0
  6
CONTINUOUS
 10
73.699242
 20
107.526623
 30
0.0
  0
VERTEX
  8
0
  6
CONTINUOUS
 10
74.047595
 20
108.023323
 30
0.0
  0
SEQEND
  8
0
  6
CONTINUOUS
  0
POLYLINE
  8
0
  6
CONTINUOUS
 66
     1
 10
0.0
 20
0.0
 30
0.0
  0
VERTEX
  8
0
  6
CONTINUOUS
 10
56.520044
 20
97.799834
 30
0.0
  0
VERTEX
  8
0
  6
CONTINUOUS
 10
64.903744
 20
102.491605
 30
0.0
  0
VERTEX
  8
0
  6
CONTINUOUS
 10
73.287443
 20
107.183377
 30
0.0
  0
SEQEND
  8
0
  6
CONTINUOUS
  0
POLYLINE
  8
0
  6
CONTINUOUS
 66
     1
 10
0.0
 20
0.0
 30
0.0
  0
VERTEX
  8
0
  6
CONTINUOUS
 10
55.75915
 20
97.788557
 30
0.0
  0
VERTEX
  8
0
  6
CONTINUOUS
 10
56.108044
 20
97.682057
 30
0.0
  0
VERTEX
  8
0
  6
CONTINUOUS
 10
56.520044
 20
97.799834
 30
0.0
  0
SEQEND
  8
0
  6
CONTINUOUS
  0
POLYLINE
  8
0
  6
CONTINUOUS
 66
     1
 10
0.0
 20
0.0
 30
0.0
  0
VERTEX
  8
0
  6
CONTINUOUS
 10
55.426667
 20
98.553141
 30
0.0
  0
VERTEX
  8
0
  6
CONTINUOUS
 10
55.51736
 20
98.089022
 30
0.0
  0
VERTEX
  8
0
  6
CONTINUOUS
 10
55.75915
 20
97.788557
 30
0.0
  0
SEQEND
  8
0
  6
CONTINUOUS
  0
POLYLINE
  8
0
  6
CONTINUOUS
 66
     1
 10
0.0
 20
0.0
 30
0.0
  0
VERTEX
  8
0
  6
CONTINUOUS
 10
71.3528
 20
120.288382
 30
0.0
  0
VERTEX
  8
0
  6
CONTINUOUS
 10
71.623681
 20
120.979092
 30
0.0
  0
VERTEX
  8
0
  6
CONTINUOUS
 10
71.691571
 20
121.823942
 30
0.0
  0
SEQEND
  8
0
  6
CONTINUOUS
  0
POLYLINE
  8
0
  6
CONTINUOUS
 66
     1
 10
0.0
 20
0.0
 30
0.0
  0
VERTEX
  8
0
  6
CONTINUOUS
 10
56.949032
 20
119.545222
 30
0.0
  0
VERTEX
  8
0
  6
CONTINUOUS
 10
56.958906
 20
119.542143
 30
0.0
  0
VERTEX
  8
0
  6
CONTINUOUS
 10
56.96827
 20
119.537932
 30
0.0
  0
SEQEND
  8
0
  6
CONTINUOUS
  0
POLYLINE
  8
0
  6
CONTINUOUS
 66
     1
 10
0.0
 20
0.0
 30
0.0
  0
VERTEX
  8
0
  6
CONTINUOUS
 10
56.95587
 20
111.744055
 30
0.0
  0
VERTEX
  8
0
  6
CONTINUOUS
 10
56.970212
 20
111.765296
 30
0.0
  0
VERTEX
  8
0
  6
CONTINUOUS
 10
56.987153
 20
111.788447
 30
0.0
  0
VERTEX
  8
0
  6
CONTINUOUS
 10
57.006016
 20
111.812384
 30
0.0
  0
SEQEND
  8
0
  6
CONTINUOUS
  0
POLYLINE
  8
0
  6
CONTINUOUS
 66
     1
 10
0.0
 20
0.0
 30
0.0
  0
VERTEX
  8
0
  6
CONTINUOUS
 10
57.003188
 20
114.973709
 30
0.0
  0
VERTEX
  8
0
  6
CONTINUOUS
 10
56.984283
 20
114.997406
 30
0.0
  0
VERTEX
  8
0
  6
CONTINUOUS
 10
56.967298
 20
115.023651
 30
0.0
  0
VERTEX
  8
0
  6
CONTINUOUS
 10
56.952942
 20
115.050844
 30
0.0
  0
SEQEND
  8
0
  6
CONTINUOUS
  0
POLYLINE
  8
0
  6
CONTINUOUS
 66
     1
 10
0.0
 20
0.0
 30
0.0
  0
VERTEX
  8
0
  6
CONTINUOUS
 10
54.371424
 20
98.531278
 30
0.0
  0
VERTEX
  8
0
  6
CONTINUOUS
 10
54.360434
 20
110.817959
 30
0.0
  0
VERTEX
  8
0
  6
CONTINUOUS
 10
54.349444
 20
123.104639
 30
0.0
  0
SEQEND
  8
0
  6
CONTINUOUS
  0
POLYLINE
  8
0
  6
CONTINUOUS
 66
     1
 10
0.0
 20
0.0
 30
0.0
  0
VERTEX
  8
0
  6
CONTINUOUS
 10
57.006016
 20
111.812384
 30
0.0
  0
VERTEX
  8
0
  6
CONTINUOUS
 10
57.050434
 20
111.862992
 30
0.0
  0
VERTEX
  8
0
  6
CONTINUOUS
 10
57.10004
 20
111.911773
 30
0.0
  0
VERTEX
  8
0
  6
CONTINUOUS
 10
57.151822
 20
111.954671
 30
0.0
  0
VERTEX
  8
0
  6
CONTINUOUS
 10
57.201891
 20
111.987597
 30
0.0
  0
SEQEND
  8
0
  6
CONTINUOUS
  0
POLYLINE
  8
0
  6
CONTINUOUS
 66
     1
 10
0.0
 20
0.0
 30
0.0
  0
VERTEX
  8
0
  6
CONTINUOUS
 10
57.006016
 20
111.812384
 30
0.0
  0
VERTEX
  8
0
  6
CONTINUOUS
 10
57.028666
 20
111.857206
 30
0.0
  0
VERTEX
  8
0
  6
CONTINUOUS
 10
57.050497
 20
111.902872
 30
0.0
  0
SEQEND
  8
0
  6
CONTINUOUS
  0
POLYLINE
  8
0
  6
CONTINUOUS
 66
     1
 10
0.0
 20
0.0
 30
0.0
  0
VERTEX
  8
0
  6
CONTINUOUS
 10
72.016421
 20
122.219084
 30
0.0
  0
VERTEX
  8
0
  6
CONTINUOUS
 10
71.966583
 20
122.040372
 30
0.0
  0
VERTEX
  8
0
  6
CONTINUOUS
 10
71.845982
 20
121.910414
 30
0.0
  0
SEQEND
  8
0
  6
CONTINUOUS
  0
POLYLINE
  8
0
  6
CONTINUOUS
 66
     1
 10
0.0
 20
0.0
 30
0.0
  0
VERTEX
  8
0
  6
CONTINUOUS
 10
57.04787
 20
114.839789
 30
0.0
  0
VERTEX
  8
0
  6
CONTINUOUS
 10
57.025939
 20
114.906771
 30
0.0
  0
VERTEX
  8
0
  6
CONTINUOUS
 10
57.003188
 20
114.973709
 30
0.0
  0
SEQEND
  8
0
  6
CONTINUOUS
  0
POLYLINE
  8
0
  6
CONTINUOUS
 66
     1
 10
0.0
 20
0.0
 30
0.0
  0
VERTEX
  8
0
  6
CONTINUOUS
 10
61.660924
 20
140.985119
 30
0.0
  0
VERTEX
  8
0
  6
CONTINUOUS
 10
67.444614
 20
138.058761
 30
0.0
  0
VERTEX
  8
0
  6
CONTINUOUS
 10
72.719156
 20
135.390014
 30
0.0
  0
SEQEND
  8
0
  6
CONTINUOUS
  0
POLYLINE
  8
0
  6
CONTINUOUS
 66
     1
 10
0.0
 20
0.0
 30
0.0
  0
VERTEX
  8
0
  6
CONTINUOUS
 10
55.951757
 20
126.006471
 30
0.0
  0
VERTEX
  8
0
  6
CONTINUOUS
 10
64.335457
 20
130.698242
 30
0.0
  0
VERTEX
  8
0
  6
CONTINUOUS
 10
72.719156
 20
135.390014
 30
0.0
  0
SEQEND
  8
0
  6
CONTINUOUS
  0
POLYLINE
  8
0
  6
CONTINUOUS
 66
     1
 10
0.0
 20
0.0
 30
0.0
  0
VERTEX
  8
0
  6
CONTINUOUS
 10
61.660924
 20
140.985119
 30
0.0
  0
VERTEX
  8
0
  6
CONTINUOUS
 10
62.266818
 20
141.158115
 30
0.0
  0
VERTEX
  8
0
  6
CONTINUOUS
 10
62.676742
 20
141.062183
 30
0.0
  0
SEQEND
  8
0
  6
CONTINUOUS
  0
POLYLINE
  8
0
  6
CONTINUOUS
 66
     1
 10
0.0
 20
0.0
 30
0.0
  0
VERTEX
  8
0
  6
CONTINUOUS
 10
58.23319
 20
108.047725
 30
0.0
  0
VERTEX
  8
0
  6
CONTINUOUS
 10
58.283298
 20
107.924946
 30
0.0
  0
VERTEX
  8
0
  6
CONTINUOUS
 10
58.404011
 20
107.930034
 30
0.0
  0
SEQEND
  8
0
  6
CONTINUOUS
  0
POLYLINE
  8
0
  6
CONTINUOUS
 66
     1
 10
0.0
 20
0.0
 30
0.0
  0
VERTEX
  8
0
  6
CONTINUOUS
 10
58.400907
 20
111.399668
 30
0.0
  0
VERTEX
  8
0
  6
CONTINUOUS
 10
58.280306
 20
111.269709
 30
0.0
  0
VERTEX
  8
0
  6
CONTINUOUS
 10
58.230468
 20
111.090997
 30
0.0
  0
SEQEND
  8
0
  6
CONTINUOUS
  0
POLYLINE
  8
0
  6
CONTINUOUS
 66
     1
 10
0.0
 20
0.0
 30
0.0
  0
VERTEX
  8
0
  6
CONTINUOUS
 10
58.227417
 20
114.502341
 30
0.0
  0
VERTEX
  8
0
  6
CONTINUOUS
 10
58.277525
 20
114.379562
 30
0.0
  0
VERTEX
  8
0
  6
CONTINUOUS
 10
58.398237
 20
114.38465
 30
0.0
  0
SEQEND
  8
0
  6
CONTINUOUS
  0
POLYLINE
  8
0
  6
CONTINUOUS
 66
     1
 10
0.0
 20
0.0
 30
0.0
  0
VERTEX
  8
0
  6
CONTINUOUS
 10
58.395134
 20
117.854284
 30
0.0
  0
VERTEX
  8
0
  6
CONTINUOUS
 10
58.274533
 20
117.724325
 30
0.0
  0
VERTEX
  8
0
  6
CONTINUOUS
 10
58.224694
 20
117.545613
 30
0.0
  0
SEQEND
  8
0
  6
CONTINUOUS
  0
POLYLINE
  8
0
  6
CONTINUOUS
 66
     1
 10
0.0
 20
0.0
 30
0.0
  0
VERTEX
  8
0
  6
CONTINUOUS
 10
59.363496
 20
118.182921
 30
0.0
  0
VERTEX
  8
0
  6
CONTINUOUS
 10
59.313388
 20
118.3057
 30
0.0
  0
VERTEX
  8
0
  6
CONTINUOUS
 10
59.192676
 20
118.300612
 30
0.0
  0
SEQEND
  8
0
  6
CONTINUOUS
  0
POLYLINE
  8
0
  6
CONTINUOUS
 66
     1
 10
0.0
 20
0.0
 30
0.0
  0
VERTEX
  8
0
  6
CONTINUOUS
 10
59.193191
 20
117.724241
 30
0.0
  0
VERTEX
  8
0
  6
CONTINUOUS
 10
59.313792
 20
117.854199
 30
0.0
  0
VERTEX
  8
0
  6
CONTINUOUS
 10
59.36363
 20
118.032911
 30
0.0
  0
SEQEND
  8
0
  6
CONTINUOUS
  0
POLYLINE
  8
0
  6
CONTINUOUS
 66
     1
 10
0.0
 20
0.0
 30
0.0
  0
VERTEX
  8
0
  6
CONTINUOUS
 10
59.366041
 20
115.33804
 30
0.0
  0
VERTEX
  8
0
  6
CONTINUOUS
 10
59.315933
 20
115.460819
 30
0.0
  0
VERTEX
  8
0
  6
CONTINUOUS
 10
59.19522
 20
115.455731
 30
0.0
  0
SEQEND
  8
0
  6
CONTINUOUS
  0
POLYLINE
  8
0
  6
CONTINUOUS
 66
     1
 10
0.0
 20
0.0
 30
0.0
  0
VERTEX
  8
0
  6
CONTINUOUS
 10
59.199008
 20
111.221244
 30
0.0
  0
VERTEX
  8
0
  6
CONTINUOUS
 10
59.319609
 20
111.351202
 30
0.0
  0
VERTEX
  8
0
  6
CONTINUOUS
 10
59.369447
 20
111.529914
 30
0.0
  0
SEQEND
  8
0
  6
CONTINUOUS
  0
POLYLINE
  8
0
  6
CONTINUOUS
 66
     1
 10
0.0
 20
0.0
 30
0.0
  0
VERTEX
  8
0
  6
CONTINUOUS
 10
59.371858
 20
108.835043
 30
0.0
  0
VERTEX
  8
0
  6
CONTINUOUS
 10
59.321749
 20
108.957822
 30
0.0
  0
VERTEX
  8
0
  6
CONTINUOUS
 10
59.201037
 20
108.952734
 30
0.0
  0
SEQEND
  8
0
  6
CONTINUOUS
  0
POLYLINE
  8
0
  6
CONTINUOUS
 66
     1
 10
0.0
 20
0.0
 30
0.0
  0
VERTEX
  8
0
  6
CONTINUOUS
 10
59.201552
 20
108.376363
 30
0.0
  0
VERTEX
  8
0
  6
CONTINUOUS
 10
59.322153
 20
108.506321
 30
0.0
  0
VERTEX
  8
0
  6
CONTINUOUS
 10
59.371992
 20
108.685033
 30
0.0
  0
SEQEND
  8
0
  6
CONTINUOUS
  0
POLYLINE
  8
0
  6
CONTINUOUS
 66
     1
 10
0.0
 20
0.0
 30
0.0
  0
VERTEX
  8
0
  6
CONTINUOUS
 10
67.90857
 20
131.086066
 30
0.0
  0
VERTEX
  8
0
  6
CONTINUOUS
 10
67.906886
 20
131.177533
 30
0.0
  0
VERTEX
  8
0
  6
CONTINUOUS
 10
67.902
 20
131.267035
 30
0.0
  0
SEQEND
  8
0
  6
CONTINUOUS
  0
POLYLINE
  8
0
  6
CONTINUOUS
 66
     1
 10
0.0
 20
0.0
 30
0.0
  0
VERTEX
  8
0
  6
CONTINUOUS
 10
68.273955
 20
130.908086
 30
0.0
  0
VERTEX
  8
0
  6
CONTINUOUS
 10
68.258142
 20
131.186609
 30
0.0
  0
VERTEX
  8
0
  6
CONTINUOUS
 10
68.211505
 20
131.442642
 30
0.0
  0
SEQEND
  8
0
  6
CONTINUOUS
  0
POLYLINE
  8
0
  6
CONTINUOUS
 66
     1
 10
0.0
 20
0.0
 30
0.0
  0
VERTEX
  8
0
  6
CONTINUOUS
 10
70.427942
 20
108.861669
 30
0.0
  0
VERTEX
  8
0
  6
CONTINUOUS
 10
70.769152
 20
109.166938
 30
0.0
  0
VERTEX
  8
0
  6
CONTINUOUS
 10
71.018731
 20
109.618932
 30
0.0
  0
VERTEX
  8
0
  6
CONTINUOUS
 10
71.109803
 20
110.096539
 30
0.0
  0
SEQEND
  8
0
  6
CONTINUOUS
  0
POLYLINE
  8
0
  6
CONTINUOUS
 66
     1
 10
0.0
 20
0.0
 30
0.0
  0
VERTEX
  8
0
  6
CONTINUOUS
 10
66.586847
 20
108.205315
 30
0.0
  0
VERTEX
  8
0
  6
CONTINUOUS
 10
67.793009
 20
109.505119
 30
0.0
  0
VERTEX
  8
0
  6
CONTINUOUS
 10
68.2915
 20
111.292488
 30
0.0
  0
SEQEND
  8
0
  6
CONTINUOUS
  0
POLYLINE
  8
0
  6
CONTINUOUS
 66
     1
 10
0.0
 20
0.0
 30
0.0
  0
VERTEX
  8
0
  6
CONTINUOUS
 10
71.711954
 20
119.678965
 30
0.0
  0
VERTEX
  8
0
  6
CONTINUOUS
 10
72.735143
 20
121.621153
 30
0.0
  0
VERTEX
  8
0
  6
CONTINUOUS
 10
72.014782
 20
124.557691
 30
0.0
  0
SEQEND
  8
0
  6
CONTINUOUS
  0
POLYLINE
  8
0
  6
CONTINUOUS
 66
     1
 10
0.0
 20
0.0
 30
0.0
  0
VERTEX
  8
0
  6
CONTINUOUS
 10
71.149569
 20
125.813756
 30
0.0
  0
VERTEX
  8
0
  6
CONTINUOUS
 10
71.122703
 20
125.844149
 30
0.0
  0
VERTEX
  8
0
  6
CONTINUOUS
 10
71.095691
 20
125.874303
 30
0.0
  0
SEQEND
  8
0
  6
CONTINUOUS
  0
POLYLINE
  8
0
  6
CONTINUOUS
 66
     1
 10
0.0
 20
0.0
 30
0.0
  0
VERTEX
  8
0
  6
CONTINUOUS
 10
71.353027
 20
119.533214
 30
0.0
  0
VERTEX
  8
0
  6
CONTINUOUS
 10
71.960205
 20
120.626443
 30
0.0
  0
VERTEX
  8
0
  6
CONTINUOUS
 10
72.010244
 20
122.160732
 30
0.0
  0
SEQEND
  8
0
  6
CONTINUOUS
  0
POLYLINE
  8
0
  6
CONTINUOUS
 66
     1
 10
0.0
 20
0.0
 30
0.0
  0
VERTEX
  8
0
  6
CONTINUOUS
 10
67.507281
 20
120.282497
 30
0.0
  0
VERTEX
  8
0
  6
CONTINUOUS
 10
67.501045
 20
120.278421
 30
0.0
  0
SEQEND
  8
0
  6
CONTINUOUS
  0
POLYLINE
  8
0
  6
CONTINUOUS
 66
     1
 10
0.0
 20
0.0
 30
0.0
  0
VERTEX
  8
0
  6
CONTINUOUS
 10
65.72327
 20
119.283524
 30
0.0
  0
VERTEX
  8
0
  6
CONTINUOUS
 10
65.602962
 20
119.268548
 30
0.0
  0
SEQEND
  8
0
  6
CONTINUOUS
  0
POLYLINE
  8
0
  6
CONTINUOUS
 66
     1
 10
0.0
 20
0.0
 30
0.0
  0
VERTEX
  8
0
  6
CONTINUOUS
 10
65.603112
 20
119.364866
 30
0.0
  0
VERTEX
  8
0
  6
CONTINUOUS
 10
65.602962
 20
119.268548
 30
0.0
  0
SEQEND
  8
0
  6
CONTINUOUS
  0
POLYLINE
  8
0
  6
CONTINUOUS
 66
     1
 10
0.0
 20
0.0
 30
0.0
  0
VERTEX
  8
0
  6
CONTINUOUS
 10
65.602962
 20
119.268548
 30
0.0
  0
VERTEX
  8
0
  6
CONTINUOUS
 10
65.478247
 20
119.277305
 30
0.0
  0
SEQEND
  8
0
  6
CONTINUOUS
  0
POLYLINE
  8
0
  6
CONTINUOUS
 66
     1
 10
0.0
 20
0.0
 30
0.0
  0
VERTEX
  8
0
  6
CONTINUOUS
 10
65.742383
 20
124.960739
 30
0.0
  0
VERTEX
  8
0
  6
CONTINUOUS
 10
65.598532
 20
124.485668
 30
0.0
  0
SEQEND
  8
0
  6
CONTINUOUS
  0
POLYLINE
  8
0
  6
CONTINUOUS
 66
     1
 10
0.0
 20
0.0
 30
0.0
  0
VERTEX
  8
0
  6
CONTINUOUS
 10
65.876216
 20
124.880092
 30
0.0
  0
VERTEX
  8
0
  6
CONTINUOUS
 10
65.742383
 20
124.960739
 30
0.0
  0
SEQEND
  8
0
  6
CONTINUOUS
  0
POLYLINE
  8
0
  6
CONTINUOUS
 66
     1
 10
0.0
 20
0.0
 30
0.0
  0
VERTEX
  8
0
  6
CONTINUOUS
 10
66.058166
 20
125.318078
 30
0.0
  0
VERTEX
  8
0
  6
CONTINUOUS
 10
65.742383
 20
124.960739
 30
0.0
  0
SEQEND
  8
0
  6
CONTINUOUS
  0
POLYLINE
  8
0
  6
CONTINUOUS
 66
     1
 10
0.0
 20
0.0
 30
0.0
  0
VERTEX
  8
0
  6
CONTINUOUS
 10
65.574555
 20
125.051048
 30
0.0
  0
VERTEX
  8
0
  6
CONTINUOUS
 10
65.742383
 20
124.960739
 30
0.0
  0
SEQEND
  8
0
  6
CONTINUOUS
  0
POLYLINE
  8
0
  6
CONTINUOUS
 66
     1
 10
0.0
 20
0.0
 30
0.0
  0
VERTEX
  8
0
  6
CONTINUOUS
 10
67.367957
 20
130.86443
 30
0.0
  0
VERTEX
  8
0
  6
CONTINUOUS
 10
67.235981
 20
130.749652
 30
0.0
  0
SEQEND
  8
0
  6
CONTINUOUS
  0
POLYLINE
  8
0
  6
CONTINUOUS
 66
     1
 10
0.0
 20
0.0
 30
0.0
  0
VERTEX
  8
0
  6
CONTINUOUS
 10
67.076052
 20
130.740081
 30
0.0
  0
VERTEX
  8
0
  6
CONTINUOUS
 10
67.235981
 20
130.749652
 30
0.0
  0
SEQEND
  8
0
  6
CONTINUOUS
  0
POLYLINE
  8
0
  6
CONTINUOUS
 66
     1
 10
0.0
 20
0.0
 30
0.0
  0
VERTEX
  8
0
  6
CONTINUOUS
 10
67.609278
 20
130.777489
 30
0.0
  0
VERTEX
  8
0
  6
CONTINUOUS
 10
67.525252
 20
131.056845
 30
0.0
  0
SEQEND
  8
0
  6
CONTINUOUS
  0
POLYLINE
  8
0
  6
CONTINUOUS
 66
     1
 10
0.0
 20
0.0
 30
0.0
  0
VERTEX
  8
0
  6
CONTINUOUS
 10
67.439457
 20
131.007037
 30
0.0
  0
VERTEX
  8
0
  6
CONTINUOUS
 10
67.42134
 20
130.961109
 30
0.0
  0
SEQEND
  8
0
  6
CONTINUOUS
  0
POLYLINE
  8
0
  6
CONTINUOUS
 66
     1
 10
0.0
 20
0.0
 30
0.0
  0
VERTEX
  8
0
  6
CONTINUOUS
 10
65.478247
 20
119.277305
 30
0.0
  0
VERTEX
  8
0
  6
CONTINUOUS
 10
65.424075
 20
119.397834
 30
0.0
  0
SEQEND
  8
0
  6
CONTINUOUS
  0
POLYLINE
  8
0
  6
CONTINUOUS
 66
     1
 10
0.0
 20
0.0
 30
0.0
  0
VERTEX
  8
0
  6
CONTINUOUS
 10
65.491984
 20
119.269447
 30
0.0
  0
VERTEX
  8
0
  6
CONTINUOUS
 10
65.478247
 20
119.277305
 30
0.0
  0
SEQEND
  8
0
  6
CONTINUOUS
  0
POLYLINE
  8
0
  6
CONTINUOUS
 66
     1
 10
0.0
 20
0.0
 30
0.0
  0
VERTEX
  8
0
  6
CONTINUOUS
 10
65.574555
 20
125.051048
 30
0.0
  0
VERTEX
  8
0
  6
CONTINUOUS
 10
65.93089
 20
125.444788
 30
0.0
  0
SEQEND
  8
0
  6
CONTINUOUS
  0
POLYLINE
  8
0
  6
CONTINUOUS
 66
     1
 10
0.0
 20
0.0
 30
0.0
  0
VERTEX
  8
0
  6
CONTINUOUS
 10
65.419494
 20
124.518636
 30
0.0
  0
VERTEX
  8
0
  6
CONTINUOUS
 10
65.574555
 20
125.051048
 30
0.0
  0
SEQEND
  8
0
  6
CONTINUOUS
  0
POLYLINE
  8
0
  6
CONTINUOUS
 66
     1
 10
0.0
 20
0.0
 30
0.0
  0
VERTEX
  8
0
  6
CONTINUOUS
 10
65.72327
 20
119.283524
 30
0.0
  0
VERTEX
  8
0
  6
CONTINUOUS
 10
65.714134
 20
119.27778
 30
0.0
  0
SEQEND
  8
0
  6
CONTINUOUS
  0
POLYLINE
  8
0
  6
CONTINUOUS
 66
     1
 10
0.0
 20
0.0
 30
0.0
  0
VERTEX
  8
0
  6
CONTINUOUS
 10
65.777423
 20
119.404349
 30
0.0
  0
VERTEX
  8
0
  6
CONTINUOUS
 10
65.72327
 20
119.283524
 30
0.0
  0
SEQEND
  8
0
  6
CONTINUOUS
  0
POLYLINE
  8
0
  6
CONTINUOUS
 66
     1
 10
0.0
 20
0.0
 30
0.0
  0
VERTEX
  8
0
  6
CONTINUOUS
 10
67.501045
 20
120.278421
 30
0.0
  0
VERTEX
  8
0
  6
CONTINUOUS
 10
67.555198
 20
120.399246
 30
0.0
  0
SEQEND
  8
0
  6
CONTINUOUS
  0
POLYLINE
  8
0
  6
CONTINUOUS
 66
     1
 10
0.0
 20
0.0
 30
0.0
  0
VERTEX
  8
0
  6
CONTINUOUS
 10
67.491797
 20
120.272614
 30
0.0
  0
VERTEX
  8
0
  6
CONTINUOUS
 10
67.501045
 20
120.278421
 30
0.0
  0
SEQEND
  8
0
  6
CONTINUOUS
  0
POLYLINE
  8
0
  6
CONTINUOUS
 66
     1
 10
0.0
 20
0.0
 30
0.0
  0
VERTEX
  8
0
  6
CONTINUOUS
 10
67.609684
 20
130.76327
 30
0.0
  0
VERTEX
  8
0
  6
CONTINUOUS
 10
67.546007
 20
130.674422
 30
0.0
  0
SEQEND
  8
0
  6
CONTINUOUS
  0
POLYLINE
  8
0
  6
CONTINUOUS
 66
     1
 10
0.0
 20
0.0
 30
0.0
  0
VERTEX
  8
0
  6
CONTINUOUS
 10
67.555198
 20
120.399246
 30
0.0
  0
VERTEX
  8
0
  6
CONTINUOUS
 10
67.618875
 20
120.488094
 30
0.0
  0
SEQEND
  8
0
  6
CONTINUOUS
  0
POLYLINE
  8
0
  6
CONTINUOUS
 66
     1
 10
0.0
 20
0.0
 30
0.0
  0
VERTEX
  8
0
  6
CONTINUOUS
 10
65.598532
 20
124.485668
 30
0.0
  0
VERTEX
  8
0
  6
CONTINUOUS
 10
65.419494
 20
124.518636
 30
0.0
  0
SEQEND
  8
0
  6
CONTINUOUS
  0
POLYLINE
  8
0
  6
CONTINUOUS
 66
     1
 10
0.0
 20
0.0
 30
0.0
  0
VERTEX
  8
0
  6
CONTINUOUS
 10
65.772843
 20
124.525151
 30
0.0
  0
VERTEX
  8
0
  6
CONTINUOUS
 10
65.598532
 20
124.485668
 30
0.0
  0
SEQEND
  8
0
  6
CONTINUOUS
  0
POLYLINE
  8
0
  6
CONTINUOUS
 66
     1
 10
0.0
 20
0.0
 30
0.0
  0
VERTEX
  8
0
  6
CONTINUOUS
 10
65.603112
 20
119.364866
 30
0.0
  0
VERTEX
  8
0
  6
CONTINUOUS
 10
65.777423
 20
119.404349
 30
0.0
  0
SEQEND
  8
0
  6
CONTINUOUS
  0
POLYLINE
  8
0
  6
CONTINUOUS
 66
     1
 10
0.0
 20
0.0
 30
0.0
  0
VERTEX
  8
0
  6
CONTINUOUS
 10
65.424075
 20
119.397834
 30
0.0
  0
VERTEX
  8
0
  6
CONTINUOUS
 10
65.603112
 20
119.364866
 30
0.0
  0
SEQEND
  8
0
  6
CONTINUOUS
  0
POLYLINE
  8
0
  6
CONTINUOUS
 66
     1
 10
0.0
 20
0.0
 30
0.0
  0
VERTEX
  8
0
  6
CONTINUOUS
 10
66.058166
 20
125.318078
 30
0.0
  0
VERTEX
  8
0
  6
CONTINUOUS
 10
66.113773
 20
125.142586
 30
0.0
  0
SEQEND
  8
0
  6
CONTINUOUS
  0
POLYLINE
  8
0
  6
CONTINUOUS
 66
     1
 10
0.0
 20
0.0
 30
0.0
  0
VERTEX
  8
0
  6
CONTINUOUS
 10
65.93089
 20
125.444788
 30
0.0
  0
VERTEX
  8
0
  6
CONTINUOUS
 10
66.058166
 20
125.318078
 30
0.0
  0
SEQEND
  8
0
  6
CONTINUOUS
  0
POLYLINE
  8
0
  6
CONTINUOUS
 66
     1
 10
0.0
 20
0.0
 30
0.0
  0
VERTEX
  8
0
  6
CONTINUOUS
 10
67.125744
 20
126.110089
 30
0.0
  0
VERTEX
  8
0
  6
CONTINUOUS
 10
67.224586
 20
126.057723
 30
0.0
  0
VERTEX
  8
0
  6
CONTINUOUS
 10
67.323161
 20
126.001107
 30
0.0
  0
VERTEX
  8
0
  6
CONTINUOUS
 10
67.408725
 20
125.948981
 30
0.0
  0
VERTEX
  8
0
  6
CONTINUOUS
 10
67.476068
 20
125.904967
 30
0.0
  0
SEQEND
  8
0
  6
CONTINUOUS
  0
POLYLINE
  8
0
  6
CONTINUOUS
 66
     1
 10
0.0
 20
0.0
 30
0.0
  0
VERTEX
  8
0
  6
CONTINUOUS
 10
67.471846
 20
130.625524
 30
0.0
  0
VERTEX
  8
0
  6
CONTINUOUS
 10
67.299689
 20
130.586001
 30
0.0
  0
SEQEND
  8
0
  6
CONTINUOUS
  0
POLYLINE
  8
0
  6
CONTINUOUS
 66
     1
 10
0.0
 20
0.0
 30
0.0
  0
VERTEX
  8
0
  6
CONTINUOUS
 10
67.076052
 20
130.740081
 30
0.0
  0
VERTEX
  8
0
  6
CONTINUOUS
 10
67.128237
 20
130.832476
 30
0.0
  0
SEQEND
  8
0
  6
CONTINUOUS
  0
POLYLINE
  8
0
  6
CONTINUOUS
 66
     1
 10
0.0
 20
0.0
 30
0.0
  0
VERTEX
  8
0
  6
CONTINUOUS
 10
67.066916
 20
130.734337
 30
0.0
  0
VERTEX
  8
0
  6
CONTINUOUS
 10
67.076052
 20
130.740081
 30
0.0
  0
SEQEND
  8
0
  6
CONTINUOUS
  0
POLYLINE
  8
0
  6
CONTINUOUS
 66
     1
 10
0.0
 20
0.0
 30
0.0
  0
VERTEX
  8
0
  6
CONTINUOUS
 10
65.62131
 20
129.989526
 30
0.0
  0
VERTEX
  8
0
  6
CONTINUOUS
 10
65.717816
 20
129.987254
 30
0.0
  0
VERTEX
  8
0
  6
CONTINUOUS
 10
65.815791
 20
130.037396
 30
0.0
  0
VERTEX
  8
0
  6
CONTINUOUS
 10
65.901237
 20
130.116177
 30
0.0
  0
VERTEX
  8
0
  6
CONTINUOUS
 10
65.943077
 20
130.169641
 30
0.0
  0
SEQEND
  8
0
  6
CONTINUOUS
  0
POLYLINE
  8
0
  6
CONTINUOUS
 66
     1
 10
0.0
 20
0.0
 30
0.0
  0
VERTEX
  8
0
  6
CONTINUOUS
 10
70.632775
 20
132.387785
 30
0.0
  0
VERTEX
  8
0
  6
CONTINUOUS
 10
70.514235
 20
132.37284
 30
0.0
  0
SEQEND
  8
0
  6
CONTINUOUS
  0
POLYLINE
  8
0
  6
CONTINUOUS
 66
     1
 10
0.0
 20
0.0
 30
0.0
  0
VERTEX
  8
0
  6
CONTINUOUS
 10
70.514771
 20
132.469087
 30
0.0
  0
VERTEX
  8
0
  6
CONTINUOUS
 10
70.514235
 20
132.37284
 30
0.0
  0
SEQEND
  8
0
  6
CONTINUOUS
  0
POLYLINE
  8
0
  6
CONTINUOUS
 66
     1
 10
0.0
 20
0.0
 30
0.0
  0
VERTEX
  8
0
  6
CONTINUOUS
 10
70.514235
 20
132.37284
 30
0.0
  0
VERTEX
  8
0
  6
CONTINUOUS
 10
70.390007
 20
132.380525
 30
0.0
  0
SEQEND
  8
0
  6
CONTINUOUS
  0
POLYLINE
  8
0
  6
CONTINUOUS
 66
     1
 10
0.0
 20
0.0
 30
0.0
  0
VERTEX
  8
0
  6
CONTINUOUS
 10
70.390007
 20
132.380525
 30
0.0
  0
VERTEX
  8
0
  6
CONTINUOUS
 10
70.336794
 20
132.500557
 30
0.0
  0
SEQEND
  8
0
  6
CONTINUOUS
  0
POLYLINE
  8
0
  6
CONTINUOUS
 66
     1
 10
0.0
 20
0.0
 30
0.0
  0
VERTEX
  8
0
  6
CONTINUOUS
 10
70.404617
 20
132.37227
 30
0.0
  0
VERTEX
  8
0
  6
CONTINUOUS
 10
70.390007
 20
132.380525
 30
0.0
  0
SEQEND
  8
0
  6
CONTINUOUS
  0
POLYLINE
  8
0
  6
CONTINUOUS
 66
     1
 10
0.0
 20
0.0
 30
0.0
  0
VERTEX
  8
0
  6
CONTINUOUS
 10
70.697695
 20
132.423485
 30
0.0
  0
VERTEX
  8
0
  6
CONTINUOUS
 10
70.706944
 20
132.429292
 30
0.0
  0
SEQEND
  8
0
  6
CONTINUOUS
  0
POLYLINE
  8
0
  6
CONTINUOUS
 66
     1
 10
0.0
 20
0.0
 30
0.0
  0
VERTEX
  8
0
  6
CONTINUOUS
 10
70.632775
 20
132.387785
 30
0.0
  0
VERTEX
  8
0
  6
CONTINUOUS
 10
70.62364
 20
132.382041
 30
0.0
  0
SEQEND
  8
0
  6
CONTINUOUS
  0
POLYLINE
  8
0
  6
CONTINUOUS
 66
     1
 10
0.0
 20
0.0
 30
0.0
  0
VERTEX
  8
0
  6
CONTINUOUS
 10
70.686928
 20
132.50861
 30
0.0
  0
VERTEX
  8
0
  6
CONTINUOUS
 10
70.632775
 20
132.387785
 30
0.0
  0
SEQEND
  8
0
  6
CONTINUOUS
  0
POLYLINE
  8
0
  6
CONTINUOUS
 66
     1
 10
0.0
 20
0.0
 30
0.0
  0
VERTEX
  8
0
  6
CONTINUOUS
 10
70.514771
 20
132.469087
 30
0.0
  0
VERTEX
  8
0
  6
CONTINUOUS
 10
70.686928
 20
132.50861
 30
0.0
  0
SEQEND
  8
0
  6
CONTINUOUS
  0
POLYLINE
  8
0
  6
CONTINUOUS
 66
     1
 10
0.0
 20
0.0
 30
0.0
  0
VERTEX
  8
0
  6
CONTINUOUS
 10
70.336794
 20
132.500557
 30
0.0
  0
VERTEX
  8
0
  6
CONTINUOUS
 10
70.514771
 20
132.469087
 30
0.0
  0
SEQEND
  8
0
  6
CONTINUOUS
  0
POLYLINE
  8
0
  6
CONTINUOUS
 66
     1
 10
0.0
 20
0.0
 30
0.0
  0
VERTEX
  8
0
  6
CONTINUOUS
 10
70.59871
 20
113.49962
 30
0.0
  0
VERTEX
  8
0
  6
CONTINUOUS
 10
70.709148
 20
113.506587
 30
0.0
  0
SEQEND
  8
0
  6
CONTINUOUS
  0
POLYLINE
  8
0
  6
CONTINUOUS
 66
     1
 10
0.0
 20
0.0
 30
0.0
  0
VERTEX
  8
0
  6
CONTINUOUS
 10
70.354103
 20
113.149443
 30
0.0
  0
VERTEX
  8
0
  6
CONTINUOUS
 10
70.40705
 20
113.326265
 30
0.0
  0
SEQEND
  8
0
  6
CONTINUOUS
  0
POLYLINE
  8
0
  6
CONTINUOUS
 66
     1
 10
0.0
 20
0.0
 30
0.0
  0
VERTEX
  8
0
  6
CONTINUOUS
 10
63.429141
 20
113.987465
 30
0.0
  0
VERTEX
  8
0
  6
CONTINUOUS
 10
66.420283
 20
112.52078
 30
0.0
  0
SEQEND
  8
0
  6
CONTINUOUS
  0
POLYLINE
  8
0
  6
CONTINUOUS
 66
     1
 10
0.0
 20
0.0
 30
0.0
  0
VERTEX
  8
0
  6
CONTINUOUS
 10
70.354103
 20
113.149443
 30
0.0
  0
VERTEX
  8
0
  6
CONTINUOUS
 10
70.149796
 20
113.249623
 30
0.0
  0
SEQEND
  8
0
  6
CONTINUOUS
  0
POLYLINE
  8
0
  6
CONTINUOUS
 66
     1
 10
0.0
 20
0.0
 30
0.0
  0
VERTEX
  8
0
  6
CONTINUOUS
 10
67.923392
 20
114.341325
 30
0.0
  0
VERTEX
  8
0
  6
CONTINUOUS
 10
66.080349
 20
115.245048
 30
0.0
  0
SEQEND
  8
0
  6
CONTINUOUS
  0
POLYLINE
  8
0
  6
CONTINUOUS
 66
     1
 10
0.0
 20
0.0
 30
0.0
  0
VERTEX
  8
0
  6
CONTINUOUS
 10
70.336794
 20
132.500557
 30
0.0
  0
VERTEX
  8
0
  6
CONTINUOUS
 10
70.33668
 20
132.628755
 30
0.0
  0
SEQEND
  8
0
  6
CONTINUOUS
  0
POLYLINE
  8
0
  6
CONTINUOUS
 66
     1
 10
0.0
 20
0.0
 30
0.0
  0
VERTEX
  8
0
  6
CONTINUOUS
 10
70.209805
 20
132.557736
 30
0.0
  0
VERTEX
  8
0
  6
CONTINUOUS
 10
70.336794
 20
132.500557
 30
0.0
  0
SEQEND
  8
0
  6
CONTINUOUS
  0
POLYLINE
  8
0
  6
CONTINUOUS
 66
     1
 10
0.0
 20
0.0
 30
0.0
  0
VERTEX
  8
0
  6
CONTINUOUS
 10
62.98572
 20
125.795417
 30
0.0
  0
VERTEX
  8
0
  6
CONTINUOUS
 10
63.191333
 20
126.304864
 30
0.0
  0
VERTEX
  8
0
  6
CONTINUOUS
 10
63.576427
 20
126.683703
 30
0.0
  0
SEQEND
  8
0
  6
CONTINUOUS
  0
POLYLINE
  8
0
  6
CONTINUOUS
 66
     1
 10
0.0
 20
0.0
 30
0.0
  0
VERTEX
  8
0
  6
CONTINUOUS
 10
65.419494
 20
124.518636
 30
0.0
  0
VERTEX
  8
0
  6
CONTINUOUS
 10
65.421592
 20
122.173293
 30
0.0
  0
VERTEX
  8
0
  6
CONTINUOUS
 10
65.424075
 20
119.397834
 30
0.0
  0
SEQEND
  8
0
  6
CONTINUOUS
  0
POLYLINE
  8
0
  6
CONTINUOUS
 66
     1
 10
0.0
 20
0.0
 30
0.0
  0
VERTEX
  8
0
  6
CONTINUOUS
 10
65.424075
 20
119.397834
 30
0.0
  0
VERTEX
  8
0
  6
CONTINUOUS
 10
64.781475
 20
119.69776
 30
0.0
  0
VERTEX
  8
0
  6
CONTINUOUS
 10
63.962562
 20
120.079978
 30
0.0
  0
SEQEND
  8
0
  6
CONTINUOUS
  0
POLYLINE
  8
0
  6
CONTINUOUS
 66
     1
 10
0.0
 20
0.0
 30
0.0
  0
VERTEX
  8
0
  6
CONTINUOUS
 10
64.871417
 20
124.785605
 30
0.0
  0
VERTEX
  8
0
  6
CONTINUOUS
 10
65.236802
 20
124.607626
 30
0.0
  0
VERTEX
  8
0
  6
CONTINUOUS
 10
65.419494
 20
124.518636
 30
0.0
  0
SEQEND
  8
0
  6
CONTINUOUS
  0
POLYLINE
  8
0
  6
CONTINUOUS
 66
     1
 10
0.0
 20
0.0
 30
0.0
  0
VERTEX
  8
0
  6
CONTINUOUS
 10
62.745281
 20
113.604667
 30
0.0
  0
VERTEX
  8
0
  6
CONTINUOUS
 10
62.740031
 20
113.595088
 30
0.0
  0
VERTEX
  8
0
  6
CONTINUOUS
 10
62.544499
 20
113.316253
 30
0.0
  0
VERTEX
  8
0
  6
CONTINUOUS
 10
62.31259
 20
113.12288
 30
0.0
  0
SEQEND
  8
0
  6
CONTINUOUS
  0
POLYLINE
  8
0
  6
CONTINUOUS
 66
     1
 10
0.0
 20
0.0
 30
0.0
  0
VERTEX
  8
0
  6
CONTINUOUS
 10
64.251923
 20
116.907972
 30
0.0
  0
VERTEX
  8
0
  6
CONTINUOUS
 10
64.279474
 20
116.795398
 30
0.0
  0
VERTEX
  8
0
  6
CONTINUOUS
 10
64.354515
 20
116.743697
 30
0.0
  0
VERTEX
  8
0
  6
CONTINUOUS
 10
64.456939
 20
116.766721
 30
0.0
  0
SEQEND
  8
0
  6
CONTINUOUS
  0
POLYLINE
  8
0
  6
CONTINUOUS
 66
     1
 10
0.0
 20
0.0
 30
0.0
  0
VERTEX
  8
0
  6
CONTINUOUS
 10
64.866437
 20
117.081217
 30
0.0
  0
VERTEX
  8
0
  6
CONTINUOUS
 10
64.820512
 20
117.268836
 30
0.0
  0
VERTEX
  8
0
  6
CONTINUOUS
 10
64.695425
 20
117.354994
 30
0.0
  0
VERTEX
  8
0
  6
CONTINUOUS
 10
64.524692
 20
117.316605
 30
0.0
  0
SEQEND
  8
0
  6
CONTINUOUS
  0
POLYLINE
  8
0
  6
CONTINUOUS
 66
     1
 10
0.0
 20
0.0
 30
0.0
  0
VERTEX
  8
0
  6
CONTINUOUS
 10
64.527223
 20
114.602423
 30
0.0
  0
VERTEX
  8
0
  6
CONTINUOUS
 10
64.768425
 20
114.86234
 30
0.0
  0
VERTEX
  8
0
  6
CONTINUOUS
 10
64.868102
 20
115.219764
 30
0.0
  0
SEQEND
  8
0
  6
CONTINUOUS
  0
POLYLINE
  8
0
  6
CONTINUOUS
 66
     1
 10
0.0
 20
0.0
 30
0.0
  0
VERTEX
  8
0
  6
CONTINUOUS
 10
61.113861
 20
112.90549
 30
0.0
  0
VERTEX
  8
0
  6
CONTINUOUS
 10
61.163969
 20
112.782711
 30
0.0
  0
VERTEX
  8
0
  6
CONTINUOUS
 10
61.284681
 20
112.787799
 30
0.0
  0
SEQEND
  8
0
  6
CONTINUOUS
  0
POLYLINE
  8
0
  6
CONTINUOUS
 66
     1
 10
0.0
 20
0.0
 30
0.0
  0
VERTEX
  8
0
  6
CONTINUOUS
 10
61.284224
 20
113.29951
 30
0.0
  0
VERTEX
  8
0
  6
CONTINUOUS
 10
61.163623
 20
113.169552
 30
0.0
  0
VERTEX
  8
0
  6
CONTINUOUS
 10
61.113784
 20
112.99084
 30
0.0
  0
SEQEND
  8
0
  6
CONTINUOUS
  0
POLYLINE
  8
0
  6
CONTINUOUS
 66
     1
 10
0.0
 20
0.0
 30
0.0
  0
VERTEX
  8
0
  6
CONTINUOUS
 10
60.541526
 20
113.663687
 30
0.0
  0
VERTEX
  8
0
  6
CONTINUOUS
 10
60.420925
 20
113.533728
 30
0.0
  0
VERTEX
  8
0
  6
CONTINUOUS
 10
60.371086
 20
113.355016
 30
0.0
  0
SEQEND
  8
0
  6
CONTINUOUS
  0
POLYLINE
  8
0
  6
CONTINUOUS
 66
     1
 10
0.0
 20
0.0
 30
0.0
  0
VERTEX
  8
0
  6
CONTINUOUS
 10
60.371189
 20
113.239893
 30
0.0
  0
VERTEX
  8
0
  6
CONTINUOUS
 10
60.387922
 20
113.157351
 30
0.0
  0
VERTEX
  8
0
  6
CONTINUOUS
 10
60.434691
 20
113.109563
 30
0.0
  0
SEQEND
  8
0
  6
CONTINUOUS
  0
POLYLINE
  8
0
  6
CONTINUOUS
 66
     1
 10
0.0
 20
0.0
 30
0.0
  0
VERTEX
  8
0
  6
CONTINUOUS
 10
62.836325
 20
120.797009
 30
0.0
  0
VERTEX
  8
0
  6
CONTINUOUS
 10
62.876415
 20
120.698821
 30
0.0
  0
VERTEX
  8
0
  6
CONTINUOUS
 10
62.973003
 20
120.70292
 30
0.0
  0
SEQEND
  8
0
  6
CONTINUOUS
  0
POLYLINE
  8
0
  6
CONTINUOUS
 66
     1
 10
0.0
 20
0.0
 30
0.0
  0
VERTEX
  8
0
  6
CONTINUOUS
 10
63.962562
 20
120.079978
 30
0.0
  0
VERTEX
  8
0
  6
CONTINUOUS
 10
63.97678
 20
120.00734
 30
0.0
  0
VERTEX
  8
0
  6
CONTINUOUS
 10
64.014541
 20
119.960466
 30
0.0
  0
VERTEX
  8
0
  6
CONTINUOUS
 10
64.027994
 20
119.952755
 30
0.0
  0
SEQEND
  8
0
  6
CONTINUOUS
  0
POLYLINE
  8
0
  6
CONTINUOUS
 66
     1
 10
0.0
 20
0.0
 30
0.0
  0
VERTEX
  8
0
  6
CONTINUOUS
 10
66.571391
 20
115.679524
 30
0.0
  0
VERTEX
  8
0
  6
CONTINUOUS
 10
66.526537
 20
115.690371
 30
0.0
  0
VERTEX
  8
0
  6
CONTINUOUS
 10
66.462086
 20
115.671966
 30
0.0
  0
SEQEND
  8
0
  6
CONTINUOUS
  0
POLYLINE
  8
0
  6
CONTINUOUS
 66
     1
 10
0.0
 20
0.0
 30
0.0
  0
VERTEX
  8
0
  6
CONTINUOUS
 10
66.250788
 20
115.553718
 30
0.0
  0
VERTEX
  8
0
  6
CONTINUOUS
 10
66.186343
 20
115.499974
 30
0.0
  0
VERTEX
  8
0
  6
CONTINUOUS
 10
66.131994
 20
115.422439
 30
0.0
  0
VERTEX
  8
0
  6
CONTINUOUS
 10
66.094408
 20
115.333459
 30
0.0
  0
VERTEX
  8
0
  6
CONTINUOUS
 10
66.080349
 20
115.245048
 30
0.0
  0
SEQEND
  8
0
  6
CONTINUOUS
  0
POLYLINE
  8
0
  6
CONTINUOUS
 66
     1
 10
0.0
 20
0.0
 30
0.0
  0
VERTEX
  8
0
  6
CONTINUOUS
 10
66.079667
 20
116.007955
 30
0.0
  0
VERTEX
  8
0
  6
CONTINUOUS
 10
66.029559
 20
116.130734
 30
0.0
  0
VERTEX
  8
0
  6
CONTINUOUS
 10
65.908846
 20
116.125646
 30
0.0
  0
SEQEND
  8
0
  6
CONTINUOUS
  0
POLYLINE
  8
0
  6
CONTINUOUS
 66
     1
 10
0.0
 20
0.0
 30
0.0
  0
VERTEX
  8
0
  6
CONTINUOUS
 10
64.02728
 20
117.701307
 30
0.0
  0
VERTEX
  8
0
  6
CONTINUOUS
 10
63.923799
 20
117.718975
 30
0.0
  0
VERTEX
  8
0
  6
CONTINUOUS
 10
63.805837
 20
117.679232
 30
0.0
  0
SEQEND
  8
0
  6
CONTINUOUS
  0
POLYLINE
  8
0
  6
CONTINUOUS
 66
     1
 10
0.0
 20
0.0
 30
0.0
  0
VERTEX
  8
0
  6
CONTINUOUS
 10
70.524542
 20
113.458113
 30
0.0
  0
VERTEX
  8
0
  6
CONTINUOUS
 10
70.523346
 20
113.458699
 30
0.0
  0
SEQEND
  8
0
  6
CONTINUOUS
  0
POLYLINE
  8
0
  6
CONTINUOUS
 66
     1
 10
0.0
 20
0.0
 30
0.0
  0
VERTEX
  8
0
  6
CONTINUOUS
 10
67.923031
 20
114.733746
 30
0.0
  0
VERTEX
  8
0
  6
CONTINUOUS
 10
66.250788
 20
115.553718
 30
0.0
  0
SEQEND
  8
0
  6
CONTINUOUS
  0
POLYLINE
  8
0
  6
CONTINUOUS
 66
     1
 10
0.0
 20
0.0
 30
0.0
  0
VERTEX
  8
0
  6
CONTINUOUS
 10
70.59871
 20
113.49962
 30
0.0
  0
VERTEX
  8
0
  6
CONTINUOUS
 10
70.597552
 20
113.500228
 30
0.0
  0
SEQEND
  8
0
  6
CONTINUOUS
  0
POLYLINE
  8
0
  6
CONTINUOUS
 66
     1
 10
0.0
 20
0.0
 30
0.0
  0
VERTEX
  8
0
  6
CONTINUOUS
 10
68.042796
 20
114.841857
 30
0.0
  0
VERTEX
  8
0
  6
CONTINUOUS
 10
66.462086
 20
115.671966
 30
0.0
  0
SEQEND
  8
0
  6
CONTINUOUS
  0
POLYLINE
  8
0
  6
CONTINUOUS
 66
     1
 10
0.0
 20
0.0
 30
0.0
  0
VERTEX
  8
0
  6
CONTINUOUS
 10
64.456481
 20
117.278433
 30
0.0
  0
VERTEX
  8
0
  6
CONTINUOUS
 10
64.311742
 20
117.122456
 30
0.0
  0
VERTEX
  8
0
  6
CONTINUOUS
 10
64.251923
 20
116.907972
 30
0.0
  0
SEQEND
  8
0
  6
CONTINUOUS
  0
POLYLINE
  8
0
  6
CONTINUOUS
 66
     1
 10
0.0
 20
0.0
 30
0.0
  0
VERTEX
  8
0
  6
CONTINUOUS
 10
67.476068
 20
125.904967
 30
0.0
  0
VERTEX
  8
0
  6
CONTINUOUS
 10
66.455085
 20
125.333594
 30
0.0
  0
VERTEX
  8
0
  6
CONTINUOUS
 10
66.113773
 20
125.142586
 30
0.0
  0
SEQEND
  8
0
  6
CONTINUOUS
  0
POLYLINE
  8
0
  6
CONTINUOUS
 66
     1
 10
0.0
 20
0.0
 30
0.0
  0
VERTEX
  8
0
  6
CONTINUOUS
 10
67.471846
 20
130.625524
 30
0.0
  0
VERTEX
  8
0
  6
CONTINUOUS
 10
67.473765
 20
128.480271
 30
0.0
  0
VERTEX
  8
0
  6
CONTINUOUS
 10
67.476068
 20
125.904967
 30
0.0
  0
SEQEND
  8
0
  6
CONTINUOUS
  0
POLYLINE
  8
0
  6
CONTINUOUS
 66
     1
 10
0.0
 20
0.0
 30
0.0
  0
VERTEX
  8
0
  6
CONTINUOUS
 10
67.367957
 20
130.86443
 30
0.0
  0
VERTEX
  8
0
  6
CONTINUOUS
 10
67.471846
 20
130.625524
 30
0.0
  0
SEQEND
  8
0
  6
CONTINUOUS
  0
POLYLINE
  8
0
  6
CONTINUOUS
 66
     1
 10
0.0
 20
0.0
 30
0.0
  0
VERTEX
  8
0
  6
CONTINUOUS
 10
67.243497
 20
130.897123
 30
0.0
  0
VERTEX
  8
0
  6
CONTINUOUS
 10
67.367957
 20
130.86443
 30
0.0
  0
SEQEND
  8
0
  6
CONTINUOUS
  0
POLYLINE
  8
0
  6
CONTINUOUS
 66
     1
 10
0.0
 20
0.0
 30
0.0
  0
VERTEX
  8
0
  6
CONTINUOUS
 10
67.42134
 20
130.961109
 30
0.0
  0
VERTEX
  8
0
  6
CONTINUOUS
 10
67.389822
 20
130.97928
 30
0.0
  0
SEQEND
  8
0
  6
CONTINUOUS
  0
POLYLINE
  8
0
  6
CONTINUOUS
 66
     1
 10
0.0
 20
0.0
 30
0.0
  0
VERTEX
  8
0
  6
CONTINUOUS
 10
67.546007
 20
130.674422
 30
0.0
  0
VERTEX
  8
0
  6
CONTINUOUS
 10
67.42134
 20
130.961109
 30
0.0
  0
SEQEND
  8
0
  6
CONTINUOUS
  0
POLYLINE
  8
0
  6
CONTINUOUS
 66
     1
 10
0.0
 20
0.0
 30
0.0
  0
VERTEX
  8
0
  6
CONTINUOUS
 10
67.555198
 20
120.399246
 30
0.0
  0
VERTEX
  8
0
  6
CONTINUOUS
 10
67.550374
 20
125.792651
 30
0.0
  0
VERTEX
  8
0
  6
CONTINUOUS
 10
67.546007
 20
130.674422
 30
0.0
  0
SEQEND
  8
0
  6
CONTINUOUS
  0
POLYLINE
  8
0
  6
CONTINUOUS
 66
     1
 10
0.0
 20
0.0
 30
0.0
  0
VERTEX
  8
0
  6
CONTINUOUS
 10
65.777423
 20
119.404349
 30
0.0
  0
VERTEX
  8
0
  6
CONTINUOUS
 10
66.664834
 20
119.900971
 30
0.0
  0
VERTEX
  8
0
  6
CONTINUOUS
 10
67.555198
 20
120.399246
 30
0.0
  0
SEQEND
  8
0
  6
CONTINUOUS
  0
POLYLINE
  8
0
  6
CONTINUOUS
 66
     1
 10
0.0
 20
0.0
 30
0.0
  0
VERTEX
  8
0
  6
CONTINUOUS
 10
65.772843
 20
124.525151
 30
0.0
  0
VERTEX
  8
0
  6
CONTINUOUS
 10
65.77494
 20
122.179808
 30
0.0
  0
VERTEX
  8
0
  6
CONTINUOUS
 10
65.777423
 20
119.404349
 30
0.0
  0
SEQEND
  8
0
  6
CONTINUOUS
  0
POLYLINE
  8
0
  6
CONTINUOUS
 66
     1
 10
0.0
 20
0.0
 30
0.0
  0
VERTEX
  8
0
  6
CONTINUOUS
 10
65.876216
 20
124.880092
 30
0.0
  0
VERTEX
  8
0
  6
CONTINUOUS
 10
65.772843
 20
124.525151
 30
0.0
  0
SEQEND
  8
0
  6
CONTINUOUS
  0
POLYLINE
  8
0
  6
CONTINUOUS
 66
     1
 10
0.0
 20
0.0
 30
0.0
  0
VERTEX
  8
0
  6
CONTINUOUS
 10
66.113773
 20
125.142586
 30
0.0
  0
VERTEX
  8
0
  6
CONTINUOUS
 10
65.876216
 20
124.880092
 30
0.0
  0
SEQEND
  8
0
  6
CONTINUOUS
  0
POLYLINE
  8
0
  6
CONTINUOUS
 66
     1
 10
0.0
 20
0.0
 30
0.0
  0
VERTEX
  8
0
  6
CONTINUOUS
 10
62.31259
 20
113.12288
 30
0.0
  0
VERTEX
  8
0
  6
CONTINUOUS
 10
65.861814
 20
111.382543
 30
0.0
  0
SEQEND
  8
0
  6
CONTINUOUS
  0
POLYLINE
  8
0
  6
CONTINUOUS
 66
     1
 10
0.0
 20
0.0
 30
0.0
  0
VERTEX
  8
0
  6
CONTINUOUS
 10
67.122503
 20
126.111651
 30
0.0
  0
VERTEX
  8
0
  6
CONTINUOUS
 10
66.272202
 20
125.635797
 30
0.0
  0
VERTEX
  8
0
  6
CONTINUOUS
 10
65.93089
 20
125.444788
 30
0.0
  0
SEQEND
  8
0
  6
CONTINUOUS
  0
POLYLINE
  8
0
  6
CONTINUOUS
 66
     1
 10
0.0
 20
0.0
 30
0.0
  0
VERTEX
  8
0
  6
CONTINUOUS
 10
65.382813
 20
125.711757
 30
0.0
  0
VERTEX
  8
0
  6
CONTINUOUS
 10
65.748198
 20
125.533778
 30
0.0
  0
VERTEX
  8
0
  6
CONTINUOUS
 10
65.93089
 20
125.444788
 30
0.0
  0
SEQEND
  8
0
  6
CONTINUOUS
  0
POLYLINE
  8
0
  6
CONTINUOUS
 66
     1
 10
0.0
 20
0.0
 30
0.0
  0
VERTEX
  8
0
  6
CONTINUOUS
 10
67.070801
 20
130.736518
 30
0.0
  0
VERTEX
  8
0
  6
CONTINUOUS
 10
67.235981
 20
130.749652
 30
0.0
  0
SEQEND
  8
0
  6
CONTINUOUS
  0
POLYLINE
  8
0
  6
CONTINUOUS
 66
     1
 10
0.0
 20
0.0
 30
0.0
  0
VERTEX
  8
0
  6
CONTINUOUS
 10
67.235981
 20
130.749652
 30
0.0
  0
VERTEX
  8
0
  6
CONTINUOUS
 10
67.299689
 20
130.586001
 30
0.0
  0
SEQEND
  8
0
  6
CONTINUOUS
  0
POLYLINE
  8
0
  6
CONTINUOUS
 66
     1
 10
0.0
 20
0.0
 30
0.0
  0
VERTEX
  8
0
  6
CONTINUOUS
 10
67.299689
 20
130.586001
 30
0.0
  0
VERTEX
  8
0
  6
CONTINUOUS
 10
67.121712
 20
130.617471
 30
0.0
  0
SEQEND
  8
0
  6
CONTINUOUS
  0
POLYLINE
  8
0
  6
CONTINUOUS
 66
     1
 10
0.0
 20
0.0
 30
0.0
  0
VERTEX
  8
0
  6
CONTINUOUS
 10
67.121712
 20
130.617471
 30
0.0
  0
VERTEX
  8
0
  6
CONTINUOUS
 10
67.070286
 20
130.736242
 30
0.0
  0
SEQEND
  8
0
  6
CONTINUOUS
  0
POLYLINE
  8
0
  6
CONTINUOUS
 66
     1
 10
0.0
 20
0.0
 30
0.0
  0
VERTEX
  8
0
  6
CONTINUOUS
 10
70.713179
 20
132.433368
 30
0.0
  0
VERTEX
  8
0
  6
CONTINUOUS
 10
70.706944
 20
132.429292
 30
0.0
  0
SEQEND
  8
0
  6
CONTINUOUS
  0
POLYLINE
  8
0
  6
CONTINUOUS
 66
     1
 10
0.0
 20
0.0
 30
0.0
  0
VERTEX
  8
0
  6
CONTINUOUS
 10
70.706944
 20
132.429292
 30
0.0
  0
VERTEX
  8
0
  6
CONTINUOUS
 10
70.761096
 20
132.550117
 30
0.0
  0
SEQEND
  8
0
  6
CONTINUOUS
  0
POLYLINE
  8
0
  6
CONTINUOUS
 66
     1
 10
0.0
 20
0.0
 30
0.0
  0
VERTEX
  8
0
  6
CONTINUOUS
 10
70.761096
 20
132.550117
 30
0.0
  0
VERTEX
  8
0
  6
CONTINUOUS
 10
70.824773
 20
132.638965
 30
0.0
  0
SEQEND
  8
0
  6
CONTINUOUS
  0
POLYLINE
  8
0
  6
CONTINUOUS
 66
     1
 10
0.0
 20
0.0
 30
0.0
  0
VERTEX
  8
0
  6
CONTINUOUS
 10
70.53208
 20
113.117973
 30
0.0
  0
VERTEX
  8
0
  6
CONTINUOUS
 10
70.531329
 20
113.261078
 30
0.0
  0
SEQEND
  8
0
  6
CONTINUOUS
  0
POLYLINE
  8
0
  6
CONTINUOUS
 66
     1
 10
0.0
 20
0.0
 30
0.0
  0
VERTEX
  8
0
  6
CONTINUOUS
 10
70.649821
 20
113.331205
 30
0.0
  0
VERTEX
  8
0
  6
CONTINUOUS
 10
70.531329
 20
113.261078
 30
0.0
  0
SEQEND
  8
0
  6
CONTINUOUS
  0
POLYLINE
  8
0
  6
CONTINUOUS
 66
     1
 10
0.0
 20
0.0
 30
0.0
  0
VERTEX
  8
0
  6
CONTINUOUS
 10
70.531329
 20
113.261078
 30
0.0
  0
VERTEX
  8
0
  6
CONTINUOUS
 10
70.40705
 20
113.326265
 30
0.0
  0
SEQEND
  8
0
  6
CONTINUOUS
  0
POLYLINE
  8
0
  6
CONTINUOUS
 66
     1
 10
0.0
 20
0.0
 30
0.0
  0
VERTEX
  8
0
  6
CONTINUOUS
 10
70.40705
 20
113.326265
 30
0.0
  0
VERTEX
  8
0
  6
CONTINUOUS
 10
70.524542
 20
113.458113
 30
0.0
  0
SEQEND
  8
0
  6
CONTINUOUS
  0
POLYLINE
  8
0
  6
CONTINUOUS
 66
     1
 10
0.0
 20
0.0
 30
0.0
  0
VERTEX
  8
0
  6
CONTINUOUS
 10
70.723989
 20
113.372711
 30
0.0
  0
VERTEX
  8
0
  6
CONTINUOUS
 10
70.797075
 20
113.409797
 30
0.0
  0
SEQEND
  8
0
  6
CONTINUOUS
  0
POLYLINE
  8
0
  6
CONTINUOUS
 66
     1
 10
0.0
 20
0.0
 30
0.0
  0
VERTEX
  8
0
  6
CONTINUOUS
 10
70.841934
 20
113.293614
 30
0.0
  0
VERTEX
  8
0
  6
CONTINUOUS
 10
70.797075
 20
113.409797
 30
0.0
  0
SEQEND
  8
0
  6
CONTINUOUS
  0
POLYLINE
  8
0
  6
CONTINUOUS
 66
     1
 10
0.0
 20
0.0
 30
0.0
  0
VERTEX
  8
0
  6
CONTINUOUS
 10
70.797075
 20
113.409797
 30
0.0
  0
VERTEX
  8
0
  6
CONTINUOUS
 10
70.729709
 20
113.49374
 30
0.0
  0
SEQEND
  8
0
  6
CONTINUOUS
  0
POLYLINE
  8
0
  6
CONTINUOUS
 66
     1
 10
0.0
 20
0.0
 30
0.0
  0
VERTEX
  8
0
  6
CONTINUOUS
 10
70.354103
 20
113.149443
 30
0.0
  0
VERTEX
  8
0
  6
CONTINUOUS
 10
70.355498
 20
111.589298
 30
0.0
  0
VERTEX
  8
0
  6
CONTINUOUS
 10
70.355972
 20
111.05971
 30
0.0
  0
SEQEND
  8
0
  6
CONTINUOUS
  0
POLYLINE
  8
0
  6
CONTINUOUS
 66
     1
 10
0.0
 20
0.0
 30
0.0
  0
VERTEX
  8
0
  6
CONTINUOUS
 10
70.53208
 20
113.117973
 30
0.0
  0
VERTEX
  8
0
  6
CONTINUOUS
 10
70.354103
 20
113.149443
 30
0.0
  0
SEQEND
  8
0
  6
CONTINUOUS
  0
POLYLINE
  8
0
  6
CONTINUOUS
 66
     1
 10
0.0
 20
0.0
 30
0.0
  0
VERTEX
  8
0
  6
CONTINUOUS
 10
70.704237
 20
113.157496
 30
0.0
  0
VERTEX
  8
0
  6
CONTINUOUS
 10
70.53208
 20
113.117973
 30
0.0
  0
SEQEND
  8
0
  6
CONTINUOUS
  0
POLYLINE
  8
0
  6
CONTINUOUS
 66
     1
 10
0.0
 20
0.0
 30
0.0
  0
VERTEX
  8
0
  6
CONTINUOUS
 10
70.524542
 20
113.458113
 30
0.0
  0
VERTEX
  8
0
  6
CONTINUOUS
 10
70.561626
 20
113.478866
 30
0.0
  0
VERTEX
  8
0
  6
CONTINUOUS
 10
70.59871
 20
113.49962
 30
0.0
  0
SEQEND
  8
0
  6
CONTINUOUS
  0
POLYLINE
  8
0
  6
CONTINUOUS
 66
     1
 10
0.0
 20
0.0
 30
0.0
  0
VERTEX
  8
0
  6
CONTINUOUS
 10
70.723989
 20
113.372711
 30
0.0
  0
VERTEX
  8
0
  6
CONTINUOUS
 10
70.59871
 20
113.49962
 30
0.0
  0
SEQEND
  8
0
  6
CONTINUOUS
  0
POLYLINE
  8
0
  6
CONTINUOUS
 66
     1
 10
0.0
 20
0.0
 30
0.0
  0
VERTEX
  8
0
  6
CONTINUOUS
 10
70.778405
 20
113.199003
 30
0.0
  0
VERTEX
  8
0
  6
CONTINUOUS
 10
70.723989
 20
113.372711
 30
0.0
  0
SEQEND
  8
0
  6
CONTINUOUS
  0
POLYLINE
  8
0
  6
CONTINUOUS
 66
     1
 10
0.0
 20
0.0
 30
0.0
  0
VERTEX
  8
0
  6
CONTINUOUS
 10
70.649821
 20
113.331205
 30
0.0
  0
VERTEX
  8
0
  6
CONTINUOUS
 10
70.704237
 20
113.157496
 30
0.0
  0
SEQEND
  8
0
  6
CONTINUOUS
  0
POLYLINE
  8
0
  6
CONTINUOUS
 66
     1
 10
0.0
 20
0.0
 30
0.0
  0
VERTEX
  8
0
  6
CONTINUOUS
 10
70.524542
 20
113.458113
 30
0.0
  0
VERTEX
  8
0
  6
CONTINUOUS
 10
70.649821
 20
113.331205
 30
0.0
  0
SEQEND
  8
0
  6
CONTINUOUS
  0
POLYLINE
  8
0
  6
CONTINUOUS
 66
     1
 10
0.0
 20
0.0
 30
0.0
  0
VERTEX
  8
0
  6
CONTINUOUS
 10
70.842081
 20
113.287851
 30
0.0
  0
VERTEX
  8
0
  6
CONTINUOUS
 10
70.778405
 20
113.199003
 30
0.0
  0
SEQEND
  8
0
  6
CONTINUOUS
  0
POLYLINE
  8
0
  6
CONTINUOUS
 66
     1
 10
0.0
 20
0.0
 30
0.0
  0
VERTEX
  8
0
  6
CONTINUOUS
 10
70.704237
 20
113.157496
 30
0.0
  0
VERTEX
  8
0
  6
CONTINUOUS
 10
70.705632
 20
111.597352
 30
0.0
  0
VERTEX
  8
0
  6
CONTINUOUS
 10
70.705938
 20
111.255585
 30
0.0
  0
SEQEND
  8
0
  6
CONTINUOUS
  0
POLYLINE
  8
0
  6
CONTINUOUS
 66
     1
 10
0.0
 20
0.0
 30
0.0
  0
VERTEX
  8
0
  6
CONTINUOUS
 10
70.704237
 20
113.157496
 30
0.0
  0
VERTEX
  8
0
  6
CONTINUOUS
 10
70.741321
 20
113.178249
 30
0.0
  0
VERTEX
  8
0
  6
CONTINUOUS
 10
70.778405
 20
113.199003
 30
0.0
  0
SEQEND
  8
0
  6
CONTINUOUS
  0
POLYLINE
  8
0
  6
CONTINUOUS
 66
     1
 10
0.0
 20
0.0
 30
0.0
  0
VERTEX
  8
0
  6
CONTINUOUS
 10
70.780106
 20
111.297092
 30
0.0
  0
VERTEX
  8
0
  6
CONTINUOUS
 10
70.780029
 20
111.383003
 30
0.0
  0
VERTEX
  8
0
  6
CONTINUOUS
 10
70.778405
 20
113.199003
 30
0.0
  0
SEQEND
  8
0
  6
CONTINUOUS
  0
POLYLINE
  8
0
  6
CONTINUOUS
 66
     1
 10
0.0
 20
0.0
 30
0.0
  0
VERTEX
  8
0
  6
CONTINUOUS
 10
62.27011
 20
104.803686
 30
0.0
  0
VERTEX
  8
0
  6
CONTINUOUS
 10
62.807371
 20
105.104353
 30
0.0
  0
SEQEND
  8
0
  6
CONTINUOUS
  0
POLYLINE
  8
0
  6
CONTINUOUS
 66
     1
 10
0.0
 20
0.0
 30
0.0
  0
VERTEX
  8
0
  6
CONTINUOUS
 10
65.382813
 20
125.711757
 30
0.0
  0
VERTEX
  8
0
  6
CONTINUOUS
 10
65.189452
 20
125.550493
 30
0.0
  0
VERTEX
  8
0
  6
CONTINUOUS
 10
65.026387
 20
125.317852
 30
0.0
  0
VERTEX
  8
0
  6
CONTINUOUS
 10
64.913608
 20
125.050877
 30
0.0
  0
VERTEX
  8
0
  6
CONTINUOUS
 10
64.871417
 20
124.785605
 30
0.0
  0
SEQEND
  8
0
  6
CONTINUOUS
  0
POLYLINE
  8
0
  6
CONTINUOUS
 66
     1
 10
0.0
 20
0.0
 30
0.0
  0
VERTEX
  8
0
  6
CONTINUOUS
 10
67.121712
 20
130.617471
 30
0.0
  0
VERTEX
  8
0
  6
CONTINUOUS
 10
67.123631
 20
128.472218
 30
0.0
  0
VERTEX
  8
0
  6
CONTINUOUS
 10
67.125744
 20
126.110089
 30
0.0
  0
SEQEND
  8
0
  6
CONTINUOUS
  0
POLYLINE
  8
0
  6
CONTINUOUS
 66
     1
 10
0.0
 20
0.0
 30
0.0
  0
VERTEX
  8
0
  6
CONTINUOUS
 10
67.125744
 20
126.110089
 30
0.0
  0
VERTEX
  8
0
  6
CONTINUOUS
 10
67.124933
 20
126.110487
 30
0.0
  0
VERTEX
  8
0
  6
CONTINUOUS
 10
67.124123
 20
126.11088
 30
0.0
  0
VERTEX
  8
0
  6
CONTINUOUS
 10
67.123313
 20
126.111268
 30
0.0
  0
VERTEX
  8
0
  6
CONTINUOUS
 10
67.122503
 20
126.111651
 30
0.0
  0
SEQEND
  8
0
  6
CONTINUOUS
  0
POLYLINE
  8
0
  6
CONTINUOUS
 66
     1
 10
0.0
 20
0.0
 30
0.0
  0
VERTEX
  8
0
  6
CONTINUOUS
 10
66.975661
 20
130.683234
 30
0.0
  0
VERTEX
  8
0
  6
CONTINUOUS
 10
67.121712
 20
130.617471
 30
0.0
  0
SEQEND
  8
0
  6
CONTINUOUS
  0
POLYLINE
  8
0
  6
CONTINUOUS
 66
     1
 10
0.0
 20
0.0
 30
0.0
  0
VERTEX
  8
0
  6
CONTINUOUS
 10
70.761096
 20
132.550117
 30
0.0
  0
VERTEX
  8
0
  6
CONTINUOUS
 10
70.760814
 20
132.866137
 30
0.0
  0
SEQEND
  8
0
  6
CONTINUOUS
  0
POLYLINE
  8
0
  6
CONTINUOUS
 66
     1
 10
0.0
 20
0.0
 30
0.0
  0
VERTEX
  8
0
  6
CONTINUOUS
 10
70.761096
 20
132.550117
 30
0.0
  0
VERTEX
  8
0
  6
CONTINUOUS
 10
70.724012
 20
132.529363
 30
0.0
  0
VERTEX
  8
0
  6
CONTINUOUS
 10
70.686928
 20
132.50861
 30
0.0
  0
SEQEND
  8
0
  6
CONTINUOUS
  0
POLYLINE
  8
0
  6
CONTINUOUS
 66
     1
 10
0.0
 20
0.0
 30
0.0
  0
VERTEX
  8
0
  6
CONTINUOUS
 10
70.686928
 20
132.50861
 30
0.0
  0
VERTEX
  8
0
  6
CONTINUOUS
 10
70.686645
 20
132.82463
 30
0.0
  0
SEQEND
  8
0
  6
CONTINUOUS
  0
POLYLINE
  8
0
  6
CONTINUOUS
 66
     1
 10
0.0
 20
0.0
 30
0.0
  0
VERTEX
  8
0
  6
CONTINUOUS
 10
63.406538
 20
117.789861
 30
0.0
  0
VERTEX
  8
0
  6
CONTINUOUS
 10
63.314865
 20
117.693073
 30
0.0
  0
VERTEX
  8
0
  6
CONTINUOUS
 10
63.269198
 20
117.543248
 30
0.0
  0
VERTEX
  8
0
  6
CONTINUOUS
 10
63.281773
 20
117.380532
 30
0.0
  0
SEQEND
  8
0
  6
CONTINUOUS
  0
POLYLINE
  8
0
  6
CONTINUOUS
 66
     1
 10
0.0
 20
0.0
 30
0.0
  0
VERTEX
  8
0
  6
CONTINUOUS
 10
63.281773
 20
117.380532
 30
0.0
  0
VERTEX
  8
0
  6
CONTINUOUS
 10
63.334823
 20
117.266654
 30
0.0
  0
VERTEX
  8
0
  6
CONTINUOUS
 10
63.416342
 20
117.195643
 30
0.0
  0
SEQEND
  8
0
  6
CONTINUOUS
  0
POLYLINE
  8
0
  6
CONTINUOUS
 66
     1
 10
0.0
 20
0.0
 30
0.0
  0
VERTEX
  8
0
  6
CONTINUOUS
 10
34.428066
 20
164.481912
 30
0.0
  0
VERTEX
  8
0
  6
CONTINUOUS
 10
34.195076
 20
164.547009
 30
0.0
  0
VERTEX
  8
0
  6
CONTINUOUS
 10
33.930981
 20
164.541077
 30
0.0
  0
VERTEX
  8
0
  6
CONTINUOUS
 10
33.709597
 20
164.465771
 30
0.0
  0
VERTEX
  8
0
  6
CONTINUOUS
 10
33.592799
 20
164.342141
 30
0.0
  0
VERTEX
  8
0
  6
CONTINUOUS
 10
33.613235
 20
164.204742
 30
0.0
  0
VERTEX
  8
0
  6
CONTINUOUS
 10
33.765191
 20
164.091977
 30
0.0
  0
SEQEND
  8
0
  6
CONTINUOUS
  0
POLYLINE
  8
0
  6
CONTINUOUS
 66
     1
 10
0.0
 20
0.0
 30
0.0
  0
VERTEX
  8
0
  6
CONTINUOUS
 10
39.447193
 20
161.11811
 30
0.0
  0
VERTEX
  8
0
  6
CONTINUOUS
 10
39.622389
 20
161.303555
 30
0.0
  0
VERTEX
  8
0
  6
CONTINUOUS
 10
39.591736
 20
161.509653
 30
0.0
  0
VERTEX
  8
0
  6
CONTINUOUS
 10
39.363801
 20
161.678802
 30
0.0
  0
SEQEND
  8
0
  6
CONTINUOUS
  0
POLYLINE
  8
0
  6
CONTINUOUS
 66
     1
 10
0.0
 20
0.0
 30
0.0
  0
VERTEX
  8
0
  6
CONTINUOUS
 10
38.491654
 20
161.106232
 30
0.0
  0
VERTEX
  8
0
  6
CONTINUOUS
 10
38.410675
 20
161.021739
 30
0.0
  0
VERTEX
  8
0
  6
CONTINUOUS
 10
38.421579
 20
160.927457
 30
0.0
  0
VERTEX
  8
0
  6
CONTINUOUS
 10
38.521446
 20
160.848649
 30
0.0
  0
VERTEX
  8
0
  6
CONTINUOUS
 10
38.683514
 20
160.806431
 30
0.0
  0
VERTEX
  8
0
  6
CONTINUOUS
 10
38.864359
 20
160.812116
 30
0.0
  0
VERTEX
  8
0
  6
CONTINUOUS
 10
39.015523
 20
160.86418
 30
0.0
  0
SEQEND
  8
0
  6
CONTINUOUS
  0
POLYLINE
  8
0
  6
CONTINUOUS
 66
     1
 10
0.0
 20
0.0
 30
0.0
  0
VERTEX
  8
0
  6
CONTINUOUS
 10
38.785999
 20
161.27938
 30
0.0
  0
VERTEX
  8
0
  6
CONTINUOUS
 10
38.844398
 20
161.341195
 30
0.0
  0
VERTEX
  8
0
  6
CONTINUOUS
 10
38.83418
 20
161.409895
 30
0.0
  0
VERTEX
  8
0
  6
CONTINUOUS
 10
38.758202
 20
161.466278
 30
0.0
  0
SEQEND
  8
0
  6
CONTINUOUS
  0
POLYLINE
  8
0
  6
CONTINUOUS
 66
     1
 10
0.0
 20
0.0
 30
0.0
  0
VERTEX
  8
0
  6
CONTINUOUS
 10
33.090199
 20
163.909363
 30
0.0
  0
VERTEX
  8
0
  6
CONTINUOUS
 10
32.911573
 20
163.938859
 30
0.0
  0
VERTEX
  8
0
  6
CONTINUOUS
 10
32.743804
 20
163.895361
 30
0.0
  0
SEQEND
  8
0
  6
CONTINUOUS
  0
POLYLINE
  8
0
  6
CONTINUOUS
 66
     1
 10
0.0
 20
0.0
 30
0.0
  0
VERTEX
  8
0
  6
CONTINUOUS
 10
26.216875
 20
160.055904
 30
0.0
  0
VERTEX
  8
0
  6
CONTINUOUS
 10
26.101191
 20
159.9352
 30
0.0
  0
VERTEX
  8
0
  6
CONTINUOUS
 10
26.116769
 20
159.800511
 30
0.0
  0
VERTEX
  8
0
  6
CONTINUOUS
 10
26.259435
 20
159.687928
 30
0.0
  0
SEQEND
  8
0
  6
CONTINUOUS
  0
POLYLINE
  8
0
  6
CONTINUOUS
 66
     1
 10
0.0
 20
0.0
 30
0.0
  0
VERTEX
  8
0
  6
CONTINUOUS
 10
30.076195
 20
157.924406
 30
0.0
  0
VERTEX
  8
0
  6
CONTINUOUS
 10
30.437922
 20
157.85929
 30
0.0
  0
VERTEX
  8
0
  6
CONTINUOUS
 10
30.78202
 20
157.946595
 30
0.0
  0
SEQEND
  8
0
  6
CONTINUOUS
  0
POLYLINE
  8
0
  6
CONTINUOUS
 66
     1
 10
0.0
 20
0.0
 30
0.0
  0
VERTEX
  8
0
  6
CONTINUOUS
 10
32.27188
 20
158.233484
 30
0.0
  0
VERTEX
  8
0
  6
CONTINUOUS
 10
31.92459
 20
158.32395
 30
0.0
  0
VERTEX
  8
0
  6
CONTINUOUS
 10
31.537065
 20
158.311768
 30
0.0
  0
VERTEX
  8
0
  6
CONTINUOUS
 10
31.213142
 20
158.200202
 30
0.0
  0
SEQEND
  8
0
  6
CONTINUOUS
  0
POLYLINE
  8
0
  6
CONTINUOUS
 66
     1
 10
0.0
 20
0.0
 30
0.0
  0
VERTEX
  8
0
  6
CONTINUOUS
 10
32.833168
 20
157.974143
 30
0.0
  0
VERTEX
  8
0
  6
CONTINUOUS
 10
33.014031
 20
157.941584
 30
0.0
  0
VERTEX
  8
0
  6
CONTINUOUS
 10
33.18608
 20
157.985237
 30
0.0
  0
SEQEND
  8
0
  6
CONTINUOUS
  0
POLYLINE
  8
0
  6
CONTINUOUS
 66
     1
 10
0.0
 20
0.0
 30
0.0
  0
VERTEX
  8
0
  6
CONTINUOUS
 10
34.041582
 20
157.938267
 30
0.0
  0
VERTEX
  8
0
  6
CONTINUOUS
 10
34.122561
 20
158.02276
 30
0.0
  0
VERTEX
  8
0
  6
CONTINUOUS
 10
34.111656
 20
158.117042
 30
0.0
  0
VERTEX
  8
0
  6
CONTINUOUS
 10
34.01179
 20
158.195851
 30
0.0
  0
VERTEX
  8
0
  6
CONTINUOUS
 10
33.849722
 20
158.238068
 30
0.0
  0
VERTEX
  8
0
  6
CONTINUOUS
 10
33.668877
 20
158.232383
 30
0.0
  0
VERTEX
  8
0
  6
CONTINUOUS
 10
33.517713
 20
158.180319
 30
0.0
  0
SEQEND
  8
0
  6
CONTINUOUS
  0
POLYLINE
  8
0
  6
CONTINUOUS
 66
     1
 10
0.0
 20
0.0
 30
0.0
  0
VERTEX
  8
0
  6
CONTINUOUS
 10
32.610663
 20
157.201838
 30
0.0
  0
VERTEX
  8
0
  6
CONTINUOUS
 10
32.845394
 20
157.261394
 30
0.0
  0
VERTEX
  8
0
  6
CONTINUOUS
 10
33.04256
 20
157.350594
 30
0.0
  0
SEQEND
  8
0
  6
CONTINUOUS
  0
POLYLINE
  8
0
  6
CONTINUOUS
 66
     1
 10
0.0
 20
0.0
 30
0.0
  0
VERTEX
  8
0
  6
CONTINUOUS
 10
31.7762
 20
157.313081
 30
0.0
  0
VERTEX
  8
0
  6
CONTINUOUS
 10
31.71392
 20
157.235838
 30
0.0
  0
VERTEX
  8
0
  6
CONTINUOUS
 10
31.754705
 20
157.154791
 30
0.0
  0
VERTEX
  8
0
  6
CONTINUOUS
 10
31.8817
 20
157.103436
 30
0.0
  0
VERTEX
  8
0
  6
CONTINUOUS
 10
32.042418
 20
157.102998
 30
0.0
  0
SEQEND
  8
0
  6
CONTINUOUS
  0
POLYLINE
  8
0
  6
CONTINUOUS
 66
     1
 10
0.0
 20
0.0
 30
0.0
  0
VERTEX
  8
0
  6
CONTINUOUS
 10
32.240485
 20
157.586197
 30
0.0
  0
VERTEX
  8
0
  6
CONTINUOUS
 10
32.298327
 20
157.646549
 30
0.0
  0
VERTEX
  8
0
  6
CONTINUOUS
 10
32.290538
 20
157.713893
 30
0.0
  0
VERTEX
  8
0
  6
CONTINUOUS
 10
32.219205
 20
157.770185
 30
0.0
  0
SEQEND
  8
0
  6
CONTINUOUS
  0
POLYLINE
  8
0
  6
CONTINUOUS
 66
     1
 10
0.0
 20
0.0
 30
0.0
  0
VERTEX
  8
0
  6
CONTINUOUS
 10
31.957271
 20
157.891211
 30
0.0
  0
VERTEX
  8
0
  6
CONTINUOUS
 10
31.776408
 20
157.923769
 30
0.0
  0
VERTEX
  8
0
  6
CONTINUOUS
 10
31.604359
 20
157.880117
 30
0.0
  0
SEQEND
  8
0
  6
CONTINUOUS
  0
POLYLINE
  8
0
  6
CONTINUOUS
 66
     1
 10
0.0
 20
0.0
 30
0.0
  0
VERTEX
  8
0
  6
CONTINUOUS
 10
30.322875
 20
157.322792
 30
0.0
  0
VERTEX
  8
0
  6
CONTINUOUS
 10
30.503738
 20
157.290234
 30
0.0
  0
VERTEX
  8
0
  6
CONTINUOUS
 10
30.675787
 20
157.333886
 30
0.0
  0
SEQEND
  8
0
  6
CONTINUOUS
  0
POLYLINE
  8
0
  6
CONTINUOUS
 66
     1
 10
0.0
 20
0.0
 30
0.0
  0
VERTEX
  8
0
  6
CONTINUOUS
 10
30.322875
 20
50.654367
 30
0.0
  0
VERTEX
  8
0
  6
CONTINUOUS
 10
30.463078
 20
50.622259
 30
0.0
  0
VERTEX
  8
0
  6
CONTINUOUS
 10
30.612891
 20
50.638795
 30
0.0
  0
SEQEND
  8
0
  6
CONTINUOUS
  0
POLYLINE
  8
0
  6
CONTINUOUS
 66
     1
 10
0.0
 20
0.0
 30
0.0
  0
VERTEX
  8
0
  6
CONTINUOUS
 10
25.062904
 20
159.9273
 30
0.0
  0
VERTEX
  8
0
  6
CONTINUOUS
 10
25.005062
 20
159.866947
 30
0.0
  0
VERTEX
  8
0
  6
CONTINUOUS
 10
25.012851
 20
159.799603
 30
0.0
  0
VERTEX
  8
0
  6
CONTINUOUS
 10
25.084184
 20
159.743311
 30
0.0
  0
SEQEND
  8
0
  6
CONTINUOUS
  0
POLYLINE
  8
0
  6
CONTINUOUS
 66
     1
 10
0.0
 20
0.0
 30
0.0
  0
VERTEX
  8
0
  6
CONTINUOUS
 10
25.0
 20
53.172465
 30
0.0
  0
VERTEX
  8
0
  6
CONTINUOUS
 10
25.022001
 20
53.118965
 30
0.0
  0
VERTEX
  8
0
  6
CONTINUOUS
 10
25.084184
 20
53.074887
 30
0.0
  0
SEQEND
  8
0
  6
CONTINUOUS
  0
POLYLINE
  8
0
  6
CONTINUOUS
 66
     1
 10
0.0
 20
0.0
 30
0.0
  0
VERTEX
  8
0
  6
CONTINUOUS
 10
41.665814
 20
169.497431
 30
0.0
  0
VERTEX
  8
0
  6
CONTINUOUS
 10
41.55005
 20
169.527586
 30
0.0
  0
VERTEX
  8
0
  6
CONTINUOUS
 10
41.420875
 20
169.523525
 30
0.0
  0
VERTEX
  8
0
  6
CONTINUOUS
 10
41.312901
 20
169.486337
 30
0.0
  0
SEQEND
  8
0
  6
CONTINUOUS
  0
POLYLINE
  8
0
  6
CONTINUOUS
 66
     1
 10
0.0
 20
0.0
 30
0.0
  0
VERTEX
  8
0
  6
CONTINUOUS
 10
46.925785
 20
166.892923
 30
0.0
  0
VERTEX
  8
0
  6
CONTINUOUS
 10
46.988235
 20
166.987215
 30
0.0
  0
VERTEX
  8
0
  6
CONTINUOUS
 10
46.904505
 20
167.076911
 30
0.0
  0
SEQEND
  8
0
  6
CONTINUOUS
  0
POLYLINE
  8
0
  6
CONTINUOUS
 66
     1
 10
0.0
 20
0.0
 30
0.0
  0
VERTEX
  8
0
  6
CONTINUOUS
 10
45.997213
 20
166.346692
 30
0.0
  0
VERTEX
  8
0
  6
CONTINUOUS
 10
45.939371
 20
166.28634
 30
0.0
  0
VERTEX
  8
0
  6
CONTINUOUS
 10
45.94716
 20
166.218996
 30
0.0
  0
VERTEX
  8
0
  6
CONTINUOUS
 10
46.018493
 20
166.162704
 30
0.0
  0
SEQEND
  8
0
  6
CONTINUOUS
  0
POLYLINE
  8
0
  6
CONTINUOUS
 66
     1
 10
0.0
 20
0.0
 30
0.0
  0
VERTEX
  8
0
  6
CONTINUOUS
 10
46.280428
 20
166.041678
 30
0.0
  0
VERTEX
  8
0
  6
CONTINUOUS
 10
46.396191
 20
166.011523
 30
0.0
  0
VERTEX
  8
0
  6
CONTINUOUS
 10
46.525366
 20
166.015583
 30
0.0
  0
VERTEX
  8
0
  6
CONTINUOUS
 10
46.63334
 20
166.052772
 30
0.0
  0
SEQEND
  8
0
  6
CONTINUOUS
  0
POLYLINE
  8
0
  6
CONTINUOUS
 66
     1
 10
0.0
 20
0.0
 30
0.0
  0
VERTEX
  8
0
  6
CONTINUOUS
 10
47.52966
 20
166.213346
 30
0.0
  0
VERTEX
  8
0
  6
CONTINUOUS
 10
47.509515
 20
166.296475
 30
0.0
  0
VERTEX
  8
0
  6
CONTINUOUS
 10
47.396464
 20
166.356032
 30
0.0
  0
VERTEX
  8
0
  6
CONTINUOUS
 10
47.237231
 20
166.367403
 30
0.0
  0
VERTEX
  8
0
  6
CONTINUOUS
 10
47.097626
 20
166.325887
 30
0.0
  0
SEQEND
  8
0
  6
CONTINUOUS
  0
POLYLINE
  8
0
  6
CONTINUOUS
 66
     1
 10
0.0
 20
0.0
 30
0.0
  0
VERTEX
  8
0
  6
CONTINUOUS
 10
47.178357
 20
165.665956
 30
0.0
  0
VERTEX
  8
0
  6
CONTINUOUS
 10
47.324522
 20
165.77872
 30
0.0
  0
VERTEX
  8
0
  6
CONTINUOUS
 10
47.409725
 20
165.907365
 30
0.0
  0
SEQEND
  8
0
  6
CONTINUOUS
  0
POLYLINE
  8
0
  6
CONTINUOUS
 66
     1
 10
0.0
 20
0.0
 30
0.0
  0
VERTEX
  8
0
  6
CONTINUOUS
 10
45.655466
 20
165.320334
 30
0.0
  0
VERTEX
  8
0
  6
CONTINUOUS
 10
45.574487
 20
165.235841
 30
0.0
  0
VERTEX
  8
0
  6
CONTINUOUS
 10
45.585392
 20
165.141559
 30
0.0
  0
VERTEX
  8
0
  6
CONTINUOUS
 10
45.685258
 20
165.062751
 30
0.0
  0
VERTEX
  8
0
  6
CONTINUOUS
 10
45.847326
 20
165.020533
 30
0.0
  0
VERTEX
  8
0
  6
CONTINUOUS
 10
46.028171
 20
165.026218
 30
0.0
  0
VERTEX
  8
0
  6
CONTINUOUS
 10
46.179335
 20
165.078282
 30
0.0
  0
SEQEND
  8
0
  6
CONTINUOUS
  0
POLYLINE
  8
0
  6
CONTINUOUS
 66
     1
 10
0.0
 20
0.0
 30
0.0
  0
VERTEX
  8
0
  6
CONTINUOUS
 10
45.987099
 20
165.515417
 30
0.0
  0
VERTEX
  8
0
  6
CONTINUOUS
 10
46.044941
 20
165.575769
 30
0.0
  0
VERTEX
  8
0
  6
CONTINUOUS
 10
46.037152
 20
165.643113
 30
0.0
  0
VERTEX
  8
0
  6
CONTINUOUS
 10
45.965819
 20
165.699405
 30
0.0
  0
SEQEND
  8
0
  6
CONTINUOUS
  0
POLYLINE
  8
0
  6
CONTINUOUS
 66
     1
 10
0.0
 20
0.0
 30
0.0
  0
VERTEX
  8
0
  6
CONTINUOUS
 10
45.340691
 20
166.510711
 30
0.0
  0
VERTEX
  8
0
  6
CONTINUOUS
 10
45.167165
 20
166.329654
 30
0.0
  0
VERTEX
  8
0
  6
CONTINUOUS
 10
45.190532
 20
166.127621
 30
0.0
  0
VERTEX
  8
0
  6
CONTINUOUS
 10
45.404531
 20
165.958746
 30
0.0
  0
SEQEND
  8
0
  6
CONTINUOUS
  0
POLYLINE
  8
0
  6
CONTINUOUS
 66
     1
 10
0.0
 20
0.0
 30
0.0
  0
VERTEX
  8
0
  6
CONTINUOUS
 10
45.771814
 20
166.764318
 30
0.0
  0
VERTEX
  8
0
  6
CONTINUOUS
 10
45.887498
 20
166.885023
 30
0.0
  0
VERTEX
  8
0
  6
CONTINUOUS
 10
45.87192
 20
167.019712
 30
0.0
  0
VERTEX
  8
0
  6
CONTINUOUS
 10
45.729254
 20
167.132295
 30
0.0
  0
SEQEND
  8
0
  6
CONTINUOUS
  0
POLYLINE
  8
0
  6
CONTINUOUS
 66
     1
 10
0.0
 20
0.0
 30
0.0
  0
VERTEX
  8
0
  6
CONTINUOUS
 10
41.912493
 20
168.895816
 30
0.0
  0
VERTEX
  8
0
  6
CONTINUOUS
 10
41.550766
 20
168.960933
 30
0.0
  0
VERTEX
  8
0
  6
CONTINUOUS
 10
41.206668
 20
168.873628
 30
0.0
  0
SEQEND
  8
0
  6
CONTINUOUS
  0
POLYLINE
  8
0
  6
CONTINUOUS
 66
     1
 10
0.0
 20
0.0
 30
0.0
  0
VERTEX
  8
0
  6
CONTINUOUS
 10
34.67974
 20
165.034172
 30
0.0
  0
VERTEX
  8
0
  6
CONTINUOUS
 10
34.617067
 20
164.942114
 30
0.0
  0
VERTEX
  8
0
  6
CONTINUOUS
 10
34.694697
 20
164.853207
 30
0.0
  0
SEQEND
  8
0
  6
CONTINUOUS
  0
POLYLINE
  8
0
  6
CONTINUOUS
 66
     1
 10
0.0
 20
0.0
 30
0.0
  0
VERTEX
  8
0
  6
CONTINUOUS
 10
40.027945
 20
162.213203
 30
0.0
  0
VERTEX
  8
0
  6
CONTINUOUS
 10
40.14444
 20
162.180654
 30
0.0
  0
VERTEX
  8
0
  6
CONTINUOUS
 10
40.276488
 20
162.18362
 30
0.0
  0
VERTEX
  8
0
  6
CONTINUOUS
 10
40.38718
 20
162.221273
 30
0.0
  0
SEQEND
  8
0
  6
CONTINUOUS
  0
POLYLINE
  8
0
  6
CONTINUOUS
 66
     1
 10
0.0
 20
0.0
 30
0.0
  0
VERTEX
  8
0
  6
CONTINUOUS
 10
41.205394
 20
162.152369
 30
0.0
  0
VERTEX
  8
0
  6
CONTINUOUS
 10
41.29182
 20
162.25575
 30
0.0
  0
VERTEX
  8
0
  6
CONTINUOUS
 10
41.245183
 20
162.36587
 30
0.0
  0
VERTEX
  8
0
  6
CONTINUOUS
 10
41.083299
 20
162.440668
 30
0.0
  0
VERTEX
  8
0
  6
CONTINUOUS
 10
40.868001
 20
162.451574
 30
0.0
  0
VERTEX
  8
0
  6
CONTINUOUS
 10
40.681525
 20
162.394421
 30
0.0
  0
SEQEND
  8
0
  6
CONTINUOUS
  0
POLYLINE
  8
0
  6
CONTINUOUS
 66
     1
 10
0.0
 20
0.0
 30
0.0
  0
VERTEX
  8
0
  6
CONTINUOUS
 10
39.69602
 20
161.874229
 30
0.0
  0
VERTEX
  8
0
  6
CONTINUOUS
 10
40.045504
 20
161.776582
 30
0.0
  0
VERTEX
  8
0
  6
CONTINUOUS
 10
40.441647
 20
161.785481
 30
0.0
  0
VERTEX
  8
0
  6
CONTINUOUS
 10
40.773724
 20
161.89844
 30
0.0
  0
SEQEND
  8
0
  6
CONTINUOUS
  0
POLYLINE
  8
0
  6
CONTINUOUS
 66
     1
 10
0.0
 20
0.0
 30
0.0
  0
VERTEX
  8
0
  6
CONTINUOUS
 10
32.193836
 20
156.458321
 30
0.0
  0
VERTEX
  8
0
  6
CONTINUOUS
 10
32.309599
 20
156.428165
 30
0.0
  0
VERTEX
  8
0
  6
CONTINUOUS
 10
32.438774
 20
156.432226
 30
0.0
  0
VERTEX
  8
0
  6
CONTINUOUS
 10
32.546748
 20
156.469415
 30
0.0
  0
SEQEND
  8
0
  6
CONTINUOUS
  0
POLYLINE
  8
0
  6
CONTINUOUS
 66
     1
 10
0.0
 20
0.0
 30
0.0
  0
VERTEX
  8
0
  6
CONTINUOUS
 10
32.193836
 20
49.789896
 30
0.0
  0
VERTEX
  8
0
  6
CONTINUOUS
 10
32.374699
 20
49.757338
 30
0.0
  0
VERTEX
  8
0
  6
CONTINUOUS
 10
32.546748
 20
49.80099
 30
0.0
  0
SEQEND
  8
0
  6
CONTINUOUS
  0
POLYLINE
  8
0
  6
CONTINUOUS
 66
     1
 10
0.0
 20
0.0
 30
0.0
  0
VERTEX
  8
0
  6
CONTINUOUS
 10
30.675787
 20
157.333886
 30
0.0
  0
VERTEX
  8
0
  6
CONTINUOUS
 10
30.617945
 20
157.273534
 30
0.0
  0
VERTEX
  8
0
  6
CONTINUOUS
 10
30.625734
 20
157.206189
 30
0.0
  0
VERTEX
  8
0
  6
CONTINUOUS
 10
30.697067
 20
157.149898
 30
0.0
  0
SEQEND
  8
0
  6
CONTINUOUS
  0
POLYLINE
  8
0
  6
CONTINUOUS
 66
     1
 10
0.0
 20
0.0
 30
0.0
  0
VERTEX
  8
0
  6
CONTINUOUS
 10
30.612883
 20
50.579052
 30
0.0
  0
VERTEX
  8
0
  6
CONTINUOUS
 10
30.634884
 20
50.525551
 30
0.0
  0
VERTEX
  8
0
  6
CONTINUOUS
 10
30.697067
 20
50.481473
 30
0.0
  0
SEQEND
  8
0
  6
CONTINUOUS
  0
POLYLINE
  8
0
  6
CONTINUOUS
 66
     1
 10
0.0
 20
0.0
 30
0.0
  0
VERTEX
  8
0
  6
CONTINUOUS
 10
32.058571
 20
157.597089
 30
0.0
  0
VERTEX
  8
0
  6
CONTINUOUS
 10
32.144996
 20
157.70047
 30
0.0
  0
VERTEX
  8
0
  6
CONTINUOUS
 10
32.098359
 20
157.81059
 30
0.0
  0
VERTEX
  8
0
  6
CONTINUOUS
 10
31.936475
 20
157.885388
 30
0.0
  0
VERTEX
  8
0
  6
CONTINUOUS
 10
31.721177
 20
157.896294
 30
0.0
  0
VERTEX
  8
0
  6
CONTINUOUS
 10
31.534702
 20
157.839141
 30
0.0
  0
SEQEND
  8
0
  6
CONTINUOUS
  0
POLYLINE
  8
0
  6
CONTINUOUS
 66
     1
 10
0.0
 20
0.0
 30
0.0
  0
VERTEX
  8
0
  6
CONTINUOUS
 10
31.663942
 20
157.36495
 30
0.0
  0
VERTEX
  8
0
  6
CONTINUOUS
 10
31.601491
 20
157.270658
 30
0.0
  0
VERTEX
  8
0
  6
CONTINUOUS
 10
31.685222
 20
157.180961
 30
0.0
  0
SEQEND
  8
0
  6
CONTINUOUS
  0
POLYLINE
  8
0
  6
CONTINUOUS
 66
     1
 10
0.0
 20
0.0
 30
0.0
  0
VERTEX
  8
0
  6
CONTINUOUS
 10
32.134252
 20
156.973488
 30
0.0
  0
VERTEX
  8
0
  6
CONTINUOUS
 10
32.315116
 20
156.94093
 30
0.0
  0
VERTEX
  8
0
  6
CONTINUOUS
 10
32.487165
 20
156.984582
 30
0.0
  0
SEQEND
  8
0
  6
CONTINUOUS
  0
POLYLINE
  8
0
  6
CONTINUOUS
 66
     1
 10
0.0
 20
0.0
 30
0.0
  0
VERTEX
  8
0
  6
CONTINUOUS
 10
47.808591
 20
165.997388
 30
0.0
  0
VERTEX
  8
0
  6
CONTINUOUS
 10
47.866433
 20
166.057741
 30
0.0
  0
VERTEX
  8
0
  6
CONTINUOUS
 10
47.858644
 20
166.125085
 30
0.0
  0
VERTEX
  8
0
  6
CONTINUOUS
 10
47.787311
 20
166.181377
 30
0.0
  0
SEQEND
  8
0
  6
CONTINUOUS
  0
POLYLINE
  8
0
  6
CONTINUOUS
 66
     1
 10
0.0
 20
0.0
 30
0.0
  0
VERTEX
  8
0
  6
CONTINUOUS
 10
47.33828
 20
166.38885
 30
0.0
  0
VERTEX
  8
0
  6
CONTINUOUS
 10
47.157417
 20
166.421408
 30
0.0
  0
VERTEX
  8
0
  6
CONTINUOUS
 10
46.985368
 20
166.377756
 30
0.0
  0
SEQEND
  8
0
  6
CONTINUOUS
  0
POLYLINE
  8
0
  6
CONTINUOUS
 66
     1
 10
0.0
 20
0.0
 30
0.0
  0
VERTEX
  8
0
  6
CONTINUOUS
 10
46.06354
 20
166.385709
 30
0.0
  0
VERTEX
  8
0
  6
CONTINUOUS
 10
45.977115
 20
166.282328
 30
0.0
  0
VERTEX
  8
0
  6
CONTINUOUS
 10
46.023751
 20
166.172208
 30
0.0
  0
VERTEX
  8
0
  6
CONTINUOUS
 10
46.185636
 20
166.09741
 30
0.0
  0
VERTEX
  8
0
  6
CONTINUOUS
 10
46.400934
 20
166.086504
 30
0.0
  0
VERTEX
  8
0
  6
CONTINUOUS
 10
46.587409
 20
166.143657
 30
0.0
  0
SEQEND
  8
0
  6
CONTINUOUS
  0
POLYLINE
  8
0
  6
CONTINUOUS
 66
     1
 10
0.0
 20
0.0
 30
0.0
  0
VERTEX
  8
0
  6
CONTINUOUS
 10
47.278697
 20
166.904017
 30
0.0
  0
VERTEX
  8
0
  6
CONTINUOUS
 10
47.162934
 20
166.934173
 30
0.0
  0
VERTEX
  8
0
  6
CONTINUOUS
 10
47.033759
 20
166.930112
 30
0.0
  0
VERTEX
  8
0
  6
CONTINUOUS
 10
46.925785
 20
166.892923
 30
0.0
  0
SEQEND
  8
0
  6
CONTINUOUS
  0
POLYLINE
  8
0
  6
CONTINUOUS
 66
     1
 10
0.0
 20
0.0
 30
0.0
  0
VERTEX
  8
0
  6
CONTINUOUS
 10
48.796746
 20
166.028452
 30
0.0
  0
VERTEX
  8
0
  6
CONTINUOUS
 10
48.859196
 20
166.122744
 30
0.0
  0
VERTEX
  8
0
  6
CONTINUOUS
 10
48.775466
 20
166.21244
 30
0.0
  0
SEQEND
  8
0
  6
CONTINUOUS
  0
POLYLINE
  8
0
  6
CONTINUOUS
 66
     1
 10
0.0
 20
0.0
 30
0.0
  0
VERTEX
  8
0
  6
CONTINUOUS
 10
48.796746
 20
59.360027
 30
0.0
  0
VERTEX
  8
0
  6
CONTINUOUS
 10
48.843382
 20
59.400227
 30
0.0
  0
VERTEX
  8
0
  6
CONTINUOUS
 10
48.85965
 20
59.446437
 30
0.0
  0
SEQEND
  8
0
  6
CONTINUOUS
  0
POLYLINE
  8
0
  6
CONTINUOUS
 66
     1
 10
0.0
 20
0.0
 30
0.0
  0
VERTEX
  8
0
  6
CONTINUOUS
 10
52.26485
 20
121.336332
 30
0.0
  0
VERTEX
  8
0
  6
CONTINUOUS
 10
52.210051
 20
121.512504
 30
0.0
  0
VERTEX
  8
0
  6
CONTINUOUS
 10
52.077754
 20
121.636116
 30
0.0
  0
SEQEND
  8
0
  6
CONTINUOUS
  0
POLYLINE
  8
0
  6
CONTINUOUS
 66
     1
 10
0.0
 20
0.0
 30
0.0
  0
VERTEX
  8
0
  6
CONTINUOUS
 10
35.8822
 20
111.699262
 30
0.0
  0
VERTEX
  8
0
  6
CONTINUOUS
 10
35.8274
 20
111.875434
 30
0.0
  0
VERTEX
  8
0
  6
CONTINUOUS
 10
35.695103
 20
111.999046
 30
0.0
  0
SEQEND
  8
0
  6
CONTINUOUS
  0
POLYLINE
  8
0
  6
CONTINUOUS
 66
     1
 10
0.0
 20
0.0
 30
0.0
  0
VERTEX
  8
0
  6
CONTINUOUS
 10
29.878985
 20
95.098555
 30
0.0
  0
VERTEX
  8
0
  6
CONTINUOUS
 10
29.895003
 20
95.016498
 30
0.0
  0
VERTEX
  8
0
  6
CONTINUOUS
 10
29.939962
 20
94.96914
 30
0.0
  0
SEQEND
  8
0
  6
CONTINUOUS
  0
POLYLINE
  8
0
  6
CONTINUOUS
 66
     1
 10
0.0
 20
0.0
 30
0.0
  0
VERTEX
  8
0
  6
CONTINUOUS
 10
30.044801
 20
114.609749
 30
0.0
  0
VERTEX
  8
0
  6
CONTINUOUS
 10
29.927551
 20
114.478292
 30
0.0
  0
VERTEX
  8
0
  6
CONTINUOUS
 10
29.878985
 20
114.298871
 30
0.0
  0
SEQEND
  8
0
  6
CONTINUOUS
  0
POLYLINE
  8
0
  6
CONTINUOUS
 66
     1
 10
0.0
 20
0.0
 30
0.0
  0
VERTEX
  8
0
  6
CONTINUOUS
 10
52.968113
 20
102.141758
 30
0.0
  0
VERTEX
  8
0
  6
CONTINUOUS
 10
53.012732
 20
102.192402
 30
0.0
  0
VERTEX
  8
0
  6
CONTINUOUS
 10
53.028489
 20
102.270816
 30
0.0
  0
SEQEND
  8
0
  6
CONTINUOUS
  0
POLYLINE
  8
0
  6
CONTINUOUS
 66
     1
 10
0.0
 20
0.0
 30
0.0
  0
VERTEX
  8
0
  6
CONTINUOUS
 10
52.377108
 20
101.870811
 30
0.0
  0
VERTEX
  8
0
  6
CONTINUOUS
 10
52.470656
 20
101.856169
 30
0.0
  0
VERTEX
  8
0
  6
CONTINUOUS
 10
52.539138
 20
101.902614
 30
0.0
  0
VERTEX
  8
0
  6
CONTINUOUS
 10
52.564204
 20
101.9977
 30
0.0
  0
SEQEND
  8
0
  6
CONTINUOUS
  0
POLYLINE
  8
0
  6
CONTINUOUS
 66
     1
 10
0.0
 20
0.0
 30
0.0
  0
VERTEX
  8
0
  6
CONTINUOUS
 10
52.204473
 20
102.006958
 30
0.0
  0
VERTEX
  8
0
  6
CONTINUOUS
 10
52.249092
 20
102.057602
 30
0.0
  0
VERTEX
  8
0
  6
CONTINUOUS
 10
52.26485
 20
102.136016
 30
0.0
  0
SEQEND
  8
0
  6
CONTINUOUS
  0
POLYLINE
  8
0
  6
CONTINUOUS
 66
     1
 10
0.0
 20
0.0
 30
0.0
  0
VERTEX
  8
0
  6
CONTINUOUS
 10
52.564204
 20
121.198017
 30
0.0
  0
VERTEX
  8
0
  6
CONTINUOUS
 10
52.509404
 20
121.374188
 30
0.0
  0
VERTEX
  8
0
  6
CONTINUOUS
 10
52.377108
 20
121.497801
 30
0.0
  0
SEQEND
  8
0
  6
CONTINUOUS
  0
POLYLINE
  8
0
  6
CONTINUOUS
 66
     1
 10
0.0
 20
0.0
 30
0.0
  0
VERTEX
  8
0
  6
CONTINUOUS
 10
35.821823
 20
92.369889
 30
0.0
  0
VERTEX
  8
0
  6
CONTINUOUS
 10
35.866442
 20
92.420532
 30
0.0
  0
VERTEX
  8
0
  6
CONTINUOUS
 10
35.8822
 20
92.498946
 30
0.0
  0
SEQEND
  8
0
  6
CONTINUOUS
  0
POLYLINE
  8
0
  6
CONTINUOUS
 66
     1
 10
0.0
 20
0.0
 30
0.0
  0
VERTEX
  8
0
  6
CONTINUOUS
 10
53.028489
 20
121.471132
 30
0.0
  0
VERTEX
  8
0
  6
CONTINUOUS
 10
53.003423
 20
121.589382
 30
0.0
  0
VERTEX
  8
0
  6
CONTINUOUS
 10
52.934941
 20
121.699111
 30
0.0
  0
VERTEX
  8
0
  6
CONTINUOUS
 10
52.841393
 20
121.770916
 30
0.0
  0
SEQEND
  8
0
  6
CONTINUOUS
  0
POLYLINE
  8
0
  6
CONTINUOUS
 66
     1
 10
0.0
 20
0.0
 30
0.0
  0
VERTEX
  8
0
  6
CONTINUOUS
 10
32.193836
 20
113.790951
 30
0.0
  0
VERTEX
  8
0
  6
CONTINUOUS
 10
32.309599
 20
113.760795
 30
0.0
  0
VERTEX
  8
0
  6
CONTINUOUS
 10
32.438774
 20
113.764856
 30
0.0
  0
VERTEX
  8
0
  6
CONTINUOUS
 10
32.546748
 20
113.802045
 30
0.0
  0
SEQEND
  8
0
  6
CONTINUOUS
  0
POLYLINE
  8
0
  6
CONTINUOUS
 66
     1
 10
0.0
 20
0.0
 30
0.0
  0
VERTEX
  8
0
  6
CONTINUOUS
 10
35.529287
 20
92.487852
 30
0.0
  0
VERTEX
  8
0
  6
CONTINUOUS
 10
35.545305
 20
92.405795
 30
0.0
  0
VERTEX
  8
0
  6
CONTINUOUS
 10
35.590265
 20
92.358437
 30
0.0
  0
SEQEND
  8
0
  6
CONTINUOUS
  0
POLYLINE
  8
0
  6
CONTINUOUS
 66
     1
 10
0.0
 20
0.0
 30
0.0
  0
VERTEX
  8
0
  6
CONTINUOUS
 10
35.529287
 20
92.487852
 30
0.0
  0
VERTEX
  8
0
  6
CONTINUOUS
 10
35.64505
 20
92.457696
 30
0.0
  0
VERTEX
  8
0
  6
CONTINUOUS
 10
35.774225
 20
92.461757
 30
0.0
  0
VERTEX
  8
0
  6
CONTINUOUS
 10
35.8822
 20
92.498946
 30
0.0
  0
SEQEND
  8
0
  6
CONTINUOUS
  0
POLYLINE
  8
0
  6
CONTINUOUS
 66
     1
 10
0.0
 20
0.0
 30
0.0
  0
VERTEX
  8
0
  6
CONTINUOUS
 10
35.529287
 20
111.688168
 30
0.0
  0
VERTEX
  8
0
  6
CONTINUOUS
 10
35.64505
 20
111.658013
 30
0.0
  0
VERTEX
  8
0
  6
CONTINUOUS
 10
35.774225
 20
111.662073
 30
0.0
  0
VERTEX
  8
0
  6
CONTINUOUS
 10
35.8822
 20
111.699262
 30
0.0
  0
SEQEND
  8
0
  6
CONTINUOUS
  0
POLYLINE
  8
0
  6
CONTINUOUS
 66
     1
 10
0.0
 20
0.0
 30
0.0
  0
VERTEX
  8
0
  6
CONTINUOUS
 10
35.695103
 20
111.999046
 30
0.0
  0
VERTEX
  8
0
  6
CONTINUOUS
 10
35.577854
 20
111.867589
 30
0.0
  0
VERTEX
  8
0
  6
CONTINUOUS
 10
35.529287
 20
111.688168
 30
0.0
  0
SEQEND
  8
0
  6
CONTINUOUS
  0
LINE
  8
0
  6
CONTINUOUS
 10
48.796746
 20
133.756809
 30
0.0
 11
48.796746
 21
166.028452
 31
0.0
  0
LINE
  8
0
  6
CONTINUOUS
 10
52.759699
 20
136.003725
 30
0.0
 11
48.796746
 21
133.756809
 31
0.0
  0
LINE
  8
0
  6
CONTINUOUS
 10
48.85965
 20
129.412804
 30
0.0
 11
48.85965
 21
166.114899
 31
0.0
  0
LINE
  8
0
  6
CONTINUOUS
 10
55.951757
 20
126.006471
 30
0.0
 11
48.85965
 21
129.412804
 31
0.0
  0
LINE
  8
0
  6
CONTINUOUS
 10
48.796746
 20
125.776798
 30
0.0
 11
48.796746
 21
133.756809
 31
0.0
  0
LINE
  8
0
  6
CONTINUOUS
 10
54.349444
 20
123.104639
 30
0.0
 11
48.796746
 21
125.776798
 31
0.0
  0
LINE
  8
0
  6
CONTINUOUS
 10
49.876304
 20
100.637416
 30
0.0
 11
52.204511
 21
102.00698
 31
0.0
  0
LINE
  8
0
  6
CONTINUOUS
 10
54.371424
 20
98.531278
 30
0.0
 11
49.876304
 21
100.637416
 31
0.0
  0
LINE
  8
0
  6
CONTINUOUS
 10
54.865683
 20
97.4055
 30
0.0
 11
48.85965
 21
100.038896
 31
0.0
  0
LINE
  8
0
  6
CONTINUOUS
 10
63.572135
 20
117.119733
 30
0.0
 11
63.714712
 21
116.6043
 31
0.0
  0
LINE
  8
0
  6
CONTINUOUS
 10
62.993762
 20
119.310118
 30
0.0
 11
63.406538
 21
117.789861
 31
0.0
  0
LINE
  8
0
  6
CONTINUOUS
 10
62.993762
 20
119.310118
 30
0.0
 11
58.725069
 21
116.921229
 31
0.0
  0
LINE
  8
0
  6
CONTINUOUS
 10
59.366642
 20
114.170989
 30
0.0
 11
63.714712
 21
116.6043
 31
0.0
  0
LINE
  8
0
  6
CONTINUOUS
 10
57.611867
 20
113.188964
 30
0.0
 11
58.151442
 21
113.490926
 31
0.0
  0
LINE
  8
0
  6
CONTINUOUS
 10
56.954563
 20
112.821116
 30
0.0
 11
57.038507
 21
112.868094
 31
0.0
  0
LINE
  8
0
  6
CONTINUOUS
 10
66.56507
 20
126.842687
 30
0.0
 11
65.123556
 21
127.549523
 31
0.0
  0
LINE
  8
0
  6
CONTINUOUS
 10
63.576427
 20
126.683703
 30
0.0
 11
65.123556
 21
127.549523
 31
0.0
  0
LINE
  8
0
  6
CONTINUOUS
 10
65.117324
 20
125.460893
 30
0.0
 11
65.11546
 21
127.544987
 31
0.0
  0
LINE
  8
0
  6
CONTINUOUS
 10
66.56549
 20
126.373618
 30
0.0
 11
66.56507
 21
126.842687
 31
0.0
  0
LINE
  8
0
  6
CONTINUOUS
 10
66.632823
 20
115.647255
 30
0.0
 11
66.629118
 21
119.789626
 31
0.0
  0
LINE
  8
0
  6
CONTINUOUS
 10
65.123556
 20
127.549523
 30
0.0
 11
65.423827
 21
129.878797
 31
0.0
  0
LINE
  8
0
  6
CONTINUOUS
 10
66.56549
 20
126.373618
 30
0.0
 11
67.122503
 21
126.111651
 31
0.0
  0
LINE
  8
0
  6
CONTINUOUS
 10
64.875626
 20
120.080129
 30
0.0
 11
64.871417
 21
124.785605
 31
0.0
  0
LINE
  8
0
  6
CONTINUOUS
 10
65.382813
 20
125.711757
 30
0.0
 11
66.56549
 21
126.373618
 31
0.0
  0
LINE
  8
0
  6
CONTINUOUS
 10
62.270027
 20
104.896349
 30
0.0
 11
62.718816
 21
105.147505
 31
0.0
  0
LINE
  8
0
  6
CONTINUOUS
 10
62.269657
 20
105.297322
 30
0.0
 11
62.518998
 21
105.436861
 31
0.0
  0
LINE
  8
0
  6
CONTINUOUS
 10
61.920916
 20
111.974002
 30
0.0
 11
61.238292
 21
111.591985
 31
0.0
  0
LINE
  8
0
  6
CONTINUOUS
 10
65.070723
 20
107.739225
 30
0.0
 11
61.238292
 21
111.591985
 31
0.0
  0
LINE
  8
0
  6
CONTINUOUS
 10
61.920916
 20
111.974002
 30
0.0
 11
65.630435
 21
108.052457
 31
0.0
  0
LINE
  8
0
  6
CONTINUOUS
 10
62.31259
 20
113.12288
 30
0.0
 11
61.919896
 21
112.903117
 31
0.0
  0
LINE
  8
0
  6
CONTINUOUS
 10
62.835942
 20
121.188735
 30
0.0
 11
62.956407
 21
121.256151
 31
0.0
  0
LINE
  8
0
  6
CONTINUOUS
 10
63.723262
 20
120.372763
 30
0.0
 11
62.992506
 21
120.713834
 31
0.0
  0
LINE
  8
0
  6
CONTINUOUS
 10
62.992506
 20
120.713834
 30
0.0
 11
62.993762
 21
119.310118
 31
0.0
  0
LINE
  8
0
  6
CONTINUOUS
 10
63.406538
 20
117.789861
 30
0.0
 11
63.725712
 21
117.634391
 31
0.0
  0
LINE
  8
0
  6
CONTINUOUS
 10
63.725712
 20
117.634391
 30
0.0
 11
63.723262
 21
120.372763
 31
0.0
  0
LINE
  8
0
  6
CONTINUOUS
 10
62.832899
 20
124.627454
 30
0.0
 11
62.98572
 21
125.795417
 31
0.0
  0
LINE
  8
0
  6
CONTINUOUS
 10
62.832899
 20
124.627454
 30
0.0
 11
62.836325
 21
120.797009
 31
0.0
  0
LINE
  8
0
  6
CONTINUOUS
 10
63.687163
 20
120.915079
 30
0.0
 11
62.956407
 21
121.256151
 31
0.0
  0
LINE
  8
0
  6
CONTINUOUS
 10
63.281773
 20
117.380532
 30
0.0
 11
64.251923
 21
116.907972
 31
0.0
  0
LINE
  8
0
  6
CONTINUOUS
 10
63.725712
 20
117.634391
 30
0.0
 11
64.456481
 21
117.278433
 31
0.0
  0
LINE
  8
0
  6
CONTINUOUS
 10
66.462086
 20
115.671966
 30
0.0
 11
66.250788
 21
115.553718
 31
0.0
  0
LINE
  8
0
  6
CONTINUOUS
 10
63.962181
 20
120.506469
 30
0.0
 11
63.723262
 21
120.372763
 31
0.0
  0
LINE
  8
0
  6
CONTINUOUS
 10
63.805837
 20
117.679232
 30
0.0
 11
63.725712
 21
117.634391
 31
0.0
  0
LINE
  8
0
  6
CONTINUOUS
 10
64.867769
 20
115.543027
 30
0.0
 11
65.908846
 21
116.125646
 31
0.0
  0
LINE
  8
0
  6
CONTINUOUS
 10
66.079667
 20
116.007955
 30
0.0
 11
66.080349
 21
115.245048
 31
0.0
  0
LINE
  8
0
  6
CONTINUOUS
 10
63.962181
 20
120.506469
 30
0.0
 11
63.962562
 21
120.079978
 31
0.0
  0
LINE
  8
0
  6
CONTINUOUS
 10
61.284681
 20
112.787799
 30
0.0
 11
64.527223
 21
114.602423
 31
0.0
  0
LINE
  8
0
  6
CONTINUOUS
 10
63.687163
 20
120.915079
 30
0.0
 11
64.874196
 21
121.579379
 31
0.0
  0
LINE
  8
0
  6
CONTINUOUS
 10
62.992506
 20
120.713834
 30
0.0
 11
62.973003
 21
120.70292
 31
0.0
  0
LINE
  8
0
  6
CONTINUOUS
 10
62.832899
 20
124.627454
 30
0.0
 11
57.025074
 21
121.37722
 31
0.0
  0
LINE
  8
0
  6
CONTINUOUS
 10
61.284224
 20
113.29951
 30
0.0
 11
60.541526
 21
113.663687
 31
0.0
  0
LINE
  8
0
  6
CONTINUOUS
 10
61.284224
 20
113.29951
 30
0.0
 11
64.458451
 21
115.075904
 31
0.0
  0
LINE
  8
0
  6
CONTINUOUS
 10
63.715753
 20
115.44008
 30
0.0
 11
64.458451
 21
115.075904
 31
0.0
  0
LINE
  8
0
  6
CONTINUOUS
 10
63.715753
 20
115.44008
 30
0.0
 11
60.541526
 21
113.663687
 31
0.0
  0
LINE
  8
0
  6
CONTINUOUS
 10
61.113784
 20
112.99084
 30
0.0
 11
60.371086
 21
113.355016
 31
0.0
  0
LINE
  8
0
  6
CONTINUOUS
 10
60.371086
 20
113.355016
 30
0.0
 11
60.371189
 21
113.239893
 31
0.0
  0
LINE
  8
0
  6
CONTINUOUS
 10
60.371189
 20
113.239893
 30
0.0
 11
61.113861
 21
112.90549
 31
0.0
  0
LINE
  8
0
  6
CONTINUOUS
 10
61.113784
 20
112.99084
 30
0.0
 11
61.113861
 21
112.90549
 31
0.0
  0
LINE
  8
0
  6
CONTINUOUS
 10
64.866437
 20
117.081217
 30
0.0
 11
64.868102
 21
115.219764
 31
0.0
  0
LINE
  8
0
  6
CONTINUOUS
 10
63.714712
 20
116.6043
 30
0.0
 11
63.715753
 21
115.44008
 31
0.0
  0
LINE
  8
0
  6
CONTINUOUS
 10
57.038106
 20
106.856915
 30
0.0
 11
61.240423
 21
109.208658
 31
0.0
  0
LINE
  8
0
  6
CONTINUOUS
 10
61.238292
 20
111.591985
 30
0.0
 11
61.240423
 21
109.208658
 31
0.0
  0
LINE
  8
0
  6
CONTINUOUS
 10
61.91987
 20
113.143174
 30
0.0
 11
61.920916
 21
111.974002
 31
0.0
  0
LINE
  8
0
  6
CONTINUOUS
 10
63.805837
 20
117.679232
 30
0.0
 11
64.524692
 21
117.316605
 31
0.0
  0
LINE
  8
0
  6
CONTINUOUS
 10
64.524692
 20
117.316605
 30
0.0
 11
64.456481
 21
117.278433
 31
0.0
  0
LINE
  8
0
  6
CONTINUOUS
 10
64.458451
 20
115.075904
 30
0.0
 11
64.456939
 21
116.766721
 31
0.0
  0
LINE
  8
0
  6
CONTINUOUS
 10
64.875626
 20
120.080129
 30
0.0
 11
63.962181
 21
120.506469
 31
0.0
  0
LINE
  8
0
  6
CONTINUOUS
 10
62.839944
 20
120.760709
 30
0.0
 11
62.973003
 21
120.70292
 31
0.0
  0
LINE
  8
0
  6
CONTINUOUS
 10
61.240423
 20
109.208658
 30
0.0
 11
64.681497
 21
107.521352
 31
0.0
  0
LINE
  8
0
  6
CONTINUOUS
 10
57.040804
 20
104.060857
 30
0.0
 11
57.404757
 21
103.694973
 31
0.0
  0
LINE
  8
0
  6
CONTINUOUS
 10
58.11915
 20
103.852829
 30
0.0
 11
57.039934
 21
104.99373
 31
0.0
  0
LINE
  8
0
  6
CONTINUOUS
 10
66.079667
 20
116.007955
 30
0.0
 11
65.868498
 21
116.103038
 31
0.0
  0
LINE
  8
0
  6
CONTINUOUS
 10
71.095691
 20
125.874303
 30
0.0
 11
71.065251
 21
125.857268
 31
0.0
  0
LINE
  8
0
  6
CONTINUOUS
 10
68.2915
 20
111.292488
 30
0.0
 11
68.293407
 21
109.160357
 31
0.0
  0
LINE
  8
0
  6
CONTINUOUS
 10
63.829484
 20
106.662211
 30
0.0
 11
66.586847
 21
108.205315
 31
0.0
  0
LINE
  8
0
  6
CONTINUOUS
 10
63.830437
 20
105.596146
 30
0.0
 11
63.829484
 21
106.662211
 31
0.0
  0
LINE
  8
0
  6
CONTINUOUS
 10
67.014441
 20
107.37801
 30
0.0
 11
63.830437
 21
105.596146
 31
0.0
  0
LINE
  8
0
  6
CONTINUOUS
 10
67.014822
 20
106.951584
 30
0.0
 11
67.014441
 21
107.37801
 31
0.0
  0
LINE
  8
0
  6
CONTINUOUS
 10
67.014822
 20
106.951584
 30
0.0
 11
70.427942
 21
108.861669
 31
0.0
  0
LINE
  8
0
  6
CONTINUOUS
 10
71.109803
 20
110.096539
 30
0.0
 11
71.108907
 21
111.09864
 31
0.0
  0
LINE
  8
0
  6
CONTINUOUS
 10
70.011497
 20
110.484496
 30
0.0
 11
71.108907
 21
111.09864
 31
0.0
  0
LINE
  8
0
  6
CONTINUOUS
 10
58.895836
 20
111.676644
 30
0.0
 11
58.893166
 21
114.661627
 31
0.0
  0
LINE
  8
0
  6
CONTINUOUS
 10
58.150996
 20
114.434899
 30
0.0
 11
58.152808
 21
112.409718
 31
0.0
  0
LINE
  8
0
  6
CONTINUOUS
 10
58.152808
 20
112.409718
 30
0.0
 11
57.038801
 21
112.911323
 31
0.0
  0
LINE
  8
0
  6
CONTINUOUS
 10
57.038801
 20
112.911323
 30
0.0
 11
57.039091
 21
112.587086
 31
0.0
  0
LINE
  8
0
  6
CONTINUOUS
 10
57.039091
 20
112.587086
 30
0.0
 11
58.895836
 21
111.676644
 31
0.0
  0
LINE
  8
0
  6
CONTINUOUS
 10
63.648856
 20
106.255159
 30
0.0
 11
62.883612
 21
106.132873
 31
0.0
  0
LINE
  8
0
  6
CONTINUOUS
 10
63.829484
 20
106.662211
 30
0.0
 11
63.648856
 21
106.255159
 31
0.0
  0
LINE
  8
0
  6
CONTINUOUS
 10
66.221463
 20
108.383294
 30
0.0
 11
66.586847
 21
108.205315
 31
0.0
  0
LINE
  8
0
  6
CONTINUOUS
 10
66.221463
 20
108.383294
 30
0.0
 11
62.518227
 21
106.310852
 31
0.0
  0
LINE
  8
0
  6
CONTINUOUS
 10
62.518227
 20
106.310852
 30
0.0
 11
62.883612
 21
106.132873
 31
0.0
  0
LINE
  8
0
  6
CONTINUOUS
 10
67.90857
 20
131.086066
 30
0.0
 11
68.273955
 21
130.908086
 31
0.0
  0
LINE
  8
0
  6
CONTINUOUS
 10
58.404011
 20
107.930034
 30
0.0
 11
59.201552
 21
108.376363
 31
0.0
  0
LINE
  8
0
  6
CONTINUOUS
 10
59.371858
 20
108.835043
 30
0.0
 11
59.371992
 21
108.685033
 31
0.0
  0
LINE
  8
0
  6
CONTINUOUS
 10
58.732918
 20
108.69076
 30
0.0
 11
59.201037
 21
108.952734
 31
0.0
  0
LINE
  8
0
  6
CONTINUOUS
 10
58.730889
 20
110.95927
 30
0.0
 11
58.732918
 21
108.69076
 31
0.0
  0
LINE
  8
0
  6
CONTINUOUS
 10
59.199008
 20
111.221244
 30
0.0
 11
58.730889
 21
110.95927
 31
0.0
  0
LINE
  8
0
  6
CONTINUOUS
 10
59.366041
 20
115.33804
 30
0.0
 11
59.369447
 21
111.529914
 31
0.0
  0
LINE
  8
0
  6
CONTINUOUS
 10
59.19522
 20
115.455731
 30
0.0
 11
58.727101
 21
115.193757
 31
0.0
  0
LINE
  8
0
  6
CONTINUOUS
 10
58.727101
 20
115.193757
 30
0.0
 11
58.725072
 21
117.462267
 31
0.0
  0
LINE
  8
0
  6
CONTINUOUS
 10
58.725072
 20
117.462267
 30
0.0
 11
59.193191
 21
117.724241
 31
0.0
  0
LINE
  8
0
  6
CONTINUOUS
 10
59.36363
 20
118.032911
 30
0.0
 11
59.363496
 21
118.182921
 31
0.0
  0
LINE
  8
0
  6
CONTINUOUS
 10
58.395134
 20
117.854284
 30
0.0
 11
59.192676
 21
118.300612
 31
0.0
  0
LINE
  8
0
  6
CONTINUOUS
 10
58.224694
 20
117.545613
 30
0.0
 11
58.227417
 21
114.502341
 31
0.0
  0
LINE
  8
0
  6
CONTINUOUS
 10
58.398237
 20
114.38465
 30
0.0
 11
58.893166
 21
114.661627
 31
0.0
  0
LINE
  8
0
  6
CONTINUOUS
 10
58.400907
 20
111.399668
 30
0.0
 11
58.895836
 21
111.676644
 31
0.0
  0
LINE
  8
0
  6
CONTINUOUS
 10
58.23319
 20
108.047725
 30
0.0
 11
58.230468
 21
111.090997
 31
0.0
  0
LINE
  8
0
  6
CONTINUOUS
 10
54.807916
 20
136.763738
 30
0.0
 11
54.807571
 21
137.149776
 31
0.0
  0
LINE
  8
0
  6
CONTINUOUS
 10
54.807571
 20
137.149776
 30
0.0
 11
61.660924
 21
140.985119
 31
0.0
  0
LINE
  8
0
  6
CONTINUOUS
 10
58.152313
 20
112.928595
 30
0.0
 11
57.57162
 21
113.209505
 31
0.0
  0
LINE
  8
0
  6
CONTINUOUS
 10
57.038801
 20
112.911323
 30
0.0
 11
57.57162
 21
113.209505
 31
0.0
  0
LINE
  8
0
  6
CONTINUOUS
 10
58.400907
 20
111.399668
 30
0.0
 11
57.201891
 21
111.987597
 31
0.0
  0
LINE
  8
0
  6
CONTINUOUS
 10
56.955147
 20
112.540109
 30
0.0
 11
57.039091
 21
112.587086
 31
0.0
  0
LINE
  8
0
  6
CONTINUOUS
 10
56.955707
 20
111.950974
 30
0.0
 11
57.050497
 21
111.902872
 31
0.0
  0
LINE
  8
0
  6
CONTINUOUS
 10
57.201891
 20
111.987597
 30
0.0
 11
57.050497
 21
111.902872
 31
0.0
  0
LINE
  8
0
  6
CONTINUOUS
 10
56.963978
 20
102.628837
 30
0.0
 11
57.042148
 21
102.672583
 31
0.0
  0
LINE
  8
0
  6
CONTINUOUS
 10
62.088623
 20
105.382005
 30
0.0
 11
61.323379
 21
105.259719
 31
0.0
  0
LINE
  8
0
  6
CONTINUOUS
 10
62.269251
 20
105.789057
 30
0.0
 11
62.088623
 21
105.382005
 31
0.0
  0
LINE
  8
0
  6
CONTINUOUS
 10
62.269251
 20
105.789057
 30
0.0
 11
61.903866
 21
105.967037
 31
0.0
  0
LINE
  8
0
  6
CONTINUOUS
 10
61.903866
 20
105.967037
 30
0.0
 11
58.200631
 21
103.894594
 31
0.0
  0
LINE
  8
0
  6
CONTINUOUS
 10
58.200631
 20
103.894594
 30
0.0
 11
58.566015
 21
103.716615
 31
0.0
  0
LINE
  8
0
  6
CONTINUOUS
 10
58.566015
 20
103.716615
 30
0.0
 11
61.323379
 21
105.259719
 31
0.0
  0
LINE
  8
0
  6
CONTINUOUS
 10
62.270204
 20
104.722992
 30
0.0
 11
62.269251
 21
105.789057
 31
0.0
  0
LINE
  8
0
  6
CONTINUOUS
 10
54.807571
 20
137.149776
 30
0.0
 11
55.172959
 21
136.968075
 31
0.0
  0
LINE
  8
0
  6
CONTINUOUS
 10
55.172959
 20
136.968075
 30
0.0
 11
53.125087
 21
135.822024
 31
0.0
  0
LINE
  8
0
  6
CONTINUOUS
 10
53.125087
 20
135.822024
 30
0.0
 11
52.759699
 21
136.003725
 31
0.0
  0
LINE
  8
0
  6
CONTINUOUS
 10
56.953084
 20
114.884029
 30
0.0
 11
57.04787
 21
114.839789
 31
0.0
  0
LINE
  8
0
  6
CONTINUOUS
 10
68.273955
 20
130.908086
 30
0.0
 11
68.273449
 21
131.47418
 31
0.0
  0
LINE
  8
0
  6
CONTINUOUS
 10
62.088623
 20
105.382005
 30
0.0
 11
62.089576
 21
104.31594
 31
0.0
  0
LINE
  8
0
  6
CONTINUOUS
 10
62.270204
 20
104.722992
 30
0.0
 11
62.089576
 21
104.31594
 31
0.0
  0
LINE
  8
0
  6
CONTINUOUS
 10
61.323379
 20
105.259719
 30
0.0
 11
61.324333
 21
104.193654
 31
0.0
  0
LINE
  8
0
  6
CONTINUOUS
 10
62.089576
 20
104.31594
 30
0.0
 11
61.324333
 21
104.193654
 31
0.0
  0
LINE
  8
0
  6
CONTINUOUS
 10
58.140329
 20
102.411789
 30
0.0
 11
58.14071
 21
101.985363
 31
0.0
  0
LINE
  8
0
  6
CONTINUOUS
 10
61.324333
 20
104.193654
 30
0.0
 11
58.140329
 21
102.411789
 31
0.0
  0
LINE
  8
0
  6
CONTINUOUS
 10
62.883612
 20
106.132873
 30
0.0
 11
62.884566
 21
105.066808
 31
0.0
  0
LINE
  8
0
  6
CONTINUOUS
 10
62.519181
 20
105.244787
 30
0.0
 11
62.518227
 21
106.310852
 31
0.0
  0
LINE
  8
0
  6
CONTINUOUS
 10
62.884566
 20
105.066808
 30
0.0
 11
62.519181
 21
105.244787
 31
0.0
  0
LINE
  8
0
  6
CONTINUOUS
 10
63.649809
 20
105.189093
 30
0.0
 11
62.884566
 21
105.066808
 31
0.0
  0
LINE
  8
0
  6
CONTINUOUS
 10
63.648856
 20
106.255159
 30
0.0
 11
63.649809
 21
105.189093
 31
0.0
  0
LINE
  8
0
  6
CONTINUOUS
 10
63.830437
 20
105.596146
 30
0.0
 11
63.649809
 21
105.189093
 31
0.0
  0
LINE
  8
0
  6
CONTINUOUS
 10
66.649438
 20
107.129564
 30
0.0
 11
66.649398
 21
107.173674
 31
0.0
  0
LINE
  8
0
  6
CONTINUOUS
 10
67.014822
 20
106.951584
 30
0.0
 11
66.649438
 21
107.129564
 31
0.0
  0
LINE
  8
0
  6
CONTINUOUS
 10
69.118351
 20
124.842252
 30
0.0
 11
69.118355
 21
124.837021
 31
0.0
  0
LINE
  8
0
  6
CONTINUOUS
 10
56.944777
 20
124.281418
 30
0.0
 11
56.967281
 21
99.12228
 31
0.0
  0
LINE
  8
0
  6
CONTINUOUS
 10
58.230468
 20
111.090997
 30
0.0
 11
56.955918
 21
111.715964
 31
0.0
  0
LINE
  8
0
  6
CONTINUOUS
 10
58.726618
 20
115.701817
 30
0.0
 11
59.19522
 21
115.455731
 31
0.0
  0
LINE
  8
0
  6
CONTINUOUS
 10
57.042148
 20
102.672583
 30
0.0
 11
57.036949
 21
108.484402
 31
0.0
  0
LINE
  8
0
  6
CONTINUOUS
 10
59.192676
 20
118.300612
 30
0.0
 11
56.948913
 21
119.478923
 31
0.0
  0
LINE
  8
0
  6
CONTINUOUS
 10
58.23319
 20
108.047725
 30
0.0
 11
56.958686
 21
108.621597
 31
0.0
  0
LINE
  8
0
  6
CONTINUOUS
 10
57.022426
 20
124.721143
 30
0.0
 11
57.02709
 21
119.507031
 31
0.0
  0
LINE
  8
0
  6
CONTINUOUS
 10
59.201037
 20
108.952734
 30
0.0
 11
58.732434
 21
109.19882
 31
0.0
  0
LINE
  8
0
  6
CONTINUOUS
 10
71.108907
 20
111.09864
 30
0.0
 11
71.291599
 21
111.00965
 31
0.0
  0
LINE
  8
0
  6
CONTINUOUS
 10
71.043357
 20
111.444415
 30
0.0
 11
71.291302
 21
111.321508
 31
0.0
  0
LINE
  8
0
  6
CONTINUOUS
 10
71.043357
 20
111.444415
 30
0.0
 11
70.011133
 21
110.866752
 31
0.0
  0
LINE
  8
0
  6
CONTINUOUS
 10
71.106504
 20
113.785124
 30
0.0
 11
70.009095
 21
113.17098
 31
0.0
  0
LINE
  8
0
  6
CONTINUOUS
 10
71.106504
 20
113.785124
 30
0.0
 11
71.105384
 21
115.037771
 31
0.0
  0
LINE
  8
0
  6
CONTINUOUS
 10
69.841348
 20
109.835402
 30
0.0
 11
68.4761
 21
109.071368
 31
0.0
  0
LINE
  8
0
  6
CONTINUOUS
 10
68.293407
 20
109.160357
 30
0.0
 11
68.4761
 21
109.071368
 31
0.0
  0
LINE
  8
0
  6
CONTINUOUS
 10
71.053698
 20
115.585841
 30
0.0
 11
71.521817
 21
115.847814
 31
0.0
  0
LINE
  8
0
  6
CONTINUOUS
 10
71.521817
 20
115.847814
 30
0.0
 11
70.779119
 21
116.211991
 31
0.0
  0
LINE
  8
0
  6
CONTINUOUS
 10
70.311
 20
115.950017
 30
0.0
 11
70.779119
 21
116.211991
 31
0.0
  0
LINE
  8
0
  6
CONTINUOUS
 10
71.053698
 20
115.585841
 30
0.0
 11
70.311
 21
115.950017
 31
0.0
  0
LINE
  8
0
  6
CONTINUOUS
 10
71.289197
 20
113.696134
 30
0.0
 11
71.291599
 21
111.00965
 31
0.0
  0
LINE
  8
0
  6
CONTINUOUS
 10
74.032881
 20
108.672706
 30
0.0
 11
74.010377
 21
133.831843
 31
0.0
  0
LINE
  8
0
  6
CONTINUOUS
 10
57.650668
 20
98.651445
 30
0.0
 11
73.35102
 21
107.437836
 31
0.0
  0
LINE
  8
0
  6
CONTINUOUS
 10
57.626639
 20
125.516287
 30
0.0
 11
73.326991
 21
134.302678
 31
0.0
  0
LINE
  8
0
  6
CONTINUOUS
 10
67.69777
 20
110.274645
 30
0.0
 11
65.861963
 21
111.238718
 31
0.0
  0
LINE
  8
0
  6
CONTINUOUS
 10
67.779679
 20
110.524207
 30
0.0
 11
65.861772
 21
111.451996
 31
0.0
  0
LINE
  8
0
  6
CONTINUOUS
 10
65.861963
 20
111.238718
 30
0.0
 11
65.861772
 21
111.451996
 31
0.0
  0
LINE
  8
0
  6
CONTINUOUS
 10
66.475421
 20
112.563331
 30
0.0
 11
67.925633
 21
111.86179
 31
0.0
  0
LINE
  8
0
  6
CONTINUOUS
 10
70.010865
 20
111.143821
 30
0.0
 11
70.285376
 21
111.020217
 31
0.0
  0
LINE
  8
0
  6
CONTINUOUS
 10
66.646129
 20
112.658865
 30
0.0
 11
67.925423
 21
112.082836
 31
0.0
  0
LINE
  8
0
  6
CONTINUOUS
 10
66.475421
 20
112.563331
 30
0.0
 11
66.646129
 21
112.658865
 31
0.0
  0
LINE
  8
0
  6
CONTINUOUS
 10
66.305097
 20
112.126668
 30
0.0
 11
67.921355
 21
111.344802
 31
0.0
  0
LINE
  8
0
  6
CONTINUOUS
 10
66.304982
 20
112.254661
 30
0.0
 11
67.925994
 21
111.470495
 31
0.0
  0
LINE
  8
0
  6
CONTINUOUS
 10
66.305097
 20
112.126668
 30
0.0
 11
66.304982
 21
112.254661
 31
0.0
  0
LINE
  8
0
  6
CONTINUOUS
 10
67.865972
 20
110.873583
 30
0.0
 11
66.032212
 21
111.760666
 31
0.0
  0
LINE
  8
0
  6
CONTINUOUS
 10
66.134657
 20
111.817998
 30
0.0
 11
67.883879
 21
110.971811
 31
0.0
  0
LINE
  8
0
  6
CONTINUOUS
 10
66.032212
 20
111.760666
 30
0.0
 11
66.134657
 21
111.817998
 31
0.0
  0
LINE
  8
0
  6
CONTINUOUS
 10
69.118355
 20
124.837021
 30
0.0
 11
69.489214
 21
123.143752
 31
0.0
  0
LINE
  8
0
  6
CONTINUOUS
 10
71.289197
 20
113.696134
 30
0.0
 11
71.106504
 21
113.785124
 31
0.0
  0
LINE
  8
0
  6
CONTINUOUS
 10
70.007094
 20
115.419717
 30
0.0
 11
70.011813
 21
110.144119
 31
0.0
  0
LINE
  8
0
  6
CONTINUOUS
 10
73.35102
 20
107.437836
 30
0.0
 11
70.427942
 21
108.861669
 31
0.0
  0
LINE
  8
0
  6
CONTINUOUS
 10
63.804362
 20
105.537374
 30
0.0
 11
66.649438
 21
107.129564
 31
0.0
  0
LINE
  8
0
  6
CONTINUOUS
 10
62.244129
 20
104.66422
 30
0.0
 11
62.994905
 21
105.084376
 31
0.0
  0
LINE
  8
0
  6
CONTINUOUS
 10
58.140346
 20
102.367619
 30
0.0
 11
61.434671
 21
104.211223
 31
0.0
  0
LINE
  8
0
  6
CONTINUOUS
 10
56.965131
 20
101.327474
 30
0.0
 11
58.14071
 21
101.985363
 31
0.0
  0
LINE
  8
0
  6
CONTINUOUS
 10
56.978597
 20
98.978811
 30
0.0
 11
57.650668
 21
98.651445
 31
0.0
  0
LINE
  8
0
  6
CONTINUOUS
 10
70.874897
 20
124.625049
 30
0.0
 11
68.461129
 21
125.808623
 31
0.0
  0
LINE
  8
0
  6
CONTINUOUS
 10
71.045337
 20
124.933719
 30
0.0
 11
68.631568
 21
126.117293
 31
0.0
  0
LINE
  8
0
  6
CONTINUOUS
 10
71.519788
 20
118.116324
 30
0.0
 11
71.051669
 21
117.854351
 31
0.0
  0
LINE
  8
0
  6
CONTINUOUS
 10
71.054213
 20
115.00947
 30
0.0
 11
71.851755
 21
115.455798
 31
0.0
  0
LINE
  8
0
  6
CONTINUOUS
 10
70.138177
 20
118.306445
 30
0.0
 11
70.140561
 21
115.641347
 31
0.0
  0
LINE
  8
0
  6
CONTINUOUS
 10
70.779119
 20
116.211991
 30
0.0
 11
70.777594
 21
117.916688
 31
0.0
  0
LINE
  8
0
  6
CONTINUOUS
 10
71.521817
 20
115.847814
 30
0.0
 11
71.519788
 21
118.116324
 31
0.0
  0
LINE
  8
0
  6
CONTINUOUS
 10
72.019473
 20
118.807741
 30
0.0
 11
72.022195
 21
115.764468
 31
0.0
  0
LINE
  8
0
  6
CONTINUOUS
 10
71.848652
 20
118.925432
 30
0.0
 11
71.353723
 21
118.648455
 31
0.0
  0
LINE
  8
0
  6
CONTINUOUS
 10
71.351054
 20
121.633437
 30
0.0
 11
71.353723
 21
118.648455
 31
0.0
  0
LINE
  8
0
  6
CONTINUOUS
 10
71.845982
 20
121.910414
 30
0.0
 11
71.351054
 21
121.633437
 31
0.0
  0
LINE
  8
0
  6
CONTINUOUS
 10
72.016421
 20
122.219084
 30
0.0
 11
72.013699
 21
125.262357
 31
0.0
  0
LINE
  8
0
  6
CONTINUOUS
 10
71.045337
 20
124.933719
 30
0.0
 11
71.842879
 21
125.380048
 31
0.0
  0
LINE
  8
0
  6
CONTINUOUS
 10
70.875032
 20
124.475039
 30
0.0
 11
70.874897
 21
124.625049
 31
0.0
  0
LINE
  8
0
  6
CONTINUOUS
 10
71.045852
 20
124.357348
 30
0.0
 11
71.513971
 21
124.619322
 31
0.0
  0
LINE
  8
0
  6
CONTINUOUS
 10
71.513971
 20
124.619322
 30
0.0
 11
71.516
 21
122.350812
 31
0.0
  0
LINE
  8
0
  6
CONTINUOUS
 10
71.516
 20
122.350812
 30
0.0
 11
71.047881
 21
122.088838
 31
0.0
  0
LINE
  8
0
  6
CONTINUOUS
 10
70.877442
 20
121.780168
 30
0.0
 11
70.880848
 21
117.972042
 31
0.0
  0
LINE
  8
0
  6
CONTINUOUS
 10
70.883259
 20
115.27717
 30
0.0
 11
70.883393
 21
115.12716
 31
0.0
  0
LINE
  8
0
  6
CONTINUOUS
 10
70.883393
 20
115.12716
 30
0.0
 11
68.469711
 21
116.213972
 31
0.0
  0
LINE
  8
0
  6
CONTINUOUS
 10
68.46931
 20
116.662767
 30
0.0
 11
67.921253
 21
116.907399
 31
0.0
  0
LINE
  8
0
  6
CONTINUOUS
 10
67.921253
 20
116.907399
 30
0.0
 11
67.921825
 21
116.26776
 31
0.0
  0
LINE
  8
0
  6
CONTINUOUS
 10
68.287209
 20
116.089781
 30
0.0
 11
67.921825
 21
116.26776
 31
0.0
  0
LINE
  8
0
  6
CONTINUOUS
 10
68.288544
 20
114.59729
 30
0.0
 11
68.287209
 21
116.089781
 31
0.0
  0
LINE
  8
0
  6
CONTINUOUS
 10
68.288544
 20
114.59729
 30
0.0
 11
67.92316
 21
114.775269
 31
0.0
  0
LINE
  8
0
  6
CONTINUOUS
 10
67.92316
 20
114.775269
 30
0.0
 11
67.926116
 21
111.470467
 31
0.0
  0
LINE
  8
0
  6
CONTINUOUS
 10
67.926116
 20
111.470467
 30
0.0
 11
68.2915
 21
111.292488
 31
0.0
  0
LINE
  8
0
  6
CONTINUOUS
 10
68.4761
 20
109.071368
 30
0.0
 11
68.469711
 21
116.213972
 31
0.0
  0
LINE
  8
0
  6
CONTINUOUS
 10
68.46931
 20
116.662767
 30
0.0
 11
68.469711
 21
116.213972
 31
0.0
  0
LINE
  8
0
  6
CONTINUOUS
 10
67.92316
 20
114.775269
 30
0.0
 11
68.28818
 21
114.979545
 31
0.0
  0
LINE
  8
0
  6
CONTINUOUS
 10
58.227417
 20
114.502341
 30
0.0
 11
56.952913
 21
115.076213
 31
0.0
  0
LINE
  8
0
  6
CONTINUOUS
 10
71.272994
 20
131.789959
 30
0.0
 11
71.025049
 21
131.912866
 31
0.0
  0
LINE
  8
0
  6
CONTINUOUS
 10
74.010377
 20
133.831843
 30
0.0
 11
73.195295
 21
134.22887
 31
0.0
  0
LINE
  8
0
  6
CONTINUOUS
 10
71.273291
 20
131.478101
 30
0.0
 11
71.271794
 21
133.152169
 31
0.0
  0
LINE
  8
0
  6
CONTINUOUS
 10
71.273291
 20
131.478101
 30
0.0
 11
71.090599
 21
131.567091
 31
0.0
  0
LINE
  8
0
  6
CONTINUOUS
 10
71.090599
 20
131.567091
 30
0.0
 11
71.095691
 21
125.874303
 31
0.0
  0
LINE
  8
0
  6
CONTINUOUS
 10
74.032881
 20
108.672706
 30
0.0
 11
71.109803
 21
110.096539
 31
0.0
  0
LINE
  8
0
  6
CONTINUOUS
 10
68.46931
 20
116.662767
 30
0.0
 11
69.736814
 21
116.117459
 31
0.0
  0
LINE
  8
0
  6
CONTINUOUS
 10
69.736814
 20
116.117459
 30
0.0
 11
69.115845
 21
117.575929
 31
0.0
  0
LINE
  8
0
  6
CONTINUOUS
 10
69.115845
 20
117.575929
 30
0.0
 11
67.921253
 21
116.907399
 31
0.0
  0
LINE
  8
0
  6
CONTINUOUS
 10
69.024341
 20
118.6172
 30
0.0
 11
69.73489
 21
118.268787
 31
0.0
  0
LINE
  8
0
  6
CONTINUOUS
 10
69.023445
 20
119.618292
 30
0.0
 11
69.556265
 21
119.916474
 31
0.0
  0
LINE
  8
0
  6
CONTINUOUS
 10
69.867118
 20
119.766038
 30
0.0
 11
70.13667
 21
119.916887
 31
0.0
  0
LINE
  8
0
  6
CONTINUOUS
 10
69.023445
 20
119.618292
 30
0.0
 11
69.024341
 21
118.6172
 31
0.0
  0
LINE
  8
0
  6
CONTINUOUS
 10
70.137452
 20
119.116687
 30
0.0
 11
69.023445
 21
119.618292
 31
0.0
  0
LINE
  8
0
  6
CONTINUOUS
 10
69.556265
 20
119.916474
 30
0.0
 11
70.136957
 21
119.635564
 31
0.0
  0
LINE
  8
0
  6
CONTINUOUS
 10
70.135469
 20
121.334103
 30
0.0
 11
70.137452
 21
119.116687
 31
0.0
  0
LINE
  8
0
  6
CONTINUOUS
 10
69.115845
 20
117.575929
 30
0.0
 11
69.114953
 21
118.572538
 31
0.0
  0
LINE
  8
0
  6
CONTINUOUS
 10
69.992825
 20
131.335203
 30
0.0
 11
71.025049
 21
131.912866
 31
0.0
  0
LINE
  8
0
  6
CONTINUOUS
 10
69.109178
 20
125.029043
 30
0.0
 11
69.109313
 21
124.877991
 31
0.0
  0
LINE
  8
0
  6
CONTINUOUS
 10
67.913433
 20
125.649133
 30
0.0
 11
67.912861
 21
126.288772
 31
0.0
  0
LINE
  8
0
  6
CONTINUOUS
 10
68.277882
 20
126.493049
 30
0.0
 11
67.912861
 21
126.288772
 31
0.0
  0
LINE
  8
0
  6
CONTINUOUS
 10
67.911526
 20
127.781264
 30
0.0
 11
67.90857
 21
131.086066
 31
0.0
  0
LINE
  8
0
  6
CONTINUOUS
 10
70.135469
 20
121.334103
 30
0.0
 11
69.021422
 21
121.880368
 31
0.0
  0
LINE
  8
0
  6
CONTINUOUS
 10
71.353212
 20
119.185611
 30
0.0
 11
71.848652
 21
118.925432
 31
0.0
  0
LINE
  8
0
  6
CONTINUOUS
 10
69.73105
 20
122.561532
 30
0.0
 11
69.489214
 21
123.143752
 31
0.0
  0
LINE
  8
0
  6
CONTINUOUS
 10
69.020526
 20
122.88146
 30
0.0
 11
69.489214
 21
123.143752
 31
0.0
  0
LINE
  8
0
  6
CONTINUOUS
 10
69.020526
 20
122.88146
 30
0.0
 11
69.73105
 21
122.561532
 31
0.0
  0
LINE
  8
0
  6
CONTINUOUS
 10
68.46153
 20
125.359828
 30
0.0
 11
67.913433
 21
125.649133
 31
0.0
  0
LINE
  8
0
  6
CONTINUOUS
 10
68.46153
 20
125.359828
 30
0.0
 11
69.729126
 21
124.71286
 31
0.0
  0
LINE
  8
0
  6
CONTINUOUS
 10
68.276911
 20
127.603284
 30
0.0
 11
67.911526
 21
127.781264
 31
0.0
  0
LINE
  8
0
  6
CONTINUOUS
 10
68.276911
 20
127.603284
 30
0.0
 11
68.278246
 21
126.110793
 31
0.0
  0
LINE
  8
0
  6
CONTINUOUS
 10
68.278246
 20
126.110793
 30
0.0
 11
67.912861
 21
126.288772
 31
0.0
  0
LINE
  8
0
  6
CONTINUOUS
 10
68.46153
 20
125.359828
 30
0.0
 11
68.461129
 21
125.808623
 31
0.0
  0
LINE
  8
0
  6
CONTINUOUS
 10
68.45597
 20
131.576349
 30
0.0
 11
68.461129
 21
125.808623
 31
0.0
  0
LINE
  8
0
  6
CONTINUOUS
 10
70.771778
 20
124.419685
 30
0.0
 11
70.773302
 21
122.714988
 31
0.0
  0
LINE
  8
0
  6
CONTINUOUS
 10
71.516
 20
122.350812
 30
0.0
 11
70.773302
 21
122.714988
 31
0.0
  0
LINE
  8
0
  6
CONTINUOUS
 10
70.773302
 20
122.714988
 30
0.0
 11
70.305183
 21
122.453015
 31
0.0
  0
LINE
  8
0
  6
CONTINUOUS
 10
70.134744
 20
122.144345
 30
0.0
 11
70.13236
 21
124.809442
 31
0.0
  0
LINE
  8
0
  6
CONTINUOUS
 10
70.305183
 20
122.453015
 30
0.0
 11
71.047881
 21
122.088838
 31
0.0
  0
LINE
  8
0
  6
CONTINUOUS
 10
69.997256
 20
126.418374
 30
0.0
 11
69.991874
 21
132.435887
 31
0.0
  0
LINE
  8
0
  6
CONTINUOUS
 10
69.506559
 20
126.606965
 30
0.0
 11
68.631568
 21
126.117293
 31
0.0
  0
LINE
  8
0
  6
CONTINUOUS
 10
71.090599
 20
131.567091
 30
0.0
 11
69.993189
 21
130.952947
 31
0.0
  0
LINE
  8
0
  6
CONTINUOUS
 10
69.73105
 20
122.561532
 30
0.0
 11
69.729126
 21
124.71286
 31
0.0
  0
LINE
  8
0
  6
CONTINUOUS
 10
58.395134
 20
117.854284
 30
0.0
 11
56.949784
 21
118.563001
 31
0.0
  0
LINE
  8
0
  6
CONTINUOUS
 10
58.224694
 20
117.545613
 30
0.0
 11
56.950145
 21
118.17058
 31
0.0
  0
LINE
  8
0
  6
CONTINUOUS
 10
57.04787
 20
114.839789
 30
0.0
 11
57.13889
 21
114.890727
 31
0.0
  0
LINE
  8
0
  6
CONTINUOUS
 10
69.506559
 20
126.606965
 30
0.0
 11
71.842879
 21
125.380048
 31
0.0
  0
LINE
  8
0
  6
CONTINUOUS
 10
70.875032
 20
124.475039
 30
0.0
 11
70.13236
 21
124.809442
 31
0.0
  0
LINE
  8
0
  6
CONTINUOUS
 10
70.883259
 20
115.27717
 30
0.0
 11
70.140561
 21
115.641347
 31
0.0
  0
LINE
  8
0
  6
CONTINUOUS
 10
70.138177
 20
118.306445
 30
0.0
 11
70.880848
 21
117.972042
 31
0.0
  0
LINE
  8
0
  6
CONTINUOUS
 10
70.134744
 20
122.144345
 30
0.0
 11
70.877442
 21
121.780168
 31
0.0
  0
LINE
  8
0
  6
CONTINUOUS
 10
69.021422
 20
121.880368
 30
0.0
 11
69.020526
 21
122.88146
 31
0.0
  0
LINE
  8
0
  6
CONTINUOUS
 10
69.73489
 20
118.268787
 30
0.0
 11
69.736814
 21
116.117459
 31
0.0
  0
LINE
  8
0
  6
CONTINUOUS
 10
60.434672
 20
113.109571
 30
0.0
 11
61.177344
 21
112.775168
 31
0.0
  0
LINE
  8
0
  6
CONTINUOUS
 10
64.746199
 20
117.338648
 30
0.0
 11
64.027345
 21
117.701274
 31
0.0
  0
LINE
  8
0
  6
CONTINUOUS
 10
63.41634
 20
117.195644
 30
0.0
 11
64.325336
 21
116.752872
 31
0.0
  0
LINE
  8
0
  6
CONTINUOUS
 10
71.352863
 20
119.478007
 30
0.0
 11
71.712533
 21
119.679289
 31
0.0
  0
LINE
  8
0
  6
CONTINUOUS
 10
59.307169
 20
115.466116
 30
0.0
 11
58.726549
 21
115.771028
 31
0.0
  0
LINE
  8
0
  6
CONTINUOUS
 10
59.304625
 20
118.310997
 30
0.0
 11
56.968305
 21
119.537914
 31
0.0
  0
LINE
  8
0
  6
CONTINUOUS
 10
68.533194
 20
116.08365
 30
0.0
 11
70.946876
 21
114.996839
 31
0.0
  0
LINE
  8
0
  6
CONTINUOUS
 10
57.073422
 20
114.920214
 30
0.0
 11
58.290899
 21
114.372019
 31
0.0
  0
LINE
  8
0
  6
CONTINUOUS
 10
71.960601
 20
118.935816
 30
0.0
 11
71.353144
 21
119.254822
 31
0.0
  0
LINE
  8
0
  6
CONTINUOUS
 10
67.925362
 20
112.143825
 30
0.0
 11
66.753467
 21
112.671496
 31
0.0
  0
LINE
  8
0
  6
CONTINUOUS
 10
70.345746
 20
111.053996
 30
0.0
 11
70.010804
 21
111.204811
 31
0.0
  0
LINE
  8
0
  6
CONTINUOUS
 10
65.920835
 20
111.110643
 30
0.0
 11
67.66706
 21
110.193613
 31
0.0
  0
LINE
  8
0
  6
CONTINUOUS
 10
71.954828
 20
125.390432
 30
0.0
 11
69.618508
 21
126.617349
 31
0.0
  0
LINE
  8
0
  6
CONTINUOUS
 10
56.958773
 20
108.519821
 30
0.0
 11
58.296673
 21
107.917403
 31
0.0
  0
LINE
  8
0
  6
CONTINUOUS
 10
70.195843
 20
124.679121
 30
0.0
 11
70.938514
 21
124.344717
 31
0.0
  0
LINE
  8
0
  6
CONTINUOUS
 10
59.312986
 20
108.963118
 30
0.0
 11
58.732366
 21
109.268031
 31
0.0
  0
LINE
  8
0
  6
CONTINUOUS
 10
70.20166
 20
118.176123
 30
0.0
 11
70.944331
 21
117.84172
 31
0.0
  0
LINE
  8
0
  6
CONTINUOUS
 10
34.428066
 20
163.806134
 30
0.0
 11
34.428066
 21
164.481912
 31
0.0
  0
LINE
  8
0
  6
CONTINUOUS
 10
33.765191
 20
164.091977
 30
0.0
 11
39.363801
 21
161.678802
 31
0.0
  0
LINE
  8
0
  6
CONTINUOUS
 10
39.447193
 20
161.078804
 30
0.0
 11
39.447193
 21
161.11811
 31
0.0
  0
LINE
  8
0
  6
CONTINUOUS
 10
39.447193
 20
161.11811
 30
0.0
 11
39.015523
 21
160.86418
 31
0.0
  0
LINE
  8
0
  6
CONTINUOUS
 10
39.015523
 20
160.824874
 30
0.0
 11
39.015523
 21
160.86418
 31
0.0
  0
LINE
  8
0
  6
CONTINUOUS
 10
38.491654
 20
161.106232
 30
0.0
 11
38.785999
 21
161.27938
 31
0.0
  0
LINE
  8
0
  6
CONTINUOUS
 10
38.758202
 20
161.263004
 30
0.0
 11
38.758202
 21
161.466278
 31
0.0
  0
LINE
  8
0
  6
CONTINUOUS
 10
38.758202
 20
161.466278
 30
0.0
 11
33.090199
 21
163.909363
 31
0.0
  0
LINE
  8
0
  6
CONTINUOUS
 10
33.090199
 20
157.949444
 30
0.0
 11
33.090199
 21
163.909363
 31
0.0
  0
LINE
  8
0
  6
CONTINUOUS
 10
32.743804
 20
158.014348
 30
0.0
 11
32.743804
 21
163.895361
 31
0.0
  0
LINE
  8
0
  6
CONTINUOUS
 10
32.743804
 20
163.895361
 30
0.0
 11
26.216875
 21
160.055904
 31
0.0
  0
LINE
  8
0
  6
CONTINUOUS
 10
26.216875
 20
159.710413
 30
0.0
 11
26.216875
 21
160.055904
 31
0.0
  0
LINE
  8
0
  6
CONTINUOUS
 10
26.259435
 20
159.687928
 30
0.0
 11
30.076195
 21
157.924406
 31
0.0
  0
LINE
  8
0
  6
CONTINUOUS
 10
30.78202
 20
157.946595
 30
0.0
 11
31.213142
 21
158.200202
 31
0.0
  0
LINE
  8
0
  6
CONTINUOUS
 10
32.27188
 20
158.233484
 30
0.0
 11
32.833168
 21
157.974143
 31
0.0
  0
LINE
  8
0
  6
CONTINUOUS
 10
33.18608
 20
157.985237
 30
0.0
 11
33.517713
 21
158.180319
 31
0.0
  0
LINE
  8
0
  6
CONTINUOUS
 10
34.041582
 20
157.898961
 30
0.0
 11
34.041582
 21
157.938267
 31
0.0
  0
LINE
  8
0
  6
CONTINUOUS
 10
34.041582
 20
157.938267
 30
0.0
 11
33.04256
 21
157.350594
 31
0.0
  0
LINE
  8
0
  6
CONTINUOUS
 10
33.04256
 20
157.311288
 30
0.0
 11
33.04256
 21
157.350594
 31
0.0
  0
LINE
  8
0
  6
CONTINUOUS
 10
32.610663
 20
157.057212
 30
0.0
 11
32.610663
 21
157.201838
 31
0.0
  0
LINE
  8
0
  6
CONTINUOUS
 10
32.610663
 20
157.201838
 30
0.0
 11
32.042418
 21
157.102998
 31
0.0
  0
LINE
  8
0
  6
CONTINUOUS
 10
32.042418
 20
157.015904
 30
0.0
 11
32.042418
 21
157.102998
 31
0.0
  0
LINE
  8
0
  6
CONTINUOUS
 10
31.7762
 20
157.313081
 30
0.0
 11
32.240485
 21
157.586197
 31
0.0
  0
LINE
  8
0
  6
CONTINUOUS
 10
32.219205
 20
157.573654
 30
0.0
 11
32.219205
 21
157.770185
 31
0.0
  0
LINE
  8
0
  6
CONTINUOUS
 10
32.219205
 20
157.770185
 30
0.0
 11
31.957271
 21
157.891211
 31
0.0
  0
LINE
  8
0
  6
CONTINUOUS
 10
31.957271
 20
157.880228
 30
0.0
 11
31.957271
 21
157.891211
 31
0.0
  0
LINE
  8
0
  6
CONTINUOUS
 10
31.604359
 20
157.870581
 30
0.0
 11
31.604359
 21
157.880117
 31
0.0
  0
LINE
  8
0
  6
CONTINUOUS
 10
31.604359
 20
157.880117
 30
0.0
 11
30.675787
 21
157.333886
 31
0.0
  0
LINE
  8
0
  6
CONTINUOUS
 10
30.322875
 20
114.655422
 30
0.0
 11
30.322875
 21
157.322792
 31
0.0
  0
LINE
  8
0
  6
CONTINUOUS
 10
30.322875
 20
50.654367
 30
0.0
 11
30.322875
 21
94.792164
 31
0.0
  0
LINE
  8
0
  6
CONTINUOUS
 10
30.322875
 20
157.322792
 30
0.0
 11
25.084184
 21
159.743311
 31
0.0
  0
LINE
  8
0
  6
CONTINUOUS
 10
25.084184
 20
53.074887
 30
0.0
 11
25.084184
 21
159.743311
 31
0.0
  0
LINE
  8
0
  6
CONTINUOUS
 10
25.084184
 20
53.074887
 30
0.0
 11
30.322875
 21
50.654367
 31
0.0
  0
LINE
  8
0
  6
CONTINUOUS
 10
25.062904
 20
159.9273
 30
0.0
 11
41.312901
 21
169.486337
 31
0.0
  0
LINE
  8
0
  6
CONTINUOUS
 10
41.665814
 20
169.497431
 30
0.0
 11
46.904505
 21
167.076911
 31
0.0
  0
LINE
  8
0
  6
CONTINUOUS
 10
46.925785
 20
166.892923
 30
0.0
 11
45.997213
 21
166.346692
 31
0.0
  0
LINE
  8
0
  6
CONTINUOUS
 10
45.997213
 20
166.327937
 30
0.0
 11
45.997213
 21
166.346692
 31
0.0
  0
LINE
  8
0
  6
CONTINUOUS
 10
46.018493
 20
166.162704
 30
0.0
 11
46.280428
 21
166.041678
 31
0.0
  0
LINE
  8
0
  6
CONTINUOUS
 10
46.63334
 20
166.052772
 30
0.0
 11
47.097626
 21
166.325887
 31
0.0
  0
LINE
  8
0
  6
CONTINUOUS
 10
47.52966
 20
165.833261
 30
0.0
 11
47.52966
 21
166.213346
 31
0.0
  0
LINE
  8
0
  6
CONTINUOUS
 10
47.52966
 20
166.213346
 30
0.0
 11
47.409725
 21
165.907365
 31
0.0
  0
LINE
  8
0
  6
CONTINUOUS
 10
47.409725
 20
165.762738
 30
0.0
 11
47.409725
 21
165.907365
 31
0.0
  0
LINE
  8
0
  6
CONTINUOUS
 10
47.178357
 20
165.626649
 30
0.0
 11
47.178357
 21
165.665956
 31
0.0
  0
LINE
  8
0
  6
CONTINUOUS
 10
47.178357
 20
165.665956
 30
0.0
 11
46.179335
 21
165.078282
 31
0.0
  0
LINE
  8
0
  6
CONTINUOUS
 10
46.179335
 20
165.038976
 30
0.0
 11
46.179335
 21
165.078282
 31
0.0
  0
LINE
  8
0
  6
CONTINUOUS
 10
45.655466
 20
165.320334
 30
0.0
 11
45.987099
 21
165.515417
 31
0.0
  0
LINE
  8
0
  6
CONTINUOUS
 10
45.965819
 20
165.502875
 30
0.0
 11
45.965819
 21
165.699405
 31
0.0
  0
LINE
  8
0
  6
CONTINUOUS
 10
45.965819
 20
165.699405
 30
0.0
 11
45.404531
 21
165.958746
 31
0.0
  0
LINE
  8
0
  6
CONTINUOUS
 10
45.404531
 20
164.583033
 30
0.0
 11
45.404531
 21
165.958746
 31
0.0
  0
LINE
  8
0
  6
CONTINUOUS
 10
45.340691
 20
166.510711
 30
0.0
 11
45.771814
 21
166.764318
 31
0.0
  0
LINE
  8
0
  6
CONTINUOUS
 10
45.729254
 20
166.739234
 30
0.0
 11
45.729254
 21
167.132295
 31
0.0
  0
LINE
  8
0
  6
CONTINUOUS
 10
45.729254
 20
167.132295
 30
0.0
 11
41.912493
 21
168.895816
 31
0.0
  0
LINE
  8
0
  6
CONTINUOUS
 10
41.912493
 20
162.52823
 30
0.0
 11
41.912493
 21
168.895816
 31
0.0
  0
LINE
  8
0
  6
CONTINUOUS
 10
41.206668
 20
162.39249
 30
0.0
 11
41.206668
 21
168.873628
 31
0.0
  0
LINE
  8
0
  6
CONTINUOUS
 10
41.206668
 20
168.873628
 30
0.0
 11
34.67974
 21
165.034172
 31
0.0
  0
LINE
  8
0
  6
CONTINUOUS
 10
34.67974
 20
164.861399
 30
0.0
 11
34.67974
 21
165.034172
 31
0.0
  0
LINE
  8
0
  6
CONTINUOUS
 10
34.694697
 20
164.853207
 30
0.0
 11
40.027945
 21
162.213203
 31
0.0
  0
LINE
  8
0
  6
CONTINUOUS
 10
40.38718
 20
162.221273
 30
0.0
 11
40.681525
 21
162.394421
 31
0.0
  0
LINE
  8
0
  6
CONTINUOUS
 10
41.205394
 20
162.113063
 30
0.0
 11
41.205394
 21
162.152369
 31
0.0
  0
LINE
  8
0
  6
CONTINUOUS
 10
41.205394
 20
162.152369
 30
0.0
 11
40.773724
 21
161.89844
 31
0.0
  0
LINE
  8
0
  6
CONTINUOUS
 10
40.773724
 20
161.859133
 30
0.0
 11
40.773724
 21
161.89844
 31
0.0
  0
LINE
  8
0
  6
CONTINUOUS
 10
39.69602
 20
161.2251
 30
0.0
 11
39.69602
 21
161.874229
 31
0.0
  0
LINE
  8
0
  6
CONTINUOUS
 10
39.69602
 20
161.874229
 30
0.0
 11
34.428066
 21
164.481912
 31
0.0
  0
LINE
  8
0
  6
CONTINUOUS
 10
48.796746
 20
166.028452
 30
0.0
 11
32.546748
 21
156.469415
 31
0.0
  0
LINE
  8
0
  6
CONTINUOUS
 10
32.546748
 20
113.802045
 30
0.0
 11
32.546748
 21
156.469415
 31
0.0
  0
LINE
  8
0
  6
CONTINUOUS
 10
32.546748
 20
49.80099
 30
0.0
 11
32.546748
 21
93.764599
 31
0.0
  0
LINE
  8
0
  6
CONTINUOUS
 10
32.546748
 20
49.80099
 30
0.0
 11
48.796746
 21
59.360027
 31
0.0
  0
LINE
  8
0
  6
CONTINUOUS
 10
48.796746
 20
123.361082
 30
0.0
 11
48.796746
 21
125.776798
 31
0.0
  0
LINE
  8
0
  6
CONTINUOUS
 10
48.796746
 20
59.360027
 30
0.0
 11
48.796746
 21
100.001899
 31
0.0
  0
LINE
  8
0
  6
CONTINUOUS
 10
32.193836
 20
113.790951
 30
0.0
 11
32.193836
 21
156.458321
 31
0.0
  0
LINE
  8
0
  6
CONTINUOUS
 10
32.193836
 20
49.789896
 30
0.0
 11
32.193836
 21
93.927693
 31
0.0
  0
LINE
  8
0
  6
CONTINUOUS
 10
32.193836
 20
156.458321
 30
0.0
 11
30.697067
 21
157.149898
 31
0.0
  0
LINE
  8
0
  6
CONTINUOUS
 10
30.697067
 20
114.482528
 30
0.0
 11
30.697067
 21
157.149898
 31
0.0
  0
LINE
  8
0
  6
CONTINUOUS
 10
30.697067
 20
50.481473
 30
0.0
 11
30.697067
 21
94.61927
 31
0.0
  0
LINE
  8
0
  6
CONTINUOUS
 10
30.697067
 20
50.481473
 30
0.0
 11
32.193836
 21
49.789896
 31
0.0
  0
LINE
  8
0
  6
CONTINUOUS
 10
32.058571
 20
157.479171
 30
0.0
 11
32.058571
 21
157.597089
 31
0.0
  0
LINE
  8
0
  6
CONTINUOUS
 10
32.058571
 20
157.597089
 30
0.0
 11
31.663942
 21
157.36495
 31
0.0
  0
LINE
  8
0
  6
CONTINUOUS
 10
31.663942
 20
157.192204
 30
0.0
 11
31.663942
 21
157.36495
 31
0.0
  0
LINE
  8
0
  6
CONTINUOUS
 10
31.685222
 20
157.180961
 30
0.0
 11
32.134252
 21
156.973488
 31
0.0
  0
LINE
  8
0
  6
CONTINUOUS
 10
32.487165
 20
156.984582
 30
0.0
 11
47.808591
 21
165.997388
 31
0.0
  0
LINE
  8
0
  6
CONTINUOUS
 10
47.787311
 20
165.984846
 30
0.0
 11
47.787311
 21
166.181377
 31
0.0
  0
LINE
  8
0
  6
CONTINUOUS
 10
47.787311
 20
166.181377
 30
0.0
 11
47.33828
 21
166.38885
 31
0.0
  0
LINE
  8
0
  6
CONTINUOUS
 10
47.33828
 20
166.366744
 30
0.0
 11
47.33828
 21
166.38885
 31
0.0
  0
LINE
  8
0
  6
CONTINUOUS
 10
46.985368
 20
166.259837
 30
0.0
 11
46.985368
 21
166.377756
 31
0.0
  0
LINE
  8
0
  6
CONTINUOUS
 10
46.985368
 20
166.377756
 30
0.0
 11
46.587409
 21
166.143657
 31
0.0
  0
LINE
  8
0
  6
CONTINUOUS
 10
46.587409
 20
166.031615
 30
0.0
 11
46.587409
 21
166.143657
 31
0.0
  0
LINE
  8
0
  6
CONTINUOUS
 10
47.278697
 20
166.904017
 30
0.0
 11
48.775466
 21
166.21244
 31
0.0
  0
LINE
  8
0
  6
CONTINUOUS
 10
49.062052
 20
123.517148
 30
0.0
 11
32.546748
 21
113.802045
 31
0.0
  0
LINE
  8
0
  6
CONTINUOUS
 10
52.449093
 20
121.978099
 30
0.0
 11
52.424337
 21
121.963537
 31
0.0
  0
LINE
  8
0
  6
CONTINUOUS
 10
35.695103
 20
111.999046
 30
0.0
 11
52.077754
 21
121.636116
 31
0.0
  0
LINE
  8
0
  6
CONTINUOUS
 10
35.8822
 20
111.699262
 30
0.0
 11
52.26485
 21
121.336332
 31
0.0
  0
LINE
  8
0
  6
CONTINUOUS
 10
29.878985
 20
95.098555
 30
0.0
 11
29.878985
 21
114.298871
 31
0.0
  0
LINE
  8
0
  6
CONTINUOUS
 10
30.210617
 20
114.70729
 30
0.0
 11
30.044801
 21
114.609749
 31
0.0
  0
LINE
  8
0
  6
CONTINUOUS
 10
52.564204
 20
101.9977
 30
0.0
 11
52.564204
 21
121.198017
 31
0.0
  0
LINE
  8
0
  6
CONTINUOUS
 10
52.564204
 20
101.9977
 30
0.0
 11
53.028489
 21
102.270816
 31
0.0
  0
LINE
  8
0
  6
CONTINUOUS
 10
53.028489
 20
121.471132
 30
0.0
 11
53.028489
 21
102.270816
 31
0.0
  0
LINE
  8
0
  6
CONTINUOUS
 10
52.564204
 20
121.198017
 30
0.0
 11
53.028489
 21
121.471132
 31
0.0
  0
LINE
  8
0
  6
CONTINUOUS
 10
35.8822
 20
92.498946
 30
0.0
 11
35.8822
 21
111.699262
 31
0.0
  0
LINE
  8
0
  6
CONTINUOUS
 10
35.8822
 20
92.498946
 30
0.0
 11
52.26485
 21
102.136016
 31
0.0
  0
LINE
  8
0
  6
CONTINUOUS
 10
52.26485
 20
102.136016
 30
0.0
 11
52.26485
 21
121.336332
 31
0.0
  0
LINE
  8
0
  6
CONTINUOUS
 10
52.150797
 20
101.975376
 30
0.0
 11
52.377108
 21
101.870811
 31
0.0
  0
LINE
  8
0
  6
CONTINUOUS
 10
52.077754
 20
121.636116
 30
0.0
 11
52.377108
 21
121.497801
 31
0.0
  0
LINE
  8
0
  6
CONTINUOUS
 10
52.841393
 20
121.770916
 30
0.0
 11
48.85965
 21
123.610667
 31
0.0
  0
LINE
  8
0
  6
CONTINUOUS
 10
32.193836
 20
113.790951
 30
0.0
 11
30.210617
 21
114.70729
 31
0.0
  0
LINE
  8
0
  6
CONTINUOUS
 10
29.878985
 20
95.098555
 30
0.0
 11
35.529287
 21
92.487852
 31
0.0
  0
LINE
  8
0
  6
CONTINUOUS
 10
35.529287
 20
92.487852
 30
0.0
 11
35.529287
 21
111.688168
 31
0.0
  0
LINE
  8
0
  6
CONTINUOUS
 10
29.878985
 20
114.298871
 30
0.0
 11
35.529287
 21
111.688168
 31
0.0
  0
LINE
  8
0
  6
CONTINUOUS
 10
30.044801
 20
114.609749
 30
0.0
 11
35.695103
 21
111.999046
 31
0.0
  0
LINE
  8
0
  6
CONTINUOUS
 10
52.377108
 20
121.497801
 30
0.0
 11
52.841393
 21
121.770916
 31
0.0
  0
LINE
  8
0
  6
CONTINUOUS
 10
39.635905
 20
161.189795
 30
0.0
 11
39.635905
 21
161.377451
 31
0.0
  0
LINE
  8
0
  6
CONTINUOUS
 10
38.403588
 20
160.985206
 30
0.0
 11
38.403588
 21
160.464845
 31
0.0
  0
LINE
  8
0
  6
CONTINUOUS
 10
34.129648
 20
157.950757
 30
0.0
 11
34.129648
 21
158.059293
 31
0.0
  0
LINE
  8
0
  6
CONTINUOUS
 10
31.713296
 20
157.226634
 30
0.0
 11
31.713296
 21
157.167979
 31
0.0
  0
LINE
  8
0
  6
CONTINUOUS
 10
25.0
 20
159.840853
 30
0.0
 11
25.0
 21
53.172428
 31
0.0
  0
LINE
  8
0
  6
CONTINUOUS
 10
46.988688
 20
166.91958
 30
0.0
 11
46.988688
 21
166.97937
 31
0.0
  0
LINE
  8
0
  6
CONTINUOUS
 10
47.534722
 20
165.836235
 30
0.0
 11
47.534722
 21
166.23944
 31
0.0
  0
LINE
  8
0
  6
CONTINUOUS
 10
45.567401
 20
165.199308
 30
0.0
 11
45.567401
 21
164.678947
 31
0.0
  0
LINE
  8
0
  6
CONTINUOUS
 10
45.151979
 20
166.25137
 30
0.0
 11
45.151979
 21
164.434416
 31
0.0
  0
LINE
  8
0
  6
CONTINUOUS
 10
41.29346
 20
162.164859
 30
0.0
 11
41.29346
 21
162.273395
 31
0.0
  0
LINE
  8
0
  6
CONTINUOUS
 10
30.612883
 20
94.658156
 30
0.0
 11
30.612883
 21
50.579014
 31
0.0
  0
LINE
  8
0
  6
CONTINUOUS
 10
30.612883
 20
157.247439
 30
0.0
 11
30.612883
 21
114.521414
 31
0.0
  0
LINE
  8
0
  6
CONTINUOUS
 10
32.146636
 20
157.530967
 30
0.0
 11
32.146636
 21
157.718115
 31
0.0
  0
LINE
  8
0
  6
CONTINUOUS
 10
45.975474
 20
166.264683
 30
0.0
 11
45.975474
 21
166.188771
 31
0.0
  0
LINE
  8
0
  6
CONTINUOUS
 10
48.85965
 20
123.398079
 30
0.0
 11
48.85965
 21
129.412804
 31
0.0
  0
LINE
  8
0
  6
CONTINUOUS
 10
48.85965
 20
59.446474
 30
0.0
 11
48.85965
 21
100.038896
 31
0.0
  0
LINE
  8
0
  6
CONTINUOUS
 10
52.503865
 20
101.868665
 30
0.0
 11
52.96815
 21
102.14178
 31
0.0
  0
LINE
  8
0
  6
CONTINUOUS
 10
35.821861
 20
92.369911
 30
0.0
 11
49.876304
 21
100.637416
 31
0.0
  0
LINE
  8
0
  6
CONTINUOUS
 10
29.939941
 20
94.96915
 30
0.0
 11
35.590244
 21
92.358447
 31
0.0
  0
ARC
  8
0
  6
CONTINUOUS
 10
35.695103
 20
92.585393
 30
0.0
 40
0.25
 50
245.200864
 51
300.466108
  0
ENDSEC
  0
EOF
