  0
SECTION
  2
HEADER
  9
$ACADVER
  1
AC1009
  9
$INSBASE
 10
0.0
 20
0.0
 30
0.0
  9
$EXTMIN
 10
136.0
 20
356.846523
 30
0.0
  9
$EXTMAX
 10
185.102216
 20
450.667835
 30
0.0
  9
$LIMMIN
 10
136.0
 20
356.846523
  9
$LIMMAX
 10
185.102216
 20
450.667835
  9
$ORTHOMODE
 70
     0
  9
$REGENMODE
 70
     1
  9
$FILLMODE
 70
     1
  9
$QTEXTMODE
 70
     0
  9
$MIRRTEXT
 70
     1
  9
$DRAGMODE
 70
     2
  9
$LTSCALE
 40
1.0
  9
$OSMODE
 70
     0
  9
$ATTMODE
 70
     1
  9
$TEXTSIZE
 40
3.5
  9
$TRACEWID
 40
0.5
  9
$TEXTSTYLE
  7
STANDARD
  9
$CLAYER
  8
0
  9
$CELTYPE
  6
BYLAYER
  9
$CECOLOR
 62
   256
  9
$DIMSCALE
 40
1.0
  9
$DIMASZ
 40
0.18
  9
$DIMEXO
 40
0.0625
  9
$DIMDLI
 40
0.38
  9
$DIMRND
 40
0.0
  9
$DIMDLE
 40
0.0
  9
$DIMEXE
 40
0.18
  9
$DIMTP
 40
0.0
  9
$DIMTM
 40
0.0
  9
$DIMTXT
 40
0.18
  9
$DIMCEN
 40
0.09
  9
$DIMTSZ
 40
0.0
  9
$DIMTOL
 70
     0
  9
$DIMLIM
 70
     0
  9
$DIMTIH
 70
     1
  9
$DIMTOH
 70
     1
  9
$DIMSE1
 70
     0
  9
$DIMSE2
 70
     0
  9
$DIMTAD
 70
     0
  9
$DIMZIN
 70
     0
  9
$DIMBLK
  1

  9
$DIMASO
 70
     1
  9
$DIMSHO
 70
     1
  9
$DIMPOST
  1

  9
$DIMAPOST
  1

  9
$DIMALT
 70
     0
  9
$DIMALTD
 70
     2
  9
$DIMALTF
 40
25.4
  9
$DIMLFAC
 40
1.0
  9
$DIMTOFL
 70
     0
  9
$DIMTVP
 40
0.0
  9
$DIMTIX
 70
     0
  9
$DIMSOXD
 70
     0
  9
$DIMSAH
 70
     0
  9
$DIMBLK1
  1

  9
$DIMBLK2
  1

  9
$DIMSTYLE
  2
*UNNAMED
  9
$DIMCLRD
 70
     0
  9
$DIMCLRE
 70
     0
  9
$DIMCLRT
 70
     0
  9
$DIMTFAC
 40
1.0
  9
$DIMGAP
 40
0.09
  9
$LUNITS
 70
     2
  9
$LUPREC
 70
     4
  9
$SKETCHINC
 40
0.1
  9
$FILLETRAD
 40
2.0
  9
$AUNITS
 70
     0
  9
$AUPREC
 70
     0
  9
$MENU
  1
ACAD
  9
$ELEVATION
 40
0.0
  9
$PELEVATION
 40
0.0
  9
$THICKNESS
 40
0.0
  9
$LIMCHECK
 70
     0
  9
$BLIPMODE
 70
     1
  9
$CHAMFERA
 40
0.0
  9
$CHAMFERB
 40
0.0
  9
$SKPOLY
 70
     0
  9
$TDCREATE
 40
2450955.382381828
  9
$TDUPDATE
 40
2450955.382608796
  9
$TDINDWG
 40
0.0001424769
  9
$TDUSRTIMER
 40
0.0001424769
  9
$USRTIMER
 70
     1
  9
$ANGBASE
 50
0.0
  9
$ANGDIR
 70
     0
  9
$PDMODE
 70
     0
  9
$PDSIZE
 40
0.0
  9
$PLINEWID
 40
0.0
  9
$COORDS
 70
     2
  9
$SPLFRAME
 70
     0
  9
$SPLINETYPE
 70
     6
  9
$SPLINESEGS
 70
     8
  9
$ATTDIA
 70
     0
  9
$ATTREQ
 70
     1
  9
$HANDLING
 70
     0
  9
$HANDSEED
  5
0
  9
$SURFTAB1
 70
     6
  9
$SURFTAB2
 70
     6
  9
$SURFTYPE
 70
     6
  9
$SURFU
 70
     6
  9
$SURFV
 70
     6
  9
$UCSNAME
  2

  9
$UCSORG
 10
0.0
 20
0.0
 30
0.0
  9
$UCSXDIR
 10
1.0
 20
0.0
 30
0.0
  9
$UCSYDIR
 10
0.0
 20
1.0
 30
0.0
  9
$PUCSNAME
  2

  9
$PUCSORG
 10
0.0
 20
0.0
 30
0.0
  9
$PUCSXDIR
 10
1.0
 20
0.0
 30
0.0
  9
$PUCSYDIR
 10
0.0
 20
1.0
 30
0.0
  9
$USERI1
 70
     0
  9
$USERI2
 70
     0
  9
$USERI3
 70
     0
  9
$USERI4
 70
     0
  9
$USERI5
 70
     0
  9
$USERR1
 40
0.0
  9
$USERR2
 40
0.0
  9
$USERR3
 40
0.0
  9
$USERR4
 40
0.0
  9
$USERR5
 40
0.0
  9
$WORLDVIEW
 70
     1
  9
$SHADEDGE
 70
     3
  9
$SHADEDIF
 70
    70
  9
$TILEMODE
 70
     1
  9
$MAXACTVP
 70
    16
  9
$PINSBASE
 10
0.0
 20
0.0
 30
0.0
  9
$PLIMCHECK
 70
     0
  9
$PEXTMIN
 10
1.000000E+20
 20
1.000000E+20
 30
1.000000E+20
  9
$PEXTMAX
 10
-1.000000E+20
 20
-1.000000E+20
 30
-1.000000E+20
  9
$PLIMMIN
 10
0.0
 20
0.0
  9
$PLIMMAX
 10
420.0
 20
297.0
  9
$UNITMODE
 70
     0
  9
$VISRETAIN
 70
     0
  9
$PLINEGEN
 70
     0
  9
$PSLTSCALE
 70
     1
  9
$TREEDEPTH
 70
  3020
  9
$DWGCODEPAGE
  3
iso8859-1
  0
ENDSEC
  0
SECTION
  2
TABLES
  0
TABLE
  2
VPORT
 70
     2
  0
VPORT
  2
*ACTIVE
 70
     0
 10
0.0
 20
0.0
 11
1.0
 21
1.0
 12
226.167169
 22
399.358812
 13
0.0
 23
0.0
 14
1.0
 24
1.0
 15
0.0
 25
0.0
 16
0.0
 26
0.0
 36
1.0
 17
0.0
 27
0.0
 37
0.0
 40
128.90545
 41
1.748359
 42
50.0
 43
0.0
 44
0.0
 50
0.0
 51
0.0
 71
     0
 72
   100
 73
     1
 74
     0
 75
     0
 76
     0
 77
     0
 78
     0
  0
ENDTAB
  0
TABLE
  2
LTYPE
 70
     1
  0
LTYPE
  2
CONTINUOUS
 70
    64
  3
Solid line
 72
    65
 73
     0
 40
0.0
  0
ENDTAB
  0
TABLE
  2
LAYER
 70
     1
  0
LAYER
  2
0
 70
    64
 62
     7
  6
CONTINUOUS
  0
ENDTAB
  0
TABLE
  2
STYLE
 70
     1
  0
STYLE
  2
STANDARD
 70
     0
 40
0.0
 41
1.0
 50
0.0
 71
     0
 42
3.5
  3
txt
  4

  0
ENDTAB
  0
TABLE
  2
VIEW
 70
     0
  0
ENDTAB
  0
TABLE
  2
UCS
 70
     0
  0
ENDTAB
  0
TABLE
  2
APPID
 70
     1
  0
APPID
  2
ACAD
 70
    64
  0
ENDTAB
  0
TABLE
  2
DIMSTYLE
 70
     0
  0
ENDTAB
  0
ENDSEC
  0
SECTION
  2
BLOCKS
  0
ENDSEC
  0
SECTION
  2
ENTITIES
  0
POLYLINE
  8
0
  6
CONTINUOUS
 66
     1
 10
0.0
 20
0.0
 30
0.0
  0
VERTEX
  8
0
  6
CONTINUOUS
 10
168.070983
 20
403.570351
 30
0.0
  0
VERTEX
  8
0
  6
CONTINUOUS
 10
168.095999
 20
403.555031
 30
0.0
  0
VERTEX
  8
0
  6
CONTINUOUS
 10
168.12367
 20
403.535497
 30
0.0
  0
VERTEX
  8
0
  6
CONTINUOUS
 10
168.147333
 20
403.513406
 30
0.0
  0
VERTEX
  8
0
  6
CONTINUOUS
 10
168.151287
 20
403.505574
 30
0.0
  0
VERTEX
  8
0
  6
CONTINUOUS
 10
168.152293
 20
403.501853
 30
0.0
  0
VERTEX
  8
0
  6
CONTINUOUS
 10
168.152201
 20
403.50231
 30
0.0
  0
VERTEX
  8
0
  6
CONTINUOUS
 10
168.15209
 20
403.502872
 30
0.0
  0
VERTEX
  8
0
  6
CONTINUOUS
 10
168.151986
 20
403.503399
 30
0.0
  0
VERTEX
  8
0
  6
CONTINUOUS
 10
168.151874
 20
403.503968
 30
0.0
  0
VERTEX
  8
0
  6
CONTINUOUS
 10
168.151728
 20
403.504708
 30
0.0
  0
VERTEX
  8
0
  6
CONTINUOUS
 10
168.151499
 20
403.505852
 30
0.0
  0
VERTEX
  8
0
  6
CONTINUOUS
 10
168.150615
 20
403.510071
 30
0.0
  0
SEQEND
  8
0
  6
CONTINUOUS
  0
POLYLINE
  8
0
  6
CONTINUOUS
 66
     1
 10
0.0
 20
0.0
 30
0.0
  0
VERTEX
  8
0
  6
CONTINUOUS
 10
167.219512
 20
406.795366
 30
0.0
  0
VERTEX
  8
0
  6
CONTINUOUS
 10
166.489675
 20
407.224092
 30
0.0
  0
SEQEND
  8
0
  6
CONTINUOUS
  0
POLYLINE
  8
0
  6
CONTINUOUS
 66
     1
 10
0.0
 20
0.0
 30
0.0
  0
VERTEX
  8
0
  6
CONTINUOUS
 10
167.446164
 20
406.487409
 30
0.0
  0
VERTEX
  8
0
  6
CONTINUOUS
 10
167.798045
 20
405.000256
 30
0.0
  0
VERTEX
  8
0
  6
CONTINUOUS
 10
168.149926
 20
403.513102
 30
0.0
  0
SEQEND
  8
0
  6
CONTINUOUS
  0
POLYLINE
  8
0
  6
CONTINUOUS
 66
     1
 10
0.0
 20
0.0
 30
0.0
  0
VERTEX
  8
0
  6
CONTINUOUS
 10
174.345013
 20
401.682832
 30
0.0
  0
VERTEX
  8
0
  6
CONTINUOUS
 10
174.340895
 20
401.737812
 30
0.0
  0
VERTEX
  8
0
  6
CONTINUOUS
 10
174.287941
 20
401.874017
 30
0.0
  0
VERTEX
  8
0
  6
CONTINUOUS
 10
174.165524
 20
401.993722
 30
0.0
  0
VERTEX
  8
0
  6
CONTINUOUS
 10
174.148429
 20
402.00425
 30
0.0
  0
SEQEND
  8
0
  6
CONTINUOUS
  0
POLYLINE
  8
0
  6
CONTINUOUS
 66
     1
 10
0.0
 20
0.0
 30
0.0
  0
VERTEX
  8
0
  6
CONTINUOUS
 10
178.314914
 20
387.706674
 30
0.0
  0
VERTEX
  8
0
  6
CONTINUOUS
 10
178.31494
 20
387.709914
 30
0.0
  0
SEQEND
  8
0
  6
CONTINUOUS
  0
POLYLINE
  8
0
  6
CONTINUOUS
 66
     1
 10
0.0
 20
0.0
 30
0.0
  0
VERTEX
  8
0
  6
CONTINUOUS
 10
178.31494
 20
387.709912
 30
0.0
  0
VERTEX
  8
0
  6
CONTINUOUS
 10
178.31494
 20
392.628494
 30
0.0
  0
VERTEX
  8
0
  6
CONTINUOUS
 10
178.31494
 20
397.547077
 30
0.0
  0
SEQEND
  8
0
  6
CONTINUOUS
  0
POLYLINE
  8
0
  6
CONTINUOUS
 66
     1
 10
0.0
 20
0.0
 30
0.0
  0
VERTEX
  8
0
  6
CONTINUOUS
 10
178.1492
 20
387.174227
 30
0.0
  0
VERTEX
  8
0
  6
CONTINUOUS
 10
178.063299
 20
387.03842
 30
0.0
  0
VERTEX
  8
0
  6
CONTINUOUS
 10
177.955339
 20
386.912388
 30
0.0
  0
VERTEX
  8
0
  6
CONTINUOUS
 10
177.795314
 20
386.779515
 30
0.0
  0
VERTEX
  8
0
  6
CONTINUOUS
 10
177.776742
 20
386.767258
 30
0.0
  0
VERTEX
  8
0
  6
CONTINUOUS
 10
177.770231
 20
386.763248
 30
0.0
  0
SEQEND
  8
0
  6
CONTINUOUS
  0
POLYLINE
  8
0
  6
CONTINUOUS
 66
     1
 10
0.0
 20
0.0
 30
0.0
  0
VERTEX
  8
0
  6
CONTINUOUS
 10
177.767432
 20
386.761602
 30
0.0
  0
VERTEX
  8
0
  6
CONTINUOUS
 10
177.770231
 20
386.763248
 30
0.0
  0
SEQEND
  8
0
  6
CONTINUOUS
  0
POLYLINE
  8
0
  6
CONTINUOUS
 66
     1
 10
0.0
 20
0.0
 30
0.0
  0
VERTEX
  8
0
  6
CONTINUOUS
 10
158.144041
 20
380.444058
 30
0.0
  0
VERTEX
  8
0
  6
CONTINUOUS
 10
158.134135
 20
380.438443
 30
0.0
  0
VERTEX
  8
0
  6
CONTINUOUS
 10
158.124201
 20
380.433021
 30
0.0
  0
VERTEX
  8
0
  6
CONTINUOUS
 10
158.114243
 20
380.427793
 30
0.0
  0
VERTEX
  8
0
  6
CONTINUOUS
 10
158.104261
 20
380.42276
 30
0.0
  0
VERTEX
  8
0
  6
CONTINUOUS
 10
158.094257
 20
380.417922
 30
0.0
  0
VERTEX
  8
0
  6
CONTINUOUS
 10
158.084234
 20
380.413281
 30
0.0
  0
VERTEX
  8
0
  6
CONTINUOUS
 10
158.074192
 20
380.408838
 30
0.0
  0
VERTEX
  8
0
  6
CONTINUOUS
 10
158.064135
 20
380.404592
 30
0.0
  0
VERTEX
  8
0
  6
CONTINUOUS
 10
158.054062
 20
380.400545
 30
0.0
  0
VERTEX
  8
0
  6
CONTINUOUS
 10
158.043966
 20
380.396694
 30
0.0
  0
VERTEX
  8
0
  6
CONTINUOUS
 10
158.033821
 20
380.39303
 30
0.0
  0
VERTEX
  8
0
  6
CONTINUOUS
 10
158.023628
 20
380.389556
 30
0.0
  0
VERTEX
  8
0
  6
CONTINUOUS
 10
158.013391
 20
380.386277
 30
0.0
  0
VERTEX
  8
0
  6
CONTINUOUS
 10
158.00311
 20
380.383194
 30
0.0
  0
VERTEX
  8
0
  6
CONTINUOUS
 10
157.992789
 20
380.380311
 30
0.0
  0
VERTEX
  8
0
  6
CONTINUOUS
 10
157.982431
 20
380.377631
 30
0.0
  0
VERTEX
  8
0
  6
CONTINUOUS
 10
157.972036
 20
380.375157
 30
0.0
  0
VERTEX
  8
0
  6
CONTINUOUS
 10
157.961609
 20
380.372893
 30
0.0
  0
VERTEX
  8
0
  6
CONTINUOUS
 10
157.951151
 20
380.37084
 30
0.0
  0
VERTEX
  8
0
  6
CONTINUOUS
 10
157.940664
 20
380.369003
 30
0.0
  0
VERTEX
  8
0
  6
CONTINUOUS
 10
157.930152
 20
380.367384
 30
0.0
  0
VERTEX
  8
0
  6
CONTINUOUS
 10
157.919617
 20
380.365986
 30
0.0
  0
VERTEX
  8
0
  6
CONTINUOUS
 10
157.909061
 20
380.364811
 30
0.0
  0
VERTEX
  8
0
  6
CONTINUOUS
 10
157.898486
 20
380.363864
 30
0.0
  0
VERTEX
  8
0
  6
CONTINUOUS
 10
157.887897
 20
380.363147
 30
0.0
  0
VERTEX
  8
0
  6
CONTINUOUS
 10
157.877307
 20
380.362663
 30
0.0
  0
VERTEX
  8
0
  6
CONTINUOUS
 10
157.86672
 20
380.362414
 30
0.0
  0
VERTEX
  8
0
  6
CONTINUOUS
 10
157.85614
 20
380.362403
 30
0.0
  0
VERTEX
  8
0
  6
CONTINUOUS
 10
157.845568
 20
380.362631
 30
0.0
  0
VERTEX
  8
0
  6
CONTINUOUS
 10
157.83501
 20
380.363101
 30
0.0
  0
VERTEX
  8
0
  6
CONTINUOUS
 10
157.824468
 20
380.363815
 30
0.0
  0
VERTEX
  8
0
  6
CONTINUOUS
 10
157.813946
 20
380.364774
 30
0.0
  0
VERTEX
  8
0
  6
CONTINUOUS
 10
157.803447
 20
380.365981
 30
0.0
  0
VERTEX
  8
0
  6
CONTINUOUS
 10
157.792974
 20
380.367438
 30
0.0
  0
VERTEX
  8
0
  6
CONTINUOUS
 10
157.782531
 20
380.369146
 30
0.0
  0
VERTEX
  8
0
  6
CONTINUOUS
 10
157.772121
 20
380.371109
 30
0.0
  0
VERTEX
  8
0
  6
CONTINUOUS
 10
157.761747
 20
380.373327
 30
0.0
  0
VERTEX
  8
0
  6
CONTINUOUS
 10
157.751413
 20
380.375804
 30
0.0
  0
VERTEX
  8
0
  6
CONTINUOUS
 10
157.741139
 20
380.378536
 30
0.0
  0
VERTEX
  8
0
  6
CONTINUOUS
 10
157.730957
 20
380.381517
 30
0.0
  0
VERTEX
  8
0
  6
CONTINUOUS
 10
157.720871
 20
380.384745
 30
0.0
  0
VERTEX
  8
0
  6
CONTINUOUS
 10
157.710884
 20
380.388218
 30
0.0
  0
VERTEX
  8
0
  6
CONTINUOUS
 10
157.701001
 20
380.391935
 30
0.0
  0
VERTEX
  8
0
  6
CONTINUOUS
 10
157.691224
 20
380.395895
 30
0.0
  0
VERTEX
  8
0
  6
CONTINUOUS
 10
157.681556
 20
380.400096
 30
0.0
  0
VERTEX
  8
0
  6
CONTINUOUS
 10
157.672002
 20
380.404537
 30
0.0
  0
VERTEX
  8
0
  6
CONTINUOUS
 10
157.662564
 20
380.409218
 30
0.0
  0
VERTEX
  8
0
  6
CONTINUOUS
 10
157.653246
 20
380.414136
 30
0.0
  0
VERTEX
  8
0
  6
CONTINUOUS
 10
157.644052
 20
380.41929
 30
0.0
  0
SEQEND
  8
0
  6
CONTINUOUS
  0
POLYLINE
  8
0
  6
CONTINUOUS
 66
     1
 10
0.0
 20
0.0
 30
0.0
  0
VERTEX
  8
0
  6
CONTINUOUS
 10
181.419241
 20
381.739511
 30
0.0
  0
VERTEX
  8
0
  6
CONTINUOUS
 10
181.388412
 20
381.777353
 30
0.0
  0
VERTEX
  8
0
  6
CONTINUOUS
 10
181.365037
 20
381.799184
 30
0.0
  0
VERTEX
  8
0
  6
CONTINUOUS
 10
181.354561
 20
381.807466
 30
0.0
  0
VERTEX
  8
0
  6
CONTINUOUS
 10
181.344426
 20
381.814381
 30
0.0
  0
SEQEND
  8
0
  6
CONTINUOUS
  0
POLYLINE
  8
0
  6
CONTINUOUS
 66
     1
 10
0.0
 20
0.0
 30
0.0
  0
VERTEX
  8
0
  6
CONTINUOUS
 10
181.34443
 20
381.814378
 30
0.0
  0
VERTEX
  8
0
  6
CONTINUOUS
 10
180.557388
 20
382.301067
 30
0.0
  0
SEQEND
  8
0
  6
CONTINUOUS
  0
POLYLINE
  8
0
  6
CONTINUOUS
 66
     1
 10
0.0
 20
0.0
 30
0.0
  0
VERTEX
  8
0
  6
CONTINUOUS
 10
178.435326
 20
383.613301
 30
0.0
  0
VERTEX
  8
0
  6
CONTINUOUS
 10
177.345316
 20
384.287339
 30
0.0
  0
SEQEND
  8
0
  6
CONTINUOUS
  0
POLYLINE
  8
0
  6
CONTINUOUS
 66
     1
 10
0.0
 20
0.0
 30
0.0
  0
VERTEX
  8
0
  6
CONTINUOUS
 10
155.703562
 20
373.317851
 30
0.0
  0
VERTEX
  8
0
  6
CONTINUOUS
 10
159.25875
 20
371.406116
 30
0.0
  0
VERTEX
  8
0
  6
CONTINUOUS
 10
159.873766
 20
371.075403
 30
0.0
  0
SEQEND
  8
0
  6
CONTINUOUS
  0
POLYLINE
  8
0
  6
CONTINUOUS
 66
     1
 10
0.0
 20
0.0
 30
0.0
  0
VERTEX
  8
0
  6
CONTINUOUS
 10
163.047234
 20
390.728308
 30
0.0
  0
VERTEX
  8
0
  6
CONTINUOUS
 10
162.484256
 20
391.076441
 30
0.0
  0
SEQEND
  8
0
  6
CONTINUOUS
  0
POLYLINE
  8
0
  6
CONTINUOUS
 66
     1
 10
0.0
 20
0.0
 30
0.0
  0
VERTEX
  8
0
  6
CONTINUOUS
 10
173.009482
 20
383.309428
 30
0.0
  0
VERTEX
  8
0
  6
CONTINUOUS
 10
176.608851
 20
381.373936
 30
0.0
  0
VERTEX
  8
0
  6
CONTINUOUS
 10
178.191215
 20
380.523049
 30
0.0
  0
SEQEND
  8
0
  6
CONTINUOUS
  0
POLYLINE
  8
0
  6
CONTINUOUS
 66
     1
 10
0.0
 20
0.0
 30
0.0
  0
VERTEX
  8
0
  6
CONTINUOUS
 10
178.314914
 20
387.706674
 30
0.0
  0
VERTEX
  8
0
  6
CONTINUOUS
 10
178.314523
 20
387.695021
 30
0.0
  0
VERTEX
  8
0
  6
CONTINUOUS
 10
178.313599
 20
387.679815
 30
0.0
  0
VERTEX
  8
0
  6
CONTINUOUS
 10
178.309903
 20
387.640203
 30
0.0
  0
VERTEX
  8
0
  6
CONTINUOUS
 10
178.293481
 20
387.536264
 30
0.0
  0
VERTEX
  8
0
  6
CONTINUOUS
 10
178.219975
 20
387.308205
 30
0.0
  0
VERTEX
  8
0
  6
CONTINUOUS
 10
178.1492
 20
387.174227
 30
0.0
  0
SEQEND
  8
0
  6
CONTINUOUS
  0
POLYLINE
  8
0
  6
CONTINUOUS
 66
     1
 10
0.0
 20
0.0
 30
0.0
  0
VERTEX
  8
0
  6
CONTINUOUS
 10
178.198319
 20
397.756177
 30
0.0
  0
VERTEX
  8
0
  6
CONTINUOUS
 10
178.202697
 20
397.753352
 30
0.0
  0
VERTEX
  8
0
  6
CONTINUOUS
 10
178.207089
 20
397.750314
 30
0.0
  0
VERTEX
  8
0
  6
CONTINUOUS
 10
178.216501
 20
397.743244
 30
0.0
  0
VERTEX
  8
0
  6
CONTINUOUS
 10
178.238225
 20
397.7242
 30
0.0
  0
VERTEX
  8
0
  6
CONTINUOUS
 10
178.282328
 20
397.666512
 30
0.0
  0
VERTEX
  8
0
  6
CONTINUOUS
 10
178.306221
 20
397.605074
 30
0.0
  0
VERTEX
  8
0
  6
CONTINUOUS
 10
178.312774
 20
397.572997
 30
0.0
  0
VERTEX
  8
0
  6
CONTINUOUS
 10
178.314362
 20
397.559594
 30
0.0
  0
VERTEX
  8
0
  6
CONTINUOUS
 10
178.31494
 20
397.547075
 30
0.0
  0
SEQEND
  8
0
  6
CONTINUOUS
  0
POLYLINE
  8
0
  6
CONTINUOUS
 66
     1
 10
0.0
 20
0.0
 30
0.0
  0
VERTEX
  8
0
  6
CONTINUOUS
 10
185.102216
 20
404.857529
 30
0.0
  0
VERTEX
  8
0
  6
CONTINUOUS
 10
185.102125
 20
404.867048
 30
0.0
  0
VERTEX
  8
0
  6
CONTINUOUS
 10
185.101838
 20
404.877751
 30
0.0
  0
VERTEX
  8
0
  6
CONTINUOUS
 10
185.100603
 20
404.902957
 30
0.0
  0
VERTEX
  8
0
  6
CONTINUOUS
 10
185.095175
 20
404.96766
 30
0.0
  0
VERTEX
  8
0
  6
CONTINUOUS
 10
185.070635
 20
405.138351
 30
0.0
  0
VERTEX
  8
0
  6
CONTINUOUS
 10
184.962875
 20
405.517067
 30
0.0
  0
VERTEX
  8
0
  6
CONTINUOUS
 10
184.856374
 20
405.728216
 30
0.0
  0
VERTEX
  8
0
  6
CONTINUOUS
 10
184.723777
 20
405.913092
 30
0.0
  0
VERTEX
  8
0
  6
CONTINUOUS
 10
184.614088
 20
406.03364
 30
0.0
  0
VERTEX
  8
0
  6
CONTINUOUS
 10
184.521748
 20
406.117455
 30
0.0
  0
VERTEX
  8
0
  6
CONTINUOUS
 10
184.410703
 20
406.195595
 30
0.0
  0
SEQEND
  8
0
  6
CONTINUOUS
  0
POLYLINE
  8
0
  6
CONTINUOUS
 66
     1
 10
0.0
 20
0.0
 30
0.0
  0
VERTEX
  8
0
  6
CONTINUOUS
 10
147.403832
 20
356.998878
 30
0.0
  0
VERTEX
  8
0
  6
CONTINUOUS
 10
147.500066
 20
356.952472
 30
0.0
  0
VERTEX
  8
0
  6
CONTINUOUS
 10
147.593829
 20
356.918792
 30
0.0
  0
VERTEX
  8
0
  6
CONTINUOUS
 10
147.754775
 20
356.878323
 30
0.0
  0
VERTEX
  8
0
  6
CONTINUOUS
 10
148.092561
 20
356.846523
 30
0.0
  0
VERTEX
  8
0
  6
CONTINUOUS
 10
148.559617
 20
356.926067
 30
0.0
  0
VERTEX
  8
0
  6
CONTINUOUS
 10
148.818696
 20
357.024222
 30
0.0
  0
VERTEX
  8
0
  6
CONTINUOUS
 10
148.871579
 20
357.049397
 30
0.0
  0
VERTEX
  8
0
  6
CONTINUOUS
 10
148.892541
 20
357.060251
 30
0.0
  0
VERTEX
  8
0
  6
CONTINUOUS
 10
148.908388
 20
357.069043
 30
0.0
  0
SEQEND
  8
0
  6
CONTINUOUS
  0
POLYLINE
  8
0
  6
CONTINUOUS
 66
     1
 10
0.0
 20
0.0
 30
0.0
  0
VERTEX
  8
0
  6
CONTINUOUS
 10
183.604459
 20
377.100845
 30
0.0
  0
VERTEX
  8
0
  6
CONTINUOUS
 10
183.614297
 20
377.106761
 30
0.0
  0
VERTEX
  8
0
  6
CONTINUOUS
 10
183.625488
 20
377.113757
 30
0.0
  0
VERTEX
  8
0
  6
CONTINUOUS
 10
183.652054
 20
377.13113
 30
0.0
  0
VERTEX
  8
0
  6
CONTINUOUS
 10
183.720639
 20
377.179021
 30
0.0
  0
VERTEX
  8
0
  6
CONTINUOUS
 10
183.901043
 20
377.3196
 30
0.0
  0
VERTEX
  8
0
  6
CONTINUOUS
 10
184.296763
 20
377.713607
 30
0.0
  0
VERTEX
  8
0
  6
CONTINUOUS
 10
184.645707
 20
378.231049
 30
0.0
  0
SEQEND
  8
0
  6
CONTINUOUS
  0
POLYLINE
  8
0
  6
CONTINUOUS
 66
     1
 10
0.0
 20
0.0
 30
0.0
  0
VERTEX
  8
0
  6
CONTINUOUS
 10
183.604459
 20
377.100845
 30
0.0
  0
VERTEX
  8
0
  6
CONTINUOUS
 10
183.601277
 20
377.098992
 30
0.0
  0
SEQEND
  8
0
  6
CONTINUOUS
  0
POLYLINE
  8
0
  6
CONTINUOUS
 66
     1
 10
0.0
 20
0.0
 30
0.0
  0
VERTEX
  8
0
  6
CONTINUOUS
 10
185.102216
 20
379.698695
 30
0.0
  0
VERTEX
  8
0
  6
CONTINUOUS
 10
185.102202
 20
379.695008
 30
0.0
  0
SEQEND
  8
0
  6
CONTINUOUS
  0
POLYLINE
  8
0
  6
CONTINUOUS
 66
     1
 10
0.0
 20
0.0
 30
0.0
  0
VERTEX
  8
0
  6
CONTINUOUS
 10
184.645707
 20
378.231049
 30
0.0
  0
VERTEX
  8
0
  6
CONTINUOUS
 10
184.950336
 20
378.882683
 30
0.0
  0
VERTEX
  8
0
  6
CONTINUOUS
 10
185.091823
 20
379.547882
 30
0.0
  0
VERTEX
  8
0
  6
CONTINUOUS
 10
185.100506
 20
379.650328
 30
0.0
  0
VERTEX
  8
0
  6
CONTINUOUS
 10
185.101812
 20
379.677507
 30
0.0
  0
VERTEX
  8
0
  6
CONTINUOUS
 10
185.102202
 20
379.695008
 30
0.0
  0
SEQEND
  8
0
  6
CONTINUOUS
  0
POLYLINE
  8
0
  6
CONTINUOUS
 66
     1
 10
0.0
 20
0.0
 30
0.0
  0
VERTEX
  8
0
  6
CONTINUOUS
 10
184.41068
 20
406.195609
 30
0.0
  0
VERTEX
  8
0
  6
CONTINUOUS
 10
179.060888
 20
409.393081
 30
0.0
  0
VERTEX
  8
0
  6
CONTINUOUS
 10
173.711176
 20
412.590505
 30
0.0
  0
SEQEND
  8
0
  6
CONTINUOUS
  0
POLYLINE
  8
0
  6
CONTINUOUS
 66
     1
 10
0.0
 20
0.0
 30
0.0
  0
VERTEX
  8
0
  6
CONTINUOUS
 10
136.515915
 20
363.067485
 30
0.0
  0
VERTEX
  8
0
  6
CONTINUOUS
 10
141.959821
 20
360.033211
 30
0.0
  0
VERTEX
  8
0
  6
CONTINUOUS
 10
147.40381
 20
356.998891
 30
0.0
  0
SEQEND
  8
0
  6
CONTINUOUS
  0
POLYLINE
  8
0
  6
CONTINUOUS
 66
     1
 10
0.0
 20
0.0
 30
0.0
  0
VERTEX
  8
0
  6
CONTINUOUS
 10
185.102216
 20
379.698694
 30
0.0
  0
VERTEX
  8
0
  6
CONTINUOUS
 10
185.102216
 20
392.278112
 30
0.0
  0
VERTEX
  8
0
  6
CONTINUOUS
 10
185.102216
 20
404.85753
 30
0.0
  0
SEQEND
  8
0
  6
CONTINUOUS
  0
POLYLINE
  8
0
  6
CONTINUOUS
 66
     1
 10
0.0
 20
0.0
 30
0.0
  0
VERTEX
  8
0
  6
CONTINUOUS
 10
148.908388
 20
357.069043
 30
0.0
  0
VERTEX
  8
0
  6
CONTINUOUS
 10
166.254833
 20
367.084017
 30
0.0
  0
VERTEX
  8
0
  6
CONTINUOUS
 10
183.601277
 20
377.098992
 30
0.0
  0
SEQEND
  8
0
  6
CONTINUOUS
  0
POLYLINE
  8
0
  6
CONTINUOUS
 66
     1
 10
0.0
 20
0.0
 30
0.0
  0
VERTEX
  8
0
  6
CONTINUOUS
 10
167.198927
 20
406.538409
 30
0.0
  0
VERTEX
  8
0
  6
CONTINUOUS
 10
167.339594
 20
406.636693
 30
0.0
  0
SEQEND
  8
0
  6
CONTINUOUS
  0
POLYLINE
  8
0
  6
CONTINUOUS
 66
     1
 10
0.0
 20
0.0
 30
0.0
  0
VERTEX
  8
0
  6
CONTINUOUS
 10
167.451013
 20
406.445362
 30
0.0
  0
VERTEX
  8
0
  6
CONTINUOUS
 10
167.339594
 20
406.636693
 30
0.0
  0
SEQEND
  8
0
  6
CONTINUOUS
  0
POLYLINE
  8
0
  6
CONTINUOUS
 66
     1
 10
0.0
 20
0.0
 30
0.0
  0
VERTEX
  8
0
  6
CONTINUOUS
 10
167.339594
 20
406.636693
 30
0.0
  0
VERTEX
  8
0
  6
CONTINUOUS
 10
167.198936
 20
406.805724
 30
0.0
  0
SEQEND
  8
0
  6
CONTINUOUS
  0
POLYLINE
  8
0
  6
CONTINUOUS
 66
     1
 10
0.0
 20
0.0
 30
0.0
  0
VERTEX
  8
0
  6
CONTINUOUS
 10
168.40138
 20
403.273347
 30
0.0
  0
VERTEX
  8
0
  6
CONTINUOUS
 10
168.245734
 20
403.33414
 30
0.0
  0
SEQEND
  8
0
  6
CONTINUOUS
  0
POLYLINE
  8
0
  6
CONTINUOUS
 66
     1
 10
0.0
 20
0.0
 30
0.0
  0
VERTEX
  8
0
  6
CONTINUOUS
 10
168.245734
 20
403.33414
 30
0.0
  0
VERTEX
  8
0
  6
CONTINUOUS
 10
168.148167
 20
403.519255
 30
0.0
  0
SEQEND
  8
0
  6
CONTINUOUS
  0
POLYLINE
  8
0
  6
CONTINUOUS
 66
     1
 10
0.0
 20
0.0
 30
0.0
  0
VERTEX
  8
0
  6
CONTINUOUS
 10
168.154775
 20
403.471055
 30
0.0
  0
VERTEX
  8
0
  6
CONTINUOUS
 10
168.245734
 20
403.33414
 30
0.0
  0
SEQEND
  8
0
  6
CONTINUOUS
  0
POLYLINE
  8
0
  6
CONTINUOUS
 66
     1
 10
0.0
 20
0.0
 30
0.0
  0
VERTEX
  8
0
  6
CONTINUOUS
 10
168.080784
 20
403.087411
 30
0.0
  0
VERTEX
  8
0
  6
CONTINUOUS
 10
168.245734
 20
403.33414
 30
0.0
  0
SEQEND
  8
0
  6
CONTINUOUS
  0
POLYLINE
  8
0
  6
CONTINUOUS
 66
     1
 10
0.0
 20
0.0
 30
0.0
  0
VERTEX
  8
0
  6
CONTINUOUS
 10
155.96178
 20
396.09134
 30
0.0
  0
VERTEX
  8
0
  6
CONTINUOUS
 10
155.961406
 20
396.242755
 30
0.0
  0
SEQEND
  8
0
  6
CONTINUOUS
  0
POLYLINE
  8
0
  6
CONTINUOUS
 66
     1
 10
0.0
 20
0.0
 30
0.0
  0
VERTEX
  8
0
  6
CONTINUOUS
 10
155.961406
 20
396.242755
 30
0.0
  0
VERTEX
  8
0
  6
CONTINUOUS
 10
156.372586
 20
396.32768
 30
0.0
  0
SEQEND
  8
0
  6
CONTINUOUS
  0
POLYLINE
  8
0
  6
CONTINUOUS
 66
     1
 10
0.0
 20
0.0
 30
0.0
  0
VERTEX
  8
0
  6
CONTINUOUS
 10
155.963276
 20
396.43229
 30
0.0
  0
VERTEX
  8
0
  6
CONTINUOUS
 10
155.961406
 20
396.242755
 30
0.0
  0
SEQEND
  8
0
  6
CONTINUOUS
  0
POLYLINE
  8
0
  6
CONTINUOUS
 66
     1
 10
0.0
 20
0.0
 30
0.0
  0
VERTEX
  8
0
  6
CONTINUOUS
 10
155.551767
 20
396.331806
 30
0.0
  0
VERTEX
  8
0
  6
CONTINUOUS
 10
155.961406
 20
396.242755
 30
0.0
  0
SEQEND
  8
0
  6
CONTINUOUS
  0
POLYLINE
  8
0
  6
CONTINUOUS
 66
     1
 10
0.0
 20
0.0
 30
0.0
  0
VERTEX
  8
0
  6
CONTINUOUS
 10
155.987668
 20
400.082213
 30
0.0
  0
VERTEX
  8
0
  6
CONTINUOUS
 10
155.98584
 20
399.825941
 30
0.0
  0
SEQEND
  8
0
  6
CONTINUOUS
  0
POLYLINE
  8
0
  6
CONTINUOUS
 66
     1
 10
0.0
 20
0.0
 30
0.0
  0
VERTEX
  8
0
  6
CONTINUOUS
 10
156.217054
 20
400.198022
 30
0.0
  0
VERTEX
  8
0
  6
CONTINUOUS
 10
155.987668
 20
400.082213
 30
0.0
  0
SEQEND
  8
0
  6
CONTINUOUS
  0
POLYLINE
  8
0
  6
CONTINUOUS
 66
     1
 10
0.0
 20
0.0
 30
0.0
  0
VERTEX
  8
0
  6
CONTINUOUS
 10
155.758057
 20
400.20033
 30
0.0
  0
VERTEX
  8
0
  6
CONTINUOUS
 10
155.987668
 20
400.082213
 30
0.0
  0
SEQEND
  8
0
  6
CONTINUOUS
  0
POLYLINE
  8
0
  6
CONTINUOUS
 66
     1
 10
0.0
 20
0.0
 30
0.0
  0
VERTEX
  8
0
  6
CONTINUOUS
 10
155.98584
 20
399.825941
 30
0.0
  0
VERTEX
  8
0
  6
CONTINUOUS
 10
155.635573
 20
399.883748
 30
0.0
  0
SEQEND
  8
0
  6
CONTINUOUS
  0
POLYLINE
  8
0
  6
CONTINUOUS
 66
     1
 10
0.0
 20
0.0
 30
0.0
  0
VERTEX
  8
0
  6
CONTINUOUS
 10
156.335785
 20
399.880228
 30
0.0
  0
VERTEX
  8
0
  6
CONTINUOUS
 10
155.98584
 20
399.825941
 30
0.0
  0
SEQEND
  8
0
  6
CONTINUOUS
  0
POLYLINE
  8
0
  6
CONTINUOUS
 66
     1
 10
0.0
 20
0.0
 30
0.0
  0
VERTEX
  8
0
  6
CONTINUOUS
 10
155.963276
 20
396.43229
 30
0.0
  0
VERTEX
  8
0
  6
CONTINUOUS
 10
156.313221
 20
396.486577
 30
0.0
  0
SEQEND
  8
0
  6
CONTINUOUS
  0
POLYLINE
  8
0
  6
CONTINUOUS
 66
     1
 10
0.0
 20
0.0
 30
0.0
  0
VERTEX
  8
0
  6
CONTINUOUS
 10
155.613009
 20
396.490097
 30
0.0
  0
VERTEX
  8
0
  6
CONTINUOUS
 10
155.963276
 20
396.43229
 30
0.0
  0
SEQEND
  8
0
  6
CONTINUOUS
  0
POLYLINE
  8
0
  6
CONTINUOUS
 66
     1
 10
0.0
 20
0.0
 30
0.0
  0
VERTEX
  8
0
  6
CONTINUOUS
 10
156.217054
 20
400.198022
 30
0.0
  0
VERTEX
  8
0
  6
CONTINUOUS
 10
156.335785
 20
399.880228
 30
0.0
  0
SEQEND
  8
0
  6
CONTINUOUS
  0
POLYLINE
  8
0
  6
CONTINUOUS
 66
     1
 10
0.0
 20
0.0
 30
0.0
  0
VERTEX
  8
0
  6
CONTINUOUS
 10
155.988341
 20
400.43577
 30
0.0
  0
VERTEX
  8
0
  6
CONTINUOUS
 10
156.217054
 20
400.198022
 30
0.0
  0
SEQEND
  8
0
  6
CONTINUOUS
  0
POLYLINE
  8
0
  6
CONTINUOUS
 66
     1
 10
0.0
 20
0.0
 30
0.0
  0
VERTEX
  8
0
  6
CONTINUOUS
 10
167.198927
 20
406.538409
 30
0.0
  0
VERTEX
  8
0
  6
CONTINUOUS
 10
166.970214
 20
406.776157
 30
0.0
  0
SEQEND
  8
0
  6
CONTINUOUS
  0
POLYLINE
  8
0
  6
CONTINUOUS
 66
     1
 10
0.0
 20
0.0
 30
0.0
  0
VERTEX
  8
0
  6
CONTINUOUS
 10
167.317657
 20
406.220615
 30
0.0
  0
VERTEX
  8
0
  6
CONTINUOUS
 10
167.198927
 20
406.538409
 30
0.0
  0
SEQEND
  8
0
  6
CONTINUOUS
  0
POLYLINE
  8
0
  6
CONTINUOUS
 66
     1
 10
0.0
 20
0.0
 30
0.0
  0
VERTEX
  8
0
  6
CONTINUOUS
 10
167.198936
 20
406.805724
 30
0.0
  0
VERTEX
  8
0
  6
CONTINUOUS
 10
167.21942
 20
406.79542
 30
0.0
  0
SEQEND
  8
0
  6
CONTINUOUS
  0
POLYLINE
  8
0
  6
CONTINUOUS
 66
     1
 10
0.0
 20
0.0
 30
0.0
  0
VERTEX
  8
0
  6
CONTINUOUS
 10
166.970214
 20
406.776157
 30
0.0
  0
VERTEX
  8
0
  6
CONTINUOUS
 10
167.198936
 20
406.805724
 30
0.0
  0
SEQEND
  8
0
  6
CONTINUOUS
  0
POLYLINE
  8
0
  6
CONTINUOUS
 66
     1
 10
0.0
 20
0.0
 30
0.0
  0
VERTEX
  8
0
  6
CONTINUOUS
 10
168.13866
 20
403.559333
 30
0.0
  0
VERTEX
  8
0
  6
CONTINUOUS
 10
168.195161
 20
403.58023
 30
0.0
  0
SEQEND
  8
0
  6
CONTINUOUS
  0
POLYLINE
  8
0
  6
CONTINUOUS
 66
     1
 10
0.0
 20
0.0
 30
0.0
  0
VERTEX
  8
0
  6
CONTINUOUS
 10
168.154775
 20
403.471055
 30
0.0
  0
VERTEX
  8
0
  6
CONTINUOUS
 10
168.149962
 20
403.512949
 30
0.0
  0
SEQEND
  8
0
  6
CONTINUOUS
  0
POLYLINE
  8
0
  6
CONTINUOUS
 66
     1
 10
0.0
 20
0.0
 30
0.0
  0
VERTEX
  8
0
  6
CONTINUOUS
 10
168.021419
 20
403.246308
 30
0.0
  0
VERTEX
  8
0
  6
CONTINUOUS
 10
168.154775
 20
403.471055
 30
0.0
  0
SEQEND
  8
0
  6
CONTINUOUS
  0
POLYLINE
  8
0
  6
CONTINUOUS
 66
     1
 10
0.0
 20
0.0
 30
0.0
  0
VERTEX
  8
0
  6
CONTINUOUS
 10
167.451013
 20
406.445362
 30
0.0
  0
VERTEX
  8
0
  6
CONTINUOUS
 10
167.317657
 20
406.220615
 30
0.0
  0
SEQEND
  8
0
  6
CONTINUOUS
  0
POLYLINE
  8
0
  6
CONTINUOUS
 66
     1
 10
0.0
 20
0.0
 30
0.0
  0
VERTEX
  8
0
  6
CONTINUOUS
 10
167.4462
 20
406.487257
 30
0.0
  0
VERTEX
  8
0
  6
CONTINUOUS
 10
167.451013
 20
406.445362
 30
0.0
  0
SEQEND
  8
0
  6
CONTINUOUS
  0
POLYLINE
  8
0
  6
CONTINUOUS
 66
     1
 10
0.0
 20
0.0
 30
0.0
  0
VERTEX
  8
0
  6
CONTINUOUS
 10
156.372586
 20
396.32768
 30
0.0
  0
VERTEX
  8
0
  6
CONTINUOUS
 10
156.486943
 20
396.208806
 30
0.0
  0
SEQEND
  8
0
  6
CONTINUOUS
  0
POLYLINE
  8
0
  6
CONTINUOUS
 66
     1
 10
0.0
 20
0.0
 30
0.0
  0
VERTEX
  8
0
  6
CONTINUOUS
 10
156.313221
 20
396.486577
 30
0.0
  0
VERTEX
  8
0
  6
CONTINUOUS
 10
156.372586
 20
396.32768
 30
0.0
  0
SEQEND
  8
0
  6
CONTINUOUS
  0
POLYLINE
  8
0
  6
CONTINUOUS
 66
     1
 10
0.0
 20
0.0
 30
0.0
  0
VERTEX
  8
0
  6
CONTINUOUS
 10
168.080784
 20
403.087411
 30
0.0
  0
VERTEX
  8
0
  6
CONTINUOUS
 10
168.021419
 20
403.246308
 30
0.0
  0
SEQEND
  8
0
  6
CONTINUOUS
  0
POLYLINE
  8
0
  6
CONTINUOUS
 66
     1
 10
0.0
 20
0.0
 30
0.0
  0
VERTEX
  8
0
  6
CONTINUOUS
 10
168.195141
 20
402.968537
 30
0.0
  0
VERTEX
  8
0
  6
CONTINUOUS
 10
168.080784
 20
403.087411
 30
0.0
  0
SEQEND
  8
0
  6
CONTINUOUS
  0
POLYLINE
  8
0
  6
CONTINUOUS
 66
     1
 10
0.0
 20
0.0
 30
0.0
  0
VERTEX
  8
0
  6
CONTINUOUS
 10
155.551767
 20
396.331806
 30
0.0
  0
VERTEX
  8
0
  6
CONTINUOUS
 10
155.613009
 20
396.490097
 30
0.0
  0
SEQEND
  8
0
  6
CONTINUOUS
  0
POLYLINE
  8
0
  6
CONTINUOUS
 66
     1
 10
0.0
 20
0.0
 30
0.0
  0
VERTEX
  8
0
  6
CONTINUOUS
 10
155.436625
 20
396.214086
 30
0.0
  0
VERTEX
  8
0
  6
CONTINUOUS
 10
155.551767
 20
396.331806
 30
0.0
  0
SEQEND
  8
0
  6
CONTINUOUS
  0
POLYLINE
  8
0
  6
CONTINUOUS
 66
     1
 10
0.0
 20
0.0
 30
0.0
  0
VERTEX
  8
0
  6
CONTINUOUS
 10
155.758057
 20
400.20033
 30
0.0
  0
VERTEX
  8
0
  6
CONTINUOUS
 10
155.988341
 20
400.43577
 30
0.0
  0
SEQEND
  8
0
  6
CONTINUOUS
  0
POLYLINE
  8
0
  6
CONTINUOUS
 66
     1
 10
0.0
 20
0.0
 30
0.0
  0
VERTEX
  8
0
  6
CONTINUOUS
 10
155.635573
 20
399.883748
 30
0.0
  0
VERTEX
  8
0
  6
CONTINUOUS
 10
155.758057
 20
400.20033
 30
0.0
  0
SEQEND
  8
0
  6
CONTINUOUS
  0
POLYLINE
  8
0
  6
CONTINUOUS
 66
     1
 10
0.0
 20
0.0
 30
0.0
  0
VERTEX
  8
0
  6
CONTINUOUS
 10
149.786441
 20
403.319687
 30
0.0
  0
VERTEX
  8
0
  6
CONTINUOUS
 10
149.828462
 20
403.479228
 30
0.0
  0
VERTEX
  8
0
  6
CONTINUOUS
 10
149.909047
 20
403.636458
 30
0.0
  0
VERTEX
  8
0
  6
CONTINUOUS
 10
150.01655
 20
403.773395
 30
0.0
  0
VERTEX
  8
0
  6
CONTINUOUS
 10
150.13921
 20
403.871709
 30
0.0
  0
SEQEND
  8
0
  6
CONTINUOUS
  0
POLYLINE
  8
0
  6
CONTINUOUS
 66
     1
 10
0.0
 20
0.0
 30
0.0
  0
VERTEX
  8
0
  6
CONTINUOUS
 10
149.224345
 20
399.863348
 30
0.0
  0
VERTEX
  8
0
  6
CONTINUOUS
 10
149.285823
 20
399.912659
 30
0.0
  0
VERTEX
  8
0
  6
CONTINUOUS
 10
149.339547
 20
399.981163
 30
0.0
  0
VERTEX
  8
0
  6
CONTINUOUS
 10
149.379799
 20
400.059793
 30
0.0
  0
VERTEX
  8
0
  6
CONTINUOUS
 10
149.400729
 20
400.139359
 30
0.0
  0
SEQEND
  8
0
  6
CONTINUOUS
  0
POLYLINE
  8
0
  6
CONTINUOUS
 66
     1
 10
0.0
 20
0.0
 30
0.0
  0
VERTEX
  8
0
  6
CONTINUOUS
 10
155.635573
 20
399.883748
 30
0.0
  0
VERTEX
  8
0
  6
CONTINUOUS
 10
155.624542
 20
398.224683
 30
0.0
  0
VERTEX
  8
0
  6
CONTINUOUS
 10
155.613009
 20
396.490097
 30
0.0
  0
SEQEND
  8
0
  6
CONTINUOUS
  0
POLYLINE
  8
0
  6
CONTINUOUS
 66
     1
 10
0.0
 20
0.0
 30
0.0
  0
VERTEX
  8
0
  6
CONTINUOUS
 10
149.400729
 20
400.139359
 30
0.0
  0
VERTEX
  8
0
  6
CONTINUOUS
 10
152.692612
 20
398.205618
 30
0.0
  0
VERTEX
  8
0
  6
CONTINUOUS
 10
155.613009
 20
396.490097
 30
0.0
  0
SEQEND
  8
0
  6
CONTINUOUS
  0
POLYLINE
  8
0
  6
CONTINUOUS
 66
     1
 10
0.0
 20
0.0
 30
0.0
  0
VERTEX
  8
0
  6
CONTINUOUS
 10
149.786441
 20
403.319687
 30
0.0
  0
VERTEX
  8
0
  6
CONTINUOUS
 10
152.864671
 20
401.511452
 30
0.0
  0
VERTEX
  8
0
  6
CONTINUOUS
 10
155.635573
 20
399.883748
 30
0.0
  0
SEQEND
  8
0
  6
CONTINUOUS
  0
POLYLINE
  8
0
  6
CONTINUOUS
 66
     1
 10
0.0
 20
0.0
 30
0.0
  0
VERTEX
  8
0
  6
CONTINUOUS
 10
167.317657
 20
406.220615
 30
0.0
  0
VERTEX
  8
0
  6
CONTINUOUS
 10
161.826721
 20
403.050422
 30
0.0
  0
VERTEX
  8
0
  6
CONTINUOUS
 10
156.335785
 20
399.880228
 30
0.0
  0
SEQEND
  8
0
  6
CONTINUOUS
  0
POLYLINE
  8
0
  6
CONTINUOUS
 66
     1
 10
0.0
 20
0.0
 30
0.0
  0
VERTEX
  8
0
  6
CONTINUOUS
 10
168.021419
 20
403.246308
 30
0.0
  0
VERTEX
  8
0
  6
CONTINUOUS
 10
167.661708
 20
404.766556
 30
0.0
  0
VERTEX
  8
0
  6
CONTINUOUS
 10
167.317657
 20
406.220615
 30
0.0
  0
SEQEND
  8
0
  6
CONTINUOUS
  0
POLYLINE
  8
0
  6
CONTINUOUS
 66
     1
 10
0.0
 20
0.0
 30
0.0
  0
VERTEX
  8
0
  6
CONTINUOUS
 10
168.021419
 20
403.246308
 30
0.0
  0
VERTEX
  8
0
  6
CONTINUOUS
 10
162.16732
 20
399.866442
 30
0.0
  0
VERTEX
  8
0
  6
CONTINUOUS
 10
156.313221
 20
396.486577
 30
0.0
  0
SEQEND
  8
0
  6
CONTINUOUS
  0
POLYLINE
  8
0
  6
CONTINUOUS
 66
     1
 10
0.0
 20
0.0
 30
0.0
  0
VERTEX
  8
0
  6
CONTINUOUS
 10
156.335785
 20
399.880228
 30
0.0
  0
VERTEX
  8
0
  6
CONTINUOUS
 10
156.324754
 20
398.221163
 30
0.0
  0
VERTEX
  8
0
  6
CONTINUOUS
 10
156.313221
 20
396.486577
 30
0.0
  0
SEQEND
  8
0
  6
CONTINUOUS
  0
POLYLINE
  8
0
  6
CONTINUOUS
 66
     1
 10
0.0
 20
0.0
 30
0.0
  0
VERTEX
  8
0
  6
CONTINUOUS
 10
168.195161
 20
403.58023
 30
0.0
  0
VERTEX
  8
0
  6
CONTINUOUS
 10
168.12401
 20
403.622026
 30
0.0
  0
SEQEND
  8
0
  6
CONTINUOUS
  0
POLYLINE
  8
0
  6
CONTINUOUS
 66
     1
 10
0.0
 20
0.0
 30
0.0
  0
VERTEX
  8
0
  6
CONTINUOUS
 10
149.224345
 20
399.863348
 30
0.0
  0
VERTEX
  8
0
  6
CONTINUOUS
 10
152.516227
 20
397.929607
 30
0.0
  0
VERTEX
  8
0
  6
CONTINUOUS
 10
155.436625
 20
396.214086
 30
0.0
  0
SEQEND
  8
0
  6
CONTINUOUS
  0
POLYLINE
  8
0
  6
CONTINUOUS
 66
     1
 10
0.0
 20
0.0
 30
0.0
  0
VERTEX
  8
0
  6
CONTINUOUS
 10
155.96178
 20
396.09134
 30
0.0
  0
VERTEX
  8
0
  6
CONTINUOUS
 10
155.436625
 20
396.214086
 30
0.0
  0
SEQEND
  8
0
  6
CONTINUOUS
  0
POLYLINE
  8
0
  6
CONTINUOUS
 66
     1
 10
0.0
 20
0.0
 30
0.0
  0
VERTEX
  8
0
  6
CONTINUOUS
 10
156.486943
 20
396.208806
 30
0.0
  0
VERTEX
  8
0
  6
CONTINUOUS
 10
155.96178
 20
396.09134
 30
0.0
  0
SEQEND
  8
0
  6
CONTINUOUS
  0
POLYLINE
  8
0
  6
CONTINUOUS
 66
     1
 10
0.0
 20
0.0
 30
0.0
  0
VERTEX
  8
0
  6
CONTINUOUS
 10
168.195141
 20
402.968537
 30
0.0
  0
VERTEX
  8
0
  6
CONTINUOUS
 10
162.341042
 20
399.588671
 30
0.0
  0
VERTEX
  8
0
  6
CONTINUOUS
 10
156.486943
 20
396.208806
 30
0.0
  0
SEQEND
  8
0
  6
CONTINUOUS
  0
POLYLINE
  8
0
  6
CONTINUOUS
 66
     1
 10
0.0
 20
0.0
 30
0.0
  0
VERTEX
  8
0
  6
CONTINUOUS
 10
168.40138
 20
403.273347
 30
0.0
  0
VERTEX
  8
0
  6
CONTINUOUS
 10
168.195141
 20
402.968537
 30
0.0
  0
SEQEND
  8
0
  6
CONTINUOUS
  0
POLYLINE
  8
0
  6
CONTINUOUS
 66
     1
 10
0.0
 20
0.0
 30
0.0
  0
VERTEX
  8
0
  6
CONTINUOUS
 10
168.195161
 20
403.58023
 30
0.0
  0
VERTEX
  8
0
  6
CONTINUOUS
 10
168.40138
 20
403.273347
 30
0.0
  0
SEQEND
  8
0
  6
CONTINUOUS
  0
POLYLINE
  8
0
  6
CONTINUOUS
 66
     1
 10
0.0
 20
0.0
 30
0.0
  0
VERTEX
  8
0
  6
CONTINUOUS
 10
158.46699
 20
392.804552
 30
0.0
  0
VERTEX
  8
0
  6
CONTINUOUS
 10
158.354919
 20
392.767433
 30
0.0
  0
VERTEX
  8
0
  6
CONTINUOUS
 10
158.225512
 20
392.768084
 30
0.0
  0
VERTEX
  8
0
  6
CONTINUOUS
 10
158.113443
 20
392.80633
 30
0.0
  0
SEQEND
  8
0
  6
CONTINUOUS
  0
POLYLINE
  8
0
  6
CONTINUOUS
 66
     1
 10
0.0
 20
0.0
 30
0.0
  0
VERTEX
  8
0
  6
CONTINUOUS
 10
166.970214
 20
406.776157
 30
0.0
  0
VERTEX
  8
0
  6
CONTINUOUS
 10
161.479278
 20
403.605964
 30
0.0
  0
VERTEX
  8
0
  6
CONTINUOUS
 10
155.988341
 20
400.43577
 30
0.0
  0
SEQEND
  8
0
  6
CONTINUOUS
  0
POLYLINE
  8
0
  6
CONTINUOUS
 66
     1
 10
0.0
 20
0.0
 30
0.0
  0
VERTEX
  8
0
  6
CONTINUOUS
 10
150.13921
 20
403.871709
 30
0.0
  0
VERTEX
  8
0
  6
CONTINUOUS
 10
153.217439
 20
402.063473
 30
0.0
  0
VERTEX
  8
0
  6
CONTINUOUS
 10
155.988341
 20
400.43577
 30
0.0
  0
SEQEND
  8
0
  6
CONTINUOUS
  0
POLYLINE
  8
0
  6
CONTINUOUS
 66
     1
 10
0.0
 20
0.0
 30
0.0
  0
VERTEX
  8
0
  6
CONTINUOUS
 10
166.970214
 20
406.776157
 30
0.0
  0
VERTEX
  8
0
  6
CONTINUOUS
 10
166.488536
 20
407.059108
 30
0.0
  0
SEQEND
  8
0
  6
CONTINUOUS
  0
POLYLINE
  8
0
  6
CONTINUOUS
 66
     1
 10
0.0
 20
0.0
 30
0.0
  0
VERTEX
  8
0
  6
CONTINUOUS
 10
147.470342
 20
398.648339
 30
0.0
  0
VERTEX
  8
0
  6
CONTINUOUS
 10
147.494797
 20
398.763626
 30
0.0
  0
VERTEX
  8
0
  6
CONTINUOUS
 10
147.560066
 20
398.875369
 30
0.0
  0
VERTEX
  8
0
  6
CONTINUOUS
 10
147.648661
 20
398.953627
 30
0.0
  0
SEQEND
  8
0
  6
CONTINUOUS
  0
POLYLINE
  8
0
  6
CONTINUOUS
 66
     1
 10
0.0
 20
0.0
 30
0.0
  0
VERTEX
  8
0
  6
CONTINUOUS
 10
157.935124
 20
392.501042
 30
0.0
  0
VERTEX
  8
0
  6
CONTINUOUS
 10
157.987991
 20
392.674637
 30
0.0
  0
VERTEX
  8
0
  6
CONTINUOUS
 10
158.113443
 20
392.80633
 30
0.0
  0
SEQEND
  8
0
  6
CONTINUOUS
  0
POLYLINE
  8
0
  6
CONTINUOUS
 66
     1
 10
0.0
 20
0.0
 30
0.0
  0
VERTEX
  8
0
  6
CONTINUOUS
 10
158.642217
 20
392.497487
 30
0.0
  0
VERTEX
  8
0
  6
CONTINUOUS
 10
158.418075
 20
392.423249
 30
0.0
  0
VERTEX
  8
0
  6
CONTINUOUS
 10
158.159261
 20
392.42455
 30
0.0
  0
VERTEX
  8
0
  6
CONTINUOUS
 10
157.935124
 20
392.501042
 30
0.0
  0
SEQEND
  8
0
  6
CONTINUOUS
  0
POLYLINE
  8
0
  6
CONTINUOUS
 66
     1
 10
0.0
 20
0.0
 30
0.0
  0
VERTEX
  8
0
  6
CONTINUOUS
 10
158.46699
 20
392.804552
 30
0.0
  0
VERTEX
  8
0
  6
CONTINUOUS
 10
158.591533
 20
392.671603
 30
0.0
  0
VERTEX
  8
0
  6
CONTINUOUS
 10
158.642217
 20
392.497487
 30
0.0
  0
SEQEND
  8
0
  6
CONTINUOUS
  0
POLYLINE
  8
0
  6
CONTINUOUS
 66
     1
 10
0.0
 20
0.0
 30
0.0
  0
VERTEX
  8
0
  6
CONTINUOUS
 10
174.023339
 20
401.786015
 30
0.0
  0
VERTEX
  8
0
  6
CONTINUOUS
 10
174.111517
 20
401.706868
 30
0.0
  0
VERTEX
  8
0
  6
CONTINUOUS
 10
174.175655
 20
401.594474
 30
0.0
  0
VERTEX
  8
0
  6
CONTINUOUS
 10
174.198566
 20
401.478949
 30
0.0
  0
SEQEND
  8
0
  6
CONTINUOUS
  0
POLYLINE
  8
0
  6
CONTINUOUS
 66
     1
 10
0.0
 20
0.0
 30
0.0
  0
VERTEX
  8
0
  6
CONTINUOUS
 10
174.023346
 20
401.991916
 30
0.0
  0
VERTEX
  8
0
  6
CONTINUOUS
 10
174.088047
 20
401.926323
 30
0.0
  0
VERTEX
  8
0
  6
CONTINUOUS
 10
174.088045
 20
401.850957
 30
0.0
  0
VERTEX
  8
0
  6
CONTINUOUS
 10
174.023339
 20
401.786015
 30
0.0
  0
SEQEND
  8
0
  6
CONTINUOUS
  0
POLYLINE
  8
0
  6
CONTINUOUS
 66
     1
 10
0.0
 20
0.0
 30
0.0
  0
VERTEX
  8
0
  6
CONTINUOUS
 10
174.023346
 20
401.991916
 30
0.0
  0
VERTEX
  8
0
  6
CONTINUOUS
 10
174.091234
 20
402.01554
 30
0.0
  0
VERTEX
  8
0
  6
CONTINUOUS
 10
174.148435
 20
402.004247
 30
0.0
  0
SEQEND
  8
0
  6
CONTINUOUS
  0
POLYLINE
  8
0
  6
CONTINUOUS
 66
     1
 10
0.0
 20
0.0
 30
0.0
  0
VERTEX
  8
0
  6
CONTINUOUS
 10
174.345012
 20
401.682819
 30
0.0
  0
VERTEX
  8
0
  6
CONTINUOUS
 10
174.306527
 20
401.572277
 30
0.0
  0
VERTEX
  8
0
  6
CONTINUOUS
 10
174.198566
 20
401.478949
 30
0.0
  0
SEQEND
  8
0
  6
CONTINUOUS
  0
POLYLINE
  8
0
  6
CONTINUOUS
 66
     1
 10
0.0
 20
0.0
 30
0.0
  0
VERTEX
  8
0
  6
CONTINUOUS
 10
158.639441
 20
392.131681
 30
0.0
  0
VERTEX
  8
0
  6
CONTINUOUS
 10
158.285891
 20
392.048171
 30
0.0
  0
VERTEX
  8
0
  6
CONTINUOUS
 10
157.932347
 20
392.135236
 30
0.0
  0
SEQEND
  8
0
  6
CONTINUOUS
  0
POLYLINE
  8
0
  6
CONTINUOUS
 66
     1
 10
0.0
 20
0.0
 30
0.0
  0
VERTEX
  8
0
  6
CONTINUOUS
 10
174.342235
 20
401.317013
 30
0.0
  0
VERTEX
  8
0
  6
CONTINUOUS
 10
174.30375
 20
401.206471
 30
0.0
  0
VERTEX
  8
0
  6
CONTINUOUS
 10
174.19579
 20
401.113143
 30
0.0
  0
SEQEND
  8
0
  6
CONTINUOUS
  0
POLYLINE
  8
0
  6
CONTINUOUS
 66
     1
 10
0.0
 20
0.0
 30
0.0
  0
VERTEX
  8
0
  6
CONTINUOUS
 10
166.486532
 20
406.780774
 30
0.0
  0
VERTEX
  8
0
  6
CONTINUOUS
 10
166.46729
 20
406.725503
 30
0.0
  0
VERTEX
  8
0
  6
CONTINUOUS
 10
166.413309
 20
406.678839
 30
0.0
  0
SEQEND
  8
0
  6
CONTINUOUS
  0
POLYLINE
  8
0
  6
CONTINUOUS
 66
     1
 10
0.0
 20
0.0
 30
0.0
  0
VERTEX
  8
0
  6
CONTINUOUS
 10
166.721846
 20
447.529886
 30
0.0
  0
VERTEX
  8
0
  6
CONTINUOUS
 10
166.795064
 20
447.426567
 30
0.0
  0
VERTEX
  8
0
  6
CONTINUOUS
 10
166.721839
 20
447.323984
 30
0.0
  0
SEQEND
  8
0
  6
CONTINUOUS
  0
POLYLINE
  8
0
  6
CONTINUOUS
 66
     1
 10
0.0
 20
0.0
 30
0.0
  0
VERTEX
  8
0
  6
CONTINUOUS
 10
164.989493
 20
448.341611
 30
0.0
  0
VERTEX
  8
0
  6
CONTINUOUS
 10
165.166268
 20
448.383366
 30
0.0
  0
VERTEX
  8
0
  6
CONTINUOUS
 10
165.34304
 20
448.339834
 30
0.0
  0
SEQEND
  8
0
  6
CONTINUOUS
  0
POLYLINE
  8
0
  6
CONTINUOUS
 66
     1
 10
0.0
 20
0.0
 30
0.0
  0
VERTEX
  8
0
  6
CONTINUOUS
 10
164.812699
 20
447.704205
 30
0.0
  0
VERTEX
  8
0
  6
CONTINUOUS
 10
164.667007
 20
447.65595
 30
0.0
  0
VERTEX
  8
0
  6
CONTINUOUS
 10
164.498778
 20
447.656796
 30
0.0
  0
VERTEX
  8
0
  6
CONTINUOUS
 10
164.353088
 20
447.706516
 30
0.0
  0
VERTEX
  8
0
  6
CONTINUOUS
 10
164.268977
 20
447.791787
 30
0.0
  0
VERTEX
  8
0
  6
CONTINUOUS
 10
164.26898
 20
447.889762
 30
0.0
  0
VERTEX
  8
0
  6
CONTINUOUS
 10
164.353097
 20
447.974188
 30
0.0
  0
SEQEND
  8
0
  6
CONTINUOUS
  0
POLYLINE
  8
0
  6
CONTINUOUS
 66
     1
 10
0.0
 20
0.0
 30
0.0
  0
VERTEX
  8
0
  6
CONTINUOUS
 10
164.989476
 20
447.806267
 30
0.0
  0
VERTEX
  8
0
  6
CONTINUOUS
 10
165.16625
 20
447.848022
 30
0.0
  0
VERTEX
  8
0
  6
CONTINUOUS
 10
165.343022
 20
447.80449
 30
0.0
  0
SEQEND
  8
0
  6
CONTINUOUS
  0
POLYLINE
  8
0
  6
CONTINUOUS
 66
     1
 10
0.0
 20
0.0
 30
0.0
  0
VERTEX
  8
0
  6
CONTINUOUS
 10
165.802624
 20
447.534507
 30
0.0
  0
VERTEX
  8
0
  6
CONTINUOUS
 10
165.867326
 20
447.468914
 30
0.0
  0
VERTEX
  8
0
  6
CONTINUOUS
 10
165.867323
 20
447.393548
 30
0.0
  0
VERTEX
  8
0
  6
CONTINUOUS
 10
165.802618
 20
447.328606
 30
0.0
  0
SEQEND
  8
0
  6
CONTINUOUS
  0
POLYLINE
  8
0
  6
CONTINUOUS
 66
     1
 10
0.0
 20
0.0
 30
0.0
  0
VERTEX
  8
0
  6
CONTINUOUS
 10
156.468808
 20
441.939728
 30
0.0
  0
VERTEX
  8
0
  6
CONTINUOUS
 10
156.356737
 20
441.902609
 30
0.0
  0
VERTEX
  8
0
  6
CONTINUOUS
 10
156.22733
 20
441.90326
 30
0.0
  0
VERTEX
  8
0
  6
CONTINUOUS
 10
156.115261
 20
441.941506
 30
0.0
  0
SEQEND
  8
0
  6
CONTINUOUS
  0
POLYLINE
  8
0
  6
CONTINUOUS
 66
     1
 10
0.0
 20
0.0
 30
0.0
  0
VERTEX
  8
0
  6
CONTINUOUS
 10
155.567275
 20
442.263408
 30
0.0
  0
VERTEX
  8
0
  6
CONTINUOUS
 10
155.534924
 20
442.296205
 30
0.0
  0
VERTEX
  8
0
  6
CONTINUOUS
 10
155.534925
 20
442.333887
 30
0.0
  0
VERTEX
  8
0
  6
CONTINUOUS
 10
155.567278
 20
442.366359
 30
0.0
  0
SEQEND
  8
0
  6
CONTINUOUS
  0
POLYLINE
  8
0
  6
CONTINUOUS
 66
     1
 10
0.0
 20
0.0
 30
0.0
  0
VERTEX
  8
0
  6
CONTINUOUS
 10
155.496585
 20
442.860878
 30
0.0
  0
VERTEX
  8
0
  6
CONTINUOUS
 10
155.675552
 20
442.913085
 30
0.0
  0
VERTEX
  8
0
  6
CONTINUOUS
 10
155.873935
 20
442.893788
 30
0.0
  0
VERTEX
  8
0
  6
CONTINUOUS
 10
156.01596
 20
442.810359
 30
0.0
  0
VERTEX
  8
0
  6
CONTINUOUS
 10
156.047377
 20
442.694664
 30
0.0
  0
VERTEX
  8
0
  6
CONTINUOUS
 10
155.956187
 20
442.590895
 30
0.0
  0
SEQEND
  8
0
  6
CONTINUOUS
  0
POLYLINE
  8
0
  6
CONTINUOUS
 66
     1
 10
0.0
 20
0.0
 30
0.0
  0
VERTEX
  8
0
  6
CONTINUOUS
 10
154.736438
 20
442.216109
 30
0.0
  0
VERTEX
  8
0
  6
CONTINUOUS
 10
154.671737
 20
442.281703
 30
0.0
  0
VERTEX
  8
0
  6
CONTINUOUS
 10
154.671739
 20
442.357068
 30
0.0
  0
VERTEX
  8
0
  6
CONTINUOUS
 10
154.736445
 20
442.422011
 30
0.0
  0
SEQEND
  8
0
  6
CONTINUOUS
  0
POLYLINE
  8
0
  6
CONTINUOUS
 66
     1
 10
0.0
 20
0.0
 30
0.0
  0
VERTEX
  8
0
  6
CONTINUOUS
 10
156.468791
 20
441.404384
 30
0.0
  0
VERTEX
  8
0
  6
CONTINUOUS
 10
156.35672
 20
441.367265
 30
0.0
  0
VERTEX
  8
0
  6
CONTINUOUS
 10
156.227312
 20
441.367915
 30
0.0
  0
VERTEX
  8
0
  6
CONTINUOUS
 10
156.115244
 20
441.406161
 30
0.0
  0
SEQEND
  8
0
  6
CONTINUOUS
  0
POLYLINE
  8
0
  6
CONTINUOUS
 66
     1
 10
0.0
 20
0.0
 30
0.0
  0
VERTEX
  8
0
  6
CONTINUOUS
 10
161.807466
 20
445.063183
 30
0.0
  0
VERTEX
  8
0
  6
CONTINUOUS
 10
161.459891
 20
444.950165
 30
0.0
  0
VERTEX
  8
0
  6
CONTINUOUS
 10
161.060455
 20
444.957635
 30
0.0
  0
VERTEX
  8
0
  6
CONTINUOUS
 10
160.72252
 20
445.083474
 30
0.0
  0
SEQEND
  8
0
  6
CONTINUOUS
  0
POLYLINE
  8
0
  6
CONTINUOUS
 66
     1
 10
0.0
 20
0.0
 30
0.0
  0
VERTEX
  8
0
  6
CONTINUOUS
 10
161.655565
 20
445.510817
 30
0.0
  0
VERTEX
  8
0
  6
CONTINUOUS
 10
161.834532
 20
445.563024
 30
0.0
  0
VERTEX
  8
0
  6
CONTINUOUS
 10
162.032916
 20
445.543727
 30
0.0
  0
VERTEX
  8
0
  6
CONTINUOUS
 10
162.174941
 20
445.460298
 30
0.0
  0
VERTEX
  8
0
  6
CONTINUOUS
 10
162.206358
 20
445.344603
 30
0.0
  0
VERTEX
  8
0
  6
CONTINUOUS
 10
162.115167
 20
445.240835
 30
0.0
  0
SEQEND
  8
0
  6
CONTINUOUS
  0
POLYLINE
  8
0
  6
CONTINUOUS
 66
     1
 10
0.0
 20
0.0
 30
0.0
  0
VERTEX
  8
0
  6
CONTINUOUS
 10
161.45903
 20
445.397348
 30
0.0
  0
VERTEX
  8
0
  6
CONTINUOUS
 10
161.343172
 20
445.359675
 30
0.0
  0
VERTEX
  8
0
  6
CONTINUOUS
 10
161.210027
 20
445.362165
 30
0.0
  0
VERTEX
  8
0
  6
CONTINUOUS
 10
161.097382
 20
445.404111
 30
0.0
  0
SEQEND
  8
0
  6
CONTINUOUS
  0
POLYLINE
  8
0
  6
CONTINUOUS
 66
     1
 10
0.0
 20
0.0
 30
0.0
  0
VERTEX
  8
0
  6
CONTINUOUS
 10
157.424871
 20
447.772355
 30
0.0
  0
VERTEX
  8
0
  6
CONTINUOUS
 10
157.359823
 20
447.874106
 30
0.0
  0
VERTEX
  8
0
  6
CONTINUOUS
 10
157.43298
 20
447.973271
 30
0.0
  0
SEQEND
  8
0
  6
CONTINUOUS
  0
POLYLINE
  8
0
  6
CONTINUOUS
 66
     1
 10
0.0
 20
0.0
 30
0.0
  0
VERTEX
  8
0
  6
CONTINUOUS
 10
160.92376
 20
449.988674
 30
0.0
  0
VERTEX
  8
0
  6
CONTINUOUS
 10
161.147902
 20
450.062912
 30
0.0
  0
VERTEX
  8
0
  6
CONTINUOUS
 10
161.406716
 20
450.061611
 30
0.0
  0
VERTEX
  8
0
  6
CONTINUOUS
 10
161.630853
 20
449.985119
 30
0.0
  0
SEQEND
  8
0
  6
CONTINUOUS
  0
POLYLINE
  8
0
  6
CONTINUOUS
 66
     1
 10
0.0
 20
0.0
 30
0.0
  0
VERTEX
  8
0
  6
CONTINUOUS
 10
163.893509
 20
448.655974
 30
0.0
  0
VERTEX
  8
0
  6
CONTINUOUS
 10
164.022911
 20
448.524787
 30
0.0
  0
VERTEX
  8
0
  6
CONTINUOUS
 10
164.022907
 20
448.374056
 30
0.0
  0
VERTEX
  8
0
  6
CONTINUOUS
 10
163.893495
 20
448.24417
 30
0.0
  0
SEQEND
  8
0
  6
CONTINUOUS
  0
POLYLINE
  8
0
  6
CONTINUOUS
 66
     1
 10
0.0
 20
0.0
 30
0.0
  0
VERTEX
  8
0
  6
CONTINUOUS
 10
163.433862
 20
447.567006
 30
0.0
  0
VERTEX
  8
0
  6
CONTINUOUS
 10
163.287425
 20
447.773644
 30
0.0
  0
VERTEX
  8
0
  6
CONTINUOUS
 10
163.433876
 20
447.978809
 30
0.0
  0
SEQEND
  8
0
  6
CONTINUOUS
  0
POLYLINE
  8
0
  6
CONTINUOUS
 66
     1
 10
0.0
 20
0.0
 30
0.0
  0
VERTEX
  8
0
  6
CONTINUOUS
 10
165.362341
 20
447.175425
 30
0.0
  0
VERTEX
  8
0
  6
CONTINUOUS
 10
165.207047
 20
447.019562
 30
0.0
  0
VERTEX
  8
0
  6
CONTINUOUS
 10
164.938077
 20
446.930476
 30
0.0
  0
VERTEX
  8
0
  6
CONTINUOUS
 10
164.6275
 20
446.932037
 30
0.0
  0
VERTEX
  8
0
  6
CONTINUOUS
 10
164.358535
 20
447.023828
 30
0.0
  0
SEQEND
  8
0
  6
CONTINUOUS
  0
POLYLINE
  8
0
  6
CONTINUOUS
 66
     1
 10
0.0
 20
0.0
 30
0.0
  0
VERTEX
  8
0
  6
CONTINUOUS
 10
165.130892
 20
447.723196
 30
0.0
  0
VERTEX
  8
0
  6
CONTINUOUS
 10
165.242963
 20
447.760315
 30
0.0
  0
VERTEX
  8
0
  6
CONTINUOUS
 10
165.37237
 20
447.759664
 30
0.0
  0
VERTEX
  8
0
  6
CONTINUOUS
 10
165.484438
 20
447.721418
 30
0.0
  0
VERTEX
  8
0
  6
CONTINUOUS
 10
165.54914
 20
447.655825
 30
0.0
  0
VERTEX
  8
0
  6
CONTINUOUS
 10
165.549137
 20
447.58046
 30
0.0
  0
SEQEND
  8
0
  6
CONTINUOUS
  0
POLYLINE
  8
0
  6
CONTINUOUS
 66
     1
 10
0.0
 20
0.0
 30
0.0
  0
VERTEX
  8
0
  6
CONTINUOUS
 10
164.671272
 20
447.457834
 30
0.0
  0
VERTEX
  8
0
  6
CONTINUOUS
 10
164.626444
 20
447.442987
 30
0.0
  0
VERTEX
  8
0
  6
CONTINUOUS
 10
164.574681
 20
447.443247
 30
0.0
  0
VERTEX
  8
0
  6
CONTINUOUS
 10
164.529854
 20
447.458545
 30
0.0
  0
SEQEND
  8
0
  6
CONTINUOUS
  0
POLYLINE
  8
0
  6
CONTINUOUS
 66
     1
 10
0.0
 20
0.0
 30
0.0
  0
VERTEX
  8
0
  6
CONTINUOUS
 10
164.070252
 20
447.728528
 30
0.0
  0
VERTEX
  8
0
  6
CONTINUOUS
 10
164.040964
 20
447.769855
 30
0.0
  0
VERTEX
  8
0
  6
CONTINUOUS
 10
164.070254
 20
447.810888
 30
0.0
  0
SEQEND
  8
0
  6
CONTINUOUS
  0
POLYLINE
  8
0
  6
CONTINUOUS
 66
     1
 10
0.0
 20
0.0
 30
0.0
  0
VERTEX
  8
0
  6
CONTINUOUS
 10
164.9895
 20
448.547513
 30
0.0
  0
VERTEX
  8
0
  6
CONTINUOUS
 10
165.054201
 20
448.481919
 30
0.0
  0
VERTEX
  8
0
  6
CONTINUOUS
 10
165.054199
 20
448.406554
 30
0.0
  0
VERTEX
  8
0
  6
CONTINUOUS
 10
164.989493
 20
448.341611
 30
0.0
  0
SEQEND
  8
0
  6
CONTINUOUS
  0
POLYLINE
  8
0
  6
CONTINUOUS
 66
     1
 10
0.0
 20
0.0
 30
0.0
  0
VERTEX
  8
0
  6
CONTINUOUS
 10
161.100554
 20
450.62608
 30
0.0
  0
VERTEX
  8
0
  6
CONTINUOUS
 10
161.277329
 20
450.667835
 30
0.0
  0
VERTEX
  8
0
  6
CONTINUOUS
 10
161.454101
 20
450.624302
 30
0.0
  0
SEQEND
  8
0
  6
CONTINUOUS
  0
POLYLINE
  8
0
  6
CONTINUOUS
 66
     1
 10
0.0
 20
0.0
 30
0.0
  0
VERTEX
  8
0
  6
CONTINUOUS
 10
150.847499
 20
444.500578
 30
0.0
  0
VERTEX
  8
0
  6
CONTINUOUS
 10
150.782798
 20
444.566172
 30
0.0
  0
VERTEX
  8
0
  6
CONTINUOUS
 10
150.7828
 20
444.641537
 30
0.0
  0
VERTEX
  8
0
  6
CONTINUOUS
 10
150.847506
 20
444.70648
 30
0.0
  0
SEQEND
  8
0
  6
CONTINUOUS
  0
POLYLINE
  8
0
  6
CONTINUOUS
 66
     1
 10
0.0
 20
0.0
 30
0.0
  0
VERTEX
  8
0
  6
CONTINUOUS
 10
154.736445
 20
442.422011
 30
0.0
  0
VERTEX
  8
0
  6
CONTINUOUS
 10
154.624374
 20
442.384892
 30
0.0
  0
VERTEX
  8
0
  6
CONTINUOUS
 10
154.494967
 20
442.385542
 30
0.0
  0
VERTEX
  8
0
  6
CONTINUOUS
 10
154.382898
 20
442.423788
 30
0.0
  0
SEQEND
  8
0
  6
CONTINUOUS
  0
POLYLINE
  8
0
  6
CONTINUOUS
 66
     1
 10
0.0
 20
0.0
 30
0.0
  0
VERTEX
  8
0
  6
CONTINUOUS
 10
155.655684
 20
442.952734
 30
0.0
  0
VERTEX
  8
0
  6
CONTINUOUS
 10
155.700512
 20
442.967581
 30
0.0
  0
VERTEX
  8
0
  6
CONTINUOUS
 10
155.752275
 20
442.967321
 30
0.0
  0
VERTEX
  8
0
  6
CONTINUOUS
 10
155.797102
 20
442.952023
 30
0.0
  0
SEQEND
  8
0
  6
CONTINUOUS
  0
POLYLINE
  8
0
  6
CONTINUOUS
 66
     1
 10
0.0
 20
0.0
 30
0.0
  0
VERTEX
  8
0
  6
CONTINUOUS
 10
156.256704
 20
442.68204
 30
0.0
  0
VERTEX
  8
0
  6
CONTINUOUS
 10
156.285992
 20
442.640713
 30
0.0
  0
VERTEX
  8
0
  6
CONTINUOUS
 10
156.256702
 20
442.59968
 30
0.0
  0
SEQEND
  8
0
  6
CONTINUOUS
  0
POLYLINE
  8
0
  6
CONTINUOUS
 66
     1
 10
0.0
 20
0.0
 30
0.0
  0
VERTEX
  8
0
  6
CONTINUOUS
 10
156.038551
 20
442.08952
 30
0.0
  0
VERTEX
  8
0
  6
CONTINUOUS
 10
155.909144
 20
442.090171
 30
0.0
  0
VERTEX
  8
0
  6
CONTINUOUS
 10
155.797075
 20
442.128417
 30
0.0
  0
VERTEX
  8
0
  6
CONTINUOUS
 10
155.732374
 20
442.19401
 30
0.0
  0
VERTEX
  8
0
  6
CONTINUOUS
 10
155.732377
 20
442.269375
 30
0.0
  0
VERTEX
  8
0
  6
CONTINUOUS
 10
155.797082
 20
442.334318
 30
0.0
  0
SEQEND
  8
0
  6
CONTINUOUS
  0
POLYLINE
  8
0
  6
CONTINUOUS
 66
     1
 10
0.0
 20
0.0
 30
0.0
  0
VERTEX
  8
0
  6
CONTINUOUS
 10
157.004625
 20
442.778046
 30
0.0
  0
VERTEX
  8
0
  6
CONTINUOUS
 10
157.159908
 20
442.620621
 30
0.0
  0
VERTEX
  8
0
  6
CONTINUOUS
 10
157.159902
 20
442.439745
 30
0.0
  0
VERTEX
  8
0
  6
CONTINUOUS
 10
157.004609
 20
442.283882
 30
0.0
  0
VERTEX
  8
0
  6
CONTINUOUS
 10
156.735638
 20
442.194796
 30
0.0
  0
SEQEND
  8
0
  6
CONTINUOUS
  0
POLYLINE
  8
0
  6
CONTINUOUS
 66
     1
 10
0.0
 20
0.0
 30
0.0
  0
VERTEX
  8
0
  6
CONTINUOUS
 10
155.372859
 20
443.324779
 30
0.0
  0
VERTEX
  8
0
  6
CONTINUOUS
 10
155.726408
 20
443.408288
 30
0.0
  0
VERTEX
  8
0
  6
CONTINUOUS
 10
156.079952
 20
443.321224
 30
0.0
  0
SEQEND
  8
0
  6
CONTINUOUS
  0
POLYLINE
  8
0
  6
CONTINUOUS
 66
     1
 10
0.0
 20
0.0
 30
0.0
  0
VERTEX
  8
0
  6
CONTINUOUS
 10
154.913239
 20
443.059417
 30
0.0
  0
VERTEX
  8
0
  6
CONTINUOUS
 10
154.55969
 20
442.975907
 30
0.0
  0
VERTEX
  8
0
  6
CONTINUOUS
 10
154.206146
 20
443.062972
 30
0.0
  0
SEQEND
  8
0
  6
CONTINUOUS
  0
POLYLINE
  8
0
  6
CONTINUOUS
 66
     1
 10
0.0
 20
0.0
 30
0.0
  0
VERTEX
  8
0
  6
CONTINUOUS
 10
151.94349
 20
444.392117
 30
0.0
  0
VERTEX
  8
0
  6
CONTINUOUS
 10
151.814087
 20
444.523304
 30
0.0
  0
VERTEX
  8
0
  6
CONTINUOUS
 10
151.814092
 20
444.674035
 30
0.0
  0
VERTEX
  8
0
  6
CONTINUOUS
 10
151.943504
 20
444.80392
 30
0.0
  0
SEQEND
  8
0
  6
CONTINUOUS
  0
POLYLINE
  8
0
  6
CONTINUOUS
 66
     1
 10
0.0
 20
0.0
 30
0.0
  0
VERTEX
  8
0
  6
CONTINUOUS
 10
155.434284
 20
446.819323
 30
0.0
  0
VERTEX
  8
0
  6
CONTINUOUS
 10
155.60519
 20
446.861068
 30
0.0
  0
VERTEX
  8
0
  6
CONTINUOUS
 10
155.779339
 20
446.822307
 30
0.0
  0
SEQEND
  8
0
  6
CONTINUOUS
  0
POLYLINE
  8
0
  6
CONTINUOUS
 66
     1
 10
0.0
 20
0.0
 30
0.0
  0
VERTEX
  8
0
  6
CONTINUOUS
 10
159.813999
 20
444.66315
 30
0.0
  0
VERTEX
  8
0
  6
CONTINUOUS
 10
159.885048
 20
444.597189
 30
0.0
  0
VERTEX
  8
0
  6
CONTINUOUS
 10
159.888172
 20
444.51963
 30
0.0
  0
VERTEX
  8
0
  6
CONTINUOUS
 10
159.822483
 20
444.452487
 30
0.0
  0
SEQEND
  8
0
  6
CONTINUOUS
  0
POLYLINE
  8
0
  6
CONTINUOUS
 66
     1
 10
0.0
 20
0.0
 30
0.0
  0
VERTEX
  8
0
  6
CONTINUOUS
 10
160.092086
 20
444.072808
 30
0.0
  0
VERTEX
  8
0
  6
CONTINUOUS
 10
159.946394
 20
444.024553
 30
0.0
  0
VERTEX
  8
0
  6
CONTINUOUS
 10
159.778165
 20
444.025399
 30
0.0
  0
VERTEX
  8
0
  6
CONTINUOUS
 10
159.632476
 20
444.075119
 30
0.0
  0
VERTEX
  8
0
  6
CONTINUOUS
 10
159.548364
 20
444.16039
 30
0.0
  0
VERTEX
  8
0
  6
CONTINUOUS
 10
159.548367
 20
444.258365
 30
0.0
  0
VERTEX
  8
0
  6
CONTINUOUS
 10
159.632484
 20
444.342791
 30
0.0
  0
SEQEND
  8
0
  6
CONTINUOUS
  0
POLYLINE
  8
0
  6
CONTINUOUS
 66
     1
 10
0.0
 20
0.0
 30
0.0
  0
VERTEX
  8
0
  6
CONTINUOUS
 10
160.367798
 20
444.878675
 30
0.0
  0
VERTEX
  8
0
  6
CONTINUOUS
 10
160.580947
 20
444.680792
 30
0.0
  0
VERTEX
  8
0
  6
CONTINUOUS
 10
160.590318
 20
444.448117
 30
0.0
  0
VERTEX
  8
0
  6
CONTINUOUS
 10
160.393252
 20
444.246686
 30
0.0
  0
SEQEND
  8
0
  6
CONTINUOUS
  0
POLYLINE
  8
0
  6
CONTINUOUS
 66
     1
 10
0.0
 20
0.0
 30
0.0
  0
VERTEX
  8
0
  6
CONTINUOUS
 10
156.450601
 20
446.974972
 30
0.0
  0
VERTEX
  8
0
  6
CONTINUOUS
 10
156.308502
 20
447.106894
 30
0.0
  0
VERTEX
  8
0
  6
CONTINUOUS
 10
156.302254
 20
447.26201
 30
0.0
  0
VERTEX
  8
0
  6
CONTINUOUS
 10
156.433632
 20
447.396297
 30
0.0
  0
VERTEX
  8
0
  6
CONTINUOUS
 10
156.665348
 20
447.471642
 30
0.0
  0
VERTEX
  8
0
  6
CONTINUOUS
 10
156.931639
 20
447.466662
 30
0.0
  0
VERTEX
  8
0
  6
CONTINUOUS
 10
157.156929
 20
447.38277
 30
0.0
  0
SEQEND
  8
0
  6
CONTINUOUS
  0
POLYLINE
  8
0
  6
CONTINUOUS
 66
     1
 10
0.0
 20
0.0
 30
0.0
  0
VERTEX
  8
0
  6
CONTINUOUS
 10
178.071665
 20
397.749242
 30
0.0
  0
VERTEX
  8
0
  6
CONTINUOUS
 10
177.457685
 20
398.128913
 30
0.0
  0
VERTEX
  8
0
  6
CONTINUOUS
 10
176.679105
 20
398.610369
 30
0.0
  0
SEQEND
  8
0
  6
CONTINUOUS
  0
POLYLINE
  8
0
  6
CONTINUOUS
 66
     1
 10
0.0
 20
0.0
 30
0.0
  0
VERTEX
  8
0
  6
CONTINUOUS
 10
174.636053
 20
397.226657
 30
0.0
  0
VERTEX
  8
0
  6
CONTINUOUS
 10
175.428463
 20
396.753188
 30
0.0
  0
VERTEX
  8
0
  6
CONTINUOUS
 10
176.050266
 20
396.381657
 30
0.0
  0
SEQEND
  8
0
  6
CONTINUOUS
  0
POLYLINE
  8
0
  6
CONTINUOUS
 66
     1
 10
0.0
 20
0.0
 30
0.0
  0
VERTEX
  8
0
  6
CONTINUOUS
 10
174.81283
 20
397.532875
 30
0.0
  0
VERTEX
  8
0
  6
CONTINUOUS
 10
175.608325
 20
397.057562
 30
0.0
  0
VERTEX
  8
0
  6
CONTINUOUS
 10
176.230128
 20
396.686031
 30
0.0
  0
SEQEND
  8
0
  6
CONTINUOUS
  0
POLYLINE
  8
0
  6
CONTINUOUS
 66
     1
 10
0.0
 20
0.0
 30
0.0
  0
VERTEX
  8
0
  6
CONTINUOUS
 10
176.227043
 20
396.341577
 30
0.0
  0
VERTEX
  8
0
  6
CONTINUOUS
 10
176.40382
 20
396.381657
 30
0.0
  0
SEQEND
  8
0
  6
CONTINUOUS
  0
POLYLINE
  8
0
  6
CONTINUOUS
 66
     1
 10
0.0
 20
0.0
 30
0.0
  0
VERTEX
  8
0
  6
CONTINUOUS
 10
176.40382
 20
391.479145
 30
0.0
  0
VERTEX
  8
0
  6
CONTINUOUS
 10
176.227043
 20
391.439066
 30
0.0
  0
SEQEND
  8
0
  6
CONTINUOUS
  0
POLYLINE
  8
0
  6
CONTINUOUS
 66
     1
 10
0.0
 20
0.0
 30
0.0
  0
VERTEX
  8
0
  6
CONTINUOUS
 10
176.050266
 20
396.381657
 30
0.0
  0
VERTEX
  8
0
  6
CONTINUOUS
 10
176.050266
 20
393.724511
 30
0.0
  0
VERTEX
  8
0
  6
CONTINUOUS
 10
176.050266
 20
391.479145
 30
0.0
  0
SEQEND
  8
0
  6
CONTINUOUS
  0
POLYLINE
  8
0
  6
CONTINUOUS
 66
     1
 10
0.0
 20
0.0
 30
0.0
  0
VERTEX
  8
0
  6
CONTINUOUS
 10
178.245356
 20
397.444868
 30
0.0
  0
VERTEX
  8
0
  6
CONTINUOUS
 10
178.31493
 20
397.545689
 30
0.0
  0
SEQEND
  8
0
  6
CONTINUOUS
  0
POLYLINE
  8
0
  6
CONTINUOUS
 66
     1
 10
0.0
 20
0.0
 30
0.0
  0
VERTEX
  8
0
  6
CONTINUOUS
 10
178.31494
 20
387.709908
 30
0.0
  0
VERTEX
  8
0
  6
CONTINUOUS
 10
178.31493
 20
387.708525
 30
0.0
  0
SEQEND
  8
0
  6
CONTINUOUS
  0
POLYLINE
  8
0
  6
CONTINUOUS
 66
     1
 10
0.0
 20
0.0
 30
0.0
  0
VERTEX
  8
0
  6
CONTINUOUS
 10
177.76863
 20
386.762306
 30
0.0
  0
VERTEX
  8
0
  6
CONTINUOUS
 10
177.770231
 20
386.763248
 30
0.0
  0
SEQEND
  8
0
  6
CONTINUOUS
  0
POLYLINE
  8
0
  6
CONTINUOUS
 66
     1
 10
0.0
 20
0.0
 30
0.0
  0
VERTEX
  8
0
  6
CONTINUOUS
 10
177.763188
 20
387.39626
 30
0.0
  0
VERTEX
  8
0
  6
CONTINUOUS
 10
177.641337
 20
387.262518
 30
0.0
  0
SEQEND
  8
0
  6
CONTINUOUS
  0
POLYLINE
  8
0
  6
CONTINUOUS
 66
     1
 10
0.0
 20
0.0
 30
0.0
  0
VERTEX
  8
0
  6
CONTINUOUS
 10
174.742172
 20
386.62712
 30
0.0
  0
VERTEX
  8
0
  6
CONTINUOUS
 10
174.918018
 20
386.525595
 30
0.0
  0
VERTEX
  8
0
  6
CONTINUOUS
 10
175.092614
 20
386.424793
 30
0.0
  0
SEQEND
  8
0
  6
CONTINUOUS
  0
POLYLINE
  8
0
  6
CONTINUOUS
 66
     1
 10
0.0
 20
0.0
 30
0.0
  0
VERTEX
  8
0
  6
CONTINUOUS
 10
177.641337
 20
387.262518
 30
0.0
  0
VERTEX
  8
0
  6
CONTINUOUS
 10
177.011817
 20
387.625972
 30
0.0
  0
VERTEX
  8
0
  6
CONTINUOUS
 10
176.199299
 20
388.095079
 30
0.0
  0
SEQEND
  8
0
  6
CONTINUOUS
  0
POLYLINE
  8
0
  6
CONTINUOUS
 66
     1
 10
0.0
 20
0.0
 30
0.0
  0
VERTEX
  8
0
  6
CONTINUOUS
 10
177.641337
 20
387.262518
 30
0.0
  0
VERTEX
  8
0
  6
CONTINUOUS
 10
177.762502
 20
387.12946
 30
0.0
  0
SEQEND
  8
0
  6
CONTINUOUS
  0
POLYLINE
  8
0
  6
CONTINUOUS
 66
     1
 10
0.0
 20
0.0
 30
0.0
  0
VERTEX
  8
0
  6
CONTINUOUS
 10
177.641337
 20
387.262518
 30
0.0
  0
VERTEX
  8
0
  6
CONTINUOUS
 10
177.043301
 20
386.917242
 30
0.0
  0
VERTEX
  8
0
  6
CONTINUOUS
 10
176.262452
 20
386.466418
 30
0.0
  0
SEQEND
  8
0
  6
CONTINUOUS
  0
POLYLINE
  8
0
  6
CONTINUOUS
 66
     1
 10
0.0
 20
0.0
 30
0.0
  0
VERTEX
  8
0
  6
CONTINUOUS
 10
176.612893
 20
386.264091
 30
0.0
  0
VERTEX
  8
0
  6
CONTINUOUS
 10
176.542655
 20
386.300876
 30
0.0
  0
VERTEX
  8
0
  6
CONTINUOUS
 10
176.456317
 20
386.349985
 30
0.0
  0
VERTEX
  8
0
  6
CONTINUOUS
 10
176.358628
 20
386.408646
 30
0.0
  0
VERTEX
  8
0
  6
CONTINUOUS
 10
176.262452
 20
386.466418
 30
0.0
  0
SEQEND
  8
0
  6
CONTINUOUS
  0
POLYLINE
  8
0
  6
CONTINUOUS
 66
     1
 10
0.0
 20
0.0
 30
0.0
  0
VERTEX
  8
0
  6
CONTINUOUS
 10
159.606975
 20
376.853906
 30
0.0
  0
VERTEX
  8
0
  6
CONTINUOUS
 10
159.432348
 20
376.813737
 30
0.0
  0
SEQEND
  8
0
  6
CONTINUOUS
  0
POLYLINE
  8
0
  6
CONTINUOUS
 66
     1
 10
0.0
 20
0.0
 30
0.0
  0
VERTEX
  8
0
  6
CONTINUOUS
 10
159.606975
 20
381.373234
 30
0.0
  0
VERTEX
  8
0
  6
CONTINUOUS
 10
159.539999
 20
381.27754
 30
0.0
  0
VERTEX
  8
0
  6
CONTINUOUS
 10
159.454301
 20
381.201481
 30
0.0
  0
VERTEX
  8
0
  6
CONTINUOUS
 10
159.43387
 20
381.188738
 30
0.0
  0
SEQEND
  8
0
  6
CONTINUOUS
  0
POLYLINE
  8
0
  6
CONTINUOUS
 66
     1
 10
0.0
 20
0.0
 30
0.0
  0
VERTEX
  8
0
  6
CONTINUOUS
 10
159.499635
 20
376.507693
 30
0.0
  0
VERTEX
  8
0
  6
CONTINUOUS
 10
159.366548
 20
376.585305
 30
0.0
  0
SEQEND
  8
0
  6
CONTINUOUS
  0
POLYLINE
  8
0
  6
CONTINUOUS
 66
     1
 10
0.0
 20
0.0
 30
0.0
  0
VERTEX
  8
0
  6
CONTINUOUS
 10
159.200949
 20
376.412942
 30
0.0
  0
VERTEX
  8
0
  6
CONTINUOUS
 10
159.366548
 20
376.585305
 30
0.0
  0
SEQEND
  8
0
  6
CONTINUOUS
  0
POLYLINE
  8
0
  6
CONTINUOUS
 66
     1
 10
0.0
 20
0.0
 30
0.0
  0
VERTEX
  8
0
  6
CONTINUOUS
 10
159.201635
 20
376.679743
 30
0.0
  0
VERTEX
  8
0
  6
CONTINUOUS
 10
159.079784
 20
376.546001
 30
0.0
  0
SEQEND
  8
0
  6
CONTINUOUS
  0
POLYLINE
  8
0
  6
CONTINUOUS
 66
     1
 10
0.0
 20
0.0
 30
0.0
  0
VERTEX
  8
0
  6
CONTINUOUS
 10
156.180619
 20
375.910603
 30
0.0
  0
VERTEX
  8
0
  6
CONTINUOUS
 10
156.356465
 20
375.809078
 30
0.0
  0
VERTEX
  8
0
  6
CONTINUOUS
 10
156.53106
 20
375.708275
 30
0.0
  0
SEQEND
  8
0
  6
CONTINUOUS
  0
POLYLINE
  8
0
  6
CONTINUOUS
 66
     1
 10
0.0
 20
0.0
 30
0.0
  0
VERTEX
  8
0
  6
CONTINUOUS
 10
159.079784
 20
376.546001
 30
0.0
  0
VERTEX
  8
0
  6
CONTINUOUS
 10
158.450264
 20
376.909454
 30
0.0
  0
VERTEX
  8
0
  6
CONTINUOUS
 10
157.637746
 20
377.378561
 30
0.0
  0
SEQEND
  8
0
  6
CONTINUOUS
  0
POLYLINE
  8
0
  6
CONTINUOUS
 66
     1
 10
0.0
 20
0.0
 30
0.0
  0
VERTEX
  8
0
  6
CONTINUOUS
 10
159.079784
 20
376.546001
 30
0.0
  0
VERTEX
  8
0
  6
CONTINUOUS
 10
159.200949
 20
376.412942
 30
0.0
  0
SEQEND
  8
0
  6
CONTINUOUS
  0
POLYLINE
  8
0
  6
CONTINUOUS
 66
     1
 10
0.0
 20
0.0
 30
0.0
  0
VERTEX
  8
0
  6
CONTINUOUS
 10
159.200949
 20
376.412942
 30
0.0
  0
VERTEX
  8
0
  6
CONTINUOUS
 10
159.253475
 20
376.241627
 30
0.0
  0
SEQEND
  8
0
  6
CONTINUOUS
  0
POLYLINE
  8
0
  6
CONTINUOUS
 66
     1
 10
0.0
 20
0.0
 30
0.0
  0
VERTEX
  8
0
  6
CONTINUOUS
 10
159.079784
 20
376.546001
 30
0.0
  0
VERTEX
  8
0
  6
CONTINUOUS
 10
158.481748
 20
376.200724
 30
0.0
  0
VERTEX
  8
0
  6
CONTINUOUS
 10
157.700899
 20
375.749901
 30
0.0
  0
SEQEND
  8
0
  6
CONTINUOUS
  0
POLYLINE
  8
0
  6
CONTINUOUS
 66
     1
 10
0.0
 20
0.0
 30
0.0
  0
VERTEX
  8
0
  6
CONTINUOUS
 10
159.253475
 20
376.241627
 30
0.0
  0
VERTEX
  8
0
  6
CONTINUOUS
 10
159.499635
 20
376.507693
 30
0.0
  0
SEQEND
  8
0
  6
CONTINUOUS
  0
POLYLINE
  8
0
  6
CONTINUOUS
 66
     1
 10
0.0
 20
0.0
 30
0.0
  0
VERTEX
  8
0
  6
CONTINUOUS
 10
159.499635
 20
376.507693
 30
0.0
  0
VERTEX
  8
0
  6
CONTINUOUS
 10
159.606975
 20
376.853906
 30
0.0
  0
SEQEND
  8
0
  6
CONTINUOUS
  0
POLYLINE
  8
0
  6
CONTINUOUS
 66
     1
 10
0.0
 20
0.0
 30
0.0
  0
VERTEX
  8
0
  6
CONTINUOUS
 10
159.606975
 20
381.373234
 30
0.0
  0
VERTEX
  8
0
  6
CONTINUOUS
 10
159.606975
 20
378.907711
 30
0.0
  0
VERTEX
  8
0
  6
CONTINUOUS
 10
159.606975
 20
376.853906
 30
0.0
  0
SEQEND
  8
0
  6
CONTINUOUS
  0
POLYLINE
  8
0
  6
CONTINUOUS
 66
     1
 10
0.0
 20
0.0
 30
0.0
  0
VERTEX
  8
0
  6
CONTINUOUS
 10
159.253475
 20
376.241627
 30
0.0
  0
VERTEX
  8
0
  6
CONTINUOUS
 10
158.65544
 20
375.89635
 30
0.0
  0
VERTEX
  8
0
  6
CONTINUOUS
 10
158.05134
 20
375.547573
 30
0.0
  0
SEQEND
  8
0
  6
CONTINUOUS
  0
POLYLINE
  8
0
  6
CONTINUOUS
 66
     1
 10
0.0
 20
0.0
 30
0.0
  0
VERTEX
  8
0
  6
CONTINUOUS
 10
158.19582
 20
380.558504
 30
0.0
  0
VERTEX
  8
0
  6
CONTINUOUS
 10
157.94582
 20
380.533739
 30
0.0
  0
VERTEX
  8
0
  6
CONTINUOUS
 10
157.842267
 20
380.762628
 30
0.0
  0
SEQEND
  8
0
  6
CONTINUOUS
  0
POLYLINE
  8
0
  6
CONTINUOUS
 66
     1
 10
0.0
 20
0.0
 30
0.0
  0
VERTEX
  8
0
  6
CONTINUOUS
 10
158.19582
 20
380.558504
 30
0.0
  0
VERTEX
  8
0
  6
CONTINUOUS
 10
158.182364
 20
380.488158
 30
0.0
  0
VERTEX
  8
0
  6
CONTINUOUS
 10
158.144043
 20
380.444059
 30
0.0
  0
SEQEND
  8
0
  6
CONTINUOUS
  0
POLYLINE
  8
0
  6
CONTINUOUS
 66
     1
 10
0.0
 20
0.0
 30
0.0
  0
VERTEX
  8
0
  6
CONTINUOUS
 10
157.644043
 20
380.419295
 30
0.0
  0
VERTEX
  8
0
  6
CONTINUOUS
 10
157.529082
 20
380.55159
 30
0.0
  0
VERTEX
  8
0
  6
CONTINUOUS
 10
157.488713
 20
380.762628
 30
0.0
  0
SEQEND
  8
0
  6
CONTINUOUS
  0
POLYLINE
  8
0
  6
CONTINUOUS
 66
     1
 10
0.0
 20
0.0
 30
0.0
  0
VERTEX
  8
0
  6
CONTINUOUS
 10
155.667989
 20
380.819448
 30
0.0
  0
VERTEX
  8
0
  6
CONTINUOUS
 10
155.323831
 20
380.797568
 30
0.0
  0
VERTEX
  8
0
  6
CONTINUOUS
 10
155.142887
 20
381.120018
 30
0.0
  0
SEQEND
  8
0
  6
CONTINUOUS
  0
POLYLINE
  8
0
  6
CONTINUOUS
 66
     1
 10
0.0
 20
0.0
 30
0.0
  0
VERTEX
  8
0
  6
CONTINUOUS
 10
157.78916
 20
377.699329
 30
0.0
  0
VERTEX
  8
0
  6
CONTINUOUS
 10
157.784196
 20
377.608811
 30
0.0
  0
VERTEX
  8
0
  6
CONTINUOUS
 10
157.753469
 20
377.51674
 30
0.0
  0
VERTEX
  8
0
  6
CONTINUOUS
 10
157.702713
 20
377.435597
 30
0.0
  0
VERTEX
  8
0
  6
CONTINUOUS
 10
157.637746
 20
377.378561
 30
0.0
  0
SEQEND
  8
0
  6
CONTINUOUS
  0
POLYLINE
  8
0
  6
CONTINUOUS
 66
     1
 10
0.0
 20
0.0
 30
0.0
  0
VERTEX
  8
0
  6
CONTINUOUS
 10
159.256534
 20
376.85214
 30
0.0
  0
VERTEX
  8
0
  6
CONTINUOUS
 10
158.627014
 20
377.215594
 30
0.0
  0
VERTEX
  8
0
  6
CONTINUOUS
 10
157.78916
 20
377.699329
 30
0.0
  0
SEQEND
  8
0
  6
CONTINUOUS
  0
POLYLINE
  8
0
  6
CONTINUOUS
 66
     1
 10
0.0
 20
0.0
 30
0.0
  0
VERTEX
  8
0
  6
CONTINUOUS
 10
159.256534
 20
381.086342
 30
0.0
  0
VERTEX
  8
0
  6
CONTINUOUS
 10
159.256534
 20
378.905945
 30
0.0
  0
VERTEX
  8
0
  6
CONTINUOUS
 10
159.256534
 20
376.85214
 30
0.0
  0
SEQEND
  8
0
  6
CONTINUOUS
  0
POLYLINE
  8
0
  6
CONTINUOUS
 66
     1
 10
0.0
 20
0.0
 30
0.0
  0
VERTEX
  8
0
  6
CONTINUOUS
 10
157.113713
 20
380.725481
 30
0.0
  0
VERTEX
  8
0
  6
CONTINUOUS
 10
156.998752
 20
380.857776
 30
0.0
  0
VERTEX
  8
0
  6
CONTINUOUS
 10
156.958383
 20
381.068814
 30
0.0
  0
SEQEND
  8
0
  6
CONTINUOUS
  0
POLYLINE
  8
0
  6
CONTINUOUS
 66
     1
 10
0.0
 20
0.0
 30
0.0
  0
VERTEX
  8
0
  6
CONTINUOUS
 10
157.842267
 20
380.762628
 30
0.0
  0
VERTEX
  8
0
  6
CONTINUOUS
 10
157.730195
 20
380.72527
 30
0.0
  0
VERTEX
  8
0
  6
CONTINUOUS
 10
157.600785
 20
380.72527
 30
0.0
  0
VERTEX
  8
0
  6
CONTINUOUS
 10
157.488713
 20
380.762628
 30
0.0
  0
SEQEND
  8
0
  6
CONTINUOUS
  0
POLYLINE
  8
0
  6
CONTINUOUS
 66
     1
 10
0.0
 20
0.0
 30
0.0
  0
VERTEX
  8
0
  6
CONTINUOUS
 10
157.488713
 20
385.665139
 30
0.0
  0
VERTEX
  8
0
  6
CONTINUOUS
 10
157.542672
 20
385.838089
 30
0.0
  0
VERTEX
  8
0
  6
CONTINUOUS
 10
157.668575
 20
385.969513
 30
0.0
  0
SEQEND
  8
0
  6
CONTINUOUS
  0
POLYLINE
  8
0
  6
CONTINUOUS
 66
     1
 10
0.0
 20
0.0
 30
0.0
  0
VERTEX
  8
0
  6
CONTINUOUS
 10
157.842267
 20
385.665139
 30
0.0
  0
VERTEX
  8
0
  6
CONTINUOUS
 10
157.730195
 20
385.627782
 30
0.0
  0
VERTEX
  8
0
  6
CONTINUOUS
 10
157.600785
 20
385.627782
 30
0.0
  0
VERTEX
  8
0
  6
CONTINUOUS
 10
157.488713
 20
385.665139
 30
0.0
  0
SEQEND
  8
0
  6
CONTINUOUS
  0
POLYLINE
  8
0
  6
CONTINUOUS
 66
     1
 10
0.0
 20
0.0
 30
0.0
  0
VERTEX
  8
0
  6
CONTINUOUS
 10
156.251277
 20
386.816357
 30
0.0
  0
VERTEX
  8
0
  6
CONTINUOUS
 10
156.126277
 20
386.684393
 30
0.0
  0
VERTEX
  8
0
  6
CONTINUOUS
 10
156.0745
 20
386.51014
 30
0.0
  0
SEQEND
  8
0
  6
CONTINUOUS
  0
POLYLINE
  8
0
  6
CONTINUOUS
 66
     1
 10
0.0
 20
0.0
 30
0.0
  0
VERTEX
  8
0
  6
CONTINUOUS
 10
177.818087
 20
387.568658
 30
0.0
  0
VERTEX
  8
0
  6
CONTINUOUS
 10
177.188567
 20
387.932111
 30
0.0
  0
VERTEX
  8
0
  6
CONTINUOUS
 10
176.350713
 20
388.415847
 30
0.0
  0
SEQEND
  8
0
  6
CONTINUOUS
  0
POLYLINE
  8
0
  6
CONTINUOUS
 66
     1
 10
0.0
 20
0.0
 30
0.0
  0
VERTEX
  8
0
  6
CONTINUOUS
 10
176.703695
 20
391.163871
 30
0.0
  0
VERTEX
  8
0
  6
CONTINUOUS
 10
176.757373
 20
391.275021
 30
0.0
  0
SEQEND
  8
0
  6
CONTINUOUS
  0
POLYLINE
  8
0
  6
CONTINUOUS
 66
     1
 10
0.0
 20
0.0
 30
0.0
  0
VERTEX
  8
0
  6
CONTINUOUS
 10
176.703695
 20
391.163871
 30
0.0
  0
VERTEX
  8
0
  6
CONTINUOUS
 10
176.376391
 20
391.146857
 30
0.0
  0
SEQEND
  8
0
  6
CONTINUOUS
  0
POLYLINE
  8
0
  6
CONTINUOUS
 66
     1
 10
0.0
 20
0.0
 30
0.0
  0
VERTEX
  8
0
  6
CONTINUOUS
 10
176.511176
 20
391.256844
 30
0.0
  0
VERTEX
  8
0
  6
CONTINUOUS
 10
176.376391
 20
391.146857
 30
0.0
  0
SEQEND
  8
0
  6
CONTINUOUS
  0
POLYLINE
  8
0
  6
CONTINUOUS
 66
     1
 10
0.0
 20
0.0
 30
0.0
  0
VERTEX
  8
0
  6
CONTINUOUS
 10
176.227043
 20
391.439066
 30
0.0
  0
VERTEX
  8
0
  6
CONTINUOUS
 10
176.050266
 20
391.479145
 30
0.0
  0
SEQEND
  8
0
  6
CONTINUOUS
  0
POLYLINE
  8
0
  6
CONTINUOUS
 66
     1
 10
0.0
 20
0.0
 30
0.0
  0
VERTEX
  8
0
  6
CONTINUOUS
 10
176.376391
 20
391.146857
 30
0.0
  0
VERTEX
  8
0
  6
CONTINUOUS
 10
176.227043
 20
391.439066
 30
0.0
  0
SEQEND
  8
0
  6
CONTINUOUS
  0
POLYLINE
  8
0
  6
CONTINUOUS
 66
     1
 10
0.0
 20
0.0
 30
0.0
  0
VERTEX
  8
0
  6
CONTINUOUS
 10
176.211301
 20
391.145694
 30
0.0
  0
VERTEX
  8
0
  6
CONTINUOUS
 10
176.376391
 20
391.146857
 30
0.0
  0
SEQEND
  8
0
  6
CONTINUOUS
  0
POLYLINE
  8
0
  6
CONTINUOUS
 66
     1
 10
0.0
 20
0.0
 30
0.0
  0
VERTEX
  8
0
  6
CONTINUOUS
 10
176.050266
 20
391.479145
 30
0.0
  0
VERTEX
  8
0
  6
CONTINUOUS
 10
176.211301
 20
391.145694
 30
0.0
  0
SEQEND
  8
0
  6
CONTINUOUS
  0
POLYLINE
  8
0
  6
CONTINUOUS
 66
     1
 10
0.0
 20
0.0
 30
0.0
  0
VERTEX
  8
0
  6
CONTINUOUS
 10
176.580596
 20
391.172959
 30
0.0
  0
VERTEX
  8
0
  6
CONTINUOUS
 10
176.40382
 20
391.275021
 30
0.0
  0
VERTEX
  8
0
  6
CONTINUOUS
 10
176.050266
 20
391.479145
 30
0.0
  0
SEQEND
  8
0
  6
CONTINUOUS
  0
POLYLINE
  8
0
  6
CONTINUOUS
 66
     1
 10
0.0
 20
0.0
 30
0.0
  0
VERTEX
  8
0
  6
CONTINUOUS
 10
176.050266
 20
391.479145
 30
0.0
  0
VERTEX
  8
0
  6
CONTINUOUS
 10
175.87349
 20
391.581207
 30
0.0
  0
VERTEX
  8
0
  6
CONTINUOUS
 10
175.519936
 20
391.785332
 30
0.0
  0
SEQEND
  8
0
  6
CONTINUOUS
  0
POLYLINE
  8
0
  6
CONTINUOUS
 66
     1
 10
0.0
 20
0.0
 30
0.0
  0
VERTEX
  8
0
  6
CONTINUOUS
 10
175.519936
 20
391.785332
 30
0.0
  0
VERTEX
  8
0
  6
CONTINUOUS
 10
175.563864
 20
391.57945
 30
0.0
  0
VERTEX
  8
0
  6
CONTINUOUS
 10
175.680877
 20
391.451935
 30
0.0
  0
VERTEX
  8
0
  6
CONTINUOUS
 10
175.849921
 20
391.414242
 30
0.0
  0
VERTEX
  8
0
  6
CONTINUOUS
 10
176.050266
 20
391.479145
 30
0.0
  0
SEQEND
  8
0
  6
CONTINUOUS
  0
POLYLINE
  8
0
  6
CONTINUOUS
 66
     1
 10
0.0
 20
0.0
 30
0.0
  0
VERTEX
  8
0
  6
CONTINUOUS
 10
176.350713
 20
388.415847
 30
0.0
  0
VERTEX
  8
0
  6
CONTINUOUS
 10
176.345749
 20
388.325328
 30
0.0
  0
VERTEX
  8
0
  6
CONTINUOUS
 10
176.315022
 20
388.233257
 30
0.0
  0
VERTEX
  8
0
  6
CONTINUOUS
 10
176.264266
 20
388.152115
 30
0.0
  0
VERTEX
  8
0
  6
CONTINUOUS
 10
176.199299
 20
388.095079
 30
0.0
  0
SEQEND
  8
0
  6
CONTINUOUS
  0
POLYLINE
  8
0
  6
CONTINUOUS
 66
     1
 10
0.0
 20
0.0
 30
0.0
  0
VERTEX
  8
0
  6
CONTINUOUS
 10
173.723465
 20
391.849891
 30
0.0
  0
VERTEX
  8
0
  6
CONTINUOUS
 10
173.703122
 20
391.838656
 30
0.0
  0
VERTEX
  8
0
  6
CONTINUOUS
 10
173.682698
 20
391.828391
 30
0.0
  0
SEQEND
  8
0
  6
CONTINUOUS
  0
POLYLINE
  8
0
  6
CONTINUOUS
 66
     1
 10
0.0
 20
0.0
 30
0.0
  0
VERTEX
  8
0
  6
CONTINUOUS
 10
174.276352
 20
391.562991
 30
0.0
  0
VERTEX
  8
0
  6
CONTINUOUS
 10
173.878808
 20
391.537417
 30
0.0
  0
VERTEX
  8
0
  6
CONTINUOUS
 10
173.66911
 20
391.908808
 30
0.0
  0
SEQEND
  8
0
  6
CONTINUOUS
  0
POLYLINE
  8
0
  6
CONTINUOUS
 66
     1
 10
0.0
 20
0.0
 30
0.0
  0
VERTEX
  8
0
  6
CONTINUOUS
 10
173.661255
 20
397.086296
 30
0.0
  0
VERTEX
  8
0
  6
CONTINUOUS
 10
173.56125
 20
396.980756
 30
0.0
  0
VERTEX
  8
0
  6
CONTINUOUS
 10
173.519834
 20
396.841422
 30
0.0
  0
SEQEND
  8
0
  6
CONTINUOUS
  0
POLYLINE
  8
0
  6
CONTINUOUS
 66
     1
 10
0.0
 20
0.0
 30
0.0
  0
VERTEX
  8
0
  6
CONTINUOUS
 10
181.342045
 20
381.815804
 30
0.0
  0
VERTEX
  8
0
  6
CONTINUOUS
 10
181.410079
 20
381.734022
 30
0.0
  0
SEQEND
  8
0
  6
CONTINUOUS
  0
POLYLINE
  8
0
  6
CONTINUOUS
 66
     1
 10
0.0
 20
0.0
 30
0.0
  0
VERTEX
  8
0
  6
CONTINUOUS
 10
181.330616
 20
381.688405
 30
0.0
  0
VERTEX
  8
0
  6
CONTINUOUS
 10
181.217771
 20
381.807446
 30
0.0
  0
SEQEND
  8
0
  6
CONTINUOUS
  0
POLYLINE
  8
0
  6
CONTINUOUS
 66
     1
 10
0.0
 20
0.0
 30
0.0
  0
VERTEX
  8
0
  6
CONTINUOUS
 10
181.342045
 20
381.815804
 30
0.0
  0
VERTEX
  8
0
  6
CONTINUOUS
 10
181.344421
 20
381.814383
 30
0.0
  0
SEQEND
  8
0
  6
CONTINUOUS
  0
POLYLINE
  8
0
  6
CONTINUOUS
 66
     1
 10
0.0
 20
0.0
 30
0.0
  0
VERTEX
  8
0
  6
CONTINUOUS
 10
181.217771
 20
381.807446
 30
0.0
  0
VERTEX
  8
0
  6
CONTINUOUS
 10
181.342045
 20
381.815804
 30
0.0
  0
SEQEND
  8
0
  6
CONTINUOUS
  0
POLYLINE
  8
0
  6
CONTINUOUS
 66
     1
 10
0.0
 20
0.0
 30
0.0
  0
VERTEX
  8
0
  6
CONTINUOUS
 10
176.855855
 20
398.508323
 30
0.0
  0
VERTEX
  8
0
  6
CONTINUOUS
 10
176.841217
 20
398.576943
 30
0.0
  0
VERTEX
  8
0
  6
CONTINUOUS
 10
176.80222
 20
398.619445
 30
0.0
  0
VERTEX
  8
0
  6
CONTINUOUS
 10
176.745878
 20
398.632004
 30
0.0
  0
VERTEX
  8
0
  6
CONTINUOUS
 10
176.679105
 20
398.610369
 30
0.0
  0
SEQEND
  8
0
  6
CONTINUOUS
  0
POLYLINE
  8
0
  6
CONTINUOUS
 66
     1
 10
0.0
 20
0.0
 30
0.0
  0
VERTEX
  8
0
  6
CONTINUOUS
 10
174.81283
 20
397.532875
 30
0.0
  0
VERTEX
  8
0
  6
CONTINUOUS
 10
174.746071
 20
397.477419
 30
0.0
  0
VERTEX
  8
0
  6
CONTINUOUS
 10
174.689758
 20
397.399859
 30
0.0
  0
VERTEX
  8
0
  6
CONTINUOUS
 10
174.650706
 20
397.312237
 30
0.0
  0
VERTEX
  8
0
  6
CONTINUOUS
 10
174.636053
 20
397.226657
 30
0.0
  0
SEQEND
  8
0
  6
CONTINUOUS
  0
POLYLINE
  8
0
  6
CONTINUOUS
 66
     1
 10
0.0
 20
0.0
 30
0.0
  0
VERTEX
  8
0
  6
CONTINUOUS
 10
177.345299
 20
384.287349
 30
0.0
  0
VERTEX
  8
0
  6
CONTINUOUS
 10
177.342898
 20
384.288783
 30
0.0
  0
VERTEX
  8
0
  6
CONTINUOUS
 10
177.286592
 20
384.301305
 30
0.0
  0
VERTEX
  8
0
  6
CONTINUOUS
 10
177.219846
 20
384.279671
 30
0.0
  0
SEQEND
  8
0
  6
CONTINUOUS
  0
POLYLINE
  8
0
  6
CONTINUOUS
 66
     1
 10
0.0
 20
0.0
 30
0.0
  0
VERTEX
  8
0
  6
CONTINUOUS
 10
177.219846
 20
384.279671
 30
0.0
  0
VERTEX
  8
0
  6
CONTINUOUS
 10
178.435384
 20
383.52801
 30
0.0
  0
SEQEND
  8
0
  6
CONTINUOUS
  0
POLYLINE
  8
0
  6
CONTINUOUS
 66
     1
 10
0.0
 20
0.0
 30
0.0
  0
VERTEX
  8
0
  6
CONTINUOUS
 10
180.557446
 20
382.215776
 30
0.0
  0
VERTEX
  8
0
  6
CONTINUOUS
 10
181.217771
 20
381.807446
 30
0.0
  0
SEQEND
  8
0
  6
CONTINUOUS
  0
POLYLINE
  8
0
  6
CONTINUOUS
 66
     1
 10
0.0
 20
0.0
 30
0.0
  0
VERTEX
  8
0
  6
CONTINUOUS
 10
181.140943
 20
381.763089
 30
0.0
  0
VERTEX
  8
0
  6
CONTINUOUS
 10
181.179357
 20
381.785267
 30
0.0
  0
VERTEX
  8
0
  6
CONTINUOUS
 10
181.217771
 20
381.807446
 30
0.0
  0
SEQEND
  8
0
  6
CONTINUOUS
  0
POLYLINE
  8
0
  6
CONTINUOUS
 66
     1
 10
0.0
 20
0.0
 30
0.0
  0
VERTEX
  8
0
  6
CONTINUOUS
 10
181.140943
 20
381.763089
 30
0.0
  0
VERTEX
  8
0
  6
CONTINUOUS
 10
181.253788
 20
381.644048
 30
0.0
  0
SEQEND
  8
0
  6
CONTINUOUS
  0
POLYLINE
  8
0
  6
CONTINUOUS
 66
     1
 10
0.0
 20
0.0
 30
0.0
  0
VERTEX
  8
0
  6
CONTINUOUS
 10
181.123779
 20
381.568903
 30
0.0
  0
VERTEX
  8
0
  6
CONTINUOUS
 10
181.019092
 20
381.629347
 30
0.0
  0
SEQEND
  8
0
  6
CONTINUOUS
  0
POLYLINE
  8
0
  6
CONTINUOUS
 66
     1
 10
0.0
 20
0.0
 30
0.0
  0
VERTEX
  8
0
  6
CONTINUOUS
 10
180.947027
 20
381.46686
 30
0.0
  0
VERTEX
  8
0
  6
CONTINUOUS
 10
180.55757
 20
381.691714
 30
0.0
  0
SEQEND
  8
0
  6
CONTINUOUS
  0
POLYLINE
  8
0
  6
CONTINUOUS
 66
     1
 10
0.0
 20
0.0
 30
0.0
  0
VERTEX
  8
0
  6
CONTINUOUS
 10
178.435542
 20
382.916867
 30
0.0
  0
VERTEX
  8
0
  6
CONTINUOUS
 10
176.82422
 20
383.847164
 30
0.0
  0
SEQEND
  8
0
  6
CONTINUOUS
  0
POLYLINE
  8
0
  6
CONTINUOUS
 66
     1
 10
0.0
 20
0.0
 30
0.0
  0
VERTEX
  8
0
  6
CONTINUOUS
 10
177.00097
 20
384.153304
 30
0.0
  0
VERTEX
  8
0
  6
CONTINUOUS
 10
176.934197
 20
384.097835
 30
0.0
  0
VERTEX
  8
0
  6
CONTINUOUS
 10
176.877855
 20
384.020218
 30
0.0
  0
VERTEX
  8
0
  6
CONTINUOUS
 10
176.838858
 20
383.932687
 30
0.0
  0
VERTEX
  8
0
  6
CONTINUOUS
 10
176.82422
 20
383.847164
 30
0.0
  0
SEQEND
  8
0
  6
CONTINUOUS
  0
POLYLINE
  8
0
  6
CONTINUOUS
 66
     1
 10
0.0
 20
0.0
 30
0.0
  0
VERTEX
  8
0
  6
CONTINUOUS
 10
181.140943
 20
381.763089
 30
0.0
  0
VERTEX
  8
0
  6
CONTINUOUS
 10
180.557491
 20
382.099945
 30
0.0
  0
SEQEND
  8
0
  6
CONTINUOUS
  0
POLYLINE
  8
0
  6
CONTINUOUS
 66
     1
 10
0.0
 20
0.0
 30
0.0
  0
VERTEX
  8
0
  6
CONTINUOUS
 10
178.435463
 20
383.325099
 30
0.0
  0
VERTEX
  8
0
  6
CONTINUOUS
 10
177.00097
 20
384.153304
 30
0.0
  0
SEQEND
  8
0
  6
CONTINUOUS
  0
POLYLINE
  8
0
  6
CONTINUOUS
 66
     1
 10
0.0
 20
0.0
 30
0.0
  0
VERTEX
  8
0
  6
CONTINUOUS
 10
181.019092
 20
381.629347
 30
0.0
  0
VERTEX
  8
0
  6
CONTINUOUS
 10
181.140943
 20
381.763089
 30
0.0
  0
SEQEND
  8
0
  6
CONTINUOUS
  0
POLYLINE
  8
0
  6
CONTINUOUS
 66
     1
 10
0.0
 20
0.0
 30
0.0
  0
VERTEX
  8
0
  6
CONTINUOUS
 10
180.965487
 20
381.477589
 30
0.0
  0
VERTEX
  8
0
  6
CONTINUOUS
 10
181.019092
 20
381.629347
 30
0.0
  0
SEQEND
  8
0
  6
CONTINUOUS
  0
POLYLINE
  8
0
  6
CONTINUOUS
 66
     1
 10
0.0
 20
0.0
 30
0.0
  0
VERTEX
  8
0
  6
CONTINUOUS
 10
178.435542
 20
382.508476
 30
0.0
  0
VERTEX
  8
0
  6
CONTINUOUS
 10
177.465032
 20
383.0688
 30
0.0
  0
VERTEX
  8
0
  6
CONTINUOUS
 10
173.893787
 20
385.130659
 30
0.0
  0
SEQEND
  8
0
  6
CONTINUOUS
  0
POLYLINE
  8
0
  6
CONTINUOUS
 66
     1
 10
0.0
 20
0.0
 30
0.0
  0
VERTEX
  8
0
  6
CONTINUOUS
 10
180.55757
 20
381.283322
 30
0.0
  0
VERTEX
  8
0
  6
CONTINUOUS
 10
180.593385
 20
381.262644
 30
0.0
  0
SEQEND
  8
0
  6
CONTINUOUS
  0
POLYLINE
  8
0
  6
CONTINUOUS
 66
     1
 10
0.0
 20
0.0
 30
0.0
  0
VERTEX
  8
0
  6
CONTINUOUS
 10
173.130138
 20
384.101939
 30
0.0
  0
VERTEX
  8
0
  6
CONTINUOUS
 10
176.814179
 20
381.974957
 30
0.0
  0
VERTEX
  8
0
  6
CONTINUOUS
 10
178.363928
 20
381.080209
 30
0.0
  0
SEQEND
  8
0
  6
CONTINUOUS
  0
POLYLINE
  8
0
  6
CONTINUOUS
 66
     1
 10
0.0
 20
0.0
 30
0.0
  0
VERTEX
  8
0
  6
CONTINUOUS
 10
178.363958
 20
381.080335
 30
0.0
  0
VERTEX
  8
0
  6
CONTINUOUS
 10
176.828733
 20
381.966697
 30
0.0
  0
VERTEX
  8
0
  6
CONTINUOUS
 10
173.130261
 20
384.102011
 30
0.0
  0
SEQEND
  8
0
  6
CONTINUOUS
  0
POLYLINE
  8
0
  6
CONTINUOUS
 66
     1
 10
0.0
 20
0.0
 30
0.0
  0
VERTEX
  8
0
  6
CONTINUOUS
 10
172.953388
 20
383.7958
 30
0.0
  0
VERTEX
  8
0
  6
CONTINUOUS
 10
176.637429
 20
381.668818
 30
0.0
  0
VERTEX
  8
0
  6
CONTINUOUS
 10
178.262424
 20
380.730626
 30
0.0
  0
SEQEND
  8
0
  6
CONTINUOUS
  0
POLYLINE
  8
0
  6
CONTINUOUS
 66
     1
 10
0.0
 20
0.0
 30
0.0
  0
VERTEX
  8
0
  6
CONTINUOUS
 10
163.27237
 20
379.540113
 30
0.0
  0
VERTEX
  8
0
  6
CONTINUOUS
 10
163.27237
 20
379.956472
 30
0.0
  0
VERTEX
  8
0
  6
CONTINUOUS
 10
163.27237
 20
380.508906
 30
0.0
  0
SEQEND
  8
0
  6
CONTINUOUS
  0
POLYLINE
  8
0
  6
CONTINUOUS
 66
     1
 10
0.0
 20
0.0
 30
0.0
  0
VERTEX
  8
0
  6
CONTINUOUS
 10
163.27237
 20
373.279586
 30
0.0
  0
VERTEX
  8
0
  6
CONTINUOUS
 10
163.27237
 20
371.191176
 30
0.0
  0
SEQEND
  8
0
  6
CONTINUOUS
  0
POLYLINE
  8
0
  6
CONTINUOUS
 66
     1
 10
0.0
 20
0.0
 30
0.0
  0
VERTEX
  8
0
  6
CONTINUOUS
 10
162.311758
 20
390.976856
 30
0.0
  0
VERTEX
  8
0
  6
CONTINUOUS
 10
162.827455
 20
390.679119
 30
0.0
  0
VERTEX
  8
0
  6
CONTINUOUS
 10
162.845127
 20
390.668915
 30
0.0
  0
SEQEND
  8
0
  6
CONTINUOUS
  0
POLYLINE
  8
0
  6
CONTINUOUS
 66
     1
 10
0.0
 20
0.0
 30
0.0
  0
VERTEX
  8
0
  6
CONTINUOUS
 10
163.195542
 20
373.323963
 30
0.0
  0
VERTEX
  8
0
  6
CONTINUOUS
 10
163.195542
 20
371.146819
 30
0.0
  0
SEQEND
  8
0
  6
CONTINUOUS
  0
POLYLINE
  8
0
  6
CONTINUOUS
 66
     1
 10
0.0
 20
0.0
 30
0.0
  0
VERTEX
  8
0
  6
CONTINUOUS
 10
162.821679
 20
390.598489
 30
0.0
  0
VERTEX
  8
0
  6
CONTINUOUS
 10
162.845127
 20
390.668915
 30
0.0
  0
SEQEND
  8
0
  6
CONTINUOUS
  0
POLYLINE
  8
0
  6
CONTINUOUS
 66
     1
 10
0.0
 20
0.0
 30
0.0
  0
VERTEX
  8
0
  6
CONTINUOUS
 10
157.668575
 20
385.969513
 30
0.0
  0
VERTEX
  8
0
  6
CONTINUOUS
 10
157.791576
 20
385.837478
 30
0.0
  0
VERTEX
  8
0
  6
CONTINUOUS
 10
157.842267
 20
385.665139
 30
0.0
  0
SEQEND
  8
0
  6
CONTINUOUS
  0
POLYLINE
  8
0
  6
CONTINUOUS
 66
     1
 10
0.0
 20
0.0
 30
0.0
  0
VERTEX
  8
0
  6
CONTINUOUS
 10
157.700899
 20
375.749901
 30
0.0
  0
VERTEX
  8
0
  6
CONTINUOUS
 10
157.797075
 20
375.692128
 30
0.0
  0
VERTEX
  8
0
  6
CONTINUOUS
 10
157.894764
 20
375.633467
 30
0.0
  0
VERTEX
  8
0
  6
CONTINUOUS
 10
157.981102
 20
375.584359
 30
0.0
  0
VERTEX
  8
0
  6
CONTINUOUS
 10
158.05134
 20
375.547573
 30
0.0
  0
SEQEND
  8
0
  6
CONTINUOUS
  0
POLYLINE
  8
0
  6
CONTINUOUS
 66
     1
 10
0.0
 20
0.0
 30
0.0
  0
VERTEX
  8
0
  6
CONTINUOUS
 10
156.97831
 20
375.966495
 30
0.0
  0
VERTEX
  8
0
  6
CONTINUOUS
 10
156.926735
 20
376.138323
 30
0.0
  0
VERTEX
  8
0
  6
CONTINUOUS
 10
156.801587
 20
376.269119
 30
0.0
  0
SEQEND
  8
0
  6
CONTINUOUS
  0
POLYLINE
  8
0
  6
CONTINUOUS
 66
     1
 10
0.0
 20
0.0
 30
0.0
  0
VERTEX
  8
0
  6
CONTINUOUS
 10
156.925619
 20
375.727179
 30
0.0
  0
VERTEX
  8
0
  6
CONTINUOUS
 10
156.964616
 20
375.771664
 30
0.0
  0
VERTEX
  8
0
  6
CONTINUOUS
 10
156.97831
 20
375.842152
 30
0.0
  0
SEQEND
  8
0
  6
CONTINUOUS
  0
POLYLINE
  8
0
  6
CONTINUOUS
 66
     1
 10
0.0
 20
0.0
 30
0.0
  0
VERTEX
  8
0
  6
CONTINUOUS
 10
156.681112
 20
375.586013
 30
0.0
  0
VERTEX
  8
0
  6
CONTINUOUS
 10
156.662086
 20
375.596998
 30
0.0
  0
VERTEX
  8
0
  6
CONTINUOUS
 10
156.607889
 20
375.628289
 30
0.0
  0
SEQEND
  8
0
  6
CONTINUOUS
  0
POLYLINE
  8
0
  6
CONTINUOUS
 66
     1
 10
0.0
 20
0.0
 30
0.0
  0
VERTEX
  8
0
  6
CONTINUOUS
 10
159.873791
 20
371.157719
 30
0.0
  0
VERTEX
  8
0
  6
CONTINUOUS
 10
159.331509
 20
371.449321
 30
0.0
  0
VERTEX
  8
0
  6
CONTINUOUS
 10
155.647468
 20
373.430344
 30
0.0
  0
SEQEND
  8
0
  6
CONTINUOUS
  0
POLYLINE
  8
0
  6
CONTINUOUS
 66
     1
 10
0.0
 20
0.0
 30
0.0
  0
VERTEX
  8
0
  6
CONTINUOUS
 10
162.541257
 20
390.436169
 30
0.0
  0
VERTEX
  8
0
  6
CONTINUOUS
 10
161.995819
 20
390.751078
 30
0.0
  0
SEQEND
  8
0
  6
CONTINUOUS
  0
POLYLINE
  8
0
  6
CONTINUOUS
 66
     1
 10
0.0
 20
0.0
 30
0.0
  0
VERTEX
  8
0
  6
CONTINUOUS
 10
162.845101
 20
373.179585
 30
0.0
  0
VERTEX
  8
0
  6
CONTINUOUS
 10
162.845101
 20
371.015776
 30
0.0
  0
SEQEND
  8
0
  6
CONTINUOUS
  0
POLYLINE
  8
0
  6
CONTINUOUS
 66
     1
 10
0.0
 20
0.0
 30
0.0
  0
VERTEX
  8
0
  6
CONTINUOUS
 10
155.647468
 20
373.430344
 30
0.0
  0
VERTEX
  8
0
  6
CONTINUOUS
 10
155.662118
 20
373.361699
 30
0.0
  0
VERTEX
  8
0
  6
CONTINUOUS
 10
155.701166
 20
373.319186
 30
0.0
  0
VERTEX
  8
0
  6
CONTINUOUS
 10
155.703541
 20
373.317862
 30
0.0
  0
SEQEND
  8
0
  6
CONTINUOUS
  0
POLYLINE
  8
0
  6
CONTINUOUS
 66
     1
 10
0.0
 20
0.0
 30
0.0
  0
VERTEX
  8
0
  6
CONTINUOUS
 10
156.180619
 20
374.299112
 30
0.0
  0
VERTEX
  8
0
  6
CONTINUOUS
 10
156.356465
 20
374.319628
 30
0.0
  0
VERTEX
  8
0
  6
CONTINUOUS
 10
156.53106
 20
374.504971
 30
0.0
  0
SEQEND
  8
0
  6
CONTINUOUS
  0
POLYLINE
  8
0
  6
CONTINUOUS
 66
     1
 10
0.0
 20
0.0
 30
0.0
  0
VERTEX
  8
0
  6
CONTINUOUS
 10
156.681112
 20
374.507052
 30
0.0
  0
VERTEX
  8
0
  6
CONTINUOUS
 10
156.662086
 20
374.518036
 30
0.0
  0
VERTEX
  8
0
  6
CONTINUOUS
 10
156.607889
 20
374.549327
 30
0.0
  0
SEQEND
  8
0
  6
CONTINUOUS
  0
POLYLINE
  8
0
  6
CONTINUOUS
 66
     1
 10
0.0
 20
0.0
 30
0.0
  0
VERTEX
  8
0
  6
CONTINUOUS
 10
160.323889
 20
376.770917
 30
0.0
  0
VERTEX
  8
0
  6
CONTINUOUS
 10
160.310195
 20
376.700428
 30
0.0
  0
VERTEX
  8
0
  6
CONTINUOUS
 10
160.271197
 20
376.655944
 30
0.0
  0
SEQEND
  8
0
  6
CONTINUOUS
  0
POLYLINE
  8
0
  6
CONTINUOUS
 66
     1
 10
0.0
 20
0.0
 30
0.0
  0
VERTEX
  8
0
  6
CONTINUOUS
 10
157.700899
 20
375.253001
 30
0.0
  0
VERTEX
  8
0
  6
CONTINUOUS
 10
157.876745
 20
375.273517
 30
0.0
  0
VERTEX
  8
0
  6
CONTINUOUS
 10
158.05134
 20
375.45886
 30
0.0
  0
SEQEND
  8
0
  6
CONTINUOUS
  0
POLYLINE
  8
0
  6
CONTINUOUS
 66
     1
 10
0.0
 20
0.0
 30
0.0
  0
VERTEX
  8
0
  6
CONTINUOUS
 10
162.845127
 20
390.668915
 30
0.0
  0
VERTEX
  8
0
  6
CONTINUOUS
 10
162.890836
 20
390.637962
 30
0.0
  0
SEQEND
  8
0
  6
CONTINUOUS
  0
POLYLINE
  8
0
  6
CONTINUOUS
 66
     1
 10
0.0
 20
0.0
 30
0.0
  0
VERTEX
  8
0
  6
CONTINUOUS
 10
162.928019
 20
390.716773
 30
0.0
  0
VERTEX
  8
0
  6
CONTINUOUS
 10
162.924684
 20
390.714848
 30
0.0
  0
VERTEX
  8
0
  6
CONTINUOUS
 10
162.886573
 20
390.692844
 30
0.0
  0
VERTEX
  8
0
  6
CONTINUOUS
 10
162.848462
 20
390.670841
 30
0.0
  0
VERTEX
  8
0
  6
CONTINUOUS
 10
162.845127
 20
390.668915
 30
0.0
  0
SEQEND
  8
0
  6
CONTINUOUS
  0
POLYLINE
  8
0
  6
CONTINUOUS
 66
     1
 10
0.0
 20
0.0
 30
0.0
  0
VERTEX
  8
0
  6
CONTINUOUS
 10
162.9733
 20
390.685574
 30
0.0
  0
VERTEX
  8
0
  6
CONTINUOUS
 10
162.928019
 20
390.716773
 30
0.0
  0
SEQEND
  8
0
  6
CONTINUOUS
  0
POLYLINE
  8
0
  6
CONTINUOUS
 66
     1
 10
0.0
 20
0.0
 30
0.0
  0
VERTEX
  8
0
  6
CONTINUOUS
 10
162.41295
 20
391.03528
 30
0.0
  0
VERTEX
  8
0
  6
CONTINUOUS
 10
162.910953
 20
390.727326
 30
0.0
  0
VERTEX
  8
0
  6
CONTINUOUS
 10
162.928019
 20
390.716773
 30
0.0
  0
SEQEND
  8
0
  6
CONTINUOUS
  0
POLYLINE
  8
0
  6
CONTINUOUS
 66
     1
 10
0.0
 20
0.0
 30
0.0
  0
VERTEX
  8
0
  6
CONTINUOUS
 10
162.928019
 20
390.716773
 30
0.0
  0
VERTEX
  8
0
  6
CONTINUOUS
 10
163.025072
 20
390.715572
 30
0.0
  0
SEQEND
  8
0
  6
CONTINUOUS
  0
POLYLINE
  8
0
  6
CONTINUOUS
 66
     1
 10
0.0
 20
0.0
 30
0.0
  0
VERTEX
  8
0
  6
CONTINUOUS
 10
178.216448
 20
380.591811
 30
0.0
  0
VERTEX
  8
0
  6
CONTINUOUS
 10
176.637429
 20
381.440899
 30
0.0
  0
VERTEX
  8
0
  6
CONTINUOUS
 10
172.953388
 20
383.421922
 30
0.0
  0
SEQEND
  8
0
  6
CONTINUOUS
  0
POLYLINE
  8
0
  6
CONTINUOUS
 66
     1
 10
0.0
 20
0.0
 30
0.0
  0
VERTEX
  8
0
  6
CONTINUOUS
 10
173.130261
 20
384.102011
 30
0.0
  0
VERTEX
  8
0
  6
CONTINUOUS
 10
173.370547
 20
384.301588
 30
0.0
  0
VERTEX
  8
0
  6
CONTINUOUS
 10
173.573248
 20
384.580725
 30
0.0
  0
VERTEX
  8
0
  6
CONTINUOUS
 10
173.71382
 20
384.896092
 30
0.0
  0
VERTEX
  8
0
  6
CONTINUOUS
 10
173.751884
 20
385.048889
 30
0.0
  0
SEQEND
  8
0
  6
CONTINUOUS
  0
POLYLINE
  8
0
  6
CONTINUOUS
 66
     1
 10
0.0
 20
0.0
 30
0.0
  0
VERTEX
  8
0
  6
CONTINUOUS
 10
173.130138
 20
384.101939
 30
0.0
  0
VERTEX
  8
0
  6
CONTINUOUS
 10
173.063364
 20
384.046471
 30
0.0
  0
VERTEX
  8
0
  6
CONTINUOUS
 10
173.007023
 20
383.968854
 30
0.0
  0
VERTEX
  8
0
  6
CONTINUOUS
 10
172.968026
 20
383.881323
 30
0.0
  0
VERTEX
  8
0
  6
CONTINUOUS
 10
172.953388
 20
383.7958
 30
0.0
  0
SEQEND
  8
0
  6
CONTINUOUS
  0
POLYLINE
  8
0
  6
CONTINUOUS
 66
     1
 10
0.0
 20
0.0
 30
0.0
  0
VERTEX
  8
0
  6
CONTINUOUS
 10
173.009461
 20
383.30944
 30
0.0
  0
VERTEX
  8
0
  6
CONTINUOUS
 10
173.007086
 20
383.310763
 30
0.0
  0
VERTEX
  8
0
  6
CONTINUOUS
 10
172.968038
 20
383.353277
 30
0.0
  0
VERTEX
  8
0
  6
CONTINUOUS
 10
172.953388
 20
383.421922
 30
0.0
  0
SEQEND
  8
0
  6
CONTINUOUS
  0
POLYLINE
  8
0
  6
CONTINUOUS
 66
     1
 10
0.0
 20
0.0
 30
0.0
  0
VERTEX
  8
0
  6
CONTINUOUS
 10
154.986069
 20
385.837583
 30
0.0
  0
VERTEX
  8
0
  6
CONTINUOUS
 10
155.037486
 20
386.095038
 30
0.0
  0
VERTEX
  8
0
  6
CONTINUOUS
 10
155.178651
 20
386.346344
 30
0.0
  0
SEQEND
  8
0
  6
CONTINUOUS
  0
POLYLINE
  8
0
  6
CONTINUOUS
 66
     1
 10
0.0
 20
0.0
 30
0.0
  0
VERTEX
  8
0
  6
CONTINUOUS
 10
159.256534
 20
376.85214
 30
0.0
  0
VERTEX
  8
0
  6
CONTINUOUS
 10
159.201635
 20
376.679743
 30
0.0
  0
SEQEND
  8
0
  6
CONTINUOUS
  0
POLYLINE
  8
0
  6
CONTINUOUS
 66
     1
 10
0.0
 20
0.0
 30
0.0
  0
VERTEX
  8
0
  6
CONTINUOUS
 10
159.432348
 20
376.813737
 30
0.0
  0
VERTEX
  8
0
  6
CONTINUOUS
 10
159.256534
 20
376.85214
 30
0.0
  0
SEQEND
  8
0
  6
CONTINUOUS
  0
POLYLINE
  8
0
  6
CONTINUOUS
 66
     1
 10
0.0
 20
0.0
 30
0.0
  0
VERTEX
  8
0
  6
CONTINUOUS
 10
159.366548
 20
376.585305
 30
0.0
  0
VERTEX
  8
0
  6
CONTINUOUS
 10
159.432348
 20
376.813737
 30
0.0
  0
SEQEND
  8
0
  6
CONTINUOUS
  0
POLYLINE
  8
0
  6
CONTINUOUS
 66
     1
 10
0.0
 20
0.0
 30
0.0
  0
VERTEX
  8
0
  6
CONTINUOUS
 10
159.201635
 20
376.679743
 30
0.0
  0
VERTEX
  8
0
  6
CONTINUOUS
 10
159.366548
 20
376.585305
 30
0.0
  0
SEQEND
  8
0
  6
CONTINUOUS
  0
POLYLINE
  8
0
  6
CONTINUOUS
 66
     1
 10
0.0
 20
0.0
 30
0.0
  0
VERTEX
  8
0
  6
CONTINUOUS
 10
175.242665
 20
386.302531
 30
0.0
  0
VERTEX
  8
0
  6
CONTINUOUS
 10
175.223639
 20
386.313515
 30
0.0
  0
VERTEX
  8
0
  6
CONTINUOUS
 10
175.169442
 20
386.344806
 30
0.0
  0
SEQEND
  8
0
  6
CONTINUOUS
  0
POLYLINE
  8
0
  6
CONTINUOUS
 66
     1
 10
0.0
 20
0.0
 30
0.0
  0
VERTEX
  8
0
  6
CONTINUOUS
 10
174.742172
 20
385.01563
 30
0.0
  0
VERTEX
  8
0
  6
CONTINUOUS
 10
174.918018
 20
385.036146
 30
0.0
  0
VERTEX
  8
0
  6
CONTINUOUS
 10
175.092614
 20
385.221488
 30
0.0
  0
SEQEND
  8
0
  6
CONTINUOUS
  0
POLYLINE
  8
0
  6
CONTINUOUS
 66
     1
 10
0.0
 20
0.0
 30
0.0
  0
VERTEX
  8
0
  6
CONTINUOUS
 10
175.242665
 20
385.22357
 30
0.0
  0
VERTEX
  8
0
  6
CONTINUOUS
 10
175.223639
 20
385.234554
 30
0.0
  0
VERTEX
  8
0
  6
CONTINUOUS
 10
175.169442
 20
385.265845
 30
0.0
  0
SEQEND
  8
0
  6
CONTINUOUS
  0
POLYLINE
  8
0
  6
CONTINUOUS
 66
     1
 10
0.0
 20
0.0
 30
0.0
  0
VERTEX
  8
0
  6
CONTINUOUS
 10
175.539863
 20
386.683013
 30
0.0
  0
VERTEX
  8
0
  6
CONTINUOUS
 10
175.488288
 20
386.854841
 30
0.0
  0
VERTEX
  8
0
  6
CONTINUOUS
 10
175.36314
 20
386.985636
 30
0.0
  0
SEQEND
  8
0
  6
CONTINUOUS
  0
POLYLINE
  8
0
  6
CONTINUOUS
 66
     1
 10
0.0
 20
0.0
 30
0.0
  0
VERTEX
  8
0
  6
CONTINUOUS
 10
175.487172
 20
386.443697
 30
0.0
  0
VERTEX
  8
0
  6
CONTINUOUS
 10
175.526169
 20
386.488181
 30
0.0
  0
VERTEX
  8
0
  6
CONTINUOUS
 10
175.539863
 20
386.558669
 30
0.0
  0
SEQEND
  8
0
  6
CONTINUOUS
  0
POLYLINE
  8
0
  6
CONTINUOUS
 66
     1
 10
0.0
 20
0.0
 30
0.0
  0
VERTEX
  8
0
  6
CONTINUOUS
 10
177.821157
 20
386.872969
 30
0.0
  0
VERTEX
  8
0
  6
CONTINUOUS
 10
177.76863
 20
386.762306
 30
0.0
  0
SEQEND
  8
0
  6
CONTINUOUS
  0
POLYLINE
  8
0
  6
CONTINUOUS
 66
     1
 10
0.0
 20
0.0
 30
0.0
  0
VERTEX
  8
0
  6
CONTINUOUS
 10
177.76863
 20
386.762306
 30
0.0
  0
VERTEX
  8
0
  6
CONTINUOUS
 10
177.767437
 20
386.761605
 30
0.0
  0
SEQEND
  8
0
  6
CONTINUOUS
  0
POLYLINE
  8
0
  6
CONTINUOUS
 66
     1
 10
0.0
 20
0.0
 30
0.0
  0
VERTEX
  8
0
  6
CONTINUOUS
 10
176.262452
 20
385.969519
 30
0.0
  0
VERTEX
  8
0
  6
CONTINUOUS
 10
176.358628
 20
385.960489
 30
0.0
  0
VERTEX
  8
0
  6
CONTINUOUS
 10
176.456317
 20
386.005877
 30
0.0
  0
VERTEX
  8
0
  6
CONTINUOUS
 10
176.542655
 20
386.081566
 30
0.0
  0
VERTEX
  8
0
  6
CONTINUOUS
 10
176.612893
 20
386.175378
 30
0.0
  0
SEQEND
  8
0
  6
CONTINUOUS
  0
POLYLINE
  8
0
  6
CONTINUOUS
 66
     1
 10
0.0
 20
0.0
 30
0.0
  0
VERTEX
  8
0
  6
CONTINUOUS
 10
177.818087
 20
387.568658
 30
0.0
  0
VERTEX
  8
0
  6
CONTINUOUS
 10
177.763188
 20
387.39626
 30
0.0
  0
SEQEND
  8
0
  6
CONTINUOUS
  0
POLYLINE
  8
0
  6
CONTINUOUS
 66
     1
 10
0.0
 20
0.0
 30
0.0
  0
VERTEX
  8
0
  6
CONTINUOUS
 10
177.763188
 20
387.39626
 30
0.0
  0
VERTEX
  8
0
  6
CONTINUOUS
 10
177.928101
 20
387.301823
 30
0.0
  0
SEQEND
  8
0
  6
CONTINUOUS
  0
POLYLINE
  8
0
  6
CONTINUOUS
 66
     1
 10
0.0
 20
0.0
 30
0.0
  0
VERTEX
  8
0
  6
CONTINUOUS
 10
177.762502
 20
387.12946
 30
0.0
  0
VERTEX
  8
0
  6
CONTINUOUS
 10
177.815028
 20
386.958144
 30
0.0
  0
SEQEND
  8
0
  6
CONTINUOUS
  0
POLYLINE
  8
0
  6
CONTINUOUS
 66
     1
 10
0.0
 20
0.0
 30
0.0
  0
VERTEX
  8
0
  6
CONTINUOUS
 10
177.762502
 20
387.12946
 30
0.0
  0
VERTEX
  8
0
  6
CONTINUOUS
 10
177.928101
 20
387.301823
 30
0.0
  0
SEQEND
  8
0
  6
CONTINUOUS
  0
POLYLINE
  8
0
  6
CONTINUOUS
 66
     1
 10
0.0
 20
0.0
 30
0.0
  0
VERTEX
  8
0
  6
CONTINUOUS
 10
178.061188
 20
387.22421
 30
0.0
  0
VERTEX
  8
0
  6
CONTINUOUS
 10
177.928101
 20
387.301823
 30
0.0
  0
SEQEND
  8
0
  6
CONTINUOUS
  0
POLYLINE
  8
0
  6
CONTINUOUS
 66
     1
 10
0.0
 20
0.0
 30
0.0
  0
VERTEX
  8
0
  6
CONTINUOUS
 10
177.928101
 20
387.301823
 30
0.0
  0
VERTEX
  8
0
  6
CONTINUOUS
 10
177.993901
 20
387.530255
 30
0.0
  0
SEQEND
  8
0
  6
CONTINUOUS
  0
POLYLINE
  8
0
  6
CONTINUOUS
 66
     1
 10
0.0
 20
0.0
 30
0.0
  0
VERTEX
  8
0
  6
CONTINUOUS
 10
178.168528
 20
387.570423
 30
0.0
  0
VERTEX
  8
0
  6
CONTINUOUS
 10
177.993901
 20
387.530255
 30
0.0
  0
SEQEND
  8
0
  6
CONTINUOUS
  0
POLYLINE
  8
0
  6
CONTINUOUS
 66
     1
 10
0.0
 20
0.0
 30
0.0
  0
VERTEX
  8
0
  6
CONTINUOUS
 10
177.993901
 20
387.530255
 30
0.0
  0
VERTEX
  8
0
  6
CONTINUOUS
 10
177.818087
 20
387.568658
 30
0.0
  0
SEQEND
  8
0
  6
CONTINUOUS
  0
POLYLINE
  8
0
  6
CONTINUOUS
 66
     1
 10
0.0
 20
0.0
 30
0.0
  0
VERTEX
  8
0
  6
CONTINUOUS
 10
177.818087
 20
391.883898
 30
0.0
  0
VERTEX
  8
0
  6
CONTINUOUS
 10
177.818087
 20
389.622463
 30
0.0
  0
VERTEX
  8
0
  6
CONTINUOUS
 10
177.818087
 20
387.568658
 30
0.0
  0
SEQEND
  8
0
  6
CONTINUOUS
  0
POLYLINE
  8
0
  6
CONTINUOUS
 66
     1
 10
0.0
 20
0.0
 30
0.0
  0
VERTEX
  8
0
  6
CONTINUOUS
 10
178.168528
 20
392.089752
 30
0.0
  0
VERTEX
  8
0
  6
CONTINUOUS
 10
178.099607
 20
391.995781
 30
0.0
  0
VERTEX
  8
0
  6
CONTINUOUS
 10
178.013312
 20
391.920967
 30
0.0
  0
VERTEX
  8
0
  6
CONTINUOUS
 10
177.915071
 20
391.875893
 30
0.0
  0
VERTEX
  8
0
  6
CONTINUOUS
 10
177.818087
 20
391.883898
 30
0.0
  0
SEQEND
  8
0
  6
CONTINUOUS
  0
POLYLINE
  8
0
  6
CONTINUOUS
 66
     1
 10
0.0
 20
0.0
 30
0.0
  0
VERTEX
  8
0
  6
CONTINUOUS
 10
178.31493
 20
387.708525
 30
0.0
  0
VERTEX
  8
0
  6
CONTINUOUS
 10
178.245356
 20
387.607704
 30
0.0
  0
SEQEND
  8
0
  6
CONTINUOUS
  0
POLYLINE
  8
0
  6
CONTINUOUS
 66
     1
 10
0.0
 20
0.0
 30
0.0
  0
VERTEX
  8
0
  6
CONTINUOUS
 10
178.31493
 20
387.708525
 30
0.0
  0
VERTEX
  8
0
  6
CONTINUOUS
 10
178.314914
 20
387.706674
 30
0.0
  0
SEQEND
  8
0
  6
CONTINUOUS
  0
POLYLINE
  8
0
  6
CONTINUOUS
 66
     1
 10
0.0
 20
0.0
 30
0.0
  0
VERTEX
  8
0
  6
CONTINUOUS
 10
178.1492
 20
387.174227
 30
0.0
  0
VERTEX
  8
0
  6
CONTINUOUS
 10
178.116548
 20
387.192248
 30
0.0
  0
SEQEND
  8
0
  6
CONTINUOUS
  0
POLYLINE
  8
0
  6
CONTINUOUS
 66
     1
 10
0.0
 20
0.0
 30
0.0
  0
VERTEX
  8
0
  6
CONTINUOUS
 10
176.757373
 20
391.275021
 30
0.0
  0
VERTEX
  8
0
  6
CONTINUOUS
 10
176.511176
 20
391.256844
 30
0.0
  0
SEQEND
  8
0
  6
CONTINUOUS
  0
POLYLINE
  8
0
  6
CONTINUOUS
 66
     1
 10
0.0
 20
0.0
 30
0.0
  0
VERTEX
  8
0
  6
CONTINUOUS
 10
176.511176
 20
391.256844
 30
0.0
  0
VERTEX
  8
0
  6
CONTINUOUS
 10
176.40382
 20
391.479145
 30
0.0
  0
SEQEND
  8
0
  6
CONTINUOUS
  0
POLYLINE
  8
0
  6
CONTINUOUS
 66
     1
 10
0.0
 20
0.0
 30
0.0
  0
VERTEX
  8
0
  6
CONTINUOUS
 10
176.40382
 20
396.381657
 30
0.0
  0
VERTEX
  8
0
  6
CONTINUOUS
 10
176.40382
 20
393.724511
 30
0.0
  0
VERTEX
  8
0
  6
CONTINUOUS
 10
176.40382
 20
391.479145
 30
0.0
  0
SEQEND
  8
0
  6
CONTINUOUS
  0
POLYLINE
  8
0
  6
CONTINUOUS
 66
     1
 10
0.0
 20
0.0
 30
0.0
  0
VERTEX
  8
0
  6
CONTINUOUS
 10
178.245356
 20
387.607704
 30
0.0
  0
VERTEX
  8
0
  6
CONTINUOUS
 10
178.245356
 20
392.281374
 30
0.0
  0
VERTEX
  8
0
  6
CONTINUOUS
 10
178.245356
 20
397.444868
 30
0.0
  0
SEQEND
  8
0
  6
CONTINUOUS
  0
POLYLINE
  8
0
  6
CONTINUOUS
 66
     1
 10
0.0
 20
0.0
 30
0.0
  0
VERTEX
  8
0
  6
CONTINUOUS
 10
178.245356
 20
387.607704
 30
0.0
  0
VERTEX
  8
0
  6
CONTINUOUS
 10
178.116548
 20
387.192248
 30
0.0
  0
SEQEND
  8
0
  6
CONTINUOUS
  0
POLYLINE
  8
0
  6
CONTINUOUS
 66
     1
 10
0.0
 20
0.0
 30
0.0
  0
VERTEX
  8
0
  6
CONTINUOUS
 10
178.116548
 20
387.192248
 30
0.0
  0
VERTEX
  8
0
  6
CONTINUOUS
 10
177.821157
 20
386.872969
 30
0.0
  0
SEQEND
  8
0
  6
CONTINUOUS
  0
POLYLINE
  8
0
  6
CONTINUOUS
 66
     1
 10
0.0
 20
0.0
 30
0.0
  0
VERTEX
  8
0
  6
CONTINUOUS
 10
177.821157
 20
386.872969
 30
0.0
  0
VERTEX
  8
0
  6
CONTINUOUS
 10
177.429125
 20
386.646629
 30
0.0
  0
VERTEX
  8
0
  6
CONTINUOUS
 10
176.612893
 20
386.175378
 30
0.0
  0
SEQEND
  8
0
  6
CONTINUOUS
  0
POLYLINE
  8
0
  6
CONTINUOUS
 66
     1
 10
0.0
 20
0.0
 30
0.0
  0
VERTEX
  8
0
  6
CONTINUOUS
 10
177.815028
 20
386.958144
 30
0.0
  0
VERTEX
  8
0
  6
CONTINUOUS
 10
177.216993
 20
386.612868
 30
0.0
  0
VERTEX
  8
0
  6
CONTINUOUS
 10
176.612893
 20
386.264091
 30
0.0
  0
SEQEND
  8
0
  6
CONTINUOUS
  0
POLYLINE
  8
0
  6
CONTINUOUS
 66
     1
 10
0.0
 20
0.0
 30
0.0
  0
VERTEX
  8
0
  6
CONTINUOUS
 10
177.815028
 20
386.958144
 30
0.0
  0
VERTEX
  8
0
  6
CONTINUOUS
 10
178.061188
 20
387.22421
 30
0.0
  0
SEQEND
  8
0
  6
CONTINUOUS
  0
POLYLINE
  8
0
  6
CONTINUOUS
 66
     1
 10
0.0
 20
0.0
 30
0.0
  0
VERTEX
  8
0
  6
CONTINUOUS
 10
178.061188
 20
387.22421
 30
0.0
  0
VERTEX
  8
0
  6
CONTINUOUS
 10
178.168528
 20
387.570423
 30
0.0
  0
SEQEND
  8
0
  6
CONTINUOUS
  0
POLYLINE
  8
0
  6
CONTINUOUS
 66
     1
 10
0.0
 20
0.0
 30
0.0
  0
VERTEX
  8
0
  6
CONTINUOUS
 10
178.168528
 20
392.089752
 30
0.0
  0
VERTEX
  8
0
  6
CONTINUOUS
 10
178.168528
 20
389.624229
 30
0.0
  0
VERTEX
  8
0
  6
CONTINUOUS
 10
178.168528
 20
387.570423
 30
0.0
  0
SEQEND
  8
0
  6
CONTINUOUS
  0
POLYLINE
  8
0
  6
CONTINUOUS
 66
     1
 10
0.0
 20
0.0
 30
0.0
  0
VERTEX
  8
0
  6
CONTINUOUS
 10
176.757373
 20
391.275021
 30
0.0
  0
VERTEX
  8
0
  6
CONTINUOUS
 10
177.110927
 20
391.479145
 30
0.0
  0
VERTEX
  8
0
  6
CONTINUOUS
 10
178.168528
 20
392.089752
 30
0.0
  0
SEQEND
  8
0
  6
CONTINUOUS
  0
POLYLINE
  8
0
  6
CONTINUOUS
 66
     1
 10
0.0
 20
0.0
 30
0.0
  0
VERTEX
  8
0
  6
CONTINUOUS
 10
178.192829
 20
397.616184
 30
0.0
  0
VERTEX
  8
0
  6
CONTINUOUS
 10
178.245356
 20
397.444868
 30
0.0
  0
SEQEND
  8
0
  6
CONTINUOUS
  0
POLYLINE
  8
0
  6
CONTINUOUS
 66
     1
 10
0.0
 20
0.0
 30
0.0
  0
VERTEX
  8
0
  6
CONTINUOUS
 10
178.245356
 20
397.444868
 30
0.0
  0
VERTEX
  8
0
  6
CONTINUOUS
 10
177.323059
 20
396.91238
 30
0.0
  0
VERTEX
  8
0
  6
CONTINUOUS
 10
176.40382
 20
396.381657
 30
0.0
  0
SEQEND
  8
0
  6
CONTINUOUS
  0
POLYLINE
  8
0
  6
CONTINUOUS
 66
     1
 10
0.0
 20
0.0
 30
0.0
  0
VERTEX
  8
0
  6
CONTINUOUS
 10
176.40382
 20
396.381657
 30
0.0
  0
VERTEX
  8
0
  6
CONTINUOUS
 10
176.351293
 20
396.552972
 30
0.0
  0
SEQEND
  8
0
  6
CONTINUOUS
  0
POLYLINE
  8
0
  6
CONTINUOUS
 66
     1
 10
0.0
 20
0.0
 30
0.0
  0
VERTEX
  8
0
  6
CONTINUOUS
 10
178.071665
 20
397.749242
 30
0.0
  0
VERTEX
  8
0
  6
CONTINUOUS
 10
177.149367
 20
397.216753
 30
0.0
  0
VERTEX
  8
0
  6
CONTINUOUS
 10
176.230128
 20
396.686031
 30
0.0
  0
SEQEND
  8
0
  6
CONTINUOUS
  0
POLYLINE
  8
0
  6
CONTINUOUS
 66
     1
 10
0.0
 20
0.0
 30
0.0
  0
VERTEX
  8
0
  6
CONTINUOUS
 10
176.050266
 20
396.381657
 30
0.0
  0
VERTEX
  8
0
  6
CONTINUOUS
 10
176.227043
 20
396.341577
 30
0.0
  0
SEQEND
  8
0
  6
CONTINUOUS
  0
POLYLINE
  8
0
  6
CONTINUOUS
 66
     1
 10
0.0
 20
0.0
 30
0.0
  0
VERTEX
  8
0
  6
CONTINUOUS
 10
176.106093
 20
396.553528
 30
0.0
  0
VERTEX
  8
0
  6
CONTINUOUS
 10
176.050266
 20
396.381657
 30
0.0
  0
SEQEND
  8
0
  6
CONTINUOUS
  0
POLYLINE
  8
0
  6
CONTINUOUS
 66
     1
 10
0.0
 20
0.0
 30
0.0
  0
VERTEX
  8
0
  6
CONTINUOUS
 10
176.227043
 20
396.341577
 30
0.0
  0
VERTEX
  8
0
  6
CONTINUOUS
 10
176.228324
 20
396.482437
 30
0.0
  0
SEQEND
  8
0
  6
CONTINUOUS
  0
POLYLINE
  8
0
  6
CONTINUOUS
 66
     1
 10
0.0
 20
0.0
 30
0.0
  0
VERTEX
  8
0
  6
CONTINUOUS
 10
176.230128
 20
396.686031
 30
0.0
  0
VERTEX
  8
0
  6
CONTINUOUS
 10
176.106093
 20
396.553528
 30
0.0
  0
SEQEND
  8
0
  6
CONTINUOUS
  0
POLYLINE
  8
0
  6
CONTINUOUS
 66
     1
 10
0.0
 20
0.0
 30
0.0
  0
VERTEX
  8
0
  6
CONTINUOUS
 10
176.351293
 20
396.552972
 30
0.0
  0
VERTEX
  8
0
  6
CONTINUOUS
 10
176.230128
 20
396.686031
 30
0.0
  0
SEQEND
  8
0
  6
CONTINUOUS
  0
POLYLINE
  8
0
  6
CONTINUOUS
 66
     1
 10
0.0
 20
0.0
 30
0.0
  0
VERTEX
  8
0
  6
CONTINUOUS
 10
176.351293
 20
396.552972
 30
0.0
  0
VERTEX
  8
0
  6
CONTINUOUS
 10
176.228324
 20
396.482437
 30
0.0
  0
SEQEND
  8
0
  6
CONTINUOUS
  0
POLYLINE
  8
0
  6
CONTINUOUS
 66
     1
 10
0.0
 20
0.0
 30
0.0
  0
VERTEX
  8
0
  6
CONTINUOUS
 10
176.228324
 20
396.482437
 30
0.0
  0
VERTEX
  8
0
  6
CONTINUOUS
 10
176.106093
 20
396.553528
 30
0.0
  0
SEQEND
  8
0
  6
CONTINUOUS
  0
POLYLINE
  8
0
  6
CONTINUOUS
 66
     1
 10
0.0
 20
0.0
 30
0.0
  0
VERTEX
  8
0
  6
CONTINUOUS
 10
178.071665
 20
397.749242
 30
0.0
  0
VERTEX
  8
0
  6
CONTINUOUS
 10
178.192829
 20
397.616184
 30
0.0
  0
SEQEND
  8
0
  6
CONTINUOUS
  0
POLYLINE
  8
0
  6
CONTINUOUS
 66
     1
 10
0.0
 20
0.0
 30
0.0
  0
VERTEX
  8
0
  6
CONTINUOUS
 10
178.195938
 20
397.7576
 30
0.0
  0
VERTEX
  8
0
  6
CONTINUOUS
 10
178.071665
 20
397.749242
 30
0.0
  0
SEQEND
  8
0
  6
CONTINUOUS
  0
POLYLINE
  8
0
  6
CONTINUOUS
 66
     1
 10
0.0
 20
0.0
 30
0.0
  0
VERTEX
  8
0
  6
CONTINUOUS
 10
178.270062
 20
397.659753
 30
0.0
  0
VERTEX
  8
0
  6
CONTINUOUS
 10
178.192829
 20
397.616184
 30
0.0
  0
SEQEND
  8
0
  6
CONTINUOUS
  0
POLYLINE
  8
0
  6
CONTINUOUS
 66
     1
 10
0.0
 20
0.0
 30
0.0
  0
VERTEX
  8
0
  6
CONTINUOUS
 10
178.198294
 20
397.756192
 30
0.0
  0
VERTEX
  8
0
  6
CONTINUOUS
 10
178.195938
 20
397.7576
 30
0.0
  0
SEQEND
  8
0
  6
CONTINUOUS
  0
POLYLINE
  8
0
  6
CONTINUOUS
 66
     1
 10
0.0
 20
0.0
 30
0.0
  0
VERTEX
  8
0
  6
CONTINUOUS
 10
178.31493
 20
397.545689
 30
0.0
  0
VERTEX
  8
0
  6
CONTINUOUS
 10
178.31494
 20
397.54706
 30
0.0
  0
SEQEND
  8
0
  6
CONTINUOUS
  0
POLYLINE
  8
0
  6
CONTINUOUS
 66
     1
 10
0.0
 20
0.0
 30
0.0
  0
VERTEX
  8
0
  6
CONTINUOUS
 10
178.31493
 20
397.545689
 30
0.0
  0
VERTEX
  8
0
  6
CONTINUOUS
 10
178.270062
 20
397.659753
 30
0.0
  0
SEQEND
  8
0
  6
CONTINUOUS
  0
POLYLINE
  8
0
  6
CONTINUOUS
 66
     1
 10
0.0
 20
0.0
 30
0.0
  0
VERTEX
  8
0
  6
CONTINUOUS
 10
178.195938
 20
397.7576
 30
0.0
  0
VERTEX
  8
0
  6
CONTINUOUS
 10
178.270062
 20
397.659753
 30
0.0
  0
SEQEND
  8
0
  6
CONTINUOUS
  0
POLYLINE
  8
0
  6
CONTINUOUS
 66
     1
 10
0.0
 20
0.0
 30
0.0
  0
VERTEX
  8
0
  6
CONTINUOUS
 10
147.882901
 20
384.551366
 30
0.0
  0
VERTEX
  8
0
  6
CONTINUOUS
 10
148.394528
 20
385.26258
 30
0.0
  0
VERTEX
  8
0
  6
CONTINUOUS
 10
148.910188
 20
385.691021
 30
0.0
  0
SEQEND
  8
0
  6
CONTINUOUS
  0
POLYLINE
  8
0
  6
CONTINUOUS
 66
     1
 10
0.0
 20
0.0
 30
0.0
  0
VERTEX
  8
0
  6
CONTINUOUS
 10
147.392443
 20
384.836244
 30
0.0
  0
VERTEX
  8
0
  6
CONTINUOUS
 10
147.882901
 20
384.551366
 30
0.0
  0
SEQEND
  8
0
  6
CONTINUOUS
  0
POLYLINE
  8
0
  6
CONTINUOUS
 66
     1
 10
0.0
 20
0.0
 30
0.0
  0
VERTEX
  8
0
  6
CONTINUOUS
 10
147.882901
 20
384.551366
 30
0.0
  0
VERTEX
  8
0
  6
CONTINUOUS
 10
147.524128
 20
383.752974
 30
0.0
  0
VERTEX
  8
0
  6
CONTINUOUS
 10
147.411058
 20
383.09445
 30
0.0
  0
SEQEND
  8
0
  6
CONTINUOUS
  0
POLYLINE
  8
0
  6
CONTINUOUS
 66
     1
 10
0.0
 20
0.0
 30
0.0
  0
VERTEX
  8
0
  6
CONTINUOUS
 10
147.882901
 20
384.551366
 30
0.0
  0
VERTEX
  8
0
  6
CONTINUOUS
 10
148.281692
 20
384.322836
 30
0.0
  0
SEQEND
  8
0
  6
CONTINUOUS
  0
POLYLINE
  8
0
  6
CONTINUOUS
 66
     1
 10
0.0
 20
0.0
 30
0.0
  0
VERTEX
  8
0
  6
CONTINUOUS
 10
184.635769
 20
405.772356
 30
0.0
  0
VERTEX
  8
0
  6
CONTINUOUS
 10
184.988634
 20
405.385307
 30
0.0
  0
VERTEX
  8
0
  6
CONTINUOUS
 10
185.102208
 20
404.855447
 30
0.0
  0
SEQEND
  8
0
  6
CONTINUOUS
  0
POLYLINE
  8
0
  6
CONTINUOUS
 66
     1
 10
0.0
 20
0.0
 30
0.0
  0
VERTEX
  8
0
  6
CONTINUOUS
 10
184.399413
 20
406.202228
 30
0.0
  0
VERTEX
  8
0
  6
CONTINUOUS
 10
184.635769
 20
405.772356
 30
0.0
  0
SEQEND
  8
0
  6
CONTINUOUS
  0
POLYLINE
  8
0
  6
CONTINUOUS
 66
     1
 10
0.0
 20
0.0
 30
0.0
  0
VERTEX
  8
0
  6
CONTINUOUS
 10
184.635769
 20
405.772356
 30
0.0
  0
VERTEX
  8
0
  6
CONTINUOUS
 10
184.116928
 20
405.887079
 30
0.0
  0
VERTEX
  8
0
  6
CONTINUOUS
 10
183.603078
 20
405.72097
 30
0.0
  0
SEQEND
  8
0
  6
CONTINUOUS
  0
POLYLINE
  8
0
  6
CONTINUOUS
 66
     1
 10
0.0
 20
0.0
 30
0.0
  0
VERTEX
  8
0
  6
CONTINUOUS
 10
184.635769
 20
405.772356
 30
0.0
  0
VERTEX
  8
0
  6
CONTINUOUS
 10
184.550181
 20
405.262458
 30
0.0
  0
SEQEND
  8
0
  6
CONTINUOUS
  0
POLYLINE
  8
0
  6
CONTINUOUS
 66
     1
 10
0.0
 20
0.0
 30
0.0
  0
VERTEX
  8
0
  6
CONTINUOUS
 10
148.281692
 20
357.344655
 30
0.0
  0
VERTEX
  8
0
  6
CONTINUOUS
 10
147.884384
 20
357.014728
 30
0.0
  0
SEQEND
  8
0
  6
CONTINUOUS
  0
POLYLINE
  8
0
  6
CONTINUOUS
 66
     1
 10
0.0
 20
0.0
 30
0.0
  0
VERTEX
  8
0
  6
CONTINUOUS
 10
147.411058
 20
357.935615
 30
0.0
  0
VERTEX
  8
0
  6
CONTINUOUS
 10
147.524268
 20
357.405964
 30
0.0
  0
VERTEX
  8
0
  6
CONTINUOUS
 10
147.884384
 20
357.014728
 30
0.0
  0
SEQEND
  8
0
  6
CONTINUOUS
  0
POLYLINE
  8
0
  6
CONTINUOUS
 66
     1
 10
0.0
 20
0.0
 30
0.0
  0
VERTEX
  8
0
  6
CONTINUOUS
 10
147.392443
 20
357.005339
 30
0.0
  0
VERTEX
  8
0
  6
CONTINUOUS
 10
147.884384
 20
357.014728
 30
0.0
  0
SEQEND
  8
0
  6
CONTINUOUS
  0
POLYLINE
  8
0
  6
CONTINUOUS
 66
     1
 10
0.0
 20
0.0
 30
0.0
  0
VERTEX
  8
0
  6
CONTINUOUS
 10
147.884384
 20
357.014728
 30
0.0
  0
VERTEX
  8
0
  6
CONTINUOUS
 10
148.396425
 20
356.903932
 30
0.0
  0
VERTEX
  8
0
  6
CONTINUOUS
 10
148.910188
 20
357.070091
 30
0.0
  0
SEQEND
  8
0
  6
CONTINUOUS
  0
POLYLINE
  8
0
  6
CONTINUOUS
 66
     1
 10
0.0
 20
0.0
 30
0.0
  0
VERTEX
  8
0
  6
CONTINUOUS
 10
183.603078
 20
377.10004
 30
0.0
  0
VERTEX
  8
0
  6
CONTINUOUS
 10
183.604459
 20
377.100845
 30
0.0
  0
SEQEND
  8
0
  6
CONTINUOUS
  0
POLYLINE
  8
0
  6
CONTINUOUS
 66
     1
 10
0.0
 20
0.0
 30
0.0
  0
VERTEX
  8
0
  6
CONTINUOUS
 10
185.102208
 20
379.696611
 30
0.0
  0
VERTEX
  8
0
  6
CONTINUOUS
 10
185.102202
 20
379.695008
 30
0.0
  0
SEQEND
  8
0
  6
CONTINUOUS
  0
POLYLINE
  8
0
  6
CONTINUOUS
 66
     1
 10
0.0
 20
0.0
 30
0.0
  0
VERTEX
  8
0
  6
CONTINUOUS
 10
184.645707
 20
378.231049
 30
0.0
  0
VERTEX
  8
0
  6
CONTINUOUS
 10
184.550181
 20
378.284277
 30
0.0
  0
SEQEND
  8
0
  6
CONTINUOUS
  0
POLYLINE
  8
0
  6
CONTINUOUS
 66
     1
 10
0.0
 20
0.0
 30
0.0
  0
VERTEX
  8
0
  6
CONTINUOUS
 10
148.54379
 20
386.090208
 30
0.0
  0
VERTEX
  8
0
  6
CONTINUOUS
 10
147.921412
 20
385.567388
 30
0.0
  0
VERTEX
  8
0
  6
CONTINUOUS
 10
147.392443
 20
384.836244
 30
0.0
  0
SEQEND
  8
0
  6
CONTINUOUS
  0
POLYLINE
  8
0
  6
CONTINUOUS
 66
     1
 10
0.0
 20
0.0
 30
0.0
  0
VERTEX
  8
0
  6
CONTINUOUS
 10
147.392443
 20
384.836244
 30
0.0
  0
VERTEX
  8
0
  6
CONTINUOUS
 10
147.023739
 20
384.012573
 30
0.0
  0
VERTEX
  8
0
  6
CONTINUOUS
 10
146.882152
 20
383.212167
 30
0.0
  0
SEQEND
  8
0
  6
CONTINUOUS
  0
POLYLINE
  8
0
  6
CONTINUOUS
 66
     1
 10
0.0
 20
0.0
 30
0.0
  0
VERTEX
  8
0
  6
CONTINUOUS
 10
184.399413
 20
406.202228
 30
0.0
  0
VERTEX
  8
0
  6
CONTINUOUS
 10
184.410647
 20
406.195629
 30
0.0
  0
SEQEND
  8
0
  6
CONTINUOUS
  0
POLYLINE
  8
0
  6
CONTINUOUS
 66
     1
 10
0.0
 20
0.0
 30
0.0
  0
VERTEX
  8
0
  6
CONTINUOUS
 10
184.399413
 20
406.202228
 30
0.0
  0
VERTEX
  8
0
  6
CONTINUOUS
 10
183.867598
 20
406.320928
 30
0.0
  0
VERTEX
  8
0
  6
CONTINUOUS
 10
183.236679
 20
406.120157
 30
0.0
  0
SEQEND
  8
0
  6
CONTINUOUS
  0
POLYLINE
  8
0
  6
CONTINUOUS
 66
     1
 10
0.0
 20
0.0
 30
0.0
  0
VERTEX
  8
0
  6
CONTINUOUS
 10
146.882152
 20
358.053332
 30
0.0
  0
VERTEX
  8
0
  6
CONTINUOUS
 10
147.023739
 20
357.406555
 30
0.0
  0
VERTEX
  8
0
  6
CONTINUOUS
 10
147.392443
 20
357.005339
 30
0.0
  0
SEQEND
  8
0
  6
CONTINUOUS
  0
POLYLINE
  8
0
  6
CONTINUOUS
 66
     1
 10
0.0
 20
0.0
 30
0.0
  0
VERTEX
  8
0
  6
CONTINUOUS
 10
147.403775
 20
356.99891
 30
0.0
  0
VERTEX
  8
0
  6
CONTINUOUS
 10
147.392443
 20
357.005339
 30
0.0
  0
SEQEND
  8
0
  6
CONTINUOUS
  0
POLYLINE
  8
0
  6
CONTINUOUS
 66
     1
 10
0.0
 20
0.0
 30
0.0
  0
VERTEX
  8
0
  6
CONTINUOUS
 10
147.411058
 20
357.935615
 30
0.0
  0
VERTEX
  8
0
  6
CONTINUOUS
 10
147.938164
 20
358.055992
 30
0.0
  0
SEQEND
  8
0
  6
CONTINUOUS
  0
POLYLINE
  8
0
  6
CONTINUOUS
 66
     1
 10
0.0
 20
0.0
 30
0.0
  0
VERTEX
  8
0
  6
CONTINUOUS
 10
146.882152
 20
358.053332
 30
0.0
  0
VERTEX
  8
0
  6
CONTINUOUS
 10
147.411058
 20
357.935615
 30
0.0
  0
SEQEND
  8
0
  6
CONTINUOUS
  0
POLYLINE
  8
0
  6
CONTINUOUS
 66
     1
 10
0.0
 20
0.0
 30
0.0
  0
VERTEX
  8
0
  6
CONTINUOUS
 10
147.411058
 20
383.09445
 30
0.0
  0
VERTEX
  8
0
  6
CONTINUOUS
 10
146.882152
 20
383.212167
 30
0.0
  0
SEQEND
  8
0
  6
CONTINUOUS
  0
POLYLINE
  8
0
  6
CONTINUOUS
 66
     1
 10
0.0
 20
0.0
 30
0.0
  0
VERTEX
  8
0
  6
CONTINUOUS
 10
147.938164
 20
383.214828
 30
0.0
  0
VERTEX
  8
0
  6
CONTINUOUS
 10
147.411058
 20
383.09445
 30
0.0
  0
SEQEND
  8
0
  6
CONTINUOUS
  0
POLYLINE
  8
0
  6
CONTINUOUS
 66
     1
 10
0.0
 20
0.0
 30
0.0
  0
VERTEX
  8
0
  6
CONTINUOUS
 10
183.603078
 20
405.72097
 30
0.0
  0
VERTEX
  8
0
  6
CONTINUOUS
 10
183.236679
 20
406.120157
 30
0.0
  0
SEQEND
  8
0
  6
CONTINUOUS
  0
POLYLINE
  8
0
  6
CONTINUOUS
 66
     1
 10
0.0
 20
0.0
 30
0.0
  0
VERTEX
  8
0
  6
CONTINUOUS
 10
183.762381
 20
405.204294
 30
0.0
  0
VERTEX
  8
0
  6
CONTINUOUS
 10
183.603078
 20
405.72097
 30
0.0
  0
SEQEND
  8
0
  6
CONTINUOUS
  0
POLYLINE
  8
0
  6
CONTINUOUS
 66
     1
 10
0.0
 20
0.0
 30
0.0
  0
VERTEX
  8
0
  6
CONTINUOUS
 10
148.910188
 20
385.691021
 30
0.0
  0
VERTEX
  8
0
  6
CONTINUOUS
 10
149.069492
 20
385.174345
 30
0.0
  0
SEQEND
  8
0
  6
CONTINUOUS
  0
POLYLINE
  8
0
  6
CONTINUOUS
 66
     1
 10
0.0
 20
0.0
 30
0.0
  0
VERTEX
  8
0
  6
CONTINUOUS
 10
148.54379
 20
386.090208
 30
0.0
  0
VERTEX
  8
0
  6
CONTINUOUS
 10
148.910188
 20
385.691021
 30
0.0
  0
SEQEND
  8
0
  6
CONTINUOUS
  0
POLYLINE
  8
0
  6
CONTINUOUS
 66
     1
 10
0.0
 20
0.0
 30
0.0
  0
VERTEX
  8
0
  6
CONTINUOUS
 10
185.102208
 20
379.696611
 30
0.0
  0
VERTEX
  8
0
  6
CONTINUOUS
 10
185.102216
 20
379.698689
 30
0.0
  0
SEQEND
  8
0
  6
CONTINUOUS
  0
POLYLINE
  8
0
  6
CONTINUOUS
 66
     1
 10
0.0
 20
0.0
 30
0.0
  0
VERTEX
  8
0
  6
CONTINUOUS
 10
184.893709
 20
379.392286
 30
0.0
  0
VERTEX
  8
0
  6
CONTINUOUS
 10
185.102208
 20
379.696611
 30
0.0
  0
SEQEND
  8
0
  6
CONTINUOUS
  0
POLYLINE
  8
0
  6
CONTINUOUS
 66
     1
 10
0.0
 20
0.0
 30
0.0
  0
VERTEX
  8
0
  6
CONTINUOUS
 10
185.102208
 20
404.855447
 30
0.0
  0
VERTEX
  8
0
  6
CONTINUOUS
 10
184.893709
 20
404.551122
 30
0.0
  0
SEQEND
  8
0
  6
CONTINUOUS
  0
POLYLINE
  8
0
  6
CONTINUOUS
 66
     1
 10
0.0
 20
0.0
 30
0.0
  0
VERTEX
  8
0
  6
CONTINUOUS
 10
185.102216
 20
404.857525
 30
0.0
  0
VERTEX
  8
0
  6
CONTINUOUS
 10
185.102208
 20
404.855447
 30
0.0
  0
SEQEND
  8
0
  6
CONTINUOUS
  0
POLYLINE
  8
0
  6
CONTINUOUS
 66
     1
 10
0.0
 20
0.0
 30
0.0
  0
VERTEX
  8
0
  6
CONTINUOUS
 10
183.603078
 20
377.10004
 30
0.0
  0
VERTEX
  8
0
  6
CONTINUOUS
 10
183.762381
 20
377.432769
 30
0.0
  0
SEQEND
  8
0
  6
CONTINUOUS
  0
POLYLINE
  8
0
  6
CONTINUOUS
 66
     1
 10
0.0
 20
0.0
 30
0.0
  0
VERTEX
  8
0
  6
CONTINUOUS
 10
183.601282
 20
377.098995
 30
0.0
  0
VERTEX
  8
0
  6
CONTINUOUS
 10
183.603078
 20
377.10004
 30
0.0
  0
SEQEND
  8
0
  6
CONTINUOUS
  0
POLYLINE
  8
0
  6
CONTINUOUS
 66
     1
 10
0.0
 20
0.0
 30
0.0
  0
VERTEX
  8
0
  6
CONTINUOUS
 10
148.910188
 20
357.070091
 30
0.0
  0
VERTEX
  8
0
  6
CONTINUOUS
 10
148.908393
 20
357.069045
 30
0.0
  0
SEQEND
  8
0
  6
CONTINUOUS
  0
POLYLINE
  8
0
  6
CONTINUOUS
 66
     1
 10
0.0
 20
0.0
 30
0.0
  0
VERTEX
  8
0
  6
CONTINUOUS
 10
149.069492
 20
357.40282
 30
0.0
  0
VERTEX
  8
0
  6
CONTINUOUS
 10
148.910188
 20
357.070091
 30
0.0
  0
SEQEND
  8
0
  6
CONTINUOUS
  0
POLYLINE
  8
0
  6
CONTINUOUS
 66
     1
 10
0.0
 20
0.0
 30
0.0
  0
VERTEX
  8
0
  6
CONTINUOUS
 10
148.295507
 20
370.156354
 30
0.0
  0
VERTEX
  8
0
  6
CONTINUOUS
 10
148.345287
 20
370.224979
 30
0.0
  0
VERTEX
  8
0
  6
CONTINUOUS
 10
148.392307
 20
370.296912
 30
0.0
  0
SEQEND
  8
0
  6
CONTINUOUS
  0
POLYLINE
  8
0
  6
CONTINUOUS
 66
     1
 10
0.0
 20
0.0
 30
0.0
  0
VERTEX
  8
0
  6
CONTINUOUS
 10
148.295695
 20
373.761453
 30
0.0
  0
VERTEX
  8
0
  6
CONTINUOUS
 10
148.345376
 20
373.637546
 30
0.0
  0
VERTEX
  8
0
  6
CONTINUOUS
 10
148.392307
 20
373.513411
 30
0.0
  0
SEQEND
  8
0
  6
CONTINUOUS
  0
POLYLINE
  8
0
  6
CONTINUOUS
 66
     1
 10
0.0
 20
0.0
 30
0.0
  0
VERTEX
  8
0
  6
CONTINUOUS
 10
148.392307
 20
373.513411
 30
0.0
  0
VERTEX
  8
0
  6
CONTINUOUS
 10
148.404696
 20
373.483628
 30
0.0
  0
VERTEX
  8
0
  6
CONTINUOUS
 10
148.419362
 20
373.455706
 30
0.0
  0
VERTEX
  8
0
  6
CONTINUOUS
 10
148.43619
 20
373.430024
 30
0.0
  0
VERTEX
  8
0
  6
CONTINUOUS
 10
148.455132
 20
373.406884
 30
0.0
  0
SEQEND
  8
0
  6
CONTINUOUS
  0
POLYLINE
  8
0
  6
CONTINUOUS
 66
     1
 10
0.0
 20
0.0
 30
0.0
  0
VERTEX
  8
0
  6
CONTINUOUS
 10
180.762593
 20
385.810306
 30
0.0
  0
VERTEX
  8
0
  6
CONTINUOUS
 10
180.637608
 20
385.678373
 30
0.0
  0
VERTEX
  8
0
  6
CONTINUOUS
 10
180.585843
 20
385.504166
 30
0.0
  0
SEQEND
  8
0
  6
CONTINUOUS
  0
POLYLINE
  8
0
  6
CONTINUOUS
 66
     1
 10
0.0
 20
0.0
 30
0.0
  0
VERTEX
  8
0
  6
CONTINUOUS
 10
180.585843
 20
388.055656
 30
0.0
  0
VERTEX
  8
0
  6
CONTINUOUS
 10
180.599898
 20
387.984005
 30
0.0
  0
VERTEX
  8
0
  6
CONTINUOUS
 10
180.639829
 20
387.939986
 30
0.0
  0
SEQEND
  8
0
  6
CONTINUOUS
  0
POLYLINE
  8
0
  6
CONTINUOUS
 66
     1
 10
0.0
 20
0.0
 30
0.0
  0
VERTEX
  8
0
  6
CONTINUOUS
 10
180.585843
 20
391.729953
 30
0.0
  0
VERTEX
  8
0
  6
CONTINUOUS
 10
180.637608
 20
391.904159
 30
0.0
  0
VERTEX
  8
0
  6
CONTINUOUS
 10
180.762593
 20
392.036092
 30
0.0
  0
SEQEND
  8
0
  6
CONTINUOUS
  0
POLYLINE
  8
0
  6
CONTINUOUS
 66
     1
 10
0.0
 20
0.0
 30
0.0
  0
VERTEX
  8
0
  6
CONTINUOUS
 10
180.639829
 20
394.165773
 30
0.0
  0
VERTEX
  8
0
  6
CONTINUOUS
 10
180.599898
 20
394.209792
 30
0.0
  0
VERTEX
  8
0
  6
CONTINUOUS
 10
180.585843
 20
394.281442
 30
0.0
  0
SEQEND
  8
0
  6
CONTINUOUS
  0
POLYLINE
  8
0
  6
CONTINUOUS
 66
     1
 10
0.0
 20
0.0
 30
0.0
  0
VERTEX
  8
0
  6
CONTINUOUS
 10
182.237451
 20
391.458862
 30
0.0
  0
VERTEX
  8
0
  6
CONTINUOUS
 10
182.124469
 20
390.639722
 30
0.0
  0
VERTEX
  8
0
  6
CONTINUOUS
 10
181.79509
 20
390.020893
 30
0.0
  0
SEQEND
  8
0
  6
CONTINUOUS
  0
POLYLINE
  8
0
  6
CONTINUOUS
 66
     1
 10
0.0
 20
0.0
 30
0.0
  0
VERTEX
  8
0
  6
CONTINUOUS
 10
162.078276
 20
383.449255
 30
0.0
  0
VERTEX
  8
0
  6
CONTINUOUS
 10
162.038345
 20
383.493274
 30
0.0
  0
VERTEX
  8
0
  6
CONTINUOUS
 10
162.02429
 20
383.564925
 30
0.0
  0
SEQEND
  8
0
  6
CONTINUOUS
  0
POLYLINE
  8
0
  6
CONTINUOUS
 66
     1
 10
0.0
 20
0.0
 30
0.0
  0
VERTEX
  8
0
  6
CONTINUOUS
 10
162.02429
 20
381.013435
 30
0.0
  0
VERTEX
  8
0
  6
CONTINUOUS
 10
162.076055
 20
381.187641
 30
0.0
  0
VERTEX
  8
0
  6
CONTINUOUS
 10
162.20104
 20
381.319575
 30
0.0
  0
SEQEND
  8
0
  6
CONTINUOUS
  0
POLYLINE
  8
0
  6
CONTINUOUS
 66
     1
 10
0.0
 20
0.0
 30
0.0
  0
VERTEX
  8
0
  6
CONTINUOUS
 10
160.582279
 20
384.977776
 30
0.0
  0
VERTEX
  8
0
  6
CONTINUOUS
 10
160.457294
 20
384.845842
 30
0.0
  0
VERTEX
  8
0
  6
CONTINUOUS
 10
160.405529
 20
384.671636
 30
0.0
  0
SEQEND
  8
0
  6
CONTINUOUS
  0
POLYLINE
  8
0
  6
CONTINUOUS
 66
     1
 10
0.0
 20
0.0
 30
0.0
  0
VERTEX
  8
0
  6
CONTINUOUS
 10
161.615818
 20
385.512152
 30
0.0
  0
VERTEX
  8
0
  6
CONTINUOUS
 10
161.55773
 20
385.524724
 30
0.0
  0
VERTEX
  8
0
  6
CONTINUOUS
 10
161.488652
 20
385.501071
 30
0.0
  0
SEQEND
  8
0
  6
CONTINUOUS
  0
POLYLINE
  8
0
  6
CONTINUOUS
 66
     1
 10
0.0
 20
0.0
 30
0.0
  0
VERTEX
  8
0
  6
CONTINUOUS
 10
137.661638
 20
392.373022
 30
0.0
  0
VERTEX
  8
0
  6
CONTINUOUS
 10
137.033909
 20
391.851547
 30
0.0
  0
VERTEX
  8
0
  6
CONTINUOUS
 10
136.504251
 20
391.12186
 30
0.0
  0
VERTEX
  8
0
  6
CONTINUOUS
 10
136.13763
 20
390.298981
 30
0.0
  0
VERTEX
  8
0
  6
CONTINUOUS
 10
136.0
 20
389.494981
 30
0.0
  0
SEQEND
  8
0
  6
CONTINUOUS
  0
POLYLINE
  8
0
  6
CONTINUOUS
 66
     1
 10
0.0
 20
0.0
 30
0.0
  0
VERTEX
  8
0
  6
CONTINUOUS
 10
168.714034
 20
373.648901
 30
0.0
  0
VERTEX
  8
0
  6
CONTINUOUS
 10
167.774823
 20
373.41858
 30
0.0
  0
VERTEX
  8
0
  6
CONTINUOUS
 10
167.122663
 20
373.882514
 30
0.0
  0
SEQEND
  8
0
  6
CONTINUOUS
  0
POLYLINE
  8
0
  6
CONTINUOUS
 66
     1
 10
0.0
 20
0.0
 30
0.0
  0
VERTEX
  8
0
  6
CONTINUOUS
 10
178.790305
 20
381.507681
 30
0.0
  0
VERTEX
  8
0
  6
CONTINUOUS
 10
178.272538
 20
379.765372
 30
0.0
  0
VERTEX
  8
0
  6
CONTINUOUS
 10
177.022538
 20
378.445819
 30
0.0
  0
SEQEND
  8
0
  6
CONTINUOUS
  0
POLYLINE
  8
0
  6
CONTINUOUS
 66
     1
 10
0.0
 20
0.0
 30
0.0
  0
VERTEX
  8
0
  6
CONTINUOUS
 10
181.707121
 20
380.538091
 30
0.0
  0
VERTEX
  8
0
  6
CONTINUOUS
 10
181.612386
 20
380.075148
 30
0.0
  0
VERTEX
  8
0
  6
CONTINUOUS
 10
181.353567
 20
379.62686
 30
0.0
  0
VERTEX
  8
0
  6
CONTINUOUS
 10
181.000014
 20
379.313346
 30
0.0
  0
SEQEND
  8
0
  6
CONTINUOUS
  0
POLYLINE
  8
0
  6
CONTINUOUS
 66
     1
 10
0.0
 20
0.0
 30
0.0
  0
VERTEX
  8
0
  6
CONTINUOUS
 10
180.558072
 20
380.48706
 30
0.0
  0
VERTEX
  8
0
  6
CONTINUOUS
 10
180.506295
 20
380.312829
 30
0.0
  0
VERTEX
  8
0
  6
CONTINUOUS
 10
180.381295
 20
380.180874
 30
0.0
  0
SEQEND
  8
0
  6
CONTINUOUS
  0
POLYLINE
  8
0
  6
CONTINUOUS
 66
     1
 10
0.0
 20
0.0
 30
0.0
  0
VERTEX
  8
0
  6
CONTINUOUS
 10
179.021068
 20
386.086835
 30
0.0
  0
VERTEX
  8
0
  6
CONTINUOUS
 10
178.981137
 20
386.130855
 30
0.0
  0
VERTEX
  8
0
  6
CONTINUOUS
 10
178.967082
 20
386.202505
 30
0.0
  0
SEQEND
  8
0
  6
CONTINUOUS
  0
POLYLINE
  8
0
  6
CONTINUOUS
 66
     1
 10
0.0
 20
0.0
 30
0.0
  0
VERTEX
  8
0
  6
CONTINUOUS
 10
182.484097
 20
392.233664
 30
0.0
  0
VERTEX
  8
0
  6
CONTINUOUS
 10
182.505555
 20
390.482335
 30
0.0
  0
VERTEX
  8
0
  6
CONTINUOUS
 10
181.793653
 20
389.360776
 30
0.0
  0
SEQEND
  8
0
  6
CONTINUOUS
  0
POLYLINE
  8
0
  6
CONTINUOUS
 66
     1
 10
0.0
 20
0.0
 30
0.0
  0
VERTEX
  8
0
  6
CONTINUOUS
 10
181.707121
 20
395.643278
 30
0.0
  0
VERTEX
  8
0
  6
CONTINUOUS
 10
181.962115
 20
395.31979
 30
0.0
  0
VERTEX
  8
0
  6
CONTINUOUS
 10
182.200785
 20
394.977506
 30
0.0
  0
SEQEND
  8
0
  6
CONTINUOUS
  0
POLYLINE
  8
0
  6
CONTINUOUS
 66
     1
 10
0.0
 20
0.0
 30
0.0
  0
VERTEX
  8
0
  6
CONTINUOUS
 10
182.484796
 20
394.506415
 30
0.0
  0
VERTEX
  8
0
  6
CONTINUOUS
 10
183.297732
 20
391.607961
 30
0.0
  0
VERTEX
  8
0
  6
CONTINUOUS
 10
182.418391
 20
389.717584
 30
0.0
  0
SEQEND
  8
0
  6
CONTINUOUS
  0
POLYLINE
  8
0
  6
CONTINUOUS
 66
     1
 10
0.0
 20
0.0
 30
0.0
  0
VERTEX
  8
0
  6
CONTINUOUS
 10
180.177371
 20
396.22867
 30
0.0
  0
VERTEX
  8
0
  6
CONTINUOUS
 10
180.119283
 20
396.241241
 30
0.0
  0
VERTEX
  8
0
  6
CONTINUOUS
 10
180.050205
 20
396.217588
 30
0.0
  0
SEQEND
  8
0
  6
CONTINUOUS
  0
POLYLINE
  8
0
  6
CONTINUOUS
 66
     1
 10
0.0
 20
0.0
 30
0.0
  0
VERTEX
  8
0
  6
CONTINUOUS
 10
179.143832
 20
395.694293
 30
0.0
  0
VERTEX
  8
0
  6
CONTINUOUS
 10
179.018847
 20
395.56236
 30
0.0
  0
VERTEX
  8
0
  6
CONTINUOUS
 10
178.967082
 20
395.388154
 30
0.0
  0
SEQEND
  8
0
  6
CONTINUOUS
  0
POLYLINE
  8
0
  6
CONTINUOUS
 66
     1
 10
0.0
 20
0.0
 30
0.0
  0
VERTEX
  8
0
  6
CONTINUOUS
 10
173.711104
 20
412.590547
 30
0.0
  0
VERTEX
  8
0
  6
CONTINUOUS
 10
173.699611
 20
412.597296
 30
0.0
  0
VERTEX
  8
0
  6
CONTINUOUS
 10
173.170288
 20
412.715029
 30
0.0
  0
VERTEX
  8
0
  6
CONTINUOUS
 10
172.542818
 20
412.511681
 30
0.0
  0
SEQEND
  8
0
  6
CONTINUOUS
  0
POLYLINE
  8
0
  6
CONTINUOUS
 66
     1
 10
0.0
 20
0.0
 30
0.0
  0
VERTEX
  8
0
  6
CONTINUOUS
 10
172.542818
 20
412.511681
 30
0.0
  0
VERTEX
  8
0
  6
CONTINUOUS
 10
178.135934
 20
409.168779
 30
0.0
  0
VERTEX
  8
0
  6
CONTINUOUS
 10
183.236679
 20
406.120157
 30
0.0
  0
SEQEND
  8
0
  6
CONTINUOUS
  0
POLYLINE
  8
0
  6
CONTINUOUS
 66
     1
 10
0.0
 20
0.0
 30
0.0
  0
VERTEX
  8
0
  6
CONTINUOUS
 10
183.236679
 20
406.120157
 30
0.0
  0
VERTEX
  8
0
  6
CONTINUOUS
 10
165.890234
 20
396.105183
 30
0.0
  0
VERTEX
  8
0
  6
CONTINUOUS
 10
148.54379
 20
386.090208
 30
0.0
  0
SEQEND
  8
0
  6
CONTINUOUS
  0
POLYLINE
  8
0
  6
CONTINUOUS
 66
     1
 10
0.0
 20
0.0
 30
0.0
  0
VERTEX
  8
0
  6
CONTINUOUS
 10
148.54379
 20
386.090208
 30
0.0
  0
VERTEX
  8
0
  6
CONTINUOUS
 10
143.353233
 20
389.086977
 30
0.0
  0
VERTEX
  8
0
  6
CONTINUOUS
 10
137.661638
 20
392.373022
 30
0.0
  0
SEQEND
  8
0
  6
CONTINUOUS
  0
POLYLINE
  8
0
  6
CONTINUOUS
 66
     1
 10
0.0
 20
0.0
 30
0.0
  0
VERTEX
  8
0
  6
CONTINUOUS
 10
178.781376
 20
400.48685
 30
0.0
  0
VERTEX
  8
0
  6
CONTINUOUS
 10
178.788072
 20
400.388393
 30
0.0
  0
VERTEX
  8
0
  6
CONTINUOUS
 10
178.790305
 20
400.287102
 30
0.0
  0
SEQEND
  8
0
  6
CONTINUOUS
  0
POLYLINE
  8
0
  6
CONTINUOUS
 66
     1
 10
0.0
 20
0.0
 30
0.0
  0
VERTEX
  8
0
  6
CONTINUOUS
 10
182.308188
 20
394.821303
 30
0.0
  0
VERTEX
  8
0
  6
CONTINUOUS
 10
182.433173
 20
394.833689
 30
0.0
  0
VERTEX
  8
0
  6
CONTINUOUS
 10
182.484938
 20
394.719256
 30
0.0
  0
SEQEND
  8
0
  6
CONTINUOUS
  0
POLYLINE
  8
0
  6
CONTINUOUS
 66
     1
 10
0.0
 20
0.0
 30
0.0
  0
VERTEX
  8
0
  6
CONTINUOUS
 10
182.484938
 20
391.805713
 30
0.0
  0
VERTEX
  8
0
  6
CONTINUOUS
 10
182.433173
 20
391.631507
 30
0.0
  0
VERTEX
  8
0
  6
CONTINUOUS
 10
182.308188
 20
391.499573
 30
0.0
  0
SEQEND
  8
0
  6
CONTINUOUS
  0
POLYLINE
  8
0
  6
CONTINUOUS
 66
     1
 10
0.0
 20
0.0
 30
0.0
  0
VERTEX
  8
0
  6
CONTINUOUS
 10
182.308188
 20
388.641835
 30
0.0
  0
VERTEX
  8
0
  6
CONTINUOUS
 10
182.433173
 20
388.654221
 30
0.0
  0
VERTEX
  8
0
  6
CONTINUOUS
 10
182.484938
 20
388.539789
 30
0.0
  0
SEQEND
  8
0
  6
CONTINUOUS
  0
POLYLINE
  8
0
  6
CONTINUOUS
 66
     1
 10
0.0
 20
0.0
 30
0.0
  0
VERTEX
  8
0
  6
CONTINUOUS
 10
182.484938
 20
385.626245
 30
0.0
  0
VERTEX
  8
0
  6
CONTINUOUS
 10
182.433173
 20
385.452039
 30
0.0
  0
VERTEX
  8
0
  6
CONTINUOUS
 10
182.308188
 20
385.320106
 30
0.0
  0
SEQEND
  8
0
  6
CONTINUOUS
  0
POLYLINE
  8
0
  6
CONTINUOUS
 66
     1
 10
0.0
 20
0.0
 30
0.0
  0
VERTEX
  8
0
  6
CONTINUOUS
 10
181.482042
 20
384.84313
 30
0.0
  0
VERTEX
  8
0
  6
CONTINUOUS
 10
181.357058
 20
384.830744
 30
0.0
  0
VERTEX
  8
0
  6
CONTINUOUS
 10
181.305292
 20
384.945177
 30
0.0
  0
SEQEND
  8
0
  6
CONTINUOUS
  0
POLYLINE
  8
0
  6
CONTINUOUS
 66
     1
 10
0.0
 20
0.0
 30
0.0
  0
VERTEX
  8
0
  6
CONTINUOUS
 10
181.305292
 20
385.088792
 30
0.0
  0
VERTEX
  8
0
  6
CONTINUOUS
 10
181.357058
 20
385.262998
 30
0.0
  0
VERTEX
  8
0
  6
CONTINUOUS
 10
181.482042
 20
385.394932
 30
0.0
  0
SEQEND
  8
0
  6
CONTINUOUS
  0
POLYLINE
  8
0
  6
CONTINUOUS
 66
     1
 10
0.0
 20
0.0
 30
0.0
  0
VERTEX
  8
0
  6
CONTINUOUS
 10
181.482042
 20
387.566739
 30
0.0
  0
VERTEX
  8
0
  6
CONTINUOUS
 10
181.357058
 20
387.554353
 30
0.0
  0
VERTEX
  8
0
  6
CONTINUOUS
 10
181.305292
 20
387.668786
 30
0.0
  0
SEQEND
  8
0
  6
CONTINUOUS
  0
POLYLINE
  8
0
  6
CONTINUOUS
 66
     1
 10
0.0
 20
0.0
 30
0.0
  0
VERTEX
  8
0
  6
CONTINUOUS
 10
181.305292
 20
391.314578
 30
0.0
  0
VERTEX
  8
0
  6
CONTINUOUS
 10
181.357058
 20
391.488785
 30
0.0
  0
VERTEX
  8
0
  6
CONTINUOUS
 10
181.482042
 20
391.620718
 30
0.0
  0
SEQEND
  8
0
  6
CONTINUOUS
  0
POLYLINE
  8
0
  6
CONTINUOUS
 66
     1
 10
0.0
 20
0.0
 30
0.0
  0
VERTEX
  8
0
  6
CONTINUOUS
 10
181.482042
 20
393.792526
 30
0.0
  0
VERTEX
  8
0
  6
CONTINUOUS
 10
181.357058
 20
393.78014
 30
0.0
  0
VERTEX
  8
0
  6
CONTINUOUS
 10
181.305292
 20
393.894572
 30
0.0
  0
SEQEND
  8
0
  6
CONTINUOUS
  0
POLYLINE
  8
0
  6
CONTINUOUS
 66
     1
 10
0.0
 20
0.0
 30
0.0
  0
VERTEX
  8
0
  6
CONTINUOUS
 10
181.305292
 20
394.038187
 30
0.0
  0
VERTEX
  8
0
  6
CONTINUOUS
 10
181.357058
 20
394.212394
 30
0.0
  0
VERTEX
  8
0
  6
CONTINUOUS
 10
181.482042
 20
394.344327
 30
0.0
  0
SEQEND
  8
0
  6
CONTINUOUS
  0
POLYLINE
  8
0
  6
CONTINUOUS
 66
     1
 10
0.0
 20
0.0
 30
0.0
  0
VERTEX
  8
0
  6
CONTINUOUS
 10
181.795501
 20
390.153313
 30
0.0
  0
VERTEX
  8
0
  6
CONTINUOUS
 10
181.845827
 20
390.154081
 30
0.0
  0
VERTEX
  8
0
  6
CONTINUOUS
 10
181.89558
 20
390.156441
 30
0.0
  0
SEQEND
  8
0
  6
CONTINUOUS
  0
POLYLINE
  8
0
  6
CONTINUOUS
 66
     1
 10
0.0
 20
0.0
 30
0.0
  0
VERTEX
  8
0
  6
CONTINUOUS
 10
146.882152
 20
383.212167
 30
0.0
  0
VERTEX
  8
0
  6
CONTINUOUS
 10
141.691596
 20
386.208936
 30
0.0
  0
VERTEX
  8
0
  6
CONTINUOUS
 10
136.0
 20
389.494981
 30
0.0
  0
SEQEND
  8
0
  6
CONTINUOUS
  0
POLYLINE
  8
0
  6
CONTINUOUS
 66
     1
 10
0.0
 20
0.0
 30
0.0
  0
VERTEX
  8
0
  6
CONTINUOUS
 10
146.882152
 20
358.053332
 30
0.0
  0
VERTEX
  8
0
  6
CONTINUOUS
 10
146.882152
 20
370.632749
 30
0.0
  0
VERTEX
  8
0
  6
CONTINUOUS
 10
146.882152
 20
383.212167
 30
0.0
  0
SEQEND
  8
0
  6
CONTINUOUS
  0
POLYLINE
  8
0
  6
CONTINUOUS
 66
     1
 10
0.0
 20
0.0
 30
0.0
  0
VERTEX
  8
0
  6
CONTINUOUS
 10
136.0
 20
364.118725
 30
0.0
  0
VERTEX
  8
0
  6
CONTINUOUS
 10
141.691596
 20
360.946396
 30
0.0
  0
VERTEX
  8
0
  6
CONTINUOUS
 10
146.882152
 20
358.053332
 30
0.0
  0
SEQEND
  8
0
  6
CONTINUOUS
  0
POLYLINE
  8
0
  6
CONTINUOUS
 66
     1
 10
0.0
 20
0.0
 30
0.0
  0
VERTEX
  8
0
  6
CONTINUOUS
 10
136.51582
 20
363.067539
 30
0.0
  0
VERTEX
  8
0
  6
CONTINUOUS
 10
136.504845
 20
363.073763
 30
0.0
  0
VERTEX
  8
0
  6
CONTINUOUS
 10
136.137746
 20
363.473414
 30
0.0
  0
VERTEX
  8
0
  6
CONTINUOUS
 10
136.0
 20
364.118725
 30
0.0
  0
SEQEND
  8
0
  6
CONTINUOUS
  0
POLYLINE
  8
0
  6
CONTINUOUS
 66
     1
 10
0.0
 20
0.0
 30
0.0
  0
VERTEX
  8
0
  6
CONTINUOUS
 10
160.228752
 20
370.791163
 30
0.0
  0
VERTEX
  8
0
  6
CONTINUOUS
 10
159.991916
 20
369.633805
 30
0.0
  0
VERTEX
  8
0
  6
CONTINUOUS
 10
159.344869
 20
368.513086
 30
0.0
  0
VERTEX
  8
0
  6
CONTINUOUS
 10
158.460985
 20
367.729301
 30
0.0
  0
SEQEND
  8
0
  6
CONTINUOUS
  0
POLYLINE
  8
0
  6
CONTINUOUS
 66
     1
 10
0.0
 20
0.0
 30
0.0
  0
VERTEX
  8
0
  6
CONTINUOUS
 10
163.145568
 20
369.821574
 30
0.0
  0
VERTEX
  8
0
  6
CONTINUOUS
 10
162.938461
 20
369.12465
 30
0.0
  0
VERTEX
  8
0
  6
CONTINUOUS
 10
162.438461
 20
368.596829
 30
0.0
  0
SEQEND
  8
0
  6
CONTINUOUS
  0
POLYLINE
  8
0
  6
CONTINUOUS
 66
     1
 10
0.0
 20
0.0
 30
0.0
  0
VERTEX
  8
0
  6
CONTINUOUS
 10
178.436752
 20
381.711805
 30
0.0
  0
VERTEX
  8
0
  6
CONTINUOUS
 10
177.918985
 20
379.969496
 30
0.0
  0
VERTEX
  8
0
  6
CONTINUOUS
 10
176.668985
 20
378.649943
 30
0.0
  0
SEQEND
  8
0
  6
CONTINUOUS
  0
POLYLINE
  8
0
  6
CONTINUOUS
 66
     1
 10
0.0
 20
0.0
 30
0.0
  0
VERTEX
  8
0
  6
CONTINUOUS
 10
168.36048
 20
373.853025
 30
0.0
  0
VERTEX
  8
0
  6
CONTINUOUS
 10
167.802339
 20
373.635196
 30
0.0
  0
VERTEX
  8
0
  6
CONTINUOUS
 10
167.301298
 20
373.648476
 30
0.0
  0
SEQEND
  8
0
  6
CONTINUOUS
  0
POLYLINE
  8
0
  6
CONTINUOUS
 66
     1
 10
0.0
 20
0.0
 30
0.0
  0
VERTEX
  8
0
  6
CONTINUOUS
 10
159.875199
 20
370.995287
 30
0.0
  0
VERTEX
  8
0
  6
CONTINUOUS
 10
159.357432
 20
369.252979
 30
0.0
  0
VERTEX
  8
0
  6
CONTINUOUS
 10
158.107432
 20
367.933425
 30
0.0
  0
SEQEND
  8
0
  6
CONTINUOUS
  0
POLYLINE
  8
0
  6
CONTINUOUS
 66
     1
 10
0.0
 20
0.0
 30
0.0
  0
VERTEX
  8
0
  6
CONTINUOUS
 10
161.996519
 20
369.770543
 30
0.0
  0
VERTEX
  8
0
  6
CONTINUOUS
 10
161.972836
 20
369.654807
 30
0.0
  0
VERTEX
  8
0
  6
CONTINUOUS
 10
161.908131
 20
369.542735
 30
0.0
  0
VERTEX
  8
0
  6
CONTINUOUS
 10
161.819742
 20
369.464356
 30
0.0
  0
SEQEND
  8
0
  6
CONTINUOUS
  0
POLYLINE
  8
0
  6
CONTINUOUS
 66
     1
 10
0.0
 20
0.0
 30
0.0
  0
VERTEX
  8
0
  6
CONTINUOUS
 10
163.746635
 20
384.104785
 30
0.0
  0
VERTEX
  8
0
  6
CONTINUOUS
 10
163.87162
 20
384.117171
 30
0.0
  0
VERTEX
  8
0
  6
CONTINUOUS
 10
163.923385
 20
384.002739
 30
0.0
  0
SEQEND
  8
0
  6
CONTINUOUS
  0
POLYLINE
  8
0
  6
CONTINUOUS
 66
     1
 10
0.0
 20
0.0
 30
0.0
  0
VERTEX
  8
0
  6
CONTINUOUS
 10
163.923385
 20
374.909728
 30
0.0
  0
VERTEX
  8
0
  6
CONTINUOUS
 10
163.87162
 20
374.735522
 30
0.0
  0
VERTEX
  8
0
  6
CONTINUOUS
 10
163.746635
 20
374.603588
 30
0.0
  0
SEQEND
  8
0
  6
CONTINUOUS
  0
POLYLINE
  8
0
  6
CONTINUOUS
 66
     1
 10
0.0
 20
0.0
 30
0.0
  0
VERTEX
  8
0
  6
CONTINUOUS
 10
162.743739
 20
374.372274
 30
0.0
  0
VERTEX
  8
0
  6
CONTINUOUS
 10
162.795505
 20
374.546481
 30
0.0
  0
VERTEX
  8
0
  6
CONTINUOUS
 10
162.920489
 20
374.678414
 30
0.0
  0
SEQEND
  8
0
  6
CONTINUOUS
  0
POLYLINE
  8
0
  6
CONTINUOUS
 66
     1
 10
0.0
 20
0.0
 30
0.0
  0
VERTEX
  8
0
  6
CONTINUOUS
 10
162.920489
 20
376.850222
 30
0.0
  0
VERTEX
  8
0
  6
CONTINUOUS
 10
162.795505
 20
376.837836
 30
0.0
  0
VERTEX
  8
0
  6
CONTINUOUS
 10
162.743739
 20
376.952268
 30
0.0
  0
SEQEND
  8
0
  6
CONTINUOUS
  0
POLYLINE
  8
0
  6
CONTINUOUS
 66
     1
 10
0.0
 20
0.0
 30
0.0
  0
VERTEX
  8
0
  6
CONTINUOUS
 10
162.743739
 20
380.598061
 30
0.0
  0
VERTEX
  8
0
  6
CONTINUOUS
 10
162.795505
 20
380.772267
 30
0.0
  0
VERTEX
  8
0
  6
CONTINUOUS
 10
162.920489
 20
380.9042
 30
0.0
  0
SEQEND
  8
0
  6
CONTINUOUS
  0
POLYLINE
  8
0
  6
CONTINUOUS
 66
     1
 10
0.0
 20
0.0
 30
0.0
  0
VERTEX
  8
0
  6
CONTINUOUS
 10
162.920489
 20
383.076008
 30
0.0
  0
VERTEX
  8
0
  6
CONTINUOUS
 10
162.795505
 20
383.063622
 30
0.0
  0
VERTEX
  8
0
  6
CONTINUOUS
 10
162.743739
 20
383.178054
 30
0.0
  0
SEQEND
  8
0
  6
CONTINUOUS
  0
POLYLINE
  8
0
  6
CONTINUOUS
 66
     1
 10
0.0
 20
0.0
 30
0.0
  0
VERTEX
  8
0
  6
CONTINUOUS
 10
162.743739
 20
383.32167
 30
0.0
  0
VERTEX
  8
0
  6
CONTINUOUS
 10
162.795505
 20
383.495876
 30
0.0
  0
VERTEX
  8
0
  6
CONTINUOUS
 10
162.920489
 20
383.627809
 30
0.0
  0
SEQEND
  8
0
  6
CONTINUOUS
  0
POLYLINE
  8
0
  6
CONTINUOUS
 66
     1
 10
0.0
 20
0.0
 30
0.0
  0
VERTEX
  8
0
  6
CONTINUOUS
 10
163.746635
 20
377.925318
 30
0.0
  0
VERTEX
  8
0
  6
CONTINUOUS
 10
163.87162
 20
377.937704
 30
0.0
  0
VERTEX
  8
0
  6
CONTINUOUS
 10
163.923385
 20
377.823271
 30
0.0
  0
SEQEND
  8
0
  6
CONTINUOUS
  0
POLYLINE
  8
0
  6
CONTINUOUS
 66
     1
 10
0.0
 20
0.0
 30
0.0
  0
VERTEX
  8
0
  6
CONTINUOUS
 10
163.923385
 20
381.089195
 30
0.0
  0
VERTEX
  8
0
  6
CONTINUOUS
 10
163.87162
 20
380.914989
 30
0.0
  0
VERTEX
  8
0
  6
CONTINUOUS
 10
163.746635
 20
380.783056
 30
0.0
  0
SEQEND
  8
0
  6
CONTINUOUS
  0
POLYLINE
  8
0
  6
CONTINUOUS
 66
     1
 10
0.0
 20
0.0
 30
0.0
  0
VERTEX
  8
0
  6
CONTINUOUS
 10
162.920489
 20
374.126613
 30
0.0
  0
VERTEX
  8
0
  6
CONTINUOUS
 10
162.795505
 20
374.114227
 30
0.0
  0
VERTEX
  8
0
  6
CONTINUOUS
 10
162.743739
 20
374.228659
 30
0.0
  0
SEQEND
  8
0
  6
CONTINUOUS
  0
POLYLINE
  8
0
  6
CONTINUOUS
 66
     1
 10
0.0
 20
0.0
 30
0.0
  0
VERTEX
  8
0
  6
CONTINUOUS
 10
160.459515
 20
375.370318
 30
0.0
  0
VERTEX
  8
0
  6
CONTINUOUS
 10
160.419584
 20
375.414337
 30
0.0
  0
VERTEX
  8
0
  6
CONTINUOUS
 10
160.405529
 20
375.485988
 30
0.0
  0
SEQEND
  8
0
  6
CONTINUOUS
  0
POLYLINE
  8
0
  6
CONTINUOUS
 66
     1
 10
0.0
 20
0.0
 30
0.0
  0
VERTEX
  8
0
  6
CONTINUOUS
 10
149.798927
 20
363.136508
 30
0.0
  0
VERTEX
  8
0
  6
CONTINUOUS
 10
149.240786
 20
362.918678
 30
0.0
  0
VERTEX
  8
0
  6
CONTINUOUS
 10
148.739745
 20
362.931958
 30
0.0
  0
SEQEND
  8
0
  6
CONTINUOUS
  0
POLYLINE
  8
0
  6
CONTINUOUS
 66
     1
 10
0.0
 20
0.0
 30
0.0
  0
VERTEX
  8
0
  6
CONTINUOUS
 10
150.152481
 20
362.932384
 30
0.0
  0
VERTEX
  8
0
  6
CONTINUOUS
 10
149.21327
 20
362.702062
 30
0.0
  0
VERTEX
  8
0
  6
CONTINUOUS
 10
148.56111
 20
363.165997
 30
0.0
  0
SEQEND
  8
0
  6
CONTINUOUS
  0
POLYLINE
  8
0
  6
CONTINUOUS
 66
     1
 10
0.0
 20
0.0
 30
0.0
  0
VERTEX
  8
0
  6
CONTINUOUS
 10
162.20104
 20
375.093788
 30
0.0
  0
VERTEX
  8
0
  6
CONTINUOUS
 10
162.076055
 20
374.961855
 30
0.0
  0
VERTEX
  8
0
  6
CONTINUOUS
 10
162.02429
 20
374.787649
 30
0.0
  0
SEQEND
  8
0
  6
CONTINUOUS
  0
POLYLINE
  8
0
  6
CONTINUOUS
 66
     1
 10
0.0
 20
0.0
 30
0.0
  0
VERTEX
  8
0
  6
CONTINUOUS
 10
162.02429
 20
377.339138
 30
0.0
  0
VERTEX
  8
0
  6
CONTINUOUS
 10
162.038345
 20
377.267488
 30
0.0
  0
VERTEX
  8
0
  6
CONTINUOUS
 10
162.078276
 20
377.223469
 30
0.0
  0
SEQEND
  8
0
  6
CONTINUOUS
  0
POLYLINE
  8
0
  6
CONTINUOUS
 66
     1
 10
0.0
 20
0.0
 30
0.0
  0
VERTEX
  8
0
  6
CONTINUOUS
 10
166.857878
 20
392.78554
 30
0.0
  0
VERTEX
  8
0
  6
CONTINUOUS
 10
166.952613
 20
393.248483
 30
0.0
  0
VERTEX
  8
0
  6
CONTINUOUS
 10
167.211432
 20
393.696771
 30
0.0
  0
VERTEX
  8
0
  6
CONTINUOUS
 10
167.564985
 20
394.010285
 30
0.0
  0
SEQEND
  8
0
  6
CONTINUOUS
  0
POLYLINE
  8
0
  6
CONTINUOUS
 66
     1
 10
0.0
 20
0.0
 30
0.0
  0
VERTEX
  8
0
  6
CONTINUOUS
 10
167.564985
 20
368.290642
 30
0.0
  0
VERTEX
  8
0
  6
CONTINUOUS
 10
167.211432
 20
368.195908
 30
0.0
  0
VERTEX
  8
0
  6
CONTINUOUS
 10
166.952613
 20
368.345337
 30
0.0
  0
VERTEX
  8
0
  6
CONTINUOUS
 10
166.857878
 20
368.698891
 30
0.0
  0
SEQEND
  8
0
  6
CONTINUOUS
  0
POLYLINE
  8
0
  6
CONTINUOUS
 66
     1
 10
0.0
 20
0.0
 30
0.0
  0
VERTEX
  8
0
  6
CONTINUOUS
 10
184.535548
 20
378.905098
 30
0.0
  0
VERTEX
  8
0
  6
CONTINUOUS
 10
184.440813
 20
378.442155
 30
0.0
  0
VERTEX
  8
0
  6
CONTINUOUS
 10
184.181994
 20
377.993867
 30
0.0
  0
VERTEX
  8
0
  6
CONTINUOUS
 10
183.828441
 20
377.680353
 30
0.0
  0
SEQEND
  8
0
  6
CONTINUOUS
  0
POLYLINE
  8
0
  6
CONTINUOUS
 66
     1
 10
0.0
 20
0.0
 30
0.0
  0
VERTEX
  8
0
  6
CONTINUOUS
 10
183.828441
 20
403.399995
 30
0.0
  0
VERTEX
  8
0
  6
CONTINUOUS
 10
184.181994
 20
403.49473
 30
0.0
  0
VERTEX
  8
0
  6
CONTINUOUS
 10
184.440813
 20
403.345301
 30
0.0
  0
VERTEX
  8
0
  6
CONTINUOUS
 10
184.535548
 20
402.991747
 30
0.0
  0
SEQEND
  8
0
  6
CONTINUOUS
  0
POLYLINE
  8
0
  6
CONTINUOUS
 66
     1
 10
0.0
 20
0.0
 30
0.0
  0
VERTEX
  8
0
  6
CONTINUOUS
 10
183.762381
 20
405.204294
 30
0.0
  0
VERTEX
  8
0
  6
CONTINUOUS
 10
166.415936
 20
395.189319
 30
0.0
  0
VERTEX
  8
0
  6
CONTINUOUS
 10
149.069492
 20
385.174345
 30
0.0
  0
SEQEND
  8
0
  6
CONTINUOUS
  0
POLYLINE
  8
0
  6
CONTINUOUS
 66
     1
 10
0.0
 20
0.0
 30
0.0
  0
VERTEX
  8
0
  6
CONTINUOUS
 10
183.762381
 20
405.204294
 30
0.0
  0
VERTEX
  8
0
  6
CONTINUOUS
 10
184.189054
 20
405.342705
 30
0.0
  0
VERTEX
  8
0
  6
CONTINUOUS
 10
184.550181
 20
405.262458
 30
0.0
  0
SEQEND
  8
0
  6
CONTINUOUS
  0
POLYLINE
  8
0
  6
CONTINUOUS
 66
     1
 10
0.0
 20
0.0
 30
0.0
  0
VERTEX
  8
0
  6
CONTINUOUS
 10
184.550181
 20
405.262458
 30
0.0
  0
VERTEX
  8
0
  6
CONTINUOUS
 10
184.80024
 20
404.989836
 30
0.0
  0
VERTEX
  8
0
  6
CONTINUOUS
 10
184.893709
 20
404.551122
 30
0.0
  0
SEQEND
  8
0
  6
CONTINUOUS
  0
POLYLINE
  8
0
  6
CONTINUOUS
 66
     1
 10
0.0
 20
0.0
 30
0.0
  0
VERTEX
  8
0
  6
CONTINUOUS
 10
184.893709
 20
379.392286
 30
0.0
  0
VERTEX
  8
0
  6
CONTINUOUS
 10
184.893709
 20
391.971704
 30
0.0
  0
VERTEX
  8
0
  6
CONTINUOUS
 10
184.893709
 20
404.551122
 30
0.0
  0
SEQEND
  8
0
  6
CONTINUOUS
  0
POLYLINE
  8
0
  6
CONTINUOUS
 66
     1
 10
0.0
 20
0.0
 30
0.0
  0
VERTEX
  8
0
  6
CONTINUOUS
 10
184.893709
 20
379.392286
 30
0.0
  0
VERTEX
  8
0
  6
CONTINUOUS
 10
184.80024
 20
378.845642
 30
0.0
  0
VERTEX
  8
0
  6
CONTINUOUS
 10
184.550181
 20
378.284277
 30
0.0
  0
SEQEND
  8
0
  6
CONTINUOUS
  0
POLYLINE
  8
0
  6
CONTINUOUS
 66
     1
 10
0.0
 20
0.0
 30
0.0
  0
VERTEX
  8
0
  6
CONTINUOUS
 10
184.550181
 20
378.284277
 30
0.0
  0
VERTEX
  8
0
  6
CONTINUOUS
 10
184.189054
 20
377.787037
 30
0.0
  0
VERTEX
  8
0
  6
CONTINUOUS
 10
183.762381
 20
377.432769
 30
0.0
  0
SEQEND
  8
0
  6
CONTINUOUS
  0
POLYLINE
  8
0
  6
CONTINUOUS
 66
     1
 10
0.0
 20
0.0
 30
0.0
  0
VERTEX
  8
0
  6
CONTINUOUS
 10
149.069492
 20
357.40282
 30
0.0
  0
VERTEX
  8
0
  6
CONTINUOUS
 10
166.415936
 20
367.417794
 30
0.0
  0
VERTEX
  8
0
  6
CONTINUOUS
 10
183.762381
 20
377.432769
 30
0.0
  0
SEQEND
  8
0
  6
CONTINUOUS
  0
POLYLINE
  8
0
  6
CONTINUOUS
 66
     1
 10
0.0
 20
0.0
 30
0.0
  0
VERTEX
  8
0
  6
CONTINUOUS
 10
149.069492
 20
357.40282
 30
0.0
  0
VERTEX
  8
0
  6
CONTINUOUS
 10
148.642819
 20
357.264409
 30
0.0
  0
VERTEX
  8
0
  6
CONTINUOUS
 10
148.281692
 20
357.344655
 30
0.0
  0
SEQEND
  8
0
  6
CONTINUOUS
  0
POLYLINE
  8
0
  6
CONTINUOUS
 66
     1
 10
0.0
 20
0.0
 30
0.0
  0
VERTEX
  8
0
  6
CONTINUOUS
 10
148.281692
 20
357.344655
 30
0.0
  0
VERTEX
  8
0
  6
CONTINUOUS
 10
148.031633
 20
357.617277
 30
0.0
  0
VERTEX
  8
0
  6
CONTINUOUS
 10
147.938164
 20
358.055992
 30
0.0
  0
SEQEND
  8
0
  6
CONTINUOUS
  0
POLYLINE
  8
0
  6
CONTINUOUS
 66
     1
 10
0.0
 20
0.0
 30
0.0
  0
VERTEX
  8
0
  6
CONTINUOUS
 10
147.938164
 20
358.055992
 30
0.0
  0
VERTEX
  8
0
  6
CONTINUOUS
 10
147.938164
 20
370.63541
 30
0.0
  0
VERTEX
  8
0
  6
CONTINUOUS
 10
147.938164
 20
383.214828
 30
0.0
  0
SEQEND
  8
0
  6
CONTINUOUS
  0
POLYLINE
  8
0
  6
CONTINUOUS
 66
     1
 10
0.0
 20
0.0
 30
0.0
  0
VERTEX
  8
0
  6
CONTINUOUS
 10
147.938164
 20
383.214828
 30
0.0
  0
VERTEX
  8
0
  6
CONTINUOUS
 10
148.031633
 20
383.761471
 30
0.0
  0
VERTEX
  8
0
  6
CONTINUOUS
 10
148.281692
 20
384.322836
 30
0.0
  0
SEQEND
  8
0
  6
CONTINUOUS
  0
POLYLINE
  8
0
  6
CONTINUOUS
 66
     1
 10
0.0
 20
0.0
 30
0.0
  0
VERTEX
  8
0
  6
CONTINUOUS
 10
148.281692
 20
384.322836
 30
0.0
  0
VERTEX
  8
0
  6
CONTINUOUS
 10
148.642819
 20
384.820076
 30
0.0
  0
VERTEX
  8
0
  6
CONTINUOUS
 10
149.069492
 20
385.174345
 30
0.0
  0
SEQEND
  8
0
  6
CONTINUOUS
  0
POLYLINE
  8
0
  6
CONTINUOUS
 66
     1
 10
0.0
 20
0.0
 30
0.0
  0
VERTEX
  8
0
  6
CONTINUOUS
 10
148.296325
 20
382.069022
 30
0.0
  0
VERTEX
  8
0
  6
CONTINUOUS
 10
148.503432
 20
382.765946
 30
0.0
  0
VERTEX
  8
0
  6
CONTINUOUS
 10
149.003432
 20
383.293767
 30
0.0
  0
SEQEND
  8
0
  6
CONTINUOUS
  0
POLYLINE
  8
0
  6
CONTINUOUS
 66
     1
 10
0.0
 20
0.0
 30
0.0
  0
VERTEX
  8
0
  6
CONTINUOUS
 10
149.003432
 20
357.574125
 30
0.0
  0
VERTEX
  8
0
  6
CONTINUOUS
 10
148.649879
 20
357.479391
 30
0.0
  0
VERTEX
  8
0
  6
CONTINUOUS
 10
148.39106
 20
357.62882
 30
0.0
  0
VERTEX
  8
0
  6
CONTINUOUS
 10
148.296325
 20
357.982373
 30
0.0
  0
SEQEND
  8
0
  6
CONTINUOUS
  0
POLYLINE
  8
0
  6
CONTINUOUS
 66
     1
 10
0.0
 20
0.0
 30
0.0
  0
VERTEX
  8
0
  6
CONTINUOUS
 10
165.973995
 20
368.18858
 30
0.0
  0
VERTEX
  8
0
  6
CONTINUOUS
 10
165.766888
 20
367.491657
 30
0.0
  0
VERTEX
  8
0
  6
CONTINUOUS
 10
165.266888
 20
366.963836
 30
0.0
  0
SEQEND
  8
0
  6
CONTINUOUS
  0
POLYLINE
  8
0
  6
CONTINUOUS
 66
     1
 10
0.0
 20
0.0
 30
0.0
  0
VERTEX
  8
0
  6
CONTINUOUS
 10
165.266888
 20
392.683478
 30
0.0
  0
VERTEX
  8
0
  6
CONTINUOUS
 10
165.620441
 20
392.778212
 30
0.0
  0
VERTEX
  8
0
  6
CONTINUOUS
 10
165.87926
 20
392.628783
 30
0.0
  0
VERTEX
  8
0
  6
CONTINUOUS
 10
165.973995
 20
392.27523
 30
0.0
  0
SEQEND
  8
0
  6
CONTINUOUS
  0
POLYLINE
  8
0
  6
CONTINUOUS
 66
     1
 10
0.0
 20
0.0
 30
0.0
  0
VERTEX
  8
0
  6
CONTINUOUS
 10
148.455132
 20
373.406884
 30
0.0
  0
VERTEX
  8
0
  6
CONTINUOUS
 10
148.499919
 20
373.369299
 30
0.0
  0
VERTEX
  8
0
  6
CONTINUOUS
 10
148.50954
 20
373.363731
 30
0.0
  0
SEQEND
  8
0
  6
CONTINUOUS
  0
POLYLINE
  8
0
  6
CONTINUOUS
 66
     1
 10
0.0
 20
0.0
 30
0.0
  0
VERTEX
  8
0
  6
CONTINUOUS
 10
148.455132
 20
373.406884
 30
0.0
  0
VERTEX
  8
0
  6
CONTINUOUS
 10
148.477098
 20
373.340704
 30
0.0
  0
VERTEX
  8
0
  6
CONTINUOUS
 10
148.49827
 20
373.274557
 30
0.0
  0
SEQEND
  8
0
  6
CONTINUOUS
  0
POLYLINE
  8
0
  6
CONTINUOUS
 66
     1
 10
0.0
 20
0.0
 30
0.0
  0
VERTEX
  8
0
  6
CONTINUOUS
 10
148.455132
 20
370.38032
 30
0.0
  0
VERTEX
  8
0
  6
CONTINUOUS
 10
148.436215
 20
370.357724
 30
0.0
  0
VERTEX
  8
0
  6
CONTINUOUS
 10
148.419375
 20
370.336147
 30
0.0
  0
VERTEX
  8
0
  6
CONTINUOUS
 10
148.404702
 20
370.315802
 30
0.0
  0
VERTEX
  8
0
  6
CONTINUOUS
 10
148.392307
 20
370.296912
 30
0.0
  0
SEQEND
  8
0
  6
CONTINUOUS
  0
POLYLINE
  8
0
  6
CONTINUOUS
 66
     1
 10
0.0
 20
0.0
 30
0.0
  0
VERTEX
  8
0
  6
CONTINUOUS
 10
148.655094
 20
370.553378
 30
0.0
  0
VERTEX
  8
0
  6
CONTINUOUS
 10
148.603434
 20
370.519217
 30
0.0
  0
VERTEX
  8
0
  6
CONTINUOUS
 10
148.550388
 20
370.476313
 30
0.0
  0
VERTEX
  8
0
  6
CONTINUOUS
 10
148.499935
 20
370.428708
 30
0.0
  0
VERTEX
  8
0
  6
CONTINUOUS
 10
148.455132
 20
370.38032
 30
0.0
  0
SEQEND
  8
0
  6
CONTINUOUS
  0
POLYLINE
  8
0
  6
CONTINUOUS
 66
     1
 10
0.0
 20
0.0
 30
0.0
  0
VERTEX
  8
0
  6
CONTINUOUS
 10
148.49827
 20
370.462836
 30
0.0
  0
VERTEX
  8
0
  6
CONTINUOUS
 10
148.477098
 20
370.421137
 30
0.0
  0
VERTEX
  8
0
  6
CONTINUOUS
 10
148.455132
 20
370.38032
 30
0.0
  0
SEQEND
  8
0
  6
CONTINUOUS
  0
POLYLINE
  8
0
  6
CONTINUOUS
 66
     1
 10
0.0
 20
0.0
 30
0.0
  0
VERTEX
  8
0
  6
CONTINUOUS
 10
167.016685
 20
384.123402
 30
0.0
  0
VERTEX
  8
0
  6
CONTINUOUS
 10
167.061472
 20
384.085817
 30
0.0
  0
VERTEX
  8
0
  6
CONTINUOUS
 10
167.071093
 20
384.080249
 30
0.0
  0
SEQEND
  8
0
  6
CONTINUOUS
  0
POLYLINE
  8
0
  6
CONTINUOUS
 66
     1
 10
0.0
 20
0.0
 30
0.0
  0
VERTEX
  8
0
  6
CONTINUOUS
 10
166.857248
 20
384.47797
 30
0.0
  0
VERTEX
  8
0
  6
CONTINUOUS
 10
166.906929
 20
384.354064
 30
0.0
  0
VERTEX
  8
0
  6
CONTINUOUS
 10
166.95386
 20
384.229928
 30
0.0
  0
SEQEND
  8
0
  6
CONTINUOUS
  0
POLYLINE
  8
0
  6
CONTINUOUS
 66
     1
 10
0.0
 20
0.0
 30
0.0
  0
VERTEX
  8
0
  6
CONTINUOUS
 10
166.95386
 20
384.229928
 30
0.0
  0
VERTEX
  8
0
  6
CONTINUOUS
 10
166.966249
 20
384.200145
 30
0.0
  0
VERTEX
  8
0
  6
CONTINUOUS
 10
166.980915
 20
384.172223
 30
0.0
  0
VERTEX
  8
0
  6
CONTINUOUS
 10
166.997743
 20
384.146541
 30
0.0
  0
VERTEX
  8
0
  6
CONTINUOUS
 10
167.016685
 20
384.123402
 30
0.0
  0
SEQEND
  8
0
  6
CONTINUOUS
  0
POLYLINE
  8
0
  6
CONTINUOUS
 66
     1
 10
0.0
 20
0.0
 30
0.0
  0
VERTEX
  8
0
  6
CONTINUOUS
 10
167.016685
 20
384.123402
 30
0.0
  0
VERTEX
  8
0
  6
CONTINUOUS
 10
167.038651
 20
384.057222
 30
0.0
  0
VERTEX
  8
0
  6
CONTINUOUS
 10
167.059823
 20
383.991075
 30
0.0
  0
SEQEND
  8
0
  6
CONTINUOUS
  0
POLYLINE
  8
0
  6
CONTINUOUS
 66
     1
 10
0.0
 20
0.0
 30
0.0
  0
VERTEX
  8
0
  6
CONTINUOUS
 10
166.946293
 20
388.652042
 30
0.0
  0
VERTEX
  8
0
  6
CONTINUOUS
 10
167.015372
 20
388.675695
 30
0.0
  0
VERTEX
  8
0
  6
CONTINUOUS
 10
167.073459
 20
388.663123
 30
0.0
  0
SEQEND
  8
0
  6
CONTINUOUS
  0
POLYLINE
  8
0
  6
CONTINUOUS
 66
     1
 10
0.0
 20
0.0
 30
0.0
  0
VERTEX
  8
0
  6
CONTINUOUS
 10
166.85706
 20
380.872871
 30
0.0
  0
VERTEX
  8
0
  6
CONTINUOUS
 10
166.90684
 20
380.941497
 30
0.0
  0
VERTEX
  8
0
  6
CONTINUOUS
 10
166.95386
 20
381.01343
 30
0.0
  0
SEQEND
  8
0
  6
CONTINUOUS
  0
POLYLINE
  8
0
  6
CONTINUOUS
 66
     1
 10
0.0
 20
0.0
 30
0.0
  0
VERTEX
  8
0
  6
CONTINUOUS
 10
167.016685
 20
381.096838
 30
0.0
  0
VERTEX
  8
0
  6
CONTINUOUS
 10
166.997768
 20
381.074242
 30
0.0
  0
VERTEX
  8
0
  6
CONTINUOUS
 10
166.980928
 20
381.052664
 30
0.0
  0
VERTEX
  8
0
  6
CONTINUOUS
 10
166.966255
 20
381.032319
 30
0.0
  0
VERTEX
  8
0
  6
CONTINUOUS
 10
166.95386
 20
381.01343
 30
0.0
  0
SEQEND
  8
0
  6
CONTINUOUS
  0
POLYLINE
  8
0
  6
CONTINUOUS
 66
     1
 10
0.0
 20
0.0
 30
0.0
  0
VERTEX
  8
0
  6
CONTINUOUS
 10
167.216647
 20
381.269896
 30
0.0
  0
VERTEX
  8
0
  6
CONTINUOUS
 10
167.164987
 20
381.235735
 30
0.0
  0
VERTEX
  8
0
  6
CONTINUOUS
 10
167.111941
 20
381.192831
 30
0.0
  0
VERTEX
  8
0
  6
CONTINUOUS
 10
167.061488
 20
381.145226
 30
0.0
  0
VERTEX
  8
0
  6
CONTINUOUS
 10
167.016685
 20
381.096838
 30
0.0
  0
SEQEND
  8
0
  6
CONTINUOUS
  0
POLYLINE
  8
0
  6
CONTINUOUS
 66
     1
 10
0.0
 20
0.0
 30
0.0
  0
VERTEX
  8
0
  6
CONTINUOUS
 10
163.675898
 20
380.742345
 30
0.0
  0
VERTEX
  8
0
  6
CONTINUOUS
 10
163.562916
 20
379.923205
 30
0.0
  0
VERTEX
  8
0
  6
CONTINUOUS
 10
163.233537
 20
379.304375
 30
0.0
  0
SEQEND
  8
0
  6
CONTINUOUS
  0
POLYLINE
  8
0
  6
CONTINUOUS
 66
     1
 10
0.0
 20
0.0
 30
0.0
  0
VERTEX
  8
0
  6
CONTINUOUS
 10
163.922544
 20
381.517147
 30
0.0
  0
VERTEX
  8
0
  6
CONTINUOUS
 10
163.944002
 20
379.765817
 30
0.0
  0
VERTEX
  8
0
  6
CONTINUOUS
 10
163.2321
 20
378.644258
 30
0.0
  0
SEQEND
  8
0
  6
CONTINUOUS
  0
POLYLINE
  8
0
  6
CONTINUOUS
 66
     1
 10
0.0
 20
0.0
 30
0.0
  0
VERTEX
  8
0
  6
CONTINUOUS
 10
163.145568
 20
384.92676
 30
0.0
  0
VERTEX
  8
0
  6
CONTINUOUS
 10
163.400562
 20
384.603272
 30
0.0
  0
VERTEX
  8
0
  6
CONTINUOUS
 10
163.639232
 20
384.260989
 30
0.0
  0
SEQEND
  8
0
  6
CONTINUOUS
  0
POLYLINE
  8
0
  6
CONTINUOUS
 66
     1
 10
0.0
 20
0.0
 30
0.0
  0
VERTEX
  8
0
  6
CONTINUOUS
 10
163.923243
 20
383.789898
 30
0.0
  0
VERTEX
  8
0
  6
CONTINUOUS
 10
164.736179
 20
380.891444
 30
0.0
  0
VERTEX
  8
0
  6
CONTINUOUS
 10
163.856838
 20
379.001066
 30
0.0
  0
SEQEND
  8
0
  6
CONTINUOUS
  0
POLYLINE
  8
0
  6
CONTINUOUS
 66
     1
 10
0.0
 20
0.0
 30
0.0
  0
VERTEX
  8
0
  6
CONTINUOUS
 10
160.219823
 20
389.770332
 30
0.0
  0
VERTEX
  8
0
  6
CONTINUOUS
 10
160.226519
 20
389.671876
 30
0.0
  0
VERTEX
  8
0
  6
CONTINUOUS
 10
160.228752
 20
389.570585
 30
0.0
  0
SEQEND
  8
0
  6
CONTINUOUS
  0
POLYLINE
  8
0
  6
CONTINUOUS
 66
     1
 10
0.0
 20
0.0
 30
0.0
  0
VERTEX
  8
0
  6
CONTINUOUS
 10
150.642724
 20
375.987437
 30
0.0
  0
VERTEX
  8
0
  6
CONTINUOUS
 10
150.767708
 20
376.11937
 30
0.0
  0
VERTEX
  8
0
  6
CONTINUOUS
 10
150.819474
 20
376.293577
 30
0.0
  0
SEQEND
  8
0
  6
CONTINUOUS
  0
POLYLINE
  8
0
  6
CONTINUOUS
 66
     1
 10
0.0
 20
0.0
 30
0.0
  0
VERTEX
  8
0
  6
CONTINUOUS
 10
150.819474
 20
373.713583
 30
0.0
  0
VERTEX
  8
0
  6
CONTINUOUS
 10
150.767708
 20
373.828015
 30
0.0
  0
VERTEX
  8
0
  6
CONTINUOUS
 10
150.642724
 20
373.815629
 30
0.0
  0
SEQEND
  8
0
  6
CONTINUOUS
  0
POLYLINE
  8
0
  6
CONTINUOUS
 66
     1
 10
0.0
 20
0.0
 30
0.0
  0
VERTEX
  8
0
  6
CONTINUOUS
 10
150.642724
 20
369.761651
 30
0.0
  0
VERTEX
  8
0
  6
CONTINUOUS
 10
150.767708
 20
369.893584
 30
0.0
  0
VERTEX
  8
0
  6
CONTINUOUS
 10
150.819474
 20
370.06779
 30
0.0
  0
SEQEND
  8
0
  6
CONTINUOUS
  0
POLYLINE
  8
0
  6
CONTINUOUS
 66
     1
 10
0.0
 20
0.0
 30
0.0
  0
VERTEX
  8
0
  6
CONTINUOUS
 10
150.819474
 20
367.487797
 30
0.0
  0
VERTEX
  8
0
  6
CONTINUOUS
 10
150.767708
 20
367.602229
 30
0.0
  0
VERTEX
  8
0
  6
CONTINUOUS
 10
150.642724
 20
367.589843
 30
0.0
  0
SEQEND
  8
0
  6
CONTINUOUS
  0
POLYLINE
  8
0
  6
CONTINUOUS
 66
     1
 10
0.0
 20
0.0
 30
0.0
  0
VERTEX
  8
0
  6
CONTINUOUS
 10
150.642724
 20
367.038042
 30
0.0
  0
VERTEX
  8
0
  6
CONTINUOUS
 10
150.767708
 20
367.169975
 30
0.0
  0
VERTEX
  8
0
  6
CONTINUOUS
 10
150.819474
 20
367.344181
 30
0.0
  0
SEQEND
  8
0
  6
CONTINUOUS
  0
POLYLINE
  8
0
  6
CONTINUOUS
 66
     1
 10
0.0
 20
0.0
 30
0.0
  0
VERTEX
  8
0
  6
CONTINUOUS
 10
149.639828
 20
366.663112
 30
0.0
  0
VERTEX
  8
0
  6
CONTINUOUS
 10
149.691594
 20
366.54868
 30
0.0
  0
VERTEX
  8
0
  6
CONTINUOUS
 10
149.816578
 20
366.561066
 30
0.0
  0
SEQEND
  8
0
  6
CONTINUOUS
  0
POLYLINE
  8
0
  6
CONTINUOUS
 66
     1
 10
0.0
 20
0.0
 30
0.0
  0
VERTEX
  8
0
  6
CONTINUOUS
 10
149.816578
 20
369.882795
 30
0.0
  0
VERTEX
  8
0
  6
CONTINUOUS
 10
149.691594
 20
369.750862
 30
0.0
  0
VERTEX
  8
0
  6
CONTINUOUS
 10
149.639828
 20
369.576656
 30
0.0
  0
SEQEND
  8
0
  6
CONTINUOUS
  0
POLYLINE
  8
0
  6
CONTINUOUS
 66
     1
 10
0.0
 20
0.0
 30
0.0
  0
VERTEX
  8
0
  6
CONTINUOUS
 10
149.639828
 20
372.84258
 30
0.0
  0
VERTEX
  8
0
  6
CONTINUOUS
 10
149.691594
 20
372.728147
 30
0.0
  0
VERTEX
  8
0
  6
CONTINUOUS
 10
149.816578
 20
372.740533
 30
0.0
  0
SEQEND
  8
0
  6
CONTINUOUS
  0
POLYLINE
  8
0
  6
CONTINUOUS
 66
     1
 10
0.0
 20
0.0
 30
0.0
  0
VERTEX
  8
0
  6
CONTINUOUS
 10
150.819474
 20
376.437192
 30
0.0
  0
VERTEX
  8
0
  6
CONTINUOUS
 10
150.767708
 20
376.551624
 30
0.0
  0
VERTEX
  8
0
  6
CONTINUOUS
 10
150.642724
 20
376.539238
 30
0.0
  0
SEQEND
  8
0
  6
CONTINUOUS
  0
POLYLINE
  8
0
  6
CONTINUOUS
 66
     1
 10
0.0
 20
0.0
 30
0.0
  0
VERTEX
  8
0
  6
CONTINUOUS
 10
148.38474
 20
377.935524
 30
0.0
  0
VERTEX
  8
0
  6
CONTINUOUS
 10
148.453819
 20
377.959177
 30
0.0
  0
VERTEX
  8
0
  6
CONTINUOUS
 10
148.511906
 20
377.946605
 30
0.0
  0
SEQEND
  8
0
  6
CONTINUOUS
  0
POLYLINE
  8
0
  6
CONTINUOUS
 66
     1
 10
0.0
 20
0.0
 30
0.0
  0
VERTEX
  8
0
  6
CONTINUOUS
 10
149.816578
 20
376.062263
 30
0.0
  0
VERTEX
  8
0
  6
CONTINUOUS
 10
149.691594
 20
375.930329
 30
0.0
  0
VERTEX
  8
0
  6
CONTINUOUS
 10
149.639828
 20
375.756123
 30
0.0
  0
SEQEND
  8
0
  6
CONTINUOUS
  0
POLYLINE
  8
0
  6
CONTINUOUS
 66
     1
 10
0.0
 20
0.0
 30
0.0
  0
VERTEX
  8
0
  6
CONTINUOUS
 10
169.381027
 20
387.15371
 30
0.0
  0
VERTEX
  8
0
  6
CONTINUOUS
 10
169.329261
 20
387.268142
 30
0.0
  0
VERTEX
  8
0
  6
CONTINUOUS
 10
169.204277
 20
387.255756
 30
0.0
  0
SEQEND
  8
0
  6
CONTINUOUS
  0
POLYLINE
  8
0
  6
CONTINUOUS
 66
     1
 10
0.0
 20
0.0
 30
0.0
  0
VERTEX
  8
0
  6
CONTINUOUS
 10
169.204277
 20
386.703955
 30
0.0
  0
VERTEX
  8
0
  6
CONTINUOUS
 10
169.329261
 20
386.835888
 30
0.0
  0
VERTEX
  8
0
  6
CONTINUOUS
 10
169.381027
 20
387.010094
 30
0.0
  0
SEQEND
  8
0
  6
CONTINUOUS
  0
POLYLINE
  8
0
  6
CONTINUOUS
 66
     1
 10
0.0
 20
0.0
 30
0.0
  0
VERTEX
  8
0
  6
CONTINUOUS
 10
169.381027
 20
384.430101
 30
0.0
  0
VERTEX
  8
0
  6
CONTINUOUS
 10
169.329261
 20
384.544533
 30
0.0
  0
VERTEX
  8
0
  6
CONTINUOUS
 10
169.204277
 20
384.532147
 30
0.0
  0
SEQEND
  8
0
  6
CONTINUOUS
  0
POLYLINE
  8
0
  6
CONTINUOUS
 66
     1
 10
0.0
 20
0.0
 30
0.0
  0
VERTEX
  8
0
  6
CONTINUOUS
 10
169.204277
 20
380.478168
 30
0.0
  0
VERTEX
  8
0
  6
CONTINUOUS
 10
169.329261
 20
380.610102
 30
0.0
  0
VERTEX
  8
0
  6
CONTINUOUS
 10
169.381027
 20
380.784308
 30
0.0
  0
SEQEND
  8
0
  6
CONTINUOUS
  0
POLYLINE
  8
0
  6
CONTINUOUS
 66
     1
 10
0.0
 20
0.0
 30
0.0
  0
VERTEX
  8
0
  6
CONTINUOUS
 10
169.381027
 20
378.204314
 30
0.0
  0
VERTEX
  8
0
  6
CONTINUOUS
 10
169.329261
 20
378.318747
 30
0.0
  0
VERTEX
  8
0
  6
CONTINUOUS
 10
169.204277
 20
378.306361
 30
0.0
  0
SEQEND
  8
0
  6
CONTINUOUS
  0
POLYLINE
  8
0
  6
CONTINUOUS
 66
     1
 10
0.0
 20
0.0
 30
0.0
  0
VERTEX
  8
0
  6
CONTINUOUS
 10
169.204277
 20
377.754559
 30
0.0
  0
VERTEX
  8
0
  6
CONTINUOUS
 10
169.329261
 20
377.886493
 30
0.0
  0
VERTEX
  8
0
  6
CONTINUOUS
 10
169.381027
 20
378.060699
 30
0.0
  0
SEQEND
  8
0
  6
CONTINUOUS
  0
POLYLINE
  8
0
  6
CONTINUOUS
 66
     1
 10
0.0
 20
0.0
 30
0.0
  0
VERTEX
  8
0
  6
CONTINUOUS
 10
168.201381
 20
377.37963
 30
0.0
  0
VERTEX
  8
0
  6
CONTINUOUS
 10
168.253147
 20
377.265198
 30
0.0
  0
VERTEX
  8
0
  6
CONTINUOUS
 10
168.378131
 20
377.277584
 30
0.0
  0
SEQEND
  8
0
  6
CONTINUOUS
  0
POLYLINE
  8
0
  6
CONTINUOUS
 66
     1
 10
0.0
 20
0.0
 30
0.0
  0
VERTEX
  8
0
  6
CONTINUOUS
 10
168.378131
 20
380.599313
 30
0.0
  0
VERTEX
  8
0
  6
CONTINUOUS
 10
168.253147
 20
380.46738
 30
0.0
  0
VERTEX
  8
0
  6
CONTINUOUS
 10
168.201381
 20
380.293173
 30
0.0
  0
SEQEND
  8
0
  6
CONTINUOUS
  0
POLYLINE
  8
0
  6
CONTINUOUS
 66
     1
 10
0.0
 20
0.0
 30
0.0
  0
VERTEX
  8
0
  6
CONTINUOUS
 10
168.201381
 20
383.559097
 30
0.0
  0
VERTEX
  8
0
  6
CONTINUOUS
 10
168.253147
 20
383.444665
 30
0.0
  0
VERTEX
  8
0
  6
CONTINUOUS
 10
168.378131
 20
383.457051
 30
0.0
  0
SEQEND
  8
0
  6
CONTINUOUS
  0
POLYLINE
  8
0
  6
CONTINUOUS
 66
     1
 10
0.0
 20
0.0
 30
0.0
  0
VERTEX
  8
0
  6
CONTINUOUS
 10
168.378131
 20
386.77878
 30
0.0
  0
VERTEX
  8
0
  6
CONTINUOUS
 10
168.253147
 20
386.646847
 30
0.0
  0
VERTEX
  8
0
  6
CONTINUOUS
 10
168.201381
 20
386.472641
 30
0.0
  0
SEQEND
  8
0
  6
CONTINUOUS
  0
POLYLINE
  8
0
  6
CONTINUOUS
 66
     1
 10
0.0
 20
0.0
 30
0.0
  0
VERTEX
  8
0
  6
CONTINUOUS
 10
167.059823
 20
381.179354
 30
0.0
  0
VERTEX
  8
0
  6
CONTINUOUS
 10
167.038651
 20
381.137654
 30
0.0
  0
VERTEX
  8
0
  6
CONTINUOUS
 10
167.016685
 20
381.096838
 30
0.0
  0
SEQEND
  8
0
  6
CONTINUOUS
  0
LINE
  8
0
  6
CONTINUOUS
 10
174.148429
 20
402.00425
 30
0.0
 11
167.594813
 21
405.854022
 31
0.0
  0
LINE
  8
0
  6
CONTINUOUS
 10
174.342235
 20
401.317027
 30
0.0
 11
174.345012
 21
401.682833
 31
0.0
  0
LINE
  8
0
  6
CONTINUOUS
 10
166.486532
 20
406.780781
 30
0.0
 11
166.795062
 21
447.425926
 31
0.0
  0
LINE
  8
0
  6
CONTINUOUS
 10
164.257907
 20
447.841663
 30
0.0
 11
164.256218
 21
447.619162
 31
0.0
  0
LINE
  8
0
  6
CONTINUOUS
 10
156.049529
 20
442.480044
 30
0.0
 11
156.051376
 21
442.72342
 31
0.0
  0
LINE
  8
0
  6
CONTINUOUS
 10
154.663222
 20
442.320069
 30
0.0
 11
154.35829
 21
401.61186
 31
0.0
  0
LINE
  8
0
  6
CONTINUOUS
 10
162.209452
 20
445.254078
 30
0.0
 11
162.210357
 21
445.373359
 31
0.0
  0
LINE
  8
0
  6
CONTINUOUS
 10
163.28743
 20
447.774925
 30
0.0
 11
163.272954
 21
445.86791
 31
0.0
  0
LINE
  8
0
  6
CONTINUOUS
 10
165.554374
 20
447.185238
 30
0.0
 11
165.557654
 21
447.617458
 31
0.0
  0
LINE
  8
0
  6
CONTINUOUS
 10
165.062162
 20
448.370541
 30
0.0
 11
165.062716
 21
448.443553
 31
0.0
  0
LINE
  8
0
  6
CONTINUOUS
 10
150.774283
 20
444.604538
 30
0.0
 11
150.464889
 21
403.89895
 31
0.0
  0
LINE
  8
0
  6
CONTINUOUS
 10
155.723859
 20
442.232376
 30
0.0
 11
155.723399
 21
442.171663
 31
0.0
  0
LINE
  8
0
  6
CONTINUOUS
 10
157.178986
 20
442.349732
 30
0.0
 11
157.180344
 21
442.528542
 31
0.0
  0
LINE
  8
0
  6
CONTINUOUS
 10
159.537295
 20
444.210267
 30
0.0
 11
159.53349
 21
443.709072
 31
0.0
  0
LINE
  8
0
  6
CONTINUOUS
 10
160.611242
 20
444.331341
 30
0.0
 11
160.612921
 21
444.552512
 31
0.0
  0
LINE
  8
0
  6
CONTINUOUS
 10
157.113713
 20
380.725481
 30
0.0
 11
157.644043
 21
380.419295
 31
0.0
  0
LINE
  8
0
  6
CONTINUOUS
 10
158.144043
 20
380.444059
 30
0.0
 11
159.433865
 21
381.188738
 31
0.0
  0
LINE
  8
0
  6
CONTINUOUS
 10
156.681112
 20
375.586013
 30
0.0
 11
156.92563
 21
375.727186
 31
0.0
  0
LINE
  8
0
  6
CONTINUOUS
 10
156.681112
 20
374.507052
 30
0.0
 11
156.681112
 21
375.586013
 31
0.0
  0
LINE
  8
0
  6
CONTINUOUS
 10
156.354284
 20
374.318358
 30
0.0
 11
156.681112
 21
374.507052
 31
0.0
  0
LINE
  8
0
  6
CONTINUOUS
 10
157.874563
 20
375.272247
 30
0.0
 11
160.271208
 21
376.65595
 31
0.0
  0
LINE
  8
0
  6
CONTINUOUS
 10
175.242665
 20
386.302531
 30
0.0
 11
175.487183
 21
386.443703
 31
0.0
  0
LINE
  8
0
  6
CONTINUOUS
 10
175.242665
 20
385.22357
 30
0.0
 11
175.242665
 21
386.302531
 31
0.0
  0
LINE
  8
0
  6
CONTINUOUS
 10
174.915837
 20
385.034875
 30
0.0
 11
175.242665
 21
385.22357
 31
0.0
  0
LINE
  8
0
  6
CONTINUOUS
 10
167.071133
 20
384.080227
 30
0.0
 11
168.255347
 21
383.443439
 31
0.0
  0
LINE
  8
0
  6
CONTINUOUS
 10
148.295539
 20
367.299339
 30
0.0
 11
149.693794
 21
366.547454
 31
0.0
  0
LINE
  8
0
  6
CONTINUOUS
 10
163.873781
 20
384.115879
 30
0.0
 11
161.615798
 21
385.512164
 31
0.0
  0
LINE
  8
0
  6
CONTINUOUS
 10
148.50958
 20
373.36371
 30
0.0
 11
149.693794
 21
372.726921
 31
0.0
  0
LINE
  8
0
  6
CONTINUOUS
 10
179.021047
 20
386.086846
 30
0.0
 11
181.359258
 21
384.829518
 31
0.0
  0
LINE
  8
0
  6
CONTINUOUS
 10
180.639808
 20
387.939997
 30
0.0
 11
181.359258
 21
387.553127
 31
0.0
  0
LINE
  8
0
  6
CONTINUOUS
 10
180.639808
 20
394.165784
 30
0.0
 11
181.359258
 21
393.778913
 31
0.0
  0
LINE
  8
0
  6
CONTINUOUS
 10
182.435334
 20
394.832397
 30
0.0
 11
180.177351
 21
396.228682
 31
0.0
  0
LINE
  8
0
  6
CONTINUOUS
 10
162.078255
 20
383.449266
 30
0.0
 11
162.797705
 21
383.062396
 31
0.0
  0
LINE
  8
0
  6
CONTINUOUS
 10
162.078255
 20
377.22348
 30
0.0
 11
162.797705
 21
376.836609
 31
0.0
  0
LINE
  8
0
  6
CONTINUOUS
 10
182.435334
 20
388.652929
 30
0.0
 11
181.795213
 21
389.048766
 31
0.0
  0
LINE
  8
0
  6
CONTINUOUS
 10
181.794706
 20
389.357499
 30
0.0
 11
182.417907
 21
389.717304
 31
0.0
  0
LINE
  8
0
  6
CONTINUOUS
 10
163.873781
 20
377.936412
 30
0.0
 11
163.23366
 21
378.332248
 31
0.0
  0
LINE
  8
0
  6
CONTINUOUS
 10
160.459494
 20
375.370329
 30
0.0
 11
162.797705
 21
374.113
 31
0.0
  0
LINE
  8
0
  6
CONTINUOUS
 10
166.857092
 20
378.015856
 30
0.0
 11
168.255347
 21
377.263971
 31
0.0
  0
LINE
  8
0
  6
CONTINUOUS
 10
169.331423
 20
378.317455
 30
0.0
 11
168.719085
 21
378.69611
 31
0.0
  0
LINE
  8
0
  6
CONTINUOUS
 10
169.331423
 20
384.543241
 30
0.0
 11
168.719085
 21
384.921897
 31
0.0
  0
LINE
  8
0
  6
CONTINUOUS
 10
169.331423
 20
387.26685
 30
0.0
 11
167.07344
 21
388.663135
 31
0.0
  0
LINE
  8
0
  6
CONTINUOUS
 10
163.233153
 20
378.640982
 30
0.0
 11
163.856354
 21
379.000787
 31
0.0
  0
LINE
  8
0
  6
CONTINUOUS
 10
150.76987
 20
367.600937
 30
0.0
 11
150.157532
 21
367.979593
 31
0.0
  0
LINE
  8
0
  6
CONTINUOUS
 10
150.76987
 20
373.826723
 30
0.0
 11
150.157532
 21
374.205379
 31
0.0
  0
LINE
  8
0
  6
CONTINUOUS
 10
150.76987
 20
376.550332
 30
0.0
 11
148.511887
 21
377.946618
 31
0.0
  0
LINE
  8
0
  6
CONTINUOUS
 10
149.786441
 20
403.319687
 30
0.0
 11
149.400729
 21
400.139359
 31
0.0
  0
LINE
  8
0
  6
CONTINUOUS
 10
149.224345
 20
399.863348
 30
0.0
 11
147.648661
 21
398.953627
 31
0.0
  0
LINE
  8
0
  6
CONTINUOUS
 10
150.326845
 20
403.980041
 30
0.0
 11
150.13921
 21
403.871709
 31
0.0
  0
LINE
  8
0
  6
CONTINUOUS
 10
155.983484
 20
400.657177
 30
0.0
 11
155.806714
 21
400.761017
 31
0.0
  0
LINE
  8
0
  6
CONTINUOUS
 10
154.427909
 20
401.570965
 30
0.0
 11
150.326845
 21
403.980041
 31
0.0
  0
LINE
  8
0
  6
CONTINUOUS
 10
155.983484
 20
400.657177
 30
0.0
 11
166.590086
 21
406.780901
 31
0.0
  0
LINE
  8
0
  6
CONTINUOUS
 10
167.618482
 20
405.754307
 30
0.0
 11
174.023346
 21
401.991916
 31
0.0
  0
LINE
  8
0
  6
CONTINUOUS
 10
147.648661
 20
398.953627
 30
0.0
 11
158.113443
 21
392.80633
 31
0.0
  0
LINE
  8
0
  6
CONTINUOUS
 10
147.470342
 20
398.648339
 30
0.0
 11
157.935124
 21
392.501042
 31
0.0
  0
LINE
  8
0
  6
CONTINUOUS
 10
147.467565
 20
398.282533
 30
0.0
 11
147.470342
 21
398.648339
 31
0.0
  0
LINE
  8
0
  6
CONTINUOUS
 10
158.639441
 20
392.131681
 30
0.0
 11
158.642217
 21
392.497487
 31
0.0
  0
LINE
  8
0
  6
CONTINUOUS
 10
157.932347
 20
392.135236
 30
0.0
 11
157.935124
 21
392.501042
 31
0.0
  0
LINE
  8
0
  6
CONTINUOUS
 10
174.198566
 20
401.478949
 30
0.0
 11
158.642217
 21
392.497487
 31
0.0
  0
LINE
  8
0
  6
CONTINUOUS
 10
174.023339
 20
401.786015
 30
0.0
 11
158.46699
 21
392.804552
 31
0.0
  0
LINE
  8
0
  6
CONTINUOUS
 10
166.590086
 20
406.780901
 30
0.0
 11
166.486969
 21
406.841475
 31
0.0
  0
LINE
  8
0
  6
CONTINUOUS
 10
174.19579
 20
401.113143
 30
0.0
 11
174.198566
 21
401.478949
 31
0.0
  0
LINE
  8
0
  6
CONTINUOUS
 10
147.467565
 20
398.282533
 30
0.0
 11
157.932347
 21
392.135236
 31
0.0
  0
LINE
  8
0
  6
CONTINUOUS
 10
174.19579
 20
401.113143
 30
0.0
 11
158.639441
 21
392.131681
 31
0.0
  0
LINE
  8
0
  6
CONTINUOUS
 10
165.34304
 20
448.339834
 30
0.0
 11
166.721846
 21
447.529886
 31
0.0
  0
LINE
  8
0
  6
CONTINUOUS
 10
164.353097
 20
447.974188
 30
0.0
 11
164.989493
 21
448.341611
 31
0.0
  0
LINE
  8
0
  6
CONTINUOUS
 10
164.811443
 20
447.538745
 30
0.0
 11
164.812699
 21
447.704205
 31
0.0
  0
LINE
  8
0
  6
CONTINUOUS
 10
164.989476
 20
447.806267
 30
0.0
 11
164.812699
 21
447.704205
 31
0.0
  0
LINE
  8
0
  6
CONTINUOUS
 10
164.98822
 20
447.640807
 30
0.0
 11
164.989476
 21
447.806267
 31
0.0
  0
LINE
  8
0
  6
CONTINUOUS
 10
165.34271
 20
447.76332
 30
0.0
 11
165.343022
 21
447.80449
 31
0.0
  0
LINE
  8
0
  6
CONTINUOUS
 10
165.802624
 20
447.534507
 30
0.0
 11
165.343022
 21
447.80449
 31
0.0
  0
LINE
  8
0
  6
CONTINUOUS
 10
165.801054
 20
447.327682
 30
0.0
 11
165.802624
 21
447.534507
 31
0.0
  0
LINE
  8
0
  6
CONTINUOUS
 10
156.468808
 20
441.939728
 30
0.0
 11
165.802618
 21
447.328606
 31
0.0
  0
LINE
  8
0
  6
CONTINUOUS
 10
155.567275
 20
442.263408
 30
0.0
 11
156.115261
 21
441.941506
 31
0.0
  0
LINE
  8
0
  6
CONTINUOUS
 10
155.566499
 20
442.263802
 30
0.0
 11
155.567278
 21
442.366359
 31
0.0
  0
LINE
  8
0
  6
CONTINUOUS
 10
155.956187
 20
442.590895
 30
0.0
 11
155.567278
 21
442.366359
 31
0.0
  0
LINE
  8
0
  6
CONTINUOUS
 10
155.954931
 20
442.425435
 30
0.0
 11
155.956187
 21
442.590895
 31
0.0
  0
LINE
  8
0
  6
CONTINUOUS
 10
154.736445
 20
442.422011
 30
0.0
 11
155.496585
 21
442.860878
 31
0.0
  0
LINE
  8
0
  6
CONTINUOUS
 10
154.427909
 20
401.570965
 30
0.0
 11
155.806714
 21
400.761017
 31
0.0
  0
LINE
  8
0
  6
CONTINUOUS
 10
154.427909
 20
401.570965
 30
0.0
 11
154.736438
 21
442.216109
 31
0.0
  0
LINE
  8
0
  6
CONTINUOUS
 10
156.115244
 20
441.406161
 30
0.0
 11
154.736438
 21
442.216109
 31
0.0
  0
LINE
  8
0
  6
CONTINUOUS
 10
155.806714
 20
400.761017
 30
0.0
 11
156.115244
 21
441.406161
 31
0.0
  0
LINE
  8
0
  6
CONTINUOUS
 10
166.413309
 20
406.678839
 30
0.0
 11
166.721839
 21
447.323984
 31
0.0
  0
LINE
  8
0
  6
CONTINUOUS
 10
156.160261
 20
400.759239
 30
0.0
 11
166.413309
 21
406.678839
 31
0.0
  0
LINE
  8
0
  6
CONTINUOUS
 10
156.160261
 20
400.759239
 30
0.0
 11
156.468791
 21
441.404384
 31
0.0
  0
LINE
  8
0
  6
CONTINUOUS
 10
166.721839
 20
447.323984
 30
0.0
 11
156.468791
 21
441.404384
 31
0.0
  0
LINE
  8
0
  6
CONTINUOUS
 10
160.72252
 20
445.083474
 30
0.0
 11
157.156929
 21
447.38277
 31
0.0
  0
LINE
  8
0
  6
CONTINUOUS
 10
160.717275
 20
444.392512
 30
0.0
 11
160.72252
 21
445.083474
 31
0.0
  0
LINE
  8
0
  6
CONTINUOUS
 10
161.807152
 20
445.021818
 30
0.0
 11
161.807466
 21
445.063183
 31
0.0
  0
LINE
  8
0
  6
CONTINUOUS
 10
162.115167
 20
445.240835
 30
0.0
 11
161.807466
 21
445.063183
 31
0.0
  0
LINE
  8
0
  6
CONTINUOUS
 10
162.114853
 20
445.19947
 30
0.0
 11
162.115167
 21
445.240835
 31
0.0
  0
LINE
  8
0
  6
CONTINUOUS
 10
161.45903
 20
445.397348
 30
0.0
 11
161.655565
 21
445.510817
 31
0.0
  0
LINE
  8
0
  6
CONTINUOUS
 10
157.424871
 20
447.772355
 30
0.0
 11
161.097382
 21
445.404111
 31
0.0
  0
LINE
  8
0
  6
CONTINUOUS
 10
157.431422
 20
447.768012
 30
0.0
 11
157.43298
 21
447.973271
 31
0.0
  0
LINE
  8
0
  6
CONTINUOUS
 10
160.92376
 20
449.988674
 30
0.0
 11
157.43298
 21
447.973271
 31
0.0
  0
LINE
  8
0
  6
CONTINUOUS
 10
160.889955
 20
445.535285
 30
0.0
 11
160.92376
 21
449.988674
 31
0.0
  0
LINE
  8
0
  6
CONTINUOUS
 10
161.596628
 20
445.476333
 30
0.0
 11
161.630853
 21
449.985119
 31
0.0
  0
LINE
  8
0
  6
CONTINUOUS
 10
163.893509
 20
448.655974
 30
0.0
 11
161.630853
 21
449.985119
 31
0.0
  0
LINE
  8
0
  6
CONTINUOUS
 10
163.890369
 20
448.242323
 30
0.0
 11
163.893509
 21
448.655974
 31
0.0
  0
LINE
  8
0
  6
CONTINUOUS
 10
163.433876
 20
447.978809
 30
0.0
 11
163.893495
 21
448.24417
 31
0.0
  0
LINE
  8
0
  6
CONTINUOUS
 10
163.421617
 20
445.95377
 30
0.0
 11
163.433862
 21
447.567006
 31
0.0
  0
LINE
  8
0
  6
CONTINUOUS
 10
164.358535
 20
447.023828
 30
0.0
 11
163.433862
 21
447.567006
 31
0.0
  0
LINE
  8
0
  6
CONTINUOUS
 10
164.354502
 20
446.492482
 30
0.0
 11
164.358535
 21
447.023828
 31
0.0
  0
LINE
  8
0
  6
CONTINUOUS
 10
165.361571
 20
447.073957
 30
0.0
 11
165.362341
 21
447.175425
 31
0.0
  0
LINE
  8
0
  6
CONTINUOUS
 10
165.549137
 20
447.58046
 30
0.0
 11
165.362341
 21
447.175425
 31
0.0
  0
LINE
  8
0
  6
CONTINUOUS
 10
165.546101
 20
447.180465
 30
0.0
 11
165.549137
 21
447.58046
 31
0.0
  0
LINE
  8
0
  6
CONTINUOUS
 10
164.671272
 20
447.457834
 30
0.0
 11
165.130892
 21
447.723196
 31
0.0
  0
LINE
  8
0
  6
CONTINUOUS
 10
164.070252
 20
447.728528
 30
0.0
 11
164.529854
 21
447.458545
 31
0.0
  0
LINE
  8
0
  6
CONTINUOUS
 10
164.069632
 20
447.728843
 30
0.0
 11
164.070254
 21
447.810888
 31
0.0
  0
LINE
  8
0
  6
CONTINUOUS
 10
164.989493
 20
448.341611
 30
0.0
 11
164.070254
 21
447.810888
 31
0.0
  0
LINE
  8
0
  6
CONTINUOUS
 10
161.454101
 20
450.624302
 30
0.0
 11
164.9895
 21
448.547513
 31
0.0
  0
LINE
  8
0
  6
CONTINUOUS
 10
150.847506
 20
444.70648
 30
0.0
 11
161.100554
 21
450.62608
 31
0.0
  0
LINE
  8
0
  6
CONTINUOUS
 10
150.538969
 20
403.855433
 30
0.0
 11
154.074369
 21
401.778644
 31
0.0
  0
LINE
  8
0
  6
CONTINUOUS
 10
150.538969
 20
403.855433
 30
0.0
 11
150.847499
 21
444.500578
 31
0.0
  0
LINE
  8
0
  6
CONTINUOUS
 10
154.382898
 20
442.423788
 30
0.0
 11
150.847499
 21
444.500578
 31
0.0
  0
LINE
  8
0
  6
CONTINUOUS
 10
154.074369
 20
401.778644
 30
0.0
 11
154.382898
 21
442.423788
 31
0.0
  0
LINE
  8
0
  6
CONTINUOUS
 10
155.655684
 20
442.952734
 30
0.0
 11
154.736445
 21
442.422011
 31
0.0
  0
LINE
  8
0
  6
CONTINUOUS
 10
155.655366
 20
442.910923
 30
0.0
 11
155.655684
 21
442.952734
 31
0.0
  0
LINE
  8
0
  6
CONTINUOUS
 10
155.796786
 20
442.910289
 30
0.0
 11
155.797102
 21
442.952023
 31
0.0
  0
LINE
  8
0
  6
CONTINUOUS
 10
156.256704
 20
442.68204
 30
0.0
 11
155.797102
 21
442.952023
 31
0.0
  0
LINE
  8
0
  6
CONTINUOUS
 10
156.256076
 20
442.59931
 30
0.0
 11
156.256704
 21
442.68204
 31
0.0
  0
LINE
  8
0
  6
CONTINUOUS
 10
155.797082
 20
442.334318
 30
0.0
 11
156.256702
 21
442.59968
 31
0.0
  0
LINE
  8
0
  6
CONTINUOUS
 10
156.037773
 20
441.986967
 30
0.0
 11
156.038551
 21
442.08952
 31
0.0
  0
LINE
  8
0
  6
CONTINUOUS
 10
156.735638
 20
442.194796
 30
0.0
 11
156.038551
 21
442.08952
 31
0.0
  0
LINE
  8
0
  6
CONTINUOUS
 10
156.734868
 20
442.093328
 30
0.0
 11
156.735638
 21
442.194796
 31
0.0
  0
LINE
  8
0
  6
CONTINUOUS
 10
156.079952
 20
443.321224
 30
0.0
 11
157.004625
 21
442.778046
 31
0.0
  0
LINE
  8
0
  6
CONTINUOUS
 10
154.913239
 20
443.059417
 30
0.0
 11
155.372859
 21
443.324779
 31
0.0
  0
LINE
  8
0
  6
CONTINUOUS
 10
151.94349
 20
444.392117
 30
0.0
 11
154.206146
 21
443.062972
 31
0.0
  0
LINE
  8
0
  6
CONTINUOUS
 10
151.94039
 20
444.393692
 30
0.0
 11
151.943504
 21
444.80392
 31
0.0
  0
LINE
  8
0
  6
CONTINUOUS
 10
155.434284
 20
446.819323
 30
0.0
 11
151.943504
 21
444.80392
 31
0.0
  0
LINE
  8
0
  6
CONTINUOUS
 10
155.407893
 20
443.342624
 30
0.0
 11
155.434284
 21
446.819323
 31
0.0
  0
LINE
  8
0
  6
CONTINUOUS
 10
155.753411
 20
443.406567
 30
0.0
 11
155.779339
 21
446.822307
 31
0.0
  0
LINE
  8
0
  6
CONTINUOUS
 10
159.813999
 20
444.66315
 30
0.0
 11
155.779339
 21
446.822307
 31
0.0
  0
LINE
  8
0
  6
CONTINUOUS
 10
159.812355
 20
444.446617
 30
0.0
 11
159.813999
 21
444.66315
 31
0.0
  0
LINE
  8
0
  6
CONTINUOUS
 10
159.632484
 20
444.342791
 30
0.0
 11
159.822483
 21
444.452487
 31
0.0
  0
LINE
  8
0
  6
CONTINUOUS
 10
160.091772
 20
444.031443
 30
0.0
 11
160.092086
 21
444.072808
 31
0.0
  0
LINE
  8
0
  6
CONTINUOUS
 10
160.393252
 20
444.246686
 30
0.0
 11
160.092086
 21
444.072808
 31
0.0
  0
LINE
  8
0
  6
CONTINUOUS
 10
160.392938
 20
444.205321
 30
0.0
 11
160.393252
 21
444.246686
 31
0.0
  0
LINE
  8
0
  6
CONTINUOUS
 10
156.450601
 20
446.974972
 30
0.0
 11
160.367798
 21
444.878675
 31
0.0
  0
LINE
  8
0
  6
CONTINUOUS
 10
157.150985
 20
446.599738
 30
0.0
 11
157.156929
 21
447.38277
 31
0.0
  0
LINE
  8
0
  6
CONTINUOUS
 10
174.199446
 20
385.30747
 30
0.0
 11
174.199446
 21
386.940463
 31
0.0
  0
LINE
  8
0
  6
CONTINUOUS
 10
174.742172
 20
385.01563
 30
0.0
 11
174.742172
 21
386.62712
 31
0.0
  0
LINE
  8
0
  6
CONTINUOUS
 10
174.742172
 20
386.62712
 30
0.0
 11
175.36314
 21
386.985636
 31
0.0
  0
LINE
  8
0
  6
CONTINUOUS
 10
174.199446
 20
386.940463
 30
0.0
 11
174.742172
 21
386.62712
 31
0.0
  0
LINE
  8
0
  6
CONTINUOUS
 10
155.637893
 20
374.590953
 30
0.0
 11
155.637893
 21
376.223946
 31
0.0
  0
LINE
  8
0
  6
CONTINUOUS
 10
156.180619
 20
374.299112
 30
0.0
 11
156.180619
 21
375.910603
 31
0.0
  0
LINE
  8
0
  6
CONTINUOUS
 10
156.180619
 20
375.910603
 30
0.0
 11
156.801587
 21
376.269119
 31
0.0
  0
LINE
  8
0
  6
CONTINUOUS
 10
155.637893
 20
376.223946
 30
0.0
 11
156.180619
 21
375.910603
 31
0.0
  0
LINE
  8
0
  6
CONTINUOUS
 10
159.606975
 20
381.373234
 30
0.0
 11
158.19582
 21
380.558504
 31
0.0
  0
LINE
  8
0
  6
CONTINUOUS
 10
154.986069
 20
382.473786
 30
0.0
 11
155.142887
 21
381.120018
 31
0.0
  0
LINE
  8
0
  6
CONTINUOUS
 10
157.637746
 20
377.378561
 30
0.0
 11
155.637893
 21
376.223946
 31
0.0
  0
LINE
  8
0
  6
CONTINUOUS
 10
155.637893
 20
376.223946
 30
0.0
 11
150.816257
 21
373.440173
 31
0.0
  0
LINE
  8
0
  6
CONTINUOUS
 10
149.606913
 20
372.741958
 30
0.0
 11
148.292948
 21
371.983339
 31
0.0
  0
LINE
  8
0
  6
CONTINUOUS
 10
155.827712
 20
400.746785
 30
0.0
 11
155.826324
 21
400.745984
 31
0.0
  0
LINE
  8
0
  6
CONTINUOUS
 10
157.462027
 20
380.523367
 30
0.0
 11
157.78916
 21
377.699329
 31
0.0
  0
LINE
  8
0
  6
CONTINUOUS
 10
157.842267
 20
380.762628
 30
0.0
 11
157.842267
 21
385.665139
 31
0.0
  0
LINE
  8
0
  6
CONTINUOUS
 10
156.958383
 20
381.068814
 30
0.0
 11
157.488713
 21
380.762628
 31
0.0
  0
LINE
  8
0
  6
CONTINUOUS
 10
156.958383
 20
381.068814
 30
0.0
 11
156.958383
 21
385.573704
 31
0.0
  0
LINE
  8
0
  6
CONTINUOUS
 10
157.488713
 20
385.665139
 30
0.0
 11
156.0745
 21
386.51014
 31
0.0
  0
LINE
  8
0
  6
CONTINUOUS
 10
157.488713
 20
380.762628
 30
0.0
 11
157.488713
 21
385.665139
 31
0.0
  0
LINE
  8
0
  6
CONTINUOUS
 10
156.0745
 20
386.101829
 30
0.0
 11
156.0745
 21
386.51014
 31
0.0
  0
LINE
  8
0
  6
CONTINUOUS
 10
155.827012
 20
387.23249
 30
0.0
 11
155.827012
 21
385.958942
 31
0.0
  0
LINE
  8
0
  6
CONTINUOUS
 10
155.827012
 20
385.958942
 30
0.0
 11
155.119906
 21
386.381443
 31
0.0
  0
LINE
  8
0
  6
CONTINUOUS
 10
156.0745
 20
386.101829
 30
0.0
 11
155.827012
 21
385.958942
 31
0.0
  0
LINE
  8
0
  6
CONTINUOUS
 10
156.958383
 20
385.573704
 30
0.0
 11
156.0745
 21
386.101829
 31
0.0
  0
LINE
  8
0
  6
CONTINUOUS
 10
175.519936
 20
396.290222
 30
0.0
 11
175.519936
 21
391.785332
 31
0.0
  0
LINE
  8
0
  6
CONTINUOUS
 10
156.957759
 20
381.564097
 30
0.0
 11
155.667989
 21
380.819448
 31
0.0
  0
LINE
  8
0
  6
CONTINUOUS
 10
155.667989
 20
380.819448
 30
0.0
 11
155.145111
 21
381.100615
 31
0.0
  0
LINE
  8
0
  6
CONTINUOUS
 10
154.984621
 20
384.282967
 30
0.0
 11
156.956212
 21
385.421266
 31
0.0
  0
LINE
  8
0
  6
CONTINUOUS
 10
175.99894
 20
391.452594
 30
0.0
 11
176.350713
 21
388.415847
 31
0.0
  0
LINE
  8
0
  6
CONTINUOUS
 10
176.199299
 20
388.095079
 30
0.0
 11
174.199446
 21
386.940463
 31
0.0
  0
LINE
  8
0
  6
CONTINUOUS
 10
166.854501
 20
382.699857
 30
0.0
 11
168.168466
 21
383.458475
 31
0.0
  0
LINE
  8
0
  6
CONTINUOUS
 10
169.37781
 20
384.15669
 30
0.0
 11
174.199446
 21
386.940463
 31
0.0
  0
LINE
  8
0
  6
CONTINUOUS
 10
175.519069
 20
392.886584
 30
0.0
 11
173.723465
 21
391.849891
 31
0.0
  0
LINE
  8
0
  6
CONTINUOUS
 10
174.276352
 20
391.562991
 30
0.0
 11
175.519312
 21
392.280615
 31
0.0
  0
LINE
  8
0
  6
CONTINUOUS
 10
173.723465
 20
391.849891
 30
0.0
 11
174.276352
 21
391.562991
 31
0.0
  0
LINE
  8
0
  6
CONTINUOUS
 10
173.519834
 20
393.174261
 30
0.0
 11
173.66911
 21
391.908808
 31
0.0
  0
LINE
  8
0
  6
CONTINUOUS
 10
174.388565
 20
396.67546
 30
0.0
 11
173.681459
 21
397.09796
 31
0.0
  0
LINE
  8
0
  6
CONTINUOUS
 10
175.519936
 20
396.290222
 30
0.0
 11
174.636053
 21
396.818347
 31
0.0
  0
LINE
  8
0
  6
CONTINUOUS
 10
173.681459
 20
397.09796
 30
0.0
 11
173.681459
 21
397.540676
 31
0.0
  0
LINE
  8
0
  6
CONTINUOUS
 10
173.681459
 20
397.09796
 30
0.0
 11
173.661255
 21
397.086296
 31
0.0
  0
LINE
  8
0
  6
CONTINUOUS
 10
173.519834
 20
393.174261
 30
0.0
 11
173.519834
 21
396.841422
 31
0.0
  0
LINE
  8
0
  6
CONTINUOUS
 10
173.519834
 20
393.174261
 30
0.0
 11
167.12055
 21
389.479633
 31
0.0
  0
LINE
  8
0
  6
CONTINUOUS
 10
174.781892
 20
394.910982
 30
0.0
 11
174.781892
 21
396.729728
 31
0.0
  0
LINE
  8
0
  6
CONTINUOUS
 10
174.81283
 20
397.532875
 30
0.0
 11
176.679105
 21
398.610369
 31
0.0
  0
LINE
  8
0
  6
CONTINUOUS
 10
174.636053
 20
396.818347
 30
0.0
 11
174.636053
 21
397.226657
 31
0.0
  0
LINE
  8
0
  6
CONTINUOUS
 10
174.636053
 20
396.818347
 30
0.0
 11
174.388565
 21
396.67546
 31
0.0
  0
LINE
  8
0
  6
CONTINUOUS
 10
174.388565
 20
397.949008
 30
0.0
 11
174.388565
 21
396.67546
 31
0.0
  0
LINE
  8
0
  6
CONTINUOUS
 10
176.82422
 20
383.847164
 30
0.0
 11
176.82422
 21
386.293689
 31
0.0
  0
LINE
  8
0
  6
CONTINUOUS
 10
177.00097
 20
384.153304
 30
0.0
 11
177.219846
 21
384.279671
 31
0.0
  0
LINE
  8
0
  6
CONTINUOUS
 10
157.668575
 20
385.969513
 30
0.0
 11
156.251277
 21
386.816357
 31
0.0
  0
LINE
  8
0
  6
CONTINUOUS
 10
158.705128
 20
388.233089
 30
0.0
 11
156.251277
 21
386.816357
 31
0.0
  0
LINE
  8
0
  6
CONTINUOUS
 10
157.668575
 20
385.969513
 30
0.0
 11
159.873913
 21
387.242766
 31
0.0
  0
LINE
  8
0
  6
CONTINUOUS
 10
157.842267
 20
385.665139
 30
0.0
 11
159.873992
 21
386.838157
 31
0.0
  0
LINE
  8
0
  6
CONTINUOUS
 10
158.05134
 20
375.45886
 30
0.0
 11
158.05134
 21
375.547573
 31
0.0
  0
LINE
  8
0
  6
CONTINUOUS
 10
157.700899
 20
375.253001
 30
0.0
 11
157.700899
 21
375.749901
 31
0.0
  0
LINE
  8
0
  6
CONTINUOUS
 10
156.801587
 20
376.269119
 30
0.0
 11
157.700899
 21
375.749901
 31
0.0
  0
LINE
  8
0
  6
CONTINUOUS
 10
156.53106
 20
375.708275
 30
0.0
 11
156.97831
 21
375.966495
 31
0.0
  0
LINE
  8
0
  6
CONTINUOUS
 10
156.97831
 20
375.842152
 30
0.0
 11
156.97831
 21
375.966495
 31
0.0
  0
LINE
  8
0
  6
CONTINUOUS
 10
156.53106
 20
374.504971
 30
0.0
 11
156.53106
 21
375.708275
 31
0.0
  0
LINE
  8
0
  6
CONTINUOUS
 10
156.607889
 20
375.628289
 30
0.0
 11
156.97831
 21
375.842152
 31
0.0
  0
LINE
  8
0
  6
CONTINUOUS
 10
156.607889
 20
375.628289
 30
0.0
 11
156.607889
 21
374.549327
 31
0.0
  0
LINE
  8
0
  6
CONTINUOUS
 10
156.87425
 20
375.697516
 30
0.0
 11
157.700899
 21
375.253001
 31
0.0
  0
LINE
  8
0
  6
CONTINUOUS
 10
160.323889
 20
384.290348
 30
0.0
 11
160.323889
 21
376.770917
 31
0.0
  0
LINE
  8
0
  6
CONTINUOUS
 10
158.705128
 20
388.233089
 30
0.0
 11
159.873791
 21
387.55836
 31
0.0
  0
LINE
  8
0
  6
CONTINUOUS
 10
158.705128
 20
388.894171
 30
0.0
 11
158.705128
 21
388.233089
 31
0.0
  0
LINE
  8
0
  6
CONTINUOUS
 10
155.647468
 20
373.430344
 30
0.0
 11
155.647468
 21
374.583919
 31
0.0
  0
LINE
  8
0
  6
CONTINUOUS
 10
155.756635
 20
373.289279
 30
0.0
 11
150.81489
 21
370.436161
 31
0.0
  0
LINE
  8
0
  6
CONTINUOUS
 10
156.607889
 20
374.549327
 30
0.0
 11
156.53106
 21
374.504971
 31
0.0
  0
LINE
  8
0
  6
CONTINUOUS
 10
158.05134
 20
375.45886
 30
0.0
 11
160.323889
 21
376.770917
 31
0.0
  0
LINE
  8
0
  6
CONTINUOUS
 10
173.130261
 20
384.102011
 30
0.0
 11
173.130138
 21
384.101939
 31
0.0
  0
LINE
  8
0
  6
CONTINUOUS
 10
172.953388
 20
383.421922
 30
0.0
 11
172.953388
 21
383.7958
 31
0.0
  0
LINE
  8
0
  6
CONTINUOUS
 10
169.376443
 20
381.152679
 30
0.0
 11
173.062555
 21
383.280857
 31
0.0
  0
LINE
  8
0
  6
CONTINUOUS
 10
177.396596
 20
399.685695
 30
0.0
 11
177.396596
 21
398.173577
 31
0.0
  0
LINE
  8
0
  6
CONTINUOUS
 10
177.396596
 20
386.62415
 30
0.0
 11
177.396596
 21
384.255594
 31
0.0
  0
LINE
  8
0
  6
CONTINUOUS
 10
173.518386
 20
396.187108
 30
0.0
 11
173.575393
 21
396.22002
 31
0.0
  0
LINE
  8
0
  6
CONTINUOUS
 10
173.575393
 20
396.22002
 30
0.0
 11
174.781647
 21
395.523589
 31
0.0
  0
LINE
  8
0
  6
CONTINUOUS
 10
173.518606
 20
395.640341
 30
0.0
 11
174.781892
 21
394.910982
 31
0.0
  0
LINE
  8
0
  6
CONTINUOUS
 10
154.986069
 20
385.837583
 30
0.0
 11
154.986069
 21
382.473786
 31
0.0
  0
LINE
  8
0
  6
CONTINUOUS
 10
148.558997
 20
378.763115
 30
0.0
 11
154.986069
 21
382.473786
 31
0.0
  0
LINE
  8
0
  6
CONTINUOUS
 10
155.119906
 20
386.381443
 30
0.0
 11
155.119906
 21
386.824159
 31
0.0
  0
LINE
  8
0
  6
CONTINUOUS
 10
150.816257
 20
371.80718
 30
0.0
 11
155.637893
 21
374.590953
 31
0.0
  0
LINE
  8
0
  6
CONTINUOUS
 10
156.180619
 20
374.299112
 30
0.0
 11
155.637893
 21
374.590953
 31
0.0
  0
LINE
  8
0
  6
CONTINUOUS
 10
157.225936
 20
375.507809
 30
0.0
 11
156.680814
 21
375.193083
 31
0.0
  0
LINE
  8
0
  6
CONTINUOUS
 10
174.199446
 20
385.30747
 30
0.0
 11
169.37781
 21
382.523697
 31
0.0
  0
LINE
  8
0
  6
CONTINUOUS
 10
174.742172
 20
385.01563
 30
0.0
 11
174.199446
 21
385.30747
 31
0.0
  0
LINE
  8
0
  6
CONTINUOUS
 10
175.242367
 20
385.909601
 30
0.0
 11
175.787489
 21
386.224327
 31
0.0
  0
LINE
  8
0
  6
CONTINUOUS
 10
175.092614
 20
386.424793
 30
0.0
 11
175.539863
 21
386.683013
 31
0.0
  0
LINE
  8
0
  6
CONTINUOUS
 10
175.169442
 20
386.344806
 30
0.0
 11
175.539863
 21
386.558669
 31
0.0
  0
LINE
  8
0
  6
CONTINUOUS
 10
175.092614
 20
385.221488
 30
0.0
 11
175.092614
 21
386.424793
 31
0.0
  0
LINE
  8
0
  6
CONTINUOUS
 10
175.169442
 20
386.344806
 30
0.0
 11
175.169442
 21
385.265845
 31
0.0
  0
LINE
  8
0
  6
CONTINUOUS
 10
175.169442
 20
385.265845
 30
0.0
 11
175.092614
 21
385.221488
 31
0.0
  0
LINE
  8
0
  6
CONTINUOUS
 10
175.539863
 20
386.558669
 30
0.0
 11
175.539863
 21
386.683013
 31
0.0
  0
LINE
  8
0
  6
CONTINUOUS
 10
175.36314
 20
386.985636
 30
0.0
 11
176.262452
 21
386.466418
 31
0.0
  0
LINE
  8
0
  6
CONTINUOUS
 10
176.262452
 20
385.969519
 30
0.0
 11
176.262452
 21
386.466418
 31
0.0
  0
LINE
  8
0
  6
CONTINUOUS
 10
175.435803
 20
386.414033
 30
0.0
 11
176.262452
 21
385.969519
 31
0.0
  0
LINE
  8
0
  6
CONTINUOUS
 10
176.612893
 20
386.175378
 30
0.0
 11
176.612893
 21
386.264091
 31
0.0
  0
LINE
  8
0
  6
CONTINUOUS
 10
162.02429
 20
381.013435
 30
0.0
 11
162.02429
 21
383.564925
 31
0.0
  0
LINE
  8
0
  6
CONTINUOUS
 10
160.228752
 20
384.977791
 30
0.0
 11
159.875199
 21
385.181916
 31
0.0
  0
LINE
  8
0
  6
CONTINUOUS
 10
160.228752
 20
386.40666
 30
0.0
 11
160.228752
 21
384.977791
 31
0.0
  0
LINE
  8
0
  6
CONTINUOUS
 10
160.228752
 20
386.40666
 30
0.0
 11
159.875199
 21
386.610785
 31
0.0
  0
LINE
  8
0
  6
CONTINUOUS
 10
160.405529
 20
384.241972
 30
0.0
 11
160.405529
 21
384.671636
 31
0.0
  0
LINE
  8
0
  6
CONTINUOUS
 10
162.743739
 20
383.32167
 30
0.0
 11
160.405529
 21
384.671636
 31
0.0
  0
LINE
  8
0
  6
CONTINUOUS
 10
162.920489
 20
383.627809
 30
0.0
 11
160.582279
 21
384.977776
 31
0.0
  0
LINE
  8
0
  6
CONTINUOUS
 10
161.488652
 20
385.501071
 30
0.0
 11
163.746635
 21
384.104785
 31
0.0
  0
LINE
  8
0
  6
CONTINUOUS
 10
160.945116
 20
380.860794
 30
0.0
 11
160.945116
 21
381.819212
 31
0.0
  0
LINE
  8
0
  6
CONTINUOUS
 10
160.945116
 20
381.819212
 30
0.0
 11
161.633423
 21
381.449088
 31
0.0
  0
LINE
  8
0
  6
CONTINUOUS
 10
160.945116
 20
381.819212
 30
0.0
 11
161.430614
 21
382.099514
 31
0.0
  0
LINE
  8
0
  6
CONTINUOUS
 10
160.405529
 20
384.241972
 30
0.0
 11
161.633423
 21
383.508709
 31
0.0
  0
LINE
  8
0
  6
CONTINUOUS
 10
160.405529
 20
384.241972
 30
0.0
 11
159.875199
 21
384.569543
 31
0.0
  0
LINE
  8
0
  6
CONTINUOUS
 10
161.129757
 20
383.808711
 30
0.0
 11
161.430614
 21
382.099514
 31
0.0
  0
LINE
  8
0
  6
CONTINUOUS
 10
161.633423
 20
381.449088
 30
0.0
 11
161.633423
 21
383.508709
 31
0.0
  0
LINE
  8
0
  6
CONTINUOUS
 10
161.633423
 20
381.449088
 30
0.0
 11
161.430614
 21
382.099514
 31
0.0
  0
LINE
  8
0
  6
CONTINUOUS
 10
166.857037
 20
387.656984
 30
0.0
 11
168.378131
 21
386.77878
 31
0.0
  0
LINE
  8
0
  6
CONTINUOUS
 10
148.295563
 20
367.385965
 30
0.0
 11
149.639828
 21
366.663112
 31
0.0
  0
LINE
  8
0
  6
CONTINUOUS
 10
148.392307
 20
373.513411
 30
0.0
 11
149.639828
 21
372.84258
 31
0.0
  0
LINE
  8
0
  6
CONTINUOUS
 10
148.295119
 20
377.883781
 30
0.0
 11
148.38474
 21
377.935524
 31
0.0
  0
LINE
  8
0
  6
CONTINUOUS
 10
148.56149
 20
382.860307
 30
0.0
 11
148.56149
 21
377.915911
 31
0.0
  0
LINE
  8
0
  6
CONTINUOUS
 10
181.482042
 20
385.394932
 30
0.0
 11
180.762593
 21
385.810306
 31
0.0
  0
LINE
  8
0
  6
CONTINUOUS
 10
180.762593
 20
385.810306
 30
0.0
 11
181.247501
 21
386.090268
 31
0.0
  0
LINE
  8
0
  6
CONTINUOUS
 10
181.966951
 20
385.674894
 30
0.0
 11
181.247501
 21
386.090268
 31
0.0
  0
LINE
  8
0
  6
CONTINUOUS
 10
181.247501
 20
386.090268
 30
0.0
 11
181.247501
 21
387.612849
 31
0.0
  0
LINE
  8
0
  6
CONTINUOUS
 10
180.762593
 20
392.036092
 30
0.0
 11
181.482042
 21
391.620718
 31
0.0
  0
LINE
  8
0
  6
CONTINUOUS
 10
181.247501
 20
392.316054
 30
0.0
 11
180.762593
 21
392.036092
 31
0.0
  0
LINE
  8
0
  6
CONTINUOUS
 10
181.966951
 20
391.90068
 30
0.0
 11
181.247501
 21
392.316054
 31
0.0
  0
LINE
  8
0
  6
CONTINUOUS
 10
181.247501
 20
393.838635
 30
0.0
 11
181.247501
 21
392.316054
 31
0.0
  0
LINE
  8
0
  6
CONTINUOUS
 10
180.050205
 20
396.217588
 30
0.0
 11
182.308188
 21
394.821303
 31
0.0
  0
LINE
  8
0
  6
CONTINUOUS
 10
180.327274
 20
389.575025
 30
0.0
 11
180.58536
 21
389.724032
 31
0.0
  0
LINE
  8
0
  6
CONTINUOUS
 10
162.743739
 20
383.178054
 30
0.0
 11
162.02429
 21
383.564925
 31
0.0
  0
LINE
  8
0
  6
CONTINUOUS
 10
162.685948
 20
383.122117
 30
0.0
 11
162.685948
 21
381.599537
 31
0.0
  0
LINE
  8
0
  6
CONTINUOUS
 10
171.570292
 20
375.297963
 30
0.0
 11
172.343033
 21
375.417506
 31
0.0
  0
LINE
  8
0
  6
CONTINUOUS
 10
172.343033
 20
375.417506
 30
0.0
 11
172.550088
 21
375.863648
 31
0.0
  0
LINE
  8
0
  6
CONTINUOUS
 10
172.343033
 20
375.417506
 30
0.0
 11
172.343033
 21
374.396886
 31
0.0
  0
LINE
  8
0
  6
CONTINUOUS
 10
172.550088
 20
375.863648
 30
0.0
 11
172.550088
 21
374.843028
 31
0.0
  0
LINE
  8
0
  6
CONTINUOUS
 10
172.196534
 20
376.067772
 30
0.0
 11
172.550088
 21
375.863648
 31
0.0
  0
LINE
  8
0
  6
CONTINUOUS
 10
171.570292
 20
374.277342
 30
0.0
 11
172.343033
 21
374.396886
 31
0.0
  0
LINE
  8
0
  6
CONTINUOUS
 10
172.343033
 20
374.396886
 30
0.0
 11
172.550088
 21
374.843028
 31
0.0
  0
LINE
  8
0
  6
CONTINUOUS
 10
168.36048
 20
373.853025
 30
0.0
 11
168.714034
 21
373.648901
 31
0.0
  0
LINE
  8
0
  6
CONTINUOUS
 10
162.02429
 20
381.013435
 30
0.0
 11
162.743739
 21
380.598061
 31
0.0
  0
LINE
  8
0
  6
CONTINUOUS
 10
162.02429
 20
378.114841
 30
0.0
 11
162.02429
 21
380.237732
 31
0.0
  0
LINE
  8
0
  6
CONTINUOUS
 10
162.20104
 20
381.319575
 30
0.0
 11
162.920489
 21
380.9042
 31
0.0
  0
LINE
  8
0
  6
CONTINUOUS
 10
162.685948
 20
381.599537
 30
0.0
 11
162.20104
 21
381.319575
 31
0.0
  0
LINE
  8
0
  6
CONTINUOUS
 10
163.405398
 20
381.184162
 30
0.0
 11
162.685948
 21
381.599537
 31
0.0
  0
LINE
  8
0
  6
CONTINUOUS
 10
163.145568
 20
373.352921
 30
0.0
 11
161.996439
 21
372.689471
 31
0.0
  0
LINE
  8
0
  6
CONTINUOUS
 10
163.322344
 20
373.250859
 30
0.0
 11
163.322344
 21
370.678895
 31
0.0
  0
LINE
  8
0
  6
CONTINUOUS
 10
163.322344
 20
373.250859
 30
0.0
 11
163.145568
 21
373.352921
 31
0.0
  0
LINE
  8
0
  6
CONTINUOUS
 10
163.145568
 20
373.352921
 30
0.0
 11
163.145568
 21
374.256271
 31
0.0
  0
LINE
  8
0
  6
CONTINUOUS
 10
165.973995
 20
392.27523
 30
0.0
 11
165.266956
 21
392.683439
 31
0.0
  0
LINE
  8
0
  6
CONTINUOUS
 10
163.145568
 20
390.376875
 30
0.0
 11
163.145568
 21
384.92676
 31
0.0
  0
LINE
  8
0
  6
CONTINUOUS
 10
161.488652
 20
385.501071
 30
0.0
 11
160.582279
 21
384.977776
 31
0.0
  0
LINE
  8
0
  6
CONTINUOUS
 10
160.405529
 20
389.876459
 30
0.0
 11
160.405529
 21
384.671636
 31
0.0
  0
LINE
  8
0
  6
CONTINUOUS
 10
161.996519
 20
385.276479
 30
0.0
 11
161.996519
 21
390.795018
 31
0.0
  0
LINE
  8
0
  6
CONTINUOUS
 10
160.228752
 20
389.570585
 30
0.0
 11
160.228752
 21
389.774376
 31
0.0
  0
LINE
  8
0
  6
CONTINUOUS
 10
165.973995
 20
368.18858
 30
0.0
 11
163.145568
 21
369.821574
 31
0.0
  0
LINE
  8
0
  6
CONTINUOUS
 10
158.902927
 20
366.555587
 30
0.0
 11
158.54941
 21
366.759691
 31
0.0
  0
LINE
  8
0
  6
CONTINUOUS
 10
165.266888
 20
366.963836
 30
0.0
 11
162.438461
 21
368.596829
 31
0.0
  0
LINE
  8
0
  6
CONTINUOUS
 10
149.003432
 20
357.574125
 30
0.0
 11
148.296325
 21
357.982373
 31
0.0
  0
LINE
  8
0
  6
CONTINUOUS
 10
162.02429
 20
377.339138
 30
0.0
 11
162.743739
 21
376.952268
 31
0.0
  0
LINE
  8
0
  6
CONTINUOUS
 10
160.405529
 20
375.915651
 30
0.0
 11
161.633423
 21
375.279714
 31
0.0
  0
LINE
  8
0
  6
CONTINUOUS
 10
171.570292
 20
375.297963
 30
0.0
 11
168.714034
 21
373.648901
 31
0.0
  0
LINE
  8
0
  6
CONTINUOUS
 10
171.570292
 20
374.277342
 30
0.0
 11
171.570292
 21
375.297963
 31
0.0
  0
LINE
  8
0
  6
CONTINUOUS
 10
168.272092
 20
372.373125
 30
0.0
 11
171.570292
 21
374.277342
 31
0.0
  0
LINE
  8
0
  6
CONTINUOUS
 10
168.272092
 20
371.964877
 30
0.0
 11
168.272092
 21
372.373125
 31
0.0
  0
LINE
  8
0
  6
CONTINUOUS
 10
177.46448
 20
377.272105
 30
0.0
 11
177.110963
 21
377.476208
 31
0.0
  0
LINE
  8
0
  6
CONTINUOUS
 10
167.564985
 20
368.290642
 30
0.0
 11
166.857878
 21
368.698891
 31
0.0
  0
LINE
  8
0
  6
CONTINUOUS
 10
168.272092
 20
371.964877
 30
0.0
 11
166.856591
 21
371.147638
 31
0.0
  0
LINE
  8
0
  6
CONTINUOUS
 10
184.535548
 20
378.905098
 30
0.0
 11
181.707121
 21
380.538091
 31
0.0
  0
LINE
  8
0
  6
CONTINUOUS
 10
183.828441
 20
377.680353
 30
0.0
 11
181.000014
 21
379.313346
 31
0.0
  0
LINE
  8
0
  6
CONTINUOUS
 10
181.707121
 20
380.538091
 30
0.0
 11
181.707121
 21
381.497475
 31
0.0
  0
LINE
  8
0
  6
CONTINUOUS
 10
177.46448
 20
377.272105
 30
0.0
 11
181.000014
 21
379.313346
 31
0.0
  0
LINE
  8
0
  6
CONTINUOUS
 10
177.46448
 20
377.272105
 30
0.0
 11
177.46448
 21
377.680353
 31
0.0
  0
LINE
  8
0
  6
CONTINUOUS
 10
176.668985
 20
378.649943
 30
0.0
 11
177.022538
 21
378.445819
 31
0.0
  0
LINE
  8
0
  6
CONTINUOUS
 10
174.16628
 20
376.796757
 30
0.0
 11
177.022538
 21
378.445819
 31
0.0
  0
LINE
  8
0
  6
CONTINUOUS
 10
172.832931
 20
376.435196
 30
0.0
 11
173.186484
 21
376.231072
 31
0.0
  0
LINE
  8
0
  6
CONTINUOUS
 10
173.186484
 20
376.231072
 30
0.0
 11
173.186484
 21
375.210451
 31
0.0
  0
LINE
  8
0
  6
CONTINUOUS
 10
173.959225
 20
376.350615
 30
0.0
 11
173.186484
 21
376.231072
 31
0.0
  0
LINE
  8
0
  6
CONTINUOUS
 10
174.16628
 20
375.776136
 30
0.0
 11
174.16628
 21
376.796757
 31
0.0
  0
LINE
  8
0
  6
CONTINUOUS
 10
173.959225
 20
376.350615
 30
0.0
 11
173.959225
 21
375.329994
 31
0.0
  0
LINE
  8
0
  6
CONTINUOUS
 10
174.16628
 20
376.796757
 30
0.0
 11
173.959225
 21
376.350615
 31
0.0
  0
LINE
  8
0
  6
CONTINUOUS
 10
177.46448
 20
377.680353
 30
0.0
 11
174.16628
 21
375.776136
 31
0.0
  0
LINE
  8
0
  6
CONTINUOUS
 10
173.186484
 20
375.210451
 30
0.0
 11
172.832931
 21
375.414575
 31
0.0
  0
LINE
  8
0
  6
CONTINUOUS
 10
173.959225
 20
375.329994
 30
0.0
 11
173.186484
 21
375.210451
 31
0.0
  0
LINE
  8
0
  6
CONTINUOUS
 10
174.16628
 20
375.776136
 30
0.0
 11
173.959225
 21
375.329994
 31
0.0
  0
LINE
  8
0
  6
CONTINUOUS
 10
181.883897
 20
383.967377
 30
0.0
 11
181.707121
 21
384.069439
 31
0.0
  0
LINE
  8
0
  6
CONTINUOUS
 10
181.707121
 20
384.069439
 30
0.0
 11
181.707121
 21
384.972788
 31
0.0
  0
LINE
  8
0
  6
CONTINUOUS
 10
181.707121
 20
384.069439
 30
0.0
 11
180.557992
 21
383.405989
 31
0.0
  0
LINE
  8
0
  6
CONTINUOUS
 10
181.883897
 20
383.967377
 30
0.0
 11
181.883897
 21
381.395413
 31
0.0
  0
LINE
  8
0
  6
CONTINUOUS
 10
180.557992
 20
380.834025
 30
0.0
 11
181.707121
 21
381.497475
 31
0.0
  0
LINE
  8
0
  6
CONTINUOUS
 10
181.707121
 20
381.497475
 30
0.0
 11
181.883897
 21
381.395413
 31
0.0
  0
LINE
  8
0
  6
CONTINUOUS
 10
181.795271
 20
388.959011
 30
0.0
 11
182.308188
 21
388.641835
 31
0.0
  0
LINE
  8
0
  6
CONTINUOUS
 10
180.558072
 20
385.259396
 30
0.0
 11
180.558072
 21
380.48706
 31
0.0
  0
LINE
  8
0
  6
CONTINUOUS
 10
180.381295
 20
380.180874
 30
0.0
 11
178.967082
 21
379.364377
 31
0.0
  0
LINE
  8
0
  6
CONTINUOUS
 10
178.967082
 20
379.364377
 30
0.0
 11
178.967082
 21
386.202505
 31
0.0
  0
LINE
  8
0
  6
CONTINUOUS
 10
178.790305
 20
379.466439
 30
0.0
 11
178.967082
 21
379.364377
 31
0.0
  0
LINE
  8
0
  6
CONTINUOUS
 10
178.790305
 20
381.507681
 30
0.0
 11
178.790305
 21
379.466439
 31
0.0
  0
LINE
  8
0
  6
CONTINUOUS
 10
178.436752
 20
381.711805
 30
0.0
 11
178.790305
 21
381.507681
 31
0.0
  0
LINE
  8
0
  6
CONTINUOUS
 10
178.967082
 20
386.632169
 30
0.0
 11
178.436752
 21
386.916971
 31
0.0
  0
LINE
  8
0
  6
CONTINUOUS
 10
178.790305
 20
386.100474
 30
0.0
 11
178.436752
 21
386.304598
 31
0.0
  0
LINE
  8
0
  6
CONTINUOUS
 10
178.790305
 20
384.671605
 30
0.0
 11
178.436752
 21
384.875729
 31
0.0
  0
LINE
  8
0
  6
CONTINUOUS
 10
178.790305
 20
384.671605
 30
0.0
 11
178.790305
 21
386.100474
 31
0.0
  0
LINE
  8
0
  6
CONTINUOUS
 10
180.050205
 20
396.217588
 30
0.0
 11
179.143832
 21
395.694293
 31
0.0
  0
LINE
  8
0
  6
CONTINUOUS
 10
181.482042
 20
394.344327
 30
0.0
 11
179.143832
 21
395.694293
 31
0.0
  0
LINE
  8
0
  6
CONTINUOUS
 10
147.467565
 20
398.282533
 30
0.0
 11
137.661638
 21
392.373022
 31
0.0
  0
LINE
  8
0
  6
CONTINUOUS
 10
166.500969
 20
409.023417
 30
0.0
 11
172.542818
 21
412.511681
 31
0.0
  0
LINE
  8
0
  6
CONTINUOUS
 10
162.743739
 20
374.372274
 30
0.0
 11
162.02429
 21
374.787649
 31
0.0
  0
LINE
  8
0
  6
CONTINUOUS
 10
162.920489
 20
374.678414
 30
0.0
 11
162.20104
 21
375.093788
 31
0.0
  0
LINE
  8
0
  6
CONTINUOUS
 10
158.10436
 20
392.027208
 30
0.0
 11
158.158269
 21
392.058332
 31
0.0
  0
LINE
  8
0
  6
CONTINUOUS
 10
180.558072
 20
395.992996
 30
0.0
 11
180.558072
 21
401.511535
 31
0.0
  0
LINE
  8
0
  6
CONTINUOUS
 10
181.707121
 20
395.643278
 30
0.0
 11
181.404782
 21
395.468723
 31
0.0
  0
LINE
  8
0
  6
CONTINUOUS
 10
181.707121
 20
401.093393
 30
0.0
 11
181.707121
 21
395.643278
 31
0.0
  0
LINE
  8
0
  6
CONTINUOUS
 10
178.790144
 20
396.102464
 30
0.0
 11
178.436752
 21
395.898433
 31
0.0
  0
LINE
  8
0
  6
CONTINUOUS
 10
178.436752
 20
395.286061
 30
0.0
 11
178.436752
 21
395.898433
 31
0.0
  0
LINE
  8
0
  6
CONTINUOUS
 10
178.790305
 20
395.694309
 30
0.0
 11
178.436752
 21
395.898433
 31
0.0
  0
LINE
  8
0
  6
CONTINUOUS
 10
178.790305
 20
397.123178
 30
0.0
 11
178.790305
 21
395.694309
 31
0.0
  0
LINE
  8
0
  6
CONTINUOUS
 10
178.790305
 20
397.123178
 30
0.0
 11
178.436752
 21
397.327302
 31
0.0
  0
LINE
  8
0
  6
CONTINUOUS
 10
178.436752
 20
397.327302
 30
0.0
 11
178.436752
 21
400.286728
 31
0.0
  0
LINE
  8
0
  6
CONTINUOUS
 10
178.613834
 20
400.388988
 30
0.0
 11
178.790305
 21
400.287102
 31
0.0
  0
LINE
  8
0
  6
CONTINUOUS
 10
178.790305
 20
400.287102
 30
0.0
 11
178.790305
 21
400.490894
 31
0.0
  0
LINE
  8
0
  6
CONTINUOUS
 10
178.967082
 20
400.592977
 30
0.0
 11
178.967082
 21
395.388154
 31
0.0
  0
LINE
  8
0
  6
CONTINUOUS
 10
178.967082
 20
394.95849
 30
0.0
 11
178.436752
 21
395.286061
 31
0.0
  0
LINE
  8
0
  6
CONTINUOUS
 10
178.967082
 20
386.632169
 30
0.0
 11
178.967082
 21
386.202505
 31
0.0
  0
LINE
  8
0
  6
CONTINUOUS
 10
178.967082
 20
386.632169
 30
0.0
 11
180.194976
 21
385.996231
 31
0.0
  0
LINE
  8
0
  6
CONTINUOUS
 10
179.506669
 20
388.453246
 30
0.0
 11
180.194976
 21
388.055852
 31
0.0
  0
LINE
  8
0
  6
CONTINUOUS
 10
179.506669
 20
389.411664
 30
0.0
 11
179.506669
 21
388.453246
 31
0.0
  0
LINE
  8
0
  6
CONTINUOUS
 10
178.967082
 20
394.95849
 30
0.0
 11
180.194976
 21
394.225226
 31
0.0
  0
LINE
  8
0
  6
CONTINUOUS
 10
178.967082
 20
394.95849
 30
0.0
 11
178.967082
 21
395.388154
 31
0.0
  0
LINE
  8
0
  6
CONTINUOUS
 10
181.305292
 20
394.038187
 30
0.0
 11
178.967082
 21
395.388154
 31
0.0
  0
LINE
  8
0
  6
CONTINUOUS
 10
181.305292
 20
393.894572
 30
0.0
 11
180.585843
 21
394.281442
 31
0.0
  0
LINE
  8
0
  6
CONTINUOUS
 10
180.585843
 20
391.729953
 30
0.0
 11
180.585843
 21
394.281442
 31
0.0
  0
LINE
  8
0
  6
CONTINUOUS
 10
180.585843
 20
391.729953
 30
0.0
 11
181.305292
 21
391.314578
 31
0.0
  0
LINE
  8
0
  6
CONTINUOUS
 10
180.585843
 20
388.055656
 30
0.0
 11
181.305292
 21
387.668786
 31
0.0
  0
LINE
  8
0
  6
CONTINUOUS
 10
180.585843
 20
388.055656
 30
0.0
 11
180.585843
 21
385.504166
 31
0.0
  0
LINE
  8
0
  6
CONTINUOUS
 10
181.305292
 20
385.088792
 30
0.0
 11
180.585843
 21
385.504166
 31
0.0
  0
LINE
  8
0
  6
CONTINUOUS
 10
181.305292
 20
384.945177
 30
0.0
 11
178.967082
 21
386.202505
 31
0.0
  0
LINE
  8
0
  6
CONTINUOUS
 10
181.482042
 20
394.344327
 30
0.0
 11
182.308188
 21
394.821303
 31
0.0
  0
LINE
  8
0
  6
CONTINUOUS
 10
182.484938
 20
391.805713
 30
0.0
 11
182.484938
 21
394.719256
 31
0.0
  0
LINE
  8
0
  6
CONTINUOUS
 10
182.308188
 20
391.499573
 30
0.0
 11
181.795509
 21
391.203578
 31
0.0
  0
LINE
  8
0
  6
CONTINUOUS
 10
182.308188
 20
388.641835
 30
0.0
 11
181.795509
 21
388.34584
 31
0.0
  0
LINE
  8
0
  6
CONTINUOUS
 10
182.484938
 20
388.539789
 30
0.0
 11
182.484938
 21
385.626245
 31
0.0
  0
LINE
  8
0
  6
CONTINUOUS
 10
181.482042
 20
384.84313
 30
0.0
 11
182.308188
 21
385.320106
 31
0.0
  0
LINE
  8
0
  6
CONTINUOUS
 10
181.305292
 20
385.088792
 30
0.0
 11
181.305292
 21
384.945177
 31
0.0
  0
LINE
  8
0
  6
CONTINUOUS
 10
181.482042
 20
385.394932
 30
0.0
 11
181.966951
 21
385.674894
 31
0.0
  0
LINE
  8
0
  6
CONTINUOUS
 10
181.966951
 20
385.674894
 30
0.0
 11
181.966951
 21
387.846701
 31
0.0
  0
LINE
  8
0
  6
CONTINUOUS
 10
181.966951
 20
387.846701
 30
0.0
 11
181.482042
 21
387.566739
 31
0.0
  0
LINE
  8
0
  6
CONTINUOUS
 10
181.305292
 20
387.668786
 30
0.0
 11
181.305292
 21
391.314578
 31
0.0
  0
LINE
  8
0
  6
CONTINUOUS
 10
181.966951
 20
391.90068
 30
0.0
 11
181.482042
 21
391.620718
 31
0.0
  0
LINE
  8
0
  6
CONTINUOUS
 10
181.966951
 20
394.072488
 30
0.0
 11
181.966951
 21
391.90068
 31
0.0
  0
LINE
  8
0
  6
CONTINUOUS
 10
181.482042
 20
393.792526
 30
0.0
 11
181.966951
 21
394.072488
 31
0.0
  0
LINE
  8
0
  6
CONTINUOUS
 10
181.305292
 20
393.894572
 30
0.0
 11
181.305292
 21
394.038187
 31
0.0
  0
LINE
  8
0
  6
CONTINUOUS
 10
181.795509
 20
388.34584
 30
0.0
 11
181.795509
 21
391.203578
 31
0.0
  0
LINE
  8
0
  6
CONTINUOUS
 10
180.585843
 20
390.95425
 30
0.0
 11
179.506669
 21
391.577311
 31
0.0
  0
LINE
  8
0
  6
CONTINUOUS
 10
180.058599
 20
389.730321
 30
0.0
 11
180.585604
 21
389.426054
 31
0.0
  0
LINE
  8
0
  6
CONTINUOUS
 10
180.585843
 20
388.831359
 30
0.0
 11
179.506669
 21
389.411664
 31
0.0
  0
LINE
  8
0
  6
CONTINUOUS
 10
179.506669
 20
389.411664
 30
0.0
 11
180.058599
 21
389.730321
 31
0.0
  0
LINE
  8
0
  6
CONTINUOUS
 10
180.585843
 20
388.831359
 30
0.0
 11
180.585843
 21
390.95425
 31
0.0
  0
LINE
  8
0
  6
CONTINUOUS
 10
179.506669
 20
391.577311
 30
0.0
 11
179.506669
 21
392.535729
 31
0.0
  0
LINE
  8
0
  6
CONTINUOUS
 10
179.506669
 20
392.535729
 30
0.0
 11
180.194976
 21
392.165605
 31
0.0
  0
LINE
  8
0
  6
CONTINUOUS
 10
179.506669
 20
392.535729
 30
0.0
 11
179.992167
 21
392.816031
 31
0.0
  0
LINE
  8
0
  6
CONTINUOUS
 10
179.69131
 20
394.525228
 30
0.0
 11
179.992167
 21
392.816031
 31
0.0
  0
LINE
  8
0
  6
CONTINUOUS
 10
180.194976
 20
392.165605
 30
0.0
 11
180.194976
 21
394.225226
 31
0.0
  0
LINE
  8
0
  6
CONTINUOUS
 10
180.194976
 20
392.165605
 30
0.0
 11
179.992167
 21
392.816031
 31
0.0
  0
LINE
  8
0
  6
CONTINUOUS
 10
181.883897
 20
400.991331
 30
0.0
 11
181.883897
 21
402.277001
 31
0.0
  0
LINE
  8
0
  6
CONTINUOUS
 10
180.557831
 20
400.838098
 30
0.0
 11
181.664156
 21
401.476835
 31
0.0
  0
LINE
  8
0
  6
CONTINUOUS
 10
181.883897
 20
400.991331
 30
0.0
 11
181.707121
 21
401.093393
 31
0.0
  0
LINE
  8
0
  6
CONTINUOUS
 10
181.707121
 20
401.093393
 30
0.0
 11
180.557992
 21
400.429943
 31
0.0
  0
LINE
  8
0
  6
CONTINUOUS
 10
181.883757
 20
401.347816
 30
0.0
 11
181.664156
 21
401.476835
 31
0.0
  0
LINE
  8
0
  6
CONTINUOUS
 10
181.664156
 20
381.880917
 30
0.0
 11
181.883757
 21
381.751898
 31
0.0
  0
LINE
  8
0
  6
CONTINUOUS
 10
173.603392
 20
396.47594
 30
0.0
 11
173.95386
 21
396.270035
 31
0.0
  0
LINE
  8
0
  6
CONTINUOUS
 10
173.95386
 20
396.270035
 30
0.0
 11
173.95386
 21
396.933176
 31
0.0
  0
LINE
  8
0
  6
CONTINUOUS
 10
136.0
 20
374.765611
 30
0.0
 11
136.356639
 21
374.563269
 31
0.0
  0
LINE
  8
0
  6
CONTINUOUS
 10
136.356639
 20
374.563269
 30
0.0
 11
136.356639
 21
377.012758
 31
0.0
  0
LINE
  8
0
  6
CONTINUOUS
 10
136.356639
 20
377.012758
 30
0.0
 11
136.0
 21
377.215101
 31
0.0
  0
LINE
  8
0
  6
CONTINUOUS
 10
136.0
 20
389.494981
 30
0.0
 11
136.0
 21
377.215101
 31
0.0
  0
LINE
  8
0
  6
CONTINUOUS
 10
136.356478
 20
374.971424
 30
0.0
 11
136.0
 21
374.765611
 31
0.0
  0
LINE
  8
0
  6
CONTINUOUS
 10
136.0
 20
374.765611
 30
0.0
 11
136.0
 21
364.118725
 31
0.0
  0
LINE
  8
0
  6
CONTINUOUS
 10
173.603392
 20
396.47594
 30
0.0
 11
173.953699
 21
396.67819
 31
0.0
  0
LINE
  8
0
  6
CONTINUOUS
 10
173.603392
 20
396.47594
 30
0.0
 11
173.603392
 21
396.203836
 31
0.0
  0
LINE
  8
0
  6
CONTINUOUS
 10
163.405398
 20
374.958376
 30
0.0
 11
162.685948
 21
375.37375
 31
0.0
  0
LINE
  8
0
  6
CONTINUOUS
 10
184.535548
 20
402.991747
 30
0.0
 11
183.828509
 21
403.399956
 31
0.0
  0
LINE
  8
0
  6
CONTINUOUS
 10
163.145568
 20
370.780957
 30
0.0
 11
163.322344
 21
370.678895
 31
0.0
  0
LINE
  8
0
  6
CONTINUOUS
 10
163.322344
 20
390.274813
 30
0.0
 11
163.145568
 21
390.376875
 31
0.0
  0
LINE
  8
0
  6
CONTINUOUS
 10
163.145568
 20
390.376875
 30
0.0
 11
161.996439
 21
389.713425
 31
0.0
  0
LINE
  8
0
  6
CONTINUOUS
 10
163.322344
 20
390.274813
 30
0.0
 11
163.322344
 21
391.560483
 31
0.0
  0
LINE
  8
0
  6
CONTINUOUS
 10
160.405529
 20
375.915651
 30
0.0
 11
160.405529
 21
375.485988
 31
0.0
  0
LINE
  8
0
  6
CONTINUOUS
 10
160.228752
 20
368.749922
 30
0.0
 11
160.405529
 21
368.64786
 31
0.0
  0
LINE
  8
0
  6
CONTINUOUS
 10
159.875199
 20
370.995287
 30
0.0
 11
160.228752
 21
370.791163
 31
0.0
  0
LINE
  8
0
  6
CONTINUOUS
 10
160.228752
 20
373.955088
 30
0.0
 11
159.875199
 21
374.159212
 31
0.0
  0
LINE
  8
0
  6
CONTINUOUS
 10
160.228752
 20
373.955088
 30
0.0
 11
160.228752
 21
375.383957
 31
0.0
  0
LINE
  8
0
  6
CONTINUOUS
 10
160.228752
 20
375.383957
 30
0.0
 11
159.875199
 21
375.588081
 31
0.0
  0
LINE
  8
0
  6
CONTINUOUS
 10
160.405529
 20
375.915651
 30
0.0
 11
159.875199
 21
376.200453
 31
0.0
  0
LINE
  8
0
  6
CONTINUOUS
 10
160.228752
 20
370.791163
 30
0.0
 11
160.228752
 21
368.749922
 31
0.0
  0
LINE
  8
0
  6
CONTINUOUS
 10
161.996439
 20
370.117507
 30
0.0
 11
163.145568
 21
370.780957
 31
0.0
  0
LINE
  8
0
  6
CONTINUOUS
 10
163.145568
 20
369.821574
 30
0.0
 11
163.145568
 21
370.780957
 31
0.0
  0
LINE
  8
0
  6
CONTINUOUS
 10
158.902927
 20
366.555587
 30
0.0
 11
162.438461
 21
368.596829
 31
0.0
  0
LINE
  8
0
  6
CONTINUOUS
 10
158.902927
 20
366.555587
 30
0.0
 11
158.902927
 21
366.963836
 31
0.0
  0
LINE
  8
0
  6
CONTINUOUS
 10
158.902927
 20
366.963836
 30
0.0
 11
155.604727
 21
365.059619
 31
0.0
  0
LINE
  8
0
  6
CONTINUOUS
 10
155.604727
 20
365.059619
 30
0.0
 11
155.604727
 21
366.08024
 31
0.0
  0
LINE
  8
0
  6
CONTINUOUS
 10
155.604727
 20
365.059619
 30
0.0
 11
155.397672
 21
364.613477
 31
0.0
  0
LINE
  8
0
  6
CONTINUOUS
 10
158.107432
 20
367.933425
 30
0.0
 11
158.460985
 21
367.729301
 31
0.0
  0
LINE
  8
0
  6
CONTINUOUS
 10
155.604727
 20
366.08024
 30
0.0
 11
158.460985
 21
367.729301
 31
0.0
  0
LINE
  8
0
  6
CONTINUOUS
 10
155.604727
 20
366.08024
 30
0.0
 11
155.397672
 21
365.634098
 31
0.0
  0
LINE
  8
0
  6
CONTINUOUS
 10
154.624931
 20
364.493933
 30
0.0
 11
154.271378
 21
364.698058
 31
0.0
  0
LINE
  8
0
  6
CONTINUOUS
 10
154.271378
 20
365.718678
 30
0.0
 11
154.624931
 21
365.514554
 31
0.0
  0
LINE
  8
0
  6
CONTINUOUS
 10
155.397672
 20
365.634098
 30
0.0
 11
155.397672
 21
364.613477
 31
0.0
  0
LINE
  8
0
  6
CONTINUOUS
 10
155.397672
 20
364.613477
 30
0.0
 11
154.624931
 21
364.493933
 31
0.0
  0
LINE
  8
0
  6
CONTINUOUS
 10
154.624931
 20
365.514554
 30
0.0
 11
154.624931
 21
364.493933
 31
0.0
  0
LINE
  8
0
  6
CONTINUOUS
 10
155.397672
 20
365.634098
 30
0.0
 11
154.624931
 21
365.514554
 31
0.0
  0
LINE
  8
0
  6
CONTINUOUS
 10
167.123043
 20
393.576825
 30
0.0
 11
167.123043
 21
388.632428
 31
0.0
  0
LINE
  8
0
  6
CONTINUOUS
 10
166.856672
 20
388.600298
 30
0.0
 11
166.946293
 21
388.652042
 31
0.0
  0
LINE
  8
0
  6
CONTINUOUS
 10
161.996278
 20
370.525663
 30
0.0
 11
163.322103
 21
371.291128
 31
0.0
  0
LINE
  8
0
  6
CONTINUOUS
 10
181.664156
 20
381.880917
 30
0.0
 11
180.557831
 21
381.24218
 31
0.0
  0
LINE
  8
0
  6
CONTINUOUS
 10
179.674189
 20
387.631405
 30
0.0
 11
178.436752
 21
386.916971
 31
0.0
  0
LINE
  8
0
  6
CONTINUOUS
 10
178.436752
 20
386.916971
 30
0.0
 11
178.436752
 21
386.304598
 31
0.0
  0
LINE
  8
0
  6
CONTINUOUS
 10
178.436752
 20
384.875729
 30
0.0
 11
178.790144
 21
385.079761
 31
0.0
  0
LINE
  8
0
  6
CONTINUOUS
 10
178.436752
 20
384.875729
 30
0.0
 11
178.436752
 21
381.711805
 31
0.0
  0
LINE
  8
0
  6
CONTINUOUS
 10
176.668985
 20
378.649943
 30
0.0
 11
172.832931
 21
376.435196
 31
0.0
  0
LINE
  8
0
  6
CONTINUOUS
 10
172.832931
 20
375.414575
 30
0.0
 11
172.832931
 21
376.435196
 31
0.0
  0
LINE
  8
0
  6
CONTINUOUS
 10
173.186287
 20
375.210337
 30
0.0
 11
172.549927
 21
374.842935
 31
0.0
  0
LINE
  8
0
  6
CONTINUOUS
 10
168.36048
 20
373.853025
 30
0.0
 11
172.196534
 21
376.067772
 31
0.0
  0
LINE
  8
0
  6
CONTINUOUS
 10
161.112636
 20
376.914888
 30
0.0
 11
159.875199
 21
376.200453
 31
0.0
  0
LINE
  8
0
  6
CONTINUOUS
 10
159.875199
 20
376.200453
 30
0.0
 11
159.875199
 21
375.588081
 31
0.0
  0
LINE
  8
0
  6
CONTINUOUS
 10
159.875199
 20
374.159212
 30
0.0
 11
160.228591
 21
374.363243
 31
0.0
  0
LINE
  8
0
  6
CONTINUOUS
 10
159.875199
 20
374.159212
 30
0.0
 11
159.875199
 21
370.995287
 31
0.0
  0
LINE
  8
0
  6
CONTINUOUS
 10
158.107432
 20
367.933425
 30
0.0
 11
154.271378
 21
365.718678
 31
0.0
  0
LINE
  8
0
  6
CONTINUOUS
 10
154.271378
 20
364.698058
 30
0.0
 11
154.271378
 21
365.718678
 31
0.0
  0
LINE
  8
0
  6
CONTINUOUS
 10
153.988374
 20
364.126417
 30
0.0
 11
154.624734
 21
364.49382
 31
0.0
  0
LINE
  8
0
  6
CONTINUOUS
 10
161.996519
 20
374.542878
 30
0.0
 11
161.996519
 21
369.770543
 31
0.0
  0
LINE
  8
0
  6
CONTINUOUS
 10
161.819742
 20
369.464356
 30
0.0
 11
160.405529
 21
368.64786
 31
0.0
  0
LINE
  8
0
  6
CONTINUOUS
 10
160.405529
 20
368.64786
 30
0.0
 11
160.405529
 21
375.485988
 31
0.0
  0
LINE
  8
0
  6
CONTINUOUS
 10
162.920489
 20
383.627809
 30
0.0
 11
163.746635
 21
384.104785
 31
0.0
  0
LINE
  8
0
  6
CONTINUOUS
 10
163.923385
 20
381.089195
 30
0.0
 11
163.923385
 21
384.002739
 31
0.0
  0
LINE
  8
0
  6
CONTINUOUS
 10
163.923385
 20
377.823271
 30
0.0
 11
163.923385
 21
374.909728
 31
0.0
  0
LINE
  8
0
  6
CONTINUOUS
 10
162.920489
 20
374.126613
 30
0.0
 11
163.746635
 21
374.603588
 31
0.0
  0
LINE
  8
0
  6
CONTINUOUS
 10
162.743739
 20
374.372274
 30
0.0
 11
162.743739
 21
374.228659
 31
0.0
  0
LINE
  8
0
  6
CONTINUOUS
 10
162.920489
 20
374.678414
 30
0.0
 11
163.405398
 21
374.958376
 31
0.0
  0
LINE
  8
0
  6
CONTINUOUS
 10
163.405398
 20
374.958376
 30
0.0
 11
163.405398
 21
377.130184
 31
0.0
  0
LINE
  8
0
  6
CONTINUOUS
 10
163.405398
 20
377.130184
 30
0.0
 11
162.920489
 21
376.850222
 31
0.0
  0
LINE
  8
0
  6
CONTINUOUS
 10
162.743739
 20
376.952268
 30
0.0
 11
162.743739
 21
380.598061
 31
0.0
  0
LINE
  8
0
  6
CONTINUOUS
 10
163.405398
 20
381.184162
 30
0.0
 11
162.920489
 21
380.9042
 31
0.0
  0
LINE
  8
0
  6
CONTINUOUS
 10
163.405398
 20
383.35597
 30
0.0
 11
163.405398
 21
381.184162
 31
0.0
  0
LINE
  8
0
  6
CONTINUOUS
 10
162.920489
 20
383.076008
 30
0.0
 11
163.405398
 21
383.35597
 31
0.0
  0
LINE
  8
0
  6
CONTINUOUS
 10
162.743739
 20
383.178054
 30
0.0
 11
162.743739
 21
383.32167
 31
0.0
  0
LINE
  8
0
  6
CONTINUOUS
 10
163.746635
 20
377.925318
 30
0.0
 11
163.233956
 21
377.629322
 31
0.0
  0
LINE
  8
0
  6
CONTINUOUS
 10
163.233718
 20
378.242494
 30
0.0
 11
163.746635
 21
377.925318
 31
0.0
  0
LINE
  8
0
  6
CONTINUOUS
 10
162.02429
 20
378.114841
 30
0.0
 11
160.945116
 21
378.695147
 31
0.0
  0
LINE
  8
0
  6
CONTINUOUS
 10
161.633423
 20
377.339335
 30
0.0
 11
161.633423
 21
375.279714
 31
0.0
  0
LINE
  8
0
  6
CONTINUOUS
 10
161.633423
 20
375.279714
 30
0.0
 11
161.112636
 21
376.914888
 31
0.0
  0
LINE
  8
0
  6
CONTINUOUS
 10
161.112636
 20
376.914888
 30
0.0
 11
161.112636
 21
377.639223
 31
0.0
  0
LINE
  8
0
  6
CONTINUOUS
 10
160.945116
 20
377.736729
 30
0.0
 11
161.633423
 21
377.339335
 31
0.0
  0
LINE
  8
0
  6
CONTINUOUS
 10
161.765721
 20
378.858508
 30
0.0
 11
162.023807
 21
379.007514
 31
0.0
  0
LINE
  8
0
  6
CONTINUOUS
 10
160.945116
 20
378.695147
 30
0.0
 11
161.497046
 21
379.013803
 31
0.0
  0
LINE
  8
0
  6
CONTINUOUS
 10
160.945116
 20
378.695147
 30
0.0
 11
160.945116
 21
377.736729
 31
0.0
  0
LINE
  8
0
  6
CONTINUOUS
 10
162.02429
 20
380.237732
 30
0.0
 11
160.945116
 21
380.860794
 31
0.0
  0
LINE
  8
0
  6
CONTINUOUS
 10
161.497046
 20
379.013803
 30
0.0
 11
162.024051
 21
378.709536
 31
0.0
  0
LINE
  8
0
  6
CONTINUOUS
 10
163.233956
 20
377.629322
 30
0.0
 11
163.233956
 21
380.48706
 31
0.0
  0
LINE
  8
0
  6
CONTINUOUS
 10
163.746635
 20
380.783056
 30
0.0
 11
163.233956
 21
380.48706
 31
0.0
  0
LINE
  8
0
  6
CONTINUOUS
 10
162.743739
 20
374.228659
 30
0.0
 11
160.405529
 21
375.485988
 31
0.0
  0
LINE
  8
0
  6
CONTINUOUS
 10
149.798927
 20
363.136508
 30
0.0
 11
150.152481
 21
362.932384
 31
0.0
  0
LINE
  8
0
  6
CONTINUOUS
 10
149.798927
 20
363.136508
 30
0.0
 11
153.634981
 21
365.351255
 31
0.0
  0
LINE
  8
0
  6
CONTINUOUS
 10
153.008739
 20
364.581445
 30
0.0
 11
153.78148
 21
364.700989
 31
0.0
  0
LINE
  8
0
  6
CONTINUOUS
 10
153.78148
 20
364.700989
 30
0.0
 11
153.988535
 21
365.147131
 31
0.0
  0
LINE
  8
0
  6
CONTINUOUS
 10
153.78148
 20
364.700989
 30
0.0
 11
153.78148
 21
363.680368
 31
0.0
  0
LINE
  8
0
  6
CONTINUOUS
 10
153.008739
 20
363.560824
 30
0.0
 11
153.78148
 21
363.680368
 31
0.0
  0
LINE
  8
0
  6
CONTINUOUS
 10
153.78148
 20
363.680368
 30
0.0
 11
153.988535
 21
364.12651
 31
0.0
  0
LINE
  8
0
  6
CONTINUOUS
 10
153.988535
 20
365.147131
 30
0.0
 11
153.988535
 21
364.12651
 31
0.0
  0
LINE
  8
0
  6
CONTINUOUS
 10
153.634981
 20
365.351255
 30
0.0
 11
153.988535
 21
365.147131
 31
0.0
  0
LINE
  8
0
  6
CONTINUOUS
 10
153.008739
 20
364.581445
 30
0.0
 11
150.152481
 21
362.932384
 31
0.0
  0
LINE
  8
0
  6
CONTINUOUS
 10
153.008739
 20
363.560824
 30
0.0
 11
153.008739
 21
364.581445
 31
0.0
  0
LINE
  8
0
  6
CONTINUOUS
 10
149.710539
 20
361.656608
 30
0.0
 11
153.008739
 21
363.560824
 31
0.0
  0
LINE
  8
0
  6
CONTINUOUS
 10
149.710539
 20
361.248359
 30
0.0
 11
149.710539
 21
361.656608
 31
0.0
  0
LINE
  8
0
  6
CONTINUOUS
 10
149.710539
 20
361.248359
 30
0.0
 11
148.295038
 21
360.43112
 31
0.0
  0
LINE
  8
0
  6
CONTINUOUS
 10
148.56149
 20
361.809701
 30
0.0
 11
148.56149
 21
367.155587
 31
0.0
  0
LINE
  8
0
  6
CONTINUOUS
 10
148.295119
 20
361.655911
 30
0.0
 11
148.56149
 21
361.809701
 31
0.0
  0
LINE
  8
0
  6
CONTINUOUS
 10
162.685948
 20
375.37375
 30
0.0
 11
162.685948
 21
376.896331
 31
0.0
  0
LINE
  8
0
  6
CONTINUOUS
 10
162.20104
 20
375.093788
 30
0.0
 11
162.685948
 21
375.37375
 31
0.0
  0
LINE
  8
0
  6
CONTINUOUS
 10
162.02429
 20
377.339138
 30
0.0
 11
162.02429
 21
374.787649
 31
0.0
  0
LINE
  8
0
  6
CONTINUOUS
 10
180.194976
 20
388.055852
 30
0.0
 11
180.194976
 21
385.996231
 31
0.0
  0
LINE
  8
0
  6
CONTINUOUS
 10
180.194976
 20
385.996231
 30
0.0
 11
179.674189
 21
387.631405
 31
0.0
  0
LINE
  8
0
  6
CONTINUOUS
 10
179.674189
 20
387.631405
 30
0.0
 11
179.674189
 21
388.355741
 31
0.0
  0
LINE
  8
0
  6
CONTINUOUS
 10
166.857878
 20
392.78554
 30
0.0
 11
166.857878
 21
368.698891
 31
0.0
  0
LINE
  8
0
  6
CONTINUOUS
 10
183.828441
 20
377.680353
 30
0.0
 11
167.564985
 21
368.290642
 31
0.0
  0
LINE
  8
0
  6
CONTINUOUS
 10
184.535548
 20
402.991747
 30
0.0
 11
184.535548
 21
378.905098
 31
0.0
  0
LINE
  8
0
  6
CONTINUOUS
 10
183.828441
 20
403.399995
 30
0.0
 11
167.564985
 21
394.010285
 31
0.0
  0
LINE
  8
0
  6
CONTINUOUS
 10
149.003432
 20
383.293767
 30
0.0
 11
165.266888
 21
392.683478
 31
0.0
  0
LINE
  8
0
  6
CONTINUOUS
 10
148.296325
 20
382.069022
 30
0.0
 11
148.296325
 21
357.982373
 31
0.0
  0
LINE
  8
0
  6
CONTINUOUS
 10
149.003432
 20
357.574125
 30
0.0
 11
165.266888
 21
366.963836
 31
0.0
  0
LINE
  8
0
  6
CONTINUOUS
 10
165.973995
 20
392.27523
 30
0.0
 11
165.973995
 21
368.18858
 31
0.0
  0
LINE
  8
0
  6
CONTINUOUS
 10
148.530634
 20
371.217227
 30
0.0
 11
148.530634
 21
371.527642
 31
0.0
  0
LINE
  8
0
  6
CONTINUOUS
 10
149.609808
 20
372.771692
 30
0.0
 11
149.609808
 21
370.947337
 31
0.0
  0
LINE
  8
0
  6
CONTINUOUS
 10
149.082563
 20
371.846299
 30
0.0
 11
148.530634
 21
371.527642
 31
0.0
  0
LINE
  8
0
  6
CONTINUOUS
 10
149.609569
 20
371.542032
 30
0.0
 11
149.082563
 21
371.846299
 31
0.0
  0
LINE
  8
0
  6
CONTINUOUS
 10
148.530634
 20
371.527642
 30
0.0
 11
149.609808
 21
370.947337
 31
0.0
  0
LINE
  8
0
  6
CONTINUOUS
 10
148.295553
 20
373.38751
 30
0.0
 11
148.49827
 21
373.274557
 31
0.0
  0
LINE
  8
0
  6
CONTINUOUS
 10
148.49827
 20
373.274557
 30
0.0
 11
148.583647
 21
373.32385
 31
0.0
  0
LINE
  8
0
  6
CONTINUOUS
 10
148.392307
 20
370.296912
 30
0.0
 11
149.639828
 21
369.576656
 31
0.0
  0
LINE
  8
0
  6
CONTINUOUS
 10
148.49827
 20
370.462836
 30
0.0
 11
148.655094
 21
370.553378
 31
0.0
  0
LINE
  8
0
  6
CONTINUOUS
 10
148.530634
 20
371.217227
 30
0.0
 11
148.29536
 21
371.081391
 31
0.0
  0
LINE
  8
0
  6
CONTINUOUS
 10
150.329257
 20
370.178791
 30
0.0
 11
148.530634
 21
371.217227
 31
0.0
  0
LINE
  8
0
  6
CONTINUOUS
 10
148.655094
 20
370.553378
 30
0.0
 11
149.816578
 21
369.882795
 31
0.0
  0
LINE
  8
0
  6
CONTINUOUS
 10
148.295553
 20
370.583961
 30
0.0
 11
148.49827
 21
370.462836
 31
0.0
  0
LINE
  8
0
  6
CONTINUOUS
 10
163.322103
 20
390.887046
 30
0.0
 11
161.996278
 21
390.121581
 31
0.0
  0
LINE
  8
0
  6
CONTINUOUS
 10
159.875199
 20
386.610785
 30
0.0
 11
159.875199
 21
389.57021
 31
0.0
  0
LINE
  8
0
  6
CONTINUOUS
 10
160.228591
 20
385.385947
 30
0.0
 11
159.875199
 21
385.181916
 31
0.0
  0
LINE
  8
0
  6
CONTINUOUS
 10
159.875199
 20
384.569543
 30
0.0
 11
159.875199
 21
385.181916
 31
0.0
  0
LINE
  8
0
  6
CONTINUOUS
 10
166.95386
 20
384.229928
 30
0.0
 11
168.201381
 21
383.559097
 31
0.0
  0
LINE
  8
0
  6
CONTINUOUS
 10
166.857116
 20
387.248752
 30
0.0
 11
168.201381
 21
386.472641
 31
0.0
  0
LINE
  8
0
  6
CONTINUOUS
 10
169.204277
 20
378.306361
 30
0.0
 11
168.719144
 21
378.606356
 31
0.0
  0
LINE
  8
0
  6
CONTINUOUS
 10
168.719144
 20
384.832142
 30
0.0
 11
169.204277
 21
384.532147
 31
0.0
  0
LINE
  8
0
  6
CONTINUOUS
 10
169.204277
 20
387.255756
 30
0.0
 11
166.946293
 21
388.652042
 31
0.0
  0
LINE
  8
0
  6
CONTINUOUS
 10
166.857116
 20
378.102483
 30
0.0
 11
168.201381
 21
377.37963
 31
0.0
  0
LINE
  8
0
  6
CONTINUOUS
 10
166.95386
 20
381.01343
 30
0.0
 11
168.201381
 21
380.293173
 31
0.0
  0
LINE
  8
0
  6
CONTINUOUS
 10
167.123043
 20
372.526218
 30
0.0
 11
167.123043
 21
377.872105
 31
0.0
  0
LINE
  8
0
  6
CONTINUOUS
 10
166.856672
 20
372.372429
 30
0.0
 11
167.123043
 21
372.526218
 31
0.0
  0
LINE
  8
0
  6
CONTINUOUS
 10
163.232669
 20
379.517192
 30
0.0
 11
163.449457
 21
379.642354
 31
0.0
  0
LINE
  8
0
  6
CONTINUOUS
 10
163.145568
 20
384.92676
 30
0.0
 11
162.843229
 21
384.752205
 31
0.0
  0
LINE
  8
0
  6
CONTINUOUS
 10
160.052281
 20
389.67247
 30
0.0
 11
160.228752
 21
389.570585
 31
0.0
  0
LINE
  8
0
  6
CONTINUOUS
 10
150.642724
 20
367.589843
 30
0.0
 11
150.157591
 21
367.889838
 31
0.0
  0
LINE
  8
0
  6
CONTINUOUS
 10
150.157591
 20
374.115625
 30
0.0
 11
150.642724
 21
373.815629
 31
0.0
  0
LINE
  8
0
  6
CONTINUOUS
 10
150.819474
 20
376.293577
 30
0.0
 11
150.819474
 21
376.437192
 31
0.0
  0
LINE
  8
0
  6
CONTINUOUS
 10
150.642724
 20
375.987437
 30
0.0
 11
150.157816
 21
375.707475
 31
0.0
  0
LINE
  8
0
  6
CONTINUOUS
 10
150.157816
 20
375.707475
 30
0.0
 11
150.157816
 21
373.535667
 31
0.0
  0
LINE
  8
0
  6
CONTINUOUS
 10
150.157816
 20
373.535667
 30
0.0
 11
150.642724
 21
373.815629
 31
0.0
  0
LINE
  8
0
  6
CONTINUOUS
 10
150.819474
 20
370.06779
 30
0.0
 11
150.819474
 21
373.713583
 31
0.0
  0
LINE
  8
0
  6
CONTINUOUS
 10
150.157816
 20
369.481689
 30
0.0
 11
150.642724
 21
369.761651
 31
0.0
  0
LINE
  8
0
  6
CONTINUOUS
 10
150.157816
 20
367.309881
 30
0.0
 11
150.157816
 21
369.481689
 31
0.0
  0
LINE
  8
0
  6
CONTINUOUS
 10
150.642724
 20
367.589843
 30
0.0
 11
150.157816
 21
367.309881
 31
0.0
  0
LINE
  8
0
  6
CONTINUOUS
 10
150.819474
 20
367.487797
 30
0.0
 11
150.819474
 21
367.344181
 31
0.0
  0
LINE
  8
0
  6
CONTINUOUS
 10
150.642724
 20
367.038042
 30
0.0
 11
149.816578
 21
366.561066
 31
0.0
  0
LINE
  8
0
  6
CONTINUOUS
 10
149.639828
 20
369.576656
 30
0.0
 11
149.639828
 21
366.663112
 31
0.0
  0
LINE
  8
0
  6
CONTINUOUS
 10
149.816578
 20
369.882795
 30
0.0
 11
150.329257
 21
370.178791
 31
0.0
  0
LINE
  8
0
  6
CONTINUOUS
 10
150.329257
 20
370.178791
 30
0.0
 11
150.329257
 21
373.036529
 31
0.0
  0
LINE
  8
0
  6
CONTINUOUS
 10
149.816578
 20
372.740533
 30
0.0
 11
150.329257
 21
373.036529
 31
0.0
  0
LINE
  8
0
  6
CONTINUOUS
 10
149.639828
 20
372.84258
 30
0.0
 11
149.639828
 21
375.756123
 31
0.0
  0
LINE
  8
0
  6
CONTINUOUS
 10
150.642724
 20
376.539238
 30
0.0
 11
149.816578
 21
376.062263
 31
0.0
  0
LINE
  8
0
  6
CONTINUOUS
 10
150.642724
 20
376.539238
 30
0.0
 11
148.38474
 21
377.935524
 31
0.0
  0
LINE
  8
0
  6
CONTINUOUS
 10
148.295484
 20
376.940467
 30
0.0
 11
149.816578
 21
376.062263
 31
0.0
  0
LINE
  8
0
  6
CONTINUOUS
 10
148.295563
 20
376.532235
 30
0.0
 11
149.639828
 21
375.756123
 31
0.0
  0
LINE
  8
0
  6
CONTINUOUS
 10
166.857106
 20
384.104028
 30
0.0
 11
167.059823
 21
383.991075
 31
0.0
  0
LINE
  8
0
  6
CONTINUOUS
 10
167.059823
 20
383.991075
 30
0.0
 11
167.1452
 21
384.040367
 31
0.0
  0
LINE
  8
0
  6
CONTINUOUS
 10
168.171361
 20
383.48821
 30
0.0
 11
168.171361
 21
381.663854
 31
0.0
  0
LINE
  8
0
  6
CONTINUOUS
 10
168.171122
 20
382.258549
 30
0.0
 11
167.644116
 21
382.562816
 31
0.0
  0
LINE
  8
0
  6
CONTINUOUS
 10
167.092187
 20
382.24416
 30
0.0
 11
168.171361
 21
381.663854
 31
0.0
  0
LINE
  8
0
  6
CONTINUOUS
 10
169.381027
 20
387.010094
 30
0.0
 11
169.381027
 21
387.15371
 31
0.0
  0
LINE
  8
0
  6
CONTINUOUS
 10
169.204277
 20
386.703955
 30
0.0
 11
168.719369
 21
386.423993
 31
0.0
  0
LINE
  8
0
  6
CONTINUOUS
 10
168.719369
 20
386.423993
 30
0.0
 11
168.719369
 21
384.252185
 31
0.0
  0
LINE
  8
0
  6
CONTINUOUS
 10
168.719369
 20
384.252185
 30
0.0
 11
169.204277
 21
384.532147
 31
0.0
  0
LINE
  8
0
  6
CONTINUOUS
 10
169.381027
 20
380.784308
 30
0.0
 11
169.381027
 21
384.430101
 31
0.0
  0
LINE
  8
0
  6
CONTINUOUS
 10
168.719369
 20
380.198206
 30
0.0
 11
169.204277
 21
380.478168
 31
0.0
  0
LINE
  8
0
  6
CONTINUOUS
 10
168.719369
 20
378.026399
 30
0.0
 11
168.719369
 21
380.198206
 31
0.0
  0
LINE
  8
0
  6
CONTINUOUS
 10
169.204277
 20
378.306361
 30
0.0
 11
168.719369
 21
378.026399
 31
0.0
  0
LINE
  8
0
  6
CONTINUOUS
 10
169.381027
 20
378.204314
 30
0.0
 11
169.381027
 21
378.060699
 31
0.0
  0
LINE
  8
0
  6
CONTINUOUS
 10
169.204277
 20
377.754559
 30
0.0
 11
168.378131
 21
377.277584
 31
0.0
  0
LINE
  8
0
  6
CONTINUOUS
 10
168.201381
 20
380.293173
 30
0.0
 11
168.201381
 21
377.37963
 31
0.0
  0
LINE
  8
0
  6
CONTINUOUS
 10
168.89081
 20
380.895308
 30
0.0
 11
168.89081
 21
383.753046
 31
0.0
  0
LINE
  8
0
  6
CONTINUOUS
 10
168.378131
 20
383.457051
 30
0.0
 11
168.89081
 21
383.753046
 31
0.0
  0
LINE
  8
0
  6
CONTINUOUS
 10
168.201381
 20
383.559097
 30
0.0
 11
168.201381
 21
386.472641
 31
0.0
  0
LINE
  8
0
  6
CONTINUOUS
 10
169.204277
 20
387.255756
 30
0.0
 11
168.378131
 21
386.77878
 31
0.0
  0
LINE
  8
0
  6
CONTINUOUS
 10
167.059823
 20
381.179354
 30
0.0
 11
167.216647
 21
381.269896
 31
0.0
  0
LINE
  8
0
  6
CONTINUOUS
 10
168.89081
 20
380.895308
 30
0.0
 11
167.092187
 21
381.933744
 31
0.0
  0
LINE
  8
0
  6
CONTINUOUS
 10
168.378131
 20
380.599313
 30
0.0
 11
168.89081
 21
380.895308
 31
0.0
  0
LINE
  8
0
  6
CONTINUOUS
 10
167.216647
 20
381.269896
 30
0.0
 11
168.378131
 21
380.599313
 31
0.0
  0
LINE
  8
0
  6
CONTINUOUS
 10
166.857106
 20
381.300478
 30
0.0
 11
167.059823
 21
381.179354
 31
0.0
  0
LINE
  8
0
  6
CONTINUOUS
 10
167.644116
 20
382.562816
 30
0.0
 11
167.092187
 21
382.24416
 31
0.0
  0
LINE
  8
0
  6
CONTINUOUS
 10
167.092187
 20
381.933744
 30
0.0
 11
167.092187
 21
382.24416
 31
0.0
  0
LINE
  8
0
  6
CONTINUOUS
 10
167.092187
 20
381.933744
 30
0.0
 11
166.856913
 21
381.797909
 31
0.0
  0
ENDSEC
  0
EOF
