  0
SECTION
  2
HEADER
  9
$ACADVER
  1
AC1009
  9
$INSBASE
 10
0.0
 20
0.0
 30
0.0
  9
$EXTMIN
 10
25.0
 20
72.084145
 30
0.0
  9
$EXTMAX
 10
121.315617
 20
161.729602
 30
0.0
  9
$LIMMIN
 10
25.0
 20
72.084145
  9
$LIMMAX
 10
121.315617
 20
161.729602
  9
$ORTHOMODE
 70
     0
  9
$REGENMODE
 70
     1
  9
$FILLMODE
 70
     1
  9
$QTEXTMODE
 70
     0
  9
$MIRRTEXT
 70
     1
  9
$DRAGMODE
 70
     2
  9
$LTSCALE
 40
1.0
  9
$OSMODE
 70
     0
  9
$ATTMODE
 70
     1
  9
$TEXTSIZE
 40
3.5
  9
$TRACEWID
 40
0.5
  9
$TEXTSTYLE
  7
STANDARD
  9
$CLAYER
  8
0
  9
$CELTYPE
  6
BYLAYER
  9
$CECOLOR
 62
   256
  9
$DIMSCALE
 40
1.0
  9
$DIMASZ
 40
0.18
  9
$DIMEXO
 40
0.0625
  9
$DIMDLI
 40
0.38
  9
$DIMRND
 40
0.0
  9
$DIMDLE
 40
0.0
  9
$DIMEXE
 40
0.18
  9
$DIMTP
 40
0.0
  9
$DIMTM
 40
0.0
  9
$DIMTXT
 40
0.18
  9
$DIMCEN
 40
0.09
  9
$DIMTSZ
 40
0.0
  9
$DIMTOL
 70
     0
  9
$DIMLIM
 70
     0
  9
$DIMTIH
 70
     1
  9
$DIMTOH
 70
     1
  9
$DIMSE1
 70
     0
  9
$DIMSE2
 70
     0
  9
$DIMTAD
 70
     0
  9
$DIMZIN
 70
     0
  9
$DIMBLK
  1

  9
$DIMASO
 70
     1
  9
$DIMSHO
 70
     1
  9
$DIMPOST
  1

  9
$DIMAPOST
  1

  9
$DIMALT
 70
     0
  9
$DIMALTD
 70
     2
  9
$DIMALTF
 40
25.4
  9
$DIMLFAC
 40
1.0
  9
$DIMTOFL
 70
     0
  9
$DIMTVP
 40
0.0
  9
$DIMTIX
 70
     0
  9
$DIMSOXD
 70
     0
  9
$DIMSAH
 70
     0
  9
$DIMBLK1
  1

  9
$DIMBLK2
  1

  9
$DIMSTYLE
  2
*UNNAMED
  9
$DIMCLRD
 70
     0
  9
$DIMCLRE
 70
     0
  9
$DIMCLRT
 70
     0
  9
$DIMTFAC
 40
1.0
  9
$DIMGAP
 40
0.09
  9
$LUNITS
 70
     2
  9
$LUPREC
 70
     4
  9
$SKETCHINC
 40
0.1
  9
$FILLETRAD
 40
2.0
  9
$AUNITS
 70
     0
  9
$AUPREC
 70
     0
  9
$MENU
  1
ACAD
  9
$ELEVATION
 40
0.0
  9
$PELEVATION
 40
0.0
  9
$THICKNESS
 40
0.0
  9
$LIMCHECK
 70
     0
  9
$BLIPMODE
 70
     1
  9
$CHAMFERA
 40
0.0
  9
$CHAMFERB
 40
0.0
  9
$SKPOLY
 70
     0
  9
$TDCREATE
 40
2450955.381098264
  9
$TDUPDATE
 40
2450955.381366551
  9
$TDINDWG
 40
0.0001105324
  9
$TDUSRTIMER
 40
0.0001105324
  9
$USRTIMER
 70
     1
  9
$ANGBASE
 50
0.0
  9
$ANGDIR
 70
     0
  9
$PDMODE
 70
     0
  9
$PDSIZE
 40
0.0
  9
$PLINEWID
 40
0.0
  9
$COORDS
 70
     2
  9
$SPLFRAME
 70
     0
  9
$SPLINETYPE
 70
     6
  9
$SPLINESEGS
 70
     8
  9
$ATTDIA
 70
     0
  9
$ATTREQ
 70
     1
  9
$HANDLING
 70
     0
  9
$HANDSEED
  5
0
  9
$SURFTAB1
 70
     6
  9
$SURFTAB2
 70
     6
  9
$SURFTYPE
 70
     6
  9
$SURFU
 70
     6
  9
$SURFV
 70
     6
  9
$UCSNAME
  2

  9
$UCSORG
 10
0.0
 20
0.0
 30
0.0
  9
$UCSXDIR
 10
1.0
 20
0.0
 30
0.0
  9
$UCSYDIR
 10
0.0
 20
1.0
 30
0.0
  9
$PUCSNAME
  2

  9
$PUCSORG
 10
0.0
 20
0.0
 30
0.0
  9
$PUCSXDIR
 10
1.0
 20
0.0
 30
0.0
  9
$PUCSYDIR
 10
0.0
 20
1.0
 30
0.0
  9
$USERI1
 70
     0
  9
$USERI2
 70
     0
  9
$USERI3
 70
     0
  9
$USERI4
 70
     0
  9
$USERI5
 70
     0
  9
$USERR1
 40
0.0
  9
$USERR2
 40
0.0
  9
$USERR3
 40
0.0
  9
$USERR4
 40
0.0
  9
$USERR5
 40
0.0
  9
$WORLDVIEW
 70
     1
  9
$SHADEDGE
 70
     3
  9
$SHADEDIF
 70
    70
  9
$TILEMODE
 70
     1
  9
$MAXACTVP
 70
    16
  9
$PINSBASE
 10
0.0
 20
0.0
 30
0.0
  9
$PLIMCHECK
 70
     0
  9
$PEXTMIN
 10
1.000000E+20
 20
1.000000E+20
 30
1.000000E+20
  9
$PEXTMAX
 10
-1.000000E+20
 20
-1.000000E+20
 30
-1.000000E+20
  9
$PLIMMIN
 10
0.0
 20
0.0
  9
$PLIMMAX
 10
420.0
 20
297.0
  9
$UNITMODE
 70
     0
  9
$VISRETAIN
 70
     0
  9
$PLINEGEN
 70
     0
  9
$PSLTSCALE
 70
     1
  9
$TREEDEPTH
 70
  3020
  9
$DWGCODEPAGE
  3
iso8859-1
  0
ENDSEC
  0
SECTION
  2
TABLES
  0
TABLE
  2
VPORT
 70
     2
  0
VPORT
  2
*ACTIVE
 70
     0
 10
0.0
 20
0.0
 11
1.0
 21
1.0
 12
99.249854
 22
117.38608
 13
0.0
 23
0.0
 14
1.0
 24
1.0
 15
0.0
 25
0.0
 16
0.0
 26
0.0
 36
1.0
 17
0.0
 27
0.0
 37
0.0
 40
128.457474
 41
1.748359
 42
50.0
 43
0.0
 44
0.0
 50
0.0
 51
0.0
 71
     0
 72
   100
 73
     1
 74
     0
 75
     0
 76
     0
 77
     0
 78
     0
  0
ENDTAB
  0
TABLE
  2
LTYPE
 70
     1
  0
LTYPE
  2
CONTINUOUS
 70
    64
  3
Solid line
 72
    65
 73
     0
 40
0.0
  0
ENDTAB
  0
TABLE
  2
LAYER
 70
     1
  0
LAYER
  2
0
 70
    64
 62
     7
  6
CONTINUOUS
  0
ENDTAB
  0
TABLE
  2
STYLE
 70
     1
  0
STYLE
  2
STANDARD
 70
     0
 40
0.0
 41
1.0
 50
0.0
 71
     0
 42
3.5
  3
txt
  4

  0
ENDTAB
  0
TABLE
  2
VIEW
 70
     0
  0
ENDTAB
  0
TABLE
  2
UCS
 70
     0
  0
ENDTAB
  0
TABLE
  2
APPID
 70
     1
  0
APPID
  2
ACAD
 70
    64
  0
ENDTAB
  0
TABLE
  2
DIMSTYLE
 70
     0
  0
ENDTAB
  0
ENDSEC
  0
SECTION
  2
BLOCKS
  0
ENDSEC
  0
SECTION
  2
ENTITIES
  0
POLYLINE
  8
0
  6
CONTINUOUS
 66
     1
 10
0.0
 20
0.0
 30
0.0
  0
VERTEX
  8
0
  6
CONTINUOUS
 10
92.447721
 20
141.198043
 30
0.0
  0
VERTEX
  8
0
  6
CONTINUOUS
 10
92.446086
 20
141.197082
 30
0.0
  0
SEQEND
  8
0
  6
CONTINUOUS
  0
POLYLINE
  8
0
  6
CONTINUOUS
 66
     1
 10
0.0
 20
0.0
 30
0.0
  0
VERTEX
  8
0
  6
CONTINUOUS
 10
92.569394
 20
141.410658
 30
0.0
  0
VERTEX
  8
0
  6
CONTINUOUS
 10
92.56938
 20
141.408769
 30
0.0
  0
SEQEND
  8
0
  6
CONTINUOUS
  0
POLYLINE
  8
0
  6
CONTINUOUS
 66
     1
 10
0.0
 20
0.0
 30
0.0
  0
VERTEX
  8
0
  6
CONTINUOUS
 10
92.447721
 20
141.198043
 30
0.0
  0
VERTEX
  8
0
  6
CONTINUOUS
 10
92.453214
 20
141.201509
 30
0.0
  0
VERTEX
  8
0
  6
CONTINUOUS
 10
92.458861
 20
141.205417
 30
0.0
  0
VERTEX
  8
0
  6
CONTINUOUS
 10
92.47104
 20
141.214816
 30
0.0
  0
VERTEX
  8
0
  6
CONTINUOUS
 10
92.498515
 20
141.240294
 30
0.0
  0
VERTEX
  8
0
  6
CONTINUOUS
 10
92.536295
 20
141.289888
 30
0.0
  0
VERTEX
  8
0
  6
CONTINUOUS
 10
92.56415
 20
141.364659
 30
0.0
  0
VERTEX
  8
0
  6
CONTINUOUS
 10
92.568094
 20
141.389989
 30
0.0
  0
VERTEX
  8
0
  6
CONTINUOUS
 10
92.569058
 20
141.400937
 30
0.0
  0
VERTEX
  8
0
  6
CONTINUOUS
 10
92.56938
 20
141.408769
 30
0.0
  0
SEQEND
  8
0
  6
CONTINUOUS
  0
POLYLINE
  8
0
  6
CONTINUOUS
 66
     1
 10
0.0
 20
0.0
 30
0.0
  0
VERTEX
  8
0
  6
CONTINUOUS
 10
92.446087
 20
141.197083
 30
0.0
  0
VERTEX
  8
0
  6
CONTINUOUS
 10
91.525319
 20
140.665477
 30
0.0
  0
VERTEX
  8
0
  6
CONTINUOUS
 10
90.604551
 20
140.133871
 30
0.0
  0
SEQEND
  8
0
  6
CONTINUOUS
  0
POLYLINE
  8
0
  6
CONTINUOUS
 66
     1
 10
0.0
 20
0.0
 30
0.0
  0
VERTEX
  8
0
  6
CONTINUOUS
 10
90.361799
 20
140.132158
 30
0.0
  0
VERTEX
  8
0
  6
CONTINUOUS
 10
89.653121
 20
140.527029
 30
0.0
  0
VERTEX
  8
0
  6
CONTINUOUS
 10
88.945416
 20
140.921359
 30
0.0
  0
SEQEND
  8
0
  6
CONTINUOUS
  0
POLYLINE
  8
0
  6
CONTINUOUS
 66
     1
 10
0.0
 20
0.0
 30
0.0
  0
VERTEX
  8
0
  6
CONTINUOUS
 10
83.925037
 20
123.605058
 30
0.0
  0
VERTEX
  8
0
  6
CONTINUOUS
 10
83.925015
 20
123.602059
 30
0.0
  0
VERTEX
  8
0
  6
CONTINUOUS
 10
83.925014
 20
123.600889
 30
0.0
  0
SEQEND
  8
0
  6
CONTINUOUS
  0
POLYLINE
  8
0
  6
CONTINUOUS
 66
     1
 10
0.0
 20
0.0
 30
0.0
  0
VERTEX
  8
0
  6
CONTINUOUS
 10
83.995503
 20
123.825065
 30
0.0
  0
VERTEX
  8
0
  6
CONTINUOUS
 10
83.972013
 20
123.782625
 30
0.0
  0
VERTEX
  8
0
  6
CONTINUOUS
 10
83.951285
 20
123.736182
 30
0.0
  0
VERTEX
  8
0
  6
CONTINUOUS
 10
83.931149
 20
123.664183
 30
0.0
  0
VERTEX
  8
0
  6
CONTINUOUS
 10
83.925887
 20
123.623777
 30
0.0
  0
VERTEX
  8
0
  6
CONTINUOUS
 10
83.925037
 20
123.605058
 30
0.0
  0
SEQEND
  8
0
  6
CONTINUOUS
  0
POLYLINE
  8
0
  6
CONTINUOUS
 66
     1
 10
0.0
 20
0.0
 30
0.0
  0
VERTEX
  8
0
  6
CONTINUOUS
 10
84.039148
 20
123.89362
 30
0.0
  0
VERTEX
  8
0
  6
CONTINUOUS
 10
84.030479
 20
123.8816
 30
0.0
  0
VERTEX
  8
0
  6
CONTINUOUS
 10
83.995503
 20
123.825065
 30
0.0
  0
SEQEND
  8
0
  6
CONTINUOUS
  0
POLYLINE
  8
0
  6
CONTINUOUS
 66
     1
 10
0.0
 20
0.0
 30
0.0
  0
VERTEX
  8
0
  6
CONTINUOUS
 10
83.925014
 20
123.215338
 30
0.0
  0
VERTEX
  8
0
  6
CONTINUOUS
 10
83.925014
 20
123.600887
 30
0.0
  0
SEQEND
  8
0
  6
CONTINUOUS
  0
POLYLINE
  8
0
  6
CONTINUOUS
 66
     1
 10
0.0
 20
0.0
 30
0.0
  0
VERTEX
  8
0
  6
CONTINUOUS
 10
71.373868
 20
116.443192
 30
0.0
  0
VERTEX
  8
0
  6
CONTINUOUS
 10
71.373833
 20
116.44681
 30
0.0
  0
VERTEX
  8
0
  6
CONTINUOUS
 10
71.373722
 20
116.450887
 30
0.0
  0
VERTEX
  8
0
  6
CONTINUOUS
 10
71.373245
 20
116.460468
 30
0.0
  0
VERTEX
  8
0
  6
CONTINUOUS
 10
71.371138
 20
116.48483
 30
0.0
  0
VERTEX
  8
0
  6
CONTINUOUS
 10
71.361551
 20
116.547278
 30
0.0
  0
VERTEX
  8
0
  6
CONTINUOUS
 10
71.35628
 20
116.571482
 30
0.0
  0
SEQEND
  8
0
  6
CONTINUOUS
  0
POLYLINE
  8
0
  6
CONTINUOUS
 66
     1
 10
0.0
 20
0.0
 30
0.0
  0
VERTEX
  8
0
  6
CONTINUOUS
 10
70.308668
 20
117.394881
 30
0.0
  0
VERTEX
  8
0
  6
CONTINUOUS
 10
67.679923
 20
119.020437
 30
0.0
  0
VERTEX
  8
0
  6
CONTINUOUS
 10
65.07728
 20
120.629852
 30
0.0
  0
SEQEND
  8
0
  6
CONTINUOUS
  0
POLYLINE
  8
0
  6
CONTINUOUS
 66
     1
 10
0.0
 20
0.0
 30
0.0
  0
VERTEX
  8
0
  6
CONTINUOUS
 10
71.373868
 20
116.443194
 30
0.0
  0
VERTEX
  8
0
  6
CONTINUOUS
 10
71.373868
 20
115.968931
 30
0.0
  0
SEQEND
  8
0
  6
CONTINUOUS
  0
POLYLINE
  8
0
  6
CONTINUOUS
 66
     1
 10
0.0
 20
0.0
 30
0.0
  0
VERTEX
  8
0
  6
CONTINUOUS
 10
69.43946
 20
115.22716
 30
0.0
  0
VERTEX
  8
0
  6
CONTINUOUS
 10
69.776496
 20
115.045925
 30
0.0
  0
SEQEND
  8
0
  6
CONTINUOUS
  0
POLYLINE
  8
0
  6
CONTINUOUS
 66
     1
 10
0.0
 20
0.0
 30
0.0
  0
VERTEX
  8
0
  6
CONTINUOUS
 10
67.846847
 20
115.973385
 30
0.0
  0
VERTEX
  8
0
  6
CONTINUOUS
 10
65.372624
 20
117.303852
 30
0.0
  0
VERTEX
  8
0
  6
CONTINUOUS
 10
64.788317
 20
117.618051
 30
0.0
  0
SEQEND
  8
0
  6
CONTINUOUS
  0
POLYLINE
  8
0
  6
CONTINUOUS
 66
     1
 10
0.0
 20
0.0
 30
0.0
  0
VERTEX
  8
0
  6
CONTINUOUS
 10
68.243557
 20
115.760061
 30
0.0
  0
VERTEX
  8
0
  6
CONTINUOUS
 10
68.526113
 20
115.608122
 30
0.0
  0
SEQEND
  8
0
  6
CONTINUOUS
  0
POLYLINE
  8
0
  6
CONTINUOUS
 66
     1
 10
0.0
 20
0.0
 30
0.0
  0
VERTEX
  8
0
  6
CONTINUOUS
 10
92.692631
 20
132.626111
 30
0.0
  0
VERTEX
  8
0
  6
CONTINUOUS
 10
91.59977
 20
133.301912
 30
0.0
  0
SEQEND
  8
0
  6
CONTINUOUS
  0
POLYLINE
  8
0
  6
CONTINUOUS
 66
     1
 10
0.0
 20
0.0
 30
0.0
  0
VERTEX
  8
0
  6
CONTINUOUS
 10
87.263936
 20
132.324001
 30
0.0
  0
VERTEX
  8
0
  6
CONTINUOUS
 10
90.863305
 20
130.388509
 30
0.0
  0
VERTEX
  8
0
  6
CONTINUOUS
 10
91.690436
 20
129.943734
 30
0.0
  0
SEQEND
  8
0
  6
CONTINUOUS
  0
POLYLINE
  8
0
  6
CONTINUOUS
 66
     1
 10
0.0
 20
0.0
 30
0.0
  0
VERTEX
  8
0
  6
CONTINUOUS
 10
77.596408
 20
131.195072
 30
0.0
  0
VERTEX
  8
0
  6
CONTINUOUS
 10
77.596408
 20
130.227816
 30
0.0
  0
SEQEND
  8
0
  6
CONTINUOUS
  0
POLYLINE
  8
0
  6
CONTINUOUS
 66
     1
 10
0.0
 20
0.0
 30
0.0
  0
VERTEX
  8
0
  6
CONTINUOUS
 10
73.015676
 20
127.100986
 30
0.0
  0
VERTEX
  8
0
  6
CONTINUOUS
 10
74.131085
 20
126.501196
 30
0.0
  0
SEQEND
  8
0
  6
CONTINUOUS
  0
POLYLINE
  8
0
  6
CONTINUOUS
 66
     1
 10
0.0
 20
0.0
 30
0.0
  0
VERTEX
  8
0
  6
CONTINUOUS
 10
90.361799
 20
140.132158
 30
0.0
  0
VERTEX
  8
0
  6
CONTINUOUS
 10
90.366659
 20
140.129578
 30
0.0
  0
VERTEX
  8
0
  6
CONTINUOUS
 10
90.371688
 20
140.127123
 30
0.0
  0
VERTEX
  8
0
  6
CONTINUOUS
 10
90.382904
 20
140.122203
 30
0.0
  0
VERTEX
  8
0
  6
CONTINUOUS
 10
90.411236
 20
140.112328
 30
0.0
  0
VERTEX
  8
0
  6
CONTINUOUS
 10
90.486092
 20
140.1026
 30
0.0
  0
VERTEX
  8
0
  6
CONTINUOUS
 10
90.5506
 20
140.112699
 30
0.0
  0
VERTEX
  8
0
  6
CONTINUOUS
 10
90.580943
 20
140.122785
 30
0.0
  0
VERTEX
  8
0
  6
CONTINUOUS
 10
90.593291
 20
140.12806
 30
0.0
  0
VERTEX
  8
0
  6
CONTINUOUS
 10
90.604551
 20
140.133871
 30
0.0
  0
SEQEND
  8
0
  6
CONTINUOUS
  0
POLYLINE
  8
0
  6
CONTINUOUS
 66
     1
 10
0.0
 20
0.0
 30
0.0
  0
VERTEX
  8
0
  6
CONTINUOUS
 10
92.569394
 20
150.860446
 30
0.0
  0
VERTEX
  8
0
  6
CONTINUOUS
 10
92.569394
 20
146.329239
 30
0.0
  0
VERTEX
  8
0
  6
CONTINUOUS
 10
92.569394
 20
141.410657
 30
0.0
  0
SEQEND
  8
0
  6
CONTINUOUS
  0
POLYLINE
  8
0
  6
CONTINUOUS
 66
     1
 10
0.0
 20
0.0
 30
0.0
  0
VERTEX
  8
0
  6
CONTINUOUS
 10
97.858913
 20
126.115418
 30
0.0
  0
VERTEX
  8
0
  6
CONTINUOUS
 10
97.868752
 20
126.121333
 30
0.0
  0
VERTEX
  8
0
  6
CONTINUOUS
 10
97.879942
 20
126.12833
 30
0.0
  0
VERTEX
  8
0
  6
CONTINUOUS
 10
97.906508
 20
126.145703
 30
0.0
  0
VERTEX
  8
0
  6
CONTINUOUS
 10
97.975093
 20
126.193594
 30
0.0
  0
VERTEX
  8
0
  6
CONTINUOUS
 10
98.155497
 20
126.334173
 30
0.0
  0
VERTEX
  8
0
  6
CONTINUOUS
 10
98.551217
 20
126.728179
 30
0.0
  0
VERTEX
  8
0
  6
CONTINUOUS
 10
98.900161
 20
127.245621
 30
0.0
  0
SEQEND
  8
0
  6
CONTINUOUS
  0
POLYLINE
  8
0
  6
CONTINUOUS
 66
     1
 10
0.0
 20
0.0
 30
0.0
  0
VERTEX
  8
0
  6
CONTINUOUS
 10
97.858913
 20
126.115418
 30
0.0
  0
VERTEX
  8
0
  6
CONTINUOUS
 10
97.855731
 20
126.113564
 30
0.0
  0
SEQEND
  8
0
  6
CONTINUOUS
  0
POLYLINE
  8
0
  6
CONTINUOUS
 66
     1
 10
0.0
 20
0.0
 30
0.0
  0
VERTEX
  8
0
  6
CONTINUOUS
 10
99.35667
 20
128.713267
 30
0.0
  0
VERTEX
  8
0
  6
CONTINUOUS
 10
99.356656
 20
128.70958
 30
0.0
  0
SEQEND
  8
0
  6
CONTINUOUS
  0
POLYLINE
  8
0
  6
CONTINUOUS
 66
     1
 10
0.0
 20
0.0
 30
0.0
  0
VERTEX
  8
0
  6
CONTINUOUS
 10
98.900161
 20
127.245621
 30
0.0
  0
VERTEX
  8
0
  6
CONTINUOUS
 10
99.20479
 20
127.897255
 30
0.0
  0
VERTEX
  8
0
  6
CONTINUOUS
 10
99.346277
 20
128.562455
 30
0.0
  0
VERTEX
  8
0
  6
CONTINUOUS
 10
99.35496
 20
128.664901
 30
0.0
  0
VERTEX
  8
0
  6
CONTINUOUS
 10
99.356266
 20
128.692079
 30
0.0
  0
VERTEX
  8
0
  6
CONTINUOUS
 10
99.356656
 20
128.70958
 30
0.0
  0
SEQEND
  8
0
  6
CONTINUOUS
  0
POLYLINE
  8
0
  6
CONTINUOUS
 66
     1
 10
0.0
 20
0.0
 30
0.0
  0
VERTEX
  8
0
  6
CONTINUOUS
 10
61.658286
 20
106.013451
 30
0.0
  0
VERTEX
  8
0
  6
CONTINUOUS
 10
61.75452
 20
105.967044
 30
0.0
  0
VERTEX
  8
0
  6
CONTINUOUS
 10
61.848283
 20
105.933365
 30
0.0
  0
VERTEX
  8
0
  6
CONTINUOUS
 10
62.009229
 20
105.892896
 30
0.0
  0
VERTEX
  8
0
  6
CONTINUOUS
 10
62.347015
 20
105.861096
 30
0.0
  0
VERTEX
  8
0
  6
CONTINUOUS
 10
62.814072
 20
105.94064
 30
0.0
  0
VERTEX
  8
0
  6
CONTINUOUS
 10
63.07315
 20
106.038794
 30
0.0
  0
VERTEX
  8
0
  6
CONTINUOUS
 10
63.126033
 20
106.06397
 30
0.0
  0
VERTEX
  8
0
  6
CONTINUOUS
 10
63.146995
 20
106.074823
 30
0.0
  0
VERTEX
  8
0
  6
CONTINUOUS
 10
63.162843
 20
106.083616
 30
0.0
  0
SEQEND
  8
0
  6
CONTINUOUS
  0
POLYLINE
  8
0
  6
CONTINUOUS
 66
     1
 10
0.0
 20
0.0
 30
0.0
  0
VERTEX
  8
0
  6
CONTINUOUS
 10
99.35667
 20
153.872102
 30
0.0
  0
VERTEX
  8
0
  6
CONTINUOUS
 10
99.356421
 20
153.888282
 30
0.0
  0
VERTEX
  8
0
  6
CONTINUOUS
 10
99.355613
 20
153.907767
 30
0.0
  0
VERTEX
  8
0
  6
CONTINUOUS
 10
99.35209
 20
153.95663
 30
0.0
  0
VERTEX
  8
0
  6
CONTINUOUS
 10
99.33627
 20
154.08622
 30
0.0
  0
VERTEX
  8
0
  6
CONTINUOUS
 10
99.20634
 20
154.557861
 30
0.0
  0
VERTEX
  8
0
  6
CONTINUOUS
 10
99.095825
 20
154.766823
 30
0.0
  0
VERTEX
  8
0
  6
CONTINUOUS
 10
98.949367
 20
154.961646
 30
0.0
  0
VERTEX
  8
0
  6
CONTINUOUS
 10
98.846015
 20
155.070188
 30
0.0
  0
VERTEX
  8
0
  6
CONTINUOUS
 10
98.776202
 20
155.132027
 30
0.0
  0
VERTEX
  8
0
  6
CONTINUOUS
 10
98.665157
 20
155.210168
 30
0.0
  0
SEQEND
  8
0
  6
CONTINUOUS
  0
POLYLINE
  8
0
  6
CONTINUOUS
 66
     1
 10
0.0
 20
0.0
 30
0.0
  0
VERTEX
  8
0
  6
CONTINUOUS
 10
50.770369
 20
112.082058
 30
0.0
  0
VERTEX
  8
0
  6
CONTINUOUS
 10
56.214275
 20
109.047784
 30
0.0
  0
VERTEX
  8
0
  6
CONTINUOUS
 10
61.658264
 20
106.013463
 30
0.0
  0
SEQEND
  8
0
  6
CONTINUOUS
  0
POLYLINE
  8
0
  6
CONTINUOUS
 66
     1
 10
0.0
 20
0.0
 30
0.0
  0
VERTEX
  8
0
  6
CONTINUOUS
 10
98.665134
 20
155.210181
 30
0.0
  0
VERTEX
  8
0
  6
CONTINUOUS
 10
93.315342
 20
158.407653
 30
0.0
  0
VERTEX
  8
0
  6
CONTINUOUS
 10
87.96563
 20
161.605077
 30
0.0
  0
SEQEND
  8
0
  6
CONTINUOUS
  0
POLYLINE
  8
0
  6
CONTINUOUS
 66
     1
 10
0.0
 20
0.0
 30
0.0
  0
VERTEX
  8
0
  6
CONTINUOUS
 10
99.35667
 20
153.872103
 30
0.0
  0
VERTEX
  8
0
  6
CONTINUOUS
 10
99.35667
 20
141.292685
 30
0.0
  0
VERTEX
  8
0
  6
CONTINUOUS
 10
99.35667
 20
128.713267
 30
0.0
  0
SEQEND
  8
0
  6
CONTINUOUS
  0
POLYLINE
  8
0
  6
CONTINUOUS
 66
     1
 10
0.0
 20
0.0
 30
0.0
  0
VERTEX
  8
0
  6
CONTINUOUS
 10
97.855732
 20
126.113564
 30
0.0
  0
VERTEX
  8
0
  6
CONTINUOUS
 10
63.164642
 20
106.084664
 30
0.0
  0
SEQEND
  8
0
  6
CONTINUOUS
  0
POLYLINE
  8
0
  6
CONTINUOUS
 66
     1
 10
0.0
 20
0.0
 30
0.0
  0
VERTEX
  8
0
  6
CONTINUOUS
 10
71.135969
 20
90.03997
 30
0.0
  0
VERTEX
  8
0
  6
CONTINUOUS
 10
71.096818
 20
90.084548
 30
0.0
  0
VERTEX
  8
0
  6
CONTINUOUS
 10
71.082657
 20
90.155301
 30
0.0
  0
SEQEND
  8
0
  6
CONTINUOUS
  0
POLYLINE
  8
0
  6
CONTINUOUS
 66
     1
 10
0.0
 20
0.0
 30
0.0
  0
VERTEX
  8
0
  6
CONTINUOUS
 10
71.43619
 20
90.155313
 30
0.0
  0
VERTEX
  8
0
  6
CONTINUOUS
 10
71.423005
 20
90.083571
 30
0.0
  0
VERTEX
  8
0
  6
CONTINUOUS
 10
71.384328
 20
90.039031
 30
0.0
  0
SEQEND
  8
0
  6
CONTINUOUS
  0
POLYLINE
  8
0
  6
CONTINUOUS
 66
     1
 10
0.0
 20
0.0
 30
0.0
  0
VERTEX
  8
0
  6
CONTINUOUS
 10
87.48432
 20
99.261094
 30
0.0
  0
VERTEX
  8
0
  6
CONTINUOUS
 10
87.471134
 20
99.189352
 30
0.0
  0
VERTEX
  8
0
  6
CONTINUOUS
 10
87.432458
 20
99.144812
 30
0.0
  0
SEQEND
  8
0
  6
CONTINUOUS
  0
POLYLINE
  8
0
  6
CONTINUOUS
 66
     1
 10
0.0
 20
0.0
 30
0.0
  0
VERTEX
  8
0
  6
CONTINUOUS
 10
87.559092
 20
99.364149
 30
0.0
  0
VERTEX
  8
0
  6
CONTINUOUS
 10
87.539857
 20
99.308384
 30
0.0
  0
VERTEX
  8
0
  6
CONTINUOUS
 10
87.48432
 20
99.261094
 30
0.0
  0
SEQEND
  8
0
  6
CONTINUOUS
  0
POLYLINE
  8
0
  6
CONTINUOUS
 66
     1
 10
0.0
 20
0.0
 30
0.0
  0
VERTEX
  8
0
  6
CONTINUOUS
 10
71.43619
 20
90.155313
 30
0.0
  0
VERTEX
  8
0
  6
CONTINUOUS
 10
71.258783
 20
90.113401
 30
0.0
  0
VERTEX
  8
0
  6
CONTINUOUS
 10
71.082657
 20
90.155301
 30
0.0
  0
SEQEND
  8
0
  6
CONTINUOUS
  0
POLYLINE
  8
0
  6
CONTINUOUS
 66
     1
 10
0.0
 20
0.0
 30
0.0
  0
VERTEX
  8
0
  6
CONTINUOUS
 10
92.569384
 20
141.409269
 30
0.0
  0
VERTEX
  8
0
  6
CONTINUOUS
 10
92.56938
 20
141.408769
 30
0.0
  0
SEQEND
  8
0
  6
CONTINUOUS
  0
POLYLINE
  8
0
  6
CONTINUOUS
 66
     1
 10
0.0
 20
0.0
 30
0.0
  0
VERTEX
  8
0
  6
CONTINUOUS
 10
92.447709
 20
141.198036
 30
0.0
  0
VERTEX
  8
0
  6
CONTINUOUS
 10
92.447284
 20
141.197786
 30
0.0
  0
SEQEND
  8
0
  6
CONTINUOUS
  0
POLYLINE
  8
0
  6
CONTINUOUS
 66
     1
 10
0.0
 20
0.0
 30
0.0
  0
VERTEX
  8
0
  6
CONTINUOUS
 10
90.658274
 20
140.245237
 30
0.0
  0
VERTEX
  8
0
  6
CONTINUOUS
 10
90.605747
 20
140.134574
 30
0.0
  0
SEQEND
  8
0
  6
CONTINUOUS
  0
POLYLINE
  8
0
  6
CONTINUOUS
 66
     1
 10
0.0
 20
0.0
 30
0.0
  0
VERTEX
  8
0
  6
CONTINUOUS
 10
92.49981
 20
141.308449
 30
0.0
  0
VERTEX
  8
0
  6
CONTINUOUS
 10
91.577513
 20
140.77596
 30
0.0
  0
VERTEX
  8
0
  6
CONTINUOUS
 10
90.658274
 20
140.245237
 30
0.0
  0
SEQEND
  8
0
  6
CONTINUOUS
  0
POLYLINE
  8
0
  6
CONTINUOUS
 66
     1
 10
0.0
 20
0.0
 30
0.0
  0
VERTEX
  8
0
  6
CONTINUOUS
 10
92.447284
 20
141.197786
 30
0.0
  0
VERTEX
  8
0
  6
CONTINUOUS
 10
92.49981
 20
141.308449
 30
0.0
  0
SEQEND
  8
0
  6
CONTINUOUS
  0
POLYLINE
  8
0
  6
CONTINUOUS
 66
     1
 10
0.0
 20
0.0
 30
0.0
  0
VERTEX
  8
0
  6
CONTINUOUS
 10
92.446091
 20
141.197085
 30
0.0
  0
VERTEX
  8
0
  6
CONTINUOUS
 10
92.447284
 20
141.197786
 30
0.0
  0
SEQEND
  8
0
  6
CONTINUOUS
  0
POLYLINE
  8
0
  6
CONTINUOUS
 66
     1
 10
0.0
 20
0.0
 30
0.0
  0
VERTEX
  8
0
  6
CONTINUOUS
 10
90.76563
 20
145.494014
 30
0.0
  0
VERTEX
  8
0
  6
CONTINUOUS
 10
90.658274
 20
145.147748
 30
0.0
  0
SEQEND
  8
0
  6
CONTINUOUS
  0
POLYLINE
  8
0
  6
CONTINUOUS
 66
     1
 10
0.0
 20
0.0
 30
0.0
  0
VERTEX
  8
0
  6
CONTINUOUS
 10
90.76563
 20
145.494014
 30
0.0
  0
VERTEX
  8
0
  6
CONTINUOUS
 10
90.630845
 20
145.571406
 30
0.0
  0
SEQEND
  8
0
  6
CONTINUOUS
  0
POLYLINE
  8
0
  6
CONTINUOUS
 66
     1
 10
0.0
 20
0.0
 30
0.0
  0
VERTEX
  8
0
  6
CONTINUOUS
 10
91.011827
 20
145.760121
 30
0.0
  0
VERTEX
  8
0
  6
CONTINUOUS
 10
90.76563
 20
145.494014
 30
0.0
  0
SEQEND
  8
0
  6
CONTINUOUS
  0
POLYLINE
  8
0
  6
CONTINUOUS
 66
     1
 10
0.0
 20
0.0
 30
0.0
  0
VERTEX
  8
0
  6
CONTINUOUS
 10
90.835051
 20
146.066307
 30
0.0
  0
VERTEX
  8
0
  6
CONTINUOUS
 10
91.188604
 20
146.270431
 30
0.0
  0
VERTEX
  8
0
  6
CONTINUOUS
 10
92.069402
 20
146.77896
 30
0.0
  0
SEQEND
  8
0
  6
CONTINUOUS
  0
POLYLINE
  8
0
  6
CONTINUOUS
 66
     1
 10
0.0
 20
0.0
 30
0.0
  0
VERTEX
  8
0
  6
CONTINUOUS
 10
91.011827
 20
145.760121
 30
0.0
  0
VERTEX
  8
0
  6
CONTINUOUS
 10
91.365381
 20
145.964245
 30
0.0
  0
VERTEX
  8
0
  6
CONTINUOUS
 10
92.422982
 20
146.574851
 30
0.0
  0
SEQEND
  8
0
  6
CONTINUOUS
  0
POLYLINE
  8
0
  6
CONTINUOUS
 66
     1
 10
0.0
 20
0.0
 30
0.0
  0
VERTEX
  8
0
  6
CONTINUOUS
 10
90.958149
 20
145.933254
 30
0.0
  0
VERTEX
  8
0
  6
CONTINUOUS
 10
91.011827
 20
145.760121
 30
0.0
  0
SEQEND
  8
0
  6
CONTINUOUS
  0
POLYLINE
  8
0
  6
CONTINUOUS
 66
     1
 10
0.0
 20
0.0
 30
0.0
  0
VERTEX
  8
0
  6
CONTINUOUS
 10
92.422982
 20
146.574851
 30
0.0
  0
VERTEX
  8
0
  6
CONTINUOUS
 10
92.422982
 20
149.040375
 30
0.0
  0
VERTEX
  8
0
  6
CONTINUOUS
 10
92.422982
 20
150.77595
 30
0.0
  0
SEQEND
  8
0
  6
CONTINUOUS
  0
POLYLINE
  8
0
  6
CONTINUOUS
 66
     1
 10
0.0
 20
0.0
 30
0.0
  0
VERTEX
  8
0
  6
CONTINUOUS
 10
92.422982
 20
146.574851
 30
0.0
  0
VERTEX
  8
0
  6
CONTINUOUS
 10
92.354062
 20
146.61455
 30
0.0
  0
VERTEX
  8
0
  6
CONTINUOUS
 10
92.267766
 20
146.664287
 30
0.0
  0
VERTEX
  8
0
  6
CONTINUOUS
 10
92.169525
 20
146.721007
 30
0.0
  0
VERTEX
  8
0
  6
CONTINUOUS
 10
92.072541
 20
146.777174
 30
0.0
  0
SEQEND
  8
0
  6
CONTINUOUS
  0
POLYLINE
  8
0
  6
CONTINUOUS
 66
     1
 10
0.0
 20
0.0
 30
0.0
  0
VERTEX
  8
0
  6
CONTINUOUS
 10
89.350126
 20
137.778867
 30
0.0
  0
VERTEX
  8
0
  6
CONTINUOUS
 10
89.200126
 20
137.764008
 30
0.0
  0
VERTEX
  8
0
  6
CONTINUOUS
 10
89.137994
 20
137.901341
 30
0.0
  0
SEQEND
  8
0
  6
CONTINUOUS
  0
POLYLINE
  8
0
  6
CONTINUOUS
 66
     1
 10
0.0
 20
0.0
 30
0.0
  0
VERTEX
  8
0
  6
CONTINUOUS
 10
85.885303
 20
133.955616
 30
0.0
  0
VERTEX
  8
0
  6
CONTINUOUS
 10
85.937069
 20
134.129822
 30
0.0
  0
VERTEX
  8
0
  6
CONTINUOUS
 10
86.062053
 20
134.261756
 30
0.0
  0
SEQEND
  8
0
  6
CONTINUOUS
  0
POLYLINE
  8
0
  6
CONTINUOUS
 66
     1
 10
0.0
 20
0.0
 30
0.0
  0
VERTEX
  8
0
  6
CONTINUOUS
 10
89.420783
 20
138.309558
 30
0.0
  0
VERTEX
  8
0
  6
CONTINUOUS
 10
89.670821
 20
138.334345
 30
0.0
  0
VERTEX
  8
0
  6
CONTINUOUS
 10
89.77439
 20
138.105465
 30
0.0
  0
SEQEND
  8
0
  6
CONTINUOUS
  0
POLYLINE
  8
0
  6
CONTINUOUS
 66
     1
 10
0.0
 20
0.0
 30
0.0
  0
VERTEX
  8
0
  6
CONTINUOUS
 10
89.137994
 20
137.901341
 30
0.0
  0
VERTEX
  8
0
  6
CONTINUOUS
 10
89.166415
 20
138.040224
 30
0.0
  0
VERTEX
  8
0
  6
CONTINUOUS
 10
89.24406
 20
138.174711
 30
0.0
  0
VERTEX
  8
0
  6
CONTINUOUS
 10
89.350126
 20
138.268765
 30
0.0
  0
SEQEND
  8
0
  6
CONTINUOUS
  0
POLYLINE
  8
0
  6
CONTINUOUS
 66
     1
 10
0.0
 20
0.0
 30
0.0
  0
VERTEX
  8
0
  6
CONTINUOUS
 10
88.530806
 20
147.409809
 30
0.0
  0
VERTEX
  8
0
  6
CONTINUOUS
 10
88.133262
 20
147.026602
 30
0.0
  0
VERTEX
  8
0
  6
CONTINUOUS
 10
87.923564
 20
146.534437
 30
0.0
  0
SEQEND
  8
0
  6
CONTINUOUS
  0
POLYLINE
  8
0
  6
CONTINUOUS
 66
     1
 10
0.0
 20
0.0
 30
0.0
  0
VERTEX
  8
0
  6
CONTINUOUS
 10
89.77439
 20
145.453935
 30
0.0
  0
VERTEX
  8
0
  6
CONTINUOUS
 10
89.818318
 20
145.71054
 30
0.0
  0
VERTEX
  8
0
  6
CONTINUOUS
 10
89.935331
 20
145.973169
 30
0.0
  0
VERTEX
  8
0
  6
CONTINUOUS
 10
90.104375
 20
146.206058
 30
0.0
  0
VERTEX
  8
0
  6
CONTINUOUS
 10
90.30472
 20
146.372493
 30
0.0
  0
SEQEND
  8
0
  6
CONTINUOUS
  0
POLYLINE
  8
0
  6
CONTINUOUS
 66
     1
 10
0.0
 20
0.0
 30
0.0
  0
VERTEX
  8
0
  6
CONTINUOUS
 10
90.835051
 20
146.066307
 30
0.0
  0
VERTEX
  8
0
  6
CONTINUOUS
 10
90.658274
 20
146.168369
 30
0.0
  0
VERTEX
  8
0
  6
CONTINUOUS
 10
90.30472
 20
146.372493
 30
0.0
  0
SEQEND
  8
0
  6
CONTINUOUS
  0
POLYLINE
  8
0
  6
CONTINUOUS
 66
     1
 10
0.0
 20
0.0
 30
0.0
  0
VERTEX
  8
0
  6
CONTINUOUS
 10
90.958149
 20
145.933254
 30
0.0
  0
VERTEX
  8
0
  6
CONTINUOUS
 10
90.630845
 20
145.571406
 30
0.0
  0
SEQEND
  8
0
  6
CONTINUOUS
  0
POLYLINE
  8
0
  6
CONTINUOUS
 66
     1
 10
0.0
 20
0.0
 30
0.0
  0
VERTEX
  8
0
  6
CONTINUOUS
 10
90.465755
 20
145.667147
 30
0.0
  0
VERTEX
  8
0
  6
CONTINUOUS
 10
90.835051
 20
146.066307
 30
0.0
  0
SEQEND
  8
0
  6
CONTINUOUS
  0
POLYLINE
  8
0
  6
CONTINUOUS
 66
     1
 10
0.0
 20
0.0
 30
0.0
  0
VERTEX
  8
0
  6
CONTINUOUS
 10
90.835051
 20
146.066307
 30
0.0
  0
VERTEX
  8
0
  6
CONTINUOUS
 10
90.958149
 20
145.933254
 30
0.0
  0
SEQEND
  8
0
  6
CONTINUOUS
  0
POLYLINE
  8
0
  6
CONTINUOUS
 66
     1
 10
0.0
 20
0.0
 30
0.0
  0
VERTEX
  8
0
  6
CONTINUOUS
 10
90.465755
 20
145.667147
 30
0.0
  0
VERTEX
  8
0
  6
CONTINUOUS
 10
90.630845
 20
145.571406
 30
0.0
  0
SEQEND
  8
0
  6
CONTINUOUS
  0
POLYLINE
  8
0
  6
CONTINUOUS
 66
     1
 10
0.0
 20
0.0
 30
0.0
  0
VERTEX
  8
0
  6
CONTINUOUS
 10
90.630845
 20
145.571406
 30
0.0
  0
VERTEX
  8
0
  6
CONTINUOUS
 10
90.481497
 20
145.107669
 30
0.0
  0
SEQEND
  8
0
  6
CONTINUOUS
  0
POLYLINE
  8
0
  6
CONTINUOUS
 66
     1
 10
0.0
 20
0.0
 30
0.0
  0
VERTEX
  8
0
  6
CONTINUOUS
 10
90.30472
 20
145.147748
 30
0.0
  0
VERTEX
  8
0
  6
CONTINUOUS
 10
90.465755
 20
145.667147
 30
0.0
  0
SEQEND
  8
0
  6
CONTINUOUS
  0
POLYLINE
  8
0
  6
CONTINUOUS
 66
     1
 10
0.0
 20
0.0
 30
0.0
  0
VERTEX
  8
0
  6
CONTINUOUS
 10
90.481497
 20
145.107669
 30
0.0
  0
VERTEX
  8
0
  6
CONTINUOUS
 10
90.30472
 20
145.147748
 30
0.0
  0
SEQEND
  8
0
  6
CONTINUOUS
  0
POLYLINE
  8
0
  6
CONTINUOUS
 66
     1
 10
0.0
 20
0.0
 30
0.0
  0
VERTEX
  8
0
  6
CONTINUOUS
 10
90.658274
 20
145.147748
 30
0.0
  0
VERTEX
  8
0
  6
CONTINUOUS
 10
90.481497
 20
145.107669
 30
0.0
  0
SEQEND
  8
0
  6
CONTINUOUS
  0
POLYLINE
  8
0
  6
CONTINUOUS
 66
     1
 10
0.0
 20
0.0
 30
0.0
  0
VERTEX
  8
0
  6
CONTINUOUS
 10
90.658274
 20
140.245237
 30
0.0
  0
VERTEX
  8
0
  6
CONTINUOUS
 10
90.658274
 20
142.902383
 30
0.0
  0
VERTEX
  8
0
  6
CONTINUOUS
 10
90.658274
 20
145.147748
 30
0.0
  0
SEQEND
  8
0
  6
CONTINUOUS
  0
POLYLINE
  8
0
  6
CONTINUOUS
 66
     1
 10
0.0
 20
0.0
 30
0.0
  0
VERTEX
  8
0
  6
CONTINUOUS
 10
90.481497
 20
140.205157
 30
0.0
  0
VERTEX
  8
0
  6
CONTINUOUS
 10
90.658274
 20
140.245237
 30
0.0
  0
SEQEND
  8
0
  6
CONTINUOUS
  0
POLYLINE
  8
0
  6
CONTINUOUS
 66
     1
 10
0.0
 20
0.0
 30
0.0
  0
VERTEX
  8
0
  6
CONTINUOUS
 10
90.481497
 20
140.205157
 30
0.0
  0
VERTEX
  8
0
  6
CONTINUOUS
 10
90.482778
 20
140.116434
 30
0.0
  0
SEQEND
  8
0
  6
CONTINUOUS
  0
POLYLINE
  8
0
  6
CONTINUOUS
 66
     1
 10
0.0
 20
0.0
 30
0.0
  0
VERTEX
  8
0
  6
CONTINUOUS
 10
90.30472
 20
140.245237
 30
0.0
  0
VERTEX
  8
0
  6
CONTINUOUS
 10
90.481497
 20
140.205157
 30
0.0
  0
SEQEND
  8
0
  6
CONTINUOUS
  0
POLYLINE
  8
0
  6
CONTINUOUS
 66
     1
 10
0.0
 20
0.0
 30
0.0
  0
VERTEX
  8
0
  6
CONTINUOUS
 10
90.360547
 20
140.132868
 30
0.0
  0
VERTEX
  8
0
  6
CONTINUOUS
 10
90.30472
 20
140.245237
 30
0.0
  0
SEQEND
  8
0
  6
CONTINUOUS
  0
POLYLINE
  8
0
  6
CONTINUOUS
 66
     1
 10
0.0
 20
0.0
 30
0.0
  0
VERTEX
  8
0
  6
CONTINUOUS
 10
90.30472
 20
140.245237
 30
0.0
  0
VERTEX
  8
0
  6
CONTINUOUS
 10
90.30472
 20
142.902383
 30
0.0
  0
VERTEX
  8
0
  6
CONTINUOUS
 10
90.30472
 20
145.147748
 30
0.0
  0
SEQEND
  8
0
  6
CONTINUOUS
  0
POLYLINE
  8
0
  6
CONTINUOUS
 66
     1
 10
0.0
 20
0.0
 30
0.0
  0
VERTEX
  8
0
  6
CONTINUOUS
 10
88.890507
 20
141.03323
 30
0.0
  0
VERTEX
  8
0
  6
CONTINUOUS
 10
89.682917
 20
140.591703
 30
0.0
  0
VERTEX
  8
0
  6
CONTINUOUS
 10
90.30472
 20
140.245237
 30
0.0
  0
SEQEND
  8
0
  6
CONTINUOUS
  0
POLYLINE
  8
0
  6
CONTINUOUS
 66
     1
 10
0.0
 20
0.0
 30
0.0
  0
VERTEX
  8
0
  6
CONTINUOUS
 10
90.30472
 20
145.147748
 30
0.0
  0
VERTEX
  8
0
  6
CONTINUOUS
 10
90.127944
 20
145.24981
 30
0.0
  0
VERTEX
  8
0
  6
CONTINUOUS
 10
89.77439
 20
145.453935
 30
0.0
  0
SEQEND
  8
0
  6
CONTINUOUS
  0
POLYLINE
  8
0
  6
CONTINUOUS
 66
     1
 10
0.0
 20
0.0
 30
0.0
  0
VERTEX
  8
0
  6
CONTINUOUS
 10
83.925003
 20
123.5995
 30
0.0
  0
VERTEX
  8
0
  6
CONTINUOUS
 10
83.925037
 20
123.605058
 30
0.0
  0
SEQEND
  8
0
  6
CONTINUOUS
  0
POLYLINE
  8
0
  6
CONTINUOUS
 66
     1
 10
0.0
 20
0.0
 30
0.0
  0
VERTEX
  8
0
  6
CONTINUOUS
 10
83.995503
 20
123.825065
 30
0.0
  0
VERTEX
  8
0
  6
CONTINUOUS
 10
83.96277
 20
123.844892
 30
0.0
  0
SEQEND
  8
0
  6
CONTINUOUS
  0
POLYLINE
  8
0
  6
CONTINUOUS
 66
     1
 10
0.0
 20
0.0
 30
0.0
  0
VERTEX
  8
0
  6
CONTINUOUS
 10
83.497909
 20
123.44163
 30
0.0
  0
VERTEX
  8
0
  6
CONTINUOUS
 10
83.519592
 20
123.593867
 30
0.0
  0
SEQEND
  8
0
  6
CONTINUOUS
  0
POLYLINE
  8
0
  6
CONTINUOUS
 66
     1
 10
0.0
 20
0.0
 30
0.0
  0
VERTEX
  8
0
  6
CONTINUOUS
 10
81.378924
 20
125.826481
 30
0.0
  0
VERTEX
  8
0
  6
CONTINUOUS
 10
83.145681
 20
124.806444
 30
0.0
  0
SEQEND
  8
0
  6
CONTINUOUS
  0
POLYLINE
  8
0
  6
CONTINUOUS
 66
     1
 10
0.0
 20
0.0
 30
0.0
  0
VERTEX
  8
0
  6
CONTINUOUS
 10
81.378687
 20
124.60206
 30
0.0
  0
VERTEX
  8
0
  6
CONTINUOUS
 10
81.953112
 20
124.270415
 30
0.0
  0
SEQEND
  8
0
  6
CONTINUOUS
  0
POLYLINE
  8
0
  6
CONTINUOUS
 66
     1
 10
0.0
 20
0.0
 30
0.0
  0
VERTEX
  8
0
  6
CONTINUOUS
 10
83.322094
 20
123.479652
 30
0.0
  0
VERTEX
  8
0
  6
CONTINUOUS
 10
83.322094
 20
122.867163
 30
0.0
  0
SEQEND
  8
0
  6
CONTINUOUS
  0
POLYLINE
  8
0
  6
CONTINUOUS
 66
     1
 10
0.0
 20
0.0
 30
0.0
  0
VERTEX
  8
0
  6
CONTINUOUS
 10
83.322417
 20
123.479853
 30
0.0
  0
VERTEX
  8
0
  6
CONTINUOUS
 10
83.497909
 20
123.44163
 30
0.0
  0
SEQEND
  8
0
  6
CONTINUOUS
  0
POLYLINE
  8
0
  6
CONTINUOUS
 66
     1
 10
0.0
 20
0.0
 30
0.0
  0
VERTEX
  8
0
  6
CONTINUOUS
 10
83.497909
 20
123.44163
 30
0.0
  0
VERTEX
  8
0
  6
CONTINUOUS
 10
83.672536
 20
123.481799
 30
0.0
  0
SEQEND
  8
0
  6
CONTINUOUS
  0
POLYLINE
  8
0
  6
CONTINUOUS
 66
     1
 10
0.0
 20
0.0
 30
0.0
  0
VERTEX
  8
0
  6
CONTINUOUS
 10
83.966979
 20
123.85211
 30
0.0
  0
VERTEX
  8
0
  6
CONTINUOUS
 10
83.96277
 20
123.844892
 30
0.0
  0
SEQEND
  8
0
  6
CONTINUOUS
  0
POLYLINE
  8
0
  6
CONTINUOUS
 66
     1
 10
0.0
 20
0.0
 30
0.0
  0
VERTEX
  8
0
  6
CONTINUOUS
 10
83.96277
 20
123.844892
 30
0.0
  0
VERTEX
  8
0
  6
CONTINUOUS
 10
83.85543
 20
123.498679
 30
0.0
  0
SEQEND
  8
0
  6
CONTINUOUS
  0
POLYLINE
  8
0
  6
CONTINUOUS
 66
     1
 10
0.0
 20
0.0
 30
0.0
  0
VERTEX
  8
0
  6
CONTINUOUS
 10
83.672536
 20
123.481799
 30
0.0
  0
VERTEX
  8
0
  6
CONTINUOUS
 10
83.672536
 20
123.069605
 30
0.0
  0
SEQEND
  8
0
  6
CONTINUOUS
  0
POLYLINE
  8
0
  6
CONTINUOUS
 66
     1
 10
0.0
 20
0.0
 30
0.0
  0
VERTEX
  8
0
  6
CONTINUOUS
 10
83.672536
 20
123.481799
 30
0.0
  0
VERTEX
  8
0
  6
CONTINUOUS
 10
83.722624
 20
123.710717
 30
0.0
  0
SEQEND
  8
0
  6
CONTINUOUS
  0
POLYLINE
  8
0
  6
CONTINUOUS
 66
     1
 10
0.0
 20
0.0
 30
0.0
  0
VERTEX
  8
0
  6
CONTINUOUS
 10
83.85543
 20
123.498679
 30
0.0
  0
VERTEX
  8
0
  6
CONTINUOUS
 10
83.925003
 20
123.5995
 30
0.0
  0
SEQEND
  8
0
  6
CONTINUOUS
  0
POLYLINE
  8
0
  6
CONTINUOUS
 66
     1
 10
0.0
 20
0.0
 30
0.0
  0
VERTEX
  8
0
  6
CONTINUOUS
 10
83.925003
 20
123.5995
 30
0.0
  0
VERTEX
  8
0
  6
CONTINUOUS
 10
83.925014
 20
123.600883
 30
0.0
  0
SEQEND
  8
0
  6
CONTINUOUS
  0
POLYLINE
  8
0
  6
CONTINUOUS
 66
     1
 10
0.0
 20
0.0
 30
0.0
  0
VERTEX
  8
0
  6
CONTINUOUS
 10
83.85543
 20
123.175199
 30
0.0
  0
VERTEX
  8
0
  6
CONTINUOUS
 10
83.85543
 20
123.498679
 30
0.0
  0
SEQEND
  8
0
  6
CONTINUOUS
  0
POLYLINE
  8
0
  6
CONTINUOUS
 66
     1
 10
0.0
 20
0.0
 30
0.0
  0
VERTEX
  8
0
  6
CONTINUOUS
 10
84.855477
 20
125.793595
 30
0.0
  0
VERTEX
  8
0
  6
CONTINUOUS
 10
82.144857
 20
127.46978
 30
0.0
  0
VERTEX
  8
0
  6
CONTINUOUS
 10
81.379744
 20
127.942909
 30
0.0
  0
SEQEND
  8
0
  6
CONTINUOUS
  0
POLYLINE
  8
0
  6
CONTINUOUS
 66
     1
 10
0.0
 20
0.0
 30
0.0
  0
VERTEX
  8
0
  6
CONTINUOUS
 10
84.861638
 20
125.797037
 30
0.0
  0
VERTEX
  8
0
  6
CONTINUOUS
 10
82.321607
 20
127.367734
 30
0.0
  0
VERTEX
  8
0
  6
CONTINUOUS
 10
81.379826
 20
127.95011
 30
0.0
  0
SEQEND
  8
0
  6
CONTINUOUS
  0
POLYLINE
  8
0
  6
CONTINUOUS
 66
     1
 10
0.0
 20
0.0
 30
0.0
  0
VERTEX
  8
0
  6
CONTINUOUS
 10
71.373858
 20
116.441806
 30
0.0
  0
VERTEX
  8
0
  6
CONTINUOUS
 10
71.352869
 20
116.569279
 30
0.0
  0
SEQEND
  8
0
  6
CONTINUOUS
  0
POLYLINE
  8
0
  6
CONTINUOUS
 66
     1
 10
0.0
 20
0.0
 30
0.0
  0
VERTEX
  8
0
  6
CONTINUOUS
 10
71.373858
 20
116.441806
 30
0.0
  0
VERTEX
  8
0
  6
CONTINUOUS
 10
71.304284
 20
116.340985
 30
0.0
  0
SEQEND
  8
0
  6
CONTINUOUS
  0
POLYLINE
  8
0
  6
CONTINUOUS
 66
     1
 10
0.0
 20
0.0
 30
0.0
  0
VERTEX
  8
0
  6
CONTINUOUS
 10
71.373868
 20
116.44319
 30
0.0
  0
VERTEX
  8
0
  6
CONTINUOUS
 10
71.373858
 20
116.441806
 30
0.0
  0
SEQEND
  8
0
  6
CONTINUOUS
  0
POLYLINE
  8
0
  6
CONTINUOUS
 66
     1
 10
0.0
 20
0.0
 30
0.0
  0
VERTEX
  8
0
  6
CONTINUOUS
 10
69.558272
 20
115.245601
 30
0.0
  0
VERTEX
  8
0
  6
CONTINUOUS
 10
69.850253
 20
115.088593
 30
0.0
  0
SEQEND
  8
0
  6
CONTINUOUS
  0
POLYLINE
  8
0
  6
CONTINUOUS
 66
     1
 10
0.0
 20
0.0
 30
0.0
  0
VERTEX
  8
0
  6
CONTINUOUS
 10
70.946763
 20
116.10651
 30
0.0
  0
VERTEX
  8
0
  6
CONTINUOUS
 10
70.880963
 20
116.259247
 30
0.0
  0
SEQEND
  8
0
  6
CONTINUOUS
  0
POLYLINE
  8
0
  6
CONTINUOUS
 66
     1
 10
0.0
 20
0.0
 30
0.0
  0
VERTEX
  8
0
  6
CONTINUOUS
 10
70.880963
 20
116.259247
 30
0.0
  0
VERTEX
  8
0
  6
CONTINUOUS
 10
71.01405
 20
116.368945
 30
0.0
  0
SEQEND
  8
0
  6
CONTINUOUS
  0
POLYLINE
  8
0
  6
CONTINUOUS
 66
     1
 10
0.0
 20
0.0
 30
0.0
  0
VERTEX
  8
0
  6
CONTINUOUS
 10
70.770949
 20
115.620756
 30
0.0
  0
VERTEX
  8
0
  6
CONTINUOUS
 10
70.770949
 20
116.144912
 30
0.0
  0
SEQEND
  8
0
  6
CONTINUOUS
  0
POLYLINE
  8
0
  6
CONTINUOUS
 66
     1
 10
0.0
 20
0.0
 30
0.0
  0
VERTEX
  8
0
  6
CONTINUOUS
 10
70.946763
 20
116.10651
 30
0.0
  0
VERTEX
  8
0
  6
CONTINUOUS
 10
70.770949
 20
116.144912
 30
0.0
  0
SEQEND
  8
0
  6
CONTINUOUS
  0
POLYLINE
  8
0
  6
CONTINUOUS
 66
     1
 10
0.0
 20
0.0
 30
0.0
  0
VERTEX
  8
0
  6
CONTINUOUS
 10
71.12139
 20
116.146678
 30
0.0
  0
VERTEX
  8
0
  6
CONTINUOUS
 10
70.946763
 20
116.10651
 30
0.0
  0
SEQEND
  8
0
  6
CONTINUOUS
  0
POLYLINE
  8
0
  6
CONTINUOUS
 66
     1
 10
0.0
 20
0.0
 30
0.0
  0
VERTEX
  8
0
  6
CONTINUOUS
 10
71.304284
 20
116.340985
 30
0.0
  0
VERTEX
  8
0
  6
CONTINUOUS
 10
71.253733
 20
116.512681
 30
0.0
  0
SEQEND
  8
0
  6
CONTINUOUS
  0
POLYLINE
  8
0
  6
CONTINUOUS
 66
     1
 10
0.0
 20
0.0
 30
0.0
  0
VERTEX
  8
0
  6
CONTINUOUS
 10
71.304284
 20
116.340985
 30
0.0
  0
VERTEX
  8
0
  6
CONTINUOUS
 10
71.304284
 20
115.928792
 30
0.0
  0
SEQEND
  8
0
  6
CONTINUOUS
  0
POLYLINE
  8
0
  6
CONTINUOUS
 66
     1
 10
0.0
 20
0.0
 30
0.0
  0
VERTEX
  8
0
  6
CONTINUOUS
 10
71.12139
 20
115.823198
 30
0.0
  0
VERTEX
  8
0
  6
CONTINUOUS
 10
71.12139
 20
116.146678
 30
0.0
  0
SEQEND
  8
0
  6
CONTINUOUS
  0
POLYLINE
  8
0
  6
CONTINUOUS
 66
     1
 10
0.0
 20
0.0
 30
0.0
  0
VERTEX
  8
0
  6
CONTINUOUS
 10
71.01405
 20
116.368945
 30
0.0
  0
VERTEX
  8
0
  6
CONTINUOUS
 10
71.12139
 20
116.146678
 30
0.0
  0
SEQEND
  8
0
  6
CONTINUOUS
  0
POLYLINE
  8
0
  6
CONTINUOUS
 66
     1
 10
0.0
 20
0.0
 30
0.0
  0
VERTEX
  8
0
  6
CONTINUOUS
 10
71.009894
 20
116.371273
 30
0.0
  0
VERTEX
  8
0
  6
CONTINUOUS
 10
71.01405
 20
116.368945
 30
0.0
  0
SEQEND
  8
0
  6
CONTINUOUS
  0
POLYLINE
  8
0
  6
CONTINUOUS
 66
     1
 10
0.0
 20
0.0
 30
0.0
  0
VERTEX
  8
0
  6
CONTINUOUS
 10
68.526085
 20
115.794581
 30
0.0
  0
VERTEX
  8
0
  6
CONTINUOUS
 10
65.401202
 20
117.598733
 30
0.0
  0
VERTEX
  8
0
  6
CONTINUOUS
 10
65.030866
 20
117.812547
 30
0.0
  0
SEQEND
  8
0
  6
CONTINUOUS
  0
POLYLINE
  8
0
  6
CONTINUOUS
 66
     1
 10
0.0
 20
0.0
 30
0.0
  0
VERTEX
  8
0
  6
CONTINUOUS
 10
64.862074
 20
117.66072
 30
0.0
  0
VERTEX
  8
0
  6
CONTINUOUS
 10
65.401202
 20
117.370814
 30
0.0
  0
VERTEX
  8
0
  6
CONTINUOUS
 10
68.526085
 20
115.690468
 30
0.0
  0
SEQEND
  8
0
  6
CONTINUOUS
  0
POLYLINE
  8
0
  6
CONTINUOUS
 66
     1
 10
0.0
 20
0.0
 30
0.0
  0
VERTEX
  8
0
  6
CONTINUOUS
 10
70.843688
 20
116.27519
 30
0.0
  0
VERTEX
  8
0
  6
CONTINUOUS
 10
70.880963
 20
116.259247
 30
0.0
  0
SEQEND
  8
0
  6
CONTINUOUS
  0
POLYLINE
  8
0
  6
CONTINUOUS
 66
     1
 10
0.0
 20
0.0
 30
0.0
  0
VERTEX
  8
0
  6
CONTINUOUS
 10
70.779633
 20
116.238558
 30
0.0
  0
VERTEX
  8
0
  6
CONTINUOUS
 10
70.880963
 20
116.259247
 30
0.0
  0
SEQEND
  8
0
  6
CONTINUOUS
  0
POLYLINE
  8
0
  6
CONTINUOUS
 66
     1
 10
0.0
 20
0.0
 30
0.0
  0
VERTEX
  8
0
  6
CONTINUOUS
 10
70.691778
 20
116.187485
 30
0.0
  0
VERTEX
  8
0
  6
CONTINUOUS
 10
70.770949
 20
116.144912
 30
0.0
  0
SEQEND
  8
0
  6
CONTINUOUS
  0
POLYLINE
  8
0
  6
CONTINUOUS
 66
     1
 10
0.0
 20
0.0
 30
0.0
  0
VERTEX
  8
0
  6
CONTINUOUS
 10
70.770949
 20
116.144912
 30
0.0
  0
VERTEX
  8
0
  6
CONTINUOUS
 10
70.750948
 20
116.222008
 30
0.0
  0
SEQEND
  8
0
  6
CONTINUOUS
  0
POLYLINE
  8
0
  6
CONTINUOUS
 66
     1
 10
0.0
 20
0.0
 30
0.0
  0
VERTEX
  8
0
  6
CONTINUOUS
 10
68.526164
 20
116.202722
 30
0.0
  0
VERTEX
  8
0
  6
CONTINUOUS
 10
65.577952
 20
117.904873
 30
0.0
  0
VERTEX
  8
0
  6
CONTINUOUS
 10
65.071311
 20
118.197382
 30
0.0
  0
SEQEND
  8
0
  6
CONTINUOUS
  0
POLYLINE
  8
0
  6
CONTINUOUS
 66
     1
 10
0.0
 20
0.0
 30
0.0
  0
VERTEX
  8
0
  6
CONTINUOUS
 10
70.094677
 20
117.271443
 30
0.0
  0
VERTEX
  8
0
  6
CONTINUOUS
 10
67.377998
 20
118.951375
 30
0.0
  0
VERTEX
  8
0
  6
CONTINUOUS
 10
64.965958
 20
120.442926
 30
0.0
  0
SEQEND
  8
0
  6
CONTINUOUS
  0
POLYLINE
  8
0
  6
CONTINUOUS
 66
     1
 10
0.0
 20
0.0
 30
0.0
  0
VERTEX
  8
0
  6
CONTINUOUS
 10
89.77439
 20
136.323363
 30
0.0
  0
VERTEX
  8
0
  6
CONTINUOUS
 10
89.670859
 20
135.97495
 30
0.0
  0
VERTEX
  8
0
  6
CONTINUOUS
 10
89.420891
 20
135.711084
 30
0.0
  0
SEQEND
  8
0
  6
CONTINUOUS
  0
POLYLINE
  8
0
  6
CONTINUOUS
 66
     1
 10
0.0
 20
0.0
 30
0.0
  0
VERTEX
  8
0
  6
CONTINUOUS
 10
88.199258
 20
138.443321
 30
0.0
  0
VERTEX
  8
0
  6
CONTINUOUS
 10
88.189074
 20
138.604492
 30
0.0
  0
VERTEX
  8
0
  6
CONTINUOUS
 10
88.238459
 20
138.755295
 30
0.0
  0
VERTEX
  8
0
  6
CONTINUOUS
 10
88.334181
 20
138.855321
 30
0.0
  0
SEQEND
  8
0
  6
CONTINUOUS
  0
POLYLINE
  8
0
  6
CONTINUOUS
 66
     1
 10
0.0
 20
0.0
 30
0.0
  0
VERTEX
  8
0
  6
CONTINUOUS
 10
88.316032
 20
138.27444
 30
0.0
  0
VERTEX
  8
0
  6
CONTINUOUS
 10
88.24497
 20
138.341822
 30
0.0
  0
VERTEX
  8
0
  6
CONTINUOUS
 10
88.199258
 20
138.443321
 30
0.0
  0
SEQEND
  8
0
  6
CONTINUOUS
  0
POLYLINE
  8
0
  6
CONTINUOUS
 66
     1
 10
0.0
 20
0.0
 30
0.0
  0
VERTEX
  8
0
  6
CONTINUOUS
 10
85.165854
 20
134.37099
 30
0.0
  0
VERTEX
  8
0
  6
CONTINUOUS
 10
85.217619
 20
134.545196
 30
0.0
  0
VERTEX
  8
0
  6
CONTINUOUS
 10
85.342603
 20
134.67713
 30
0.0
  0
SEQEND
  8
0
  6
CONTINUOUS
  0
POLYLINE
  8
0
  6
CONTINUOUS
 66
     1
 10
0.0
 20
0.0
 30
0.0
  0
VERTEX
  8
0
  6
CONTINUOUS
 10
73.510988
 20
136.060661
 30
0.0
  0
VERTEX
  8
0
  6
CONTINUOUS
 10
73.510988
 20
138.322091
 30
0.0
  0
VERTEX
  8
0
  6
CONTINUOUS
 10
73.510988
 20
139.85699
 30
0.0
  0
SEQEND
  8
0
  6
CONTINUOUS
  0
POLYLINE
  8
0
  6
CONTINUOUS
 66
     1
 10
0.0
 20
0.0
 30
0.0
  0
VERTEX
  8
0
  6
CONTINUOUS
 10
69.922443
 20
136.666266
 30
0.0
  0
VERTEX
  8
0
  6
CONTINUOUS
 10
69.578285
 20
136.334323
 30
0.0
  0
VERTEX
  8
0
  6
CONTINUOUS
 10
69.397341
 20
135.908149
 30
0.0
  0
SEQEND
  8
0
  6
CONTINUOUS
  0
POLYLINE
  8
0
  6
CONTINUOUS
 66
     1
 10
0.0
 20
0.0
 30
0.0
  0
VERTEX
  8
0
  6
CONTINUOUS
 10
72.096721
 20
129.528719
 30
0.0
  0
VERTEX
  8
0
  6
CONTINUOUS
 10
71.984649
 20
129.491362
 30
0.0
  0
VERTEX
  8
0
  6
CONTINUOUS
 10
71.855239
 20
129.491362
 30
0.0
  0
VERTEX
  8
0
  6
CONTINUOUS
 10
71.743167
 20
129.528719
 30
0.0
  0
SEQEND
  8
0
  6
CONTINUOUS
  0
POLYLINE
  8
0
  6
CONTINUOUS
 66
     1
 10
0.0
 20
0.0
 30
0.0
  0
VERTEX
  8
0
  6
CONTINUOUS
 10
72.096721
 20
129.528719
 30
0.0
  0
VERTEX
  8
0
  6
CONTINUOUS
 10
72.083262
 20
129.458367
 30
0.0
  0
VERTEX
  8
0
  6
CONTINUOUS
 10
72.044933
 20
129.414269
 30
0.0
  0
SEQEND
  8
0
  6
CONTINUOUS
  0
POLYLINE
  8
0
  6
CONTINUOUS
 66
     1
 10
0.0
 20
0.0
 30
0.0
  0
VERTEX
  8
0
  6
CONTINUOUS
 10
71.798272
 20
129.412388
 30
0.0
  0
VERTEX
  8
0
  6
CONTINUOUS
 10
71.758122
 20
129.457027
 30
0.0
  0
VERTEX
  8
0
  6
CONTINUOUS
 10
71.743167
 20
129.528719
 30
0.0
  0
SEQEND
  8
0
  6
CONTINUOUS
  0
POLYLINE
  8
0
  6
CONTINUOUS
 66
     1
 10
0.0
 20
0.0
 30
0.0
  0
VERTEX
  8
0
  6
CONTINUOUS
 10
73.861429
 20
135.858334
 30
0.0
  0
VERTEX
  8
0
  6
CONTINUOUS
 10
73.861429
 20
138.323857
 30
0.0
  0
VERTEX
  8
0
  6
CONTINUOUS
 10
73.861429
 20
140.059433
 30
0.0
  0
SEQEND
  8
0
  6
CONTINUOUS
  0
POLYLINE
  8
0
  6
CONTINUOUS
 66
     1
 10
0.0
 20
0.0
 30
0.0
  0
VERTEX
  8
0
  6
CONTINUOUS
 10
74.525651
 20
130.846512
 30
0.0
  0
VERTEX
  8
0
  6
CONTINUOUS
 10
74.564649
 20
130.890996
 30
0.0
  0
VERTEX
  8
0
  6
CONTINUOUS
 10
74.578343
 20
130.961485
 30
0.0
  0
SEQEND
  8
0
  6
CONTINUOUS
  0
POLYLINE
  8
0
  6
CONTINUOUS
 66
     1
 10
0.0
 20
0.0
 30
0.0
  0
VERTEX
  8
0
  6
CONTINUOUS
 10
69.644601
 20
131.132155
 30
0.0
  0
VERTEX
  8
0
  6
CONTINUOUS
 10
69.442562
 20
131.078019
 30
0.0
  0
VERTEX
  8
0
  6
CONTINUOUS
 10
69.294659
 20
131.163411
 30
0.0
  0
VERTEX
  8
0
  6
CONTINUOUS
 10
69.240523
 20
131.36545
 30
0.0
  0
SEQEND
  8
0
  6
CONTINUOUS
  0
POLYLINE
  8
0
  6
CONTINUOUS
 66
     1
 10
0.0
 20
0.0
 30
0.0
  0
VERTEX
  8
0
  6
CONTINUOUS
 10
73.507849
 20
136.062442
 30
0.0
  0
VERTEX
  8
0
  6
CONTINUOUS
 10
73.509418
 20
136.06156
 30
0.0
  0
VERTEX
  8
0
  6
CONTINUOUS
 10
73.510988
 20
136.060661
 30
0.0
  0
SEQEND
  8
0
  6
CONTINUOUS
  0
POLYLINE
  8
0
  6
CONTINUOUS
 66
     1
 10
0.0
 20
0.0
 30
0.0
  0
VERTEX
  8
0
  6
CONTINUOUS
 10
73.861429
 20
135.858334
 30
0.0
  0
VERTEX
  8
0
  6
CONTINUOUS
 10
73.794453
 20
135.900769
 30
0.0
  0
VERTEX
  8
0
  6
CONTINUOUS
 10
73.708755
 20
135.950986
 30
0.0
  0
VERTEX
  8
0
  6
CONTINUOUS
 10
73.609109
 20
136.006257
 30
0.0
  0
VERTEX
  8
0
  6
CONTINUOUS
 10
73.510988
 20
136.060661
 30
0.0
  0
SEQEND
  8
0
  6
CONTINUOUS
  0
POLYLINE
  8
0
  6
CONTINUOUS
 66
     1
 10
0.0
 20
0.0
 30
0.0
  0
VERTEX
  8
0
  6
CONTINUOUS
 10
71.212837
 20
134.737417
 30
0.0
  0
VERTEX
  8
0
  6
CONTINUOUS
 10
71.283888
 20
135.084624
 30
0.0
  0
VERTEX
  8
0
  6
CONTINUOUS
 10
71.478002
 20
135.42084
 30
0.0
  0
VERTEX
  8
0
  6
CONTINUOUS
 10
71.743167
 20
135.655976
 30
0.0
  0
SEQEND
  8
0
  6
CONTINUOUS
  0
POLYLINE
  8
0
  6
CONTINUOUS
 66
     1
 10
0.0
 20
0.0
 30
0.0
  0
VERTEX
  8
0
  6
CONTINUOUS
 10
71.743167
 20
134.431231
 30
0.0
  0
VERTEX
  8
0
  6
CONTINUOUS
 10
71.814218
 20
134.778438
 30
0.0
  0
VERTEX
  8
0
  6
CONTINUOUS
 10
72.008332
 20
135.114654
 30
0.0
  0
VERTEX
  8
0
  6
CONTINUOUS
 10
72.273498
 20
135.349789
 30
0.0
  0
SEQEND
  8
0
  6
CONTINUOUS
  0
POLYLINE
  8
0
  6
CONTINUOUS
 66
     1
 10
0.0
 20
0.0
 30
0.0
  0
VERTEX
  8
0
  6
CONTINUOUS
 10
72.273498
 20
135.349789
 30
0.0
  0
VERTEX
  8
0
  6
CONTINUOUS
 10
72.361886
 20
135.271411
 30
0.0
  0
VERTEX
  8
0
  6
CONTINUOUS
 10
72.426591
 20
135.159339
 30
0.0
  0
VERTEX
  8
0
  6
CONTINUOUS
 10
72.450274
 20
135.043603
 30
0.0
  0
SEQEND
  8
0
  6
CONTINUOUS
  0
POLYLINE
  8
0
  6
CONTINUOUS
 66
     1
 10
0.0
 20
0.0
 30
0.0
  0
VERTEX
  8
0
  6
CONTINUOUS
 10
72.096721
 20
134.431231
 30
0.0
  0
VERTEX
  8
0
  6
CONTINUOUS
 10
72.200274
 20
134.779692
 30
0.0
  0
VERTEX
  8
0
  6
CONTINUOUS
 10
72.450274
 20
135.043603
 30
0.0
  0
SEQEND
  8
0
  6
CONTINUOUS
  0
POLYLINE
  8
0
  6
CONTINUOUS
 66
     1
 10
0.0
 20
0.0
 30
0.0
  0
VERTEX
  8
0
  6
CONTINUOUS
 10
72.096721
 20
134.431231
 30
0.0
  0
VERTEX
  8
0
  6
CONTINUOUS
 10
71.984649
 20
134.393873
 30
0.0
  0
VERTEX
  8
0
  6
CONTINUOUS
 10
71.855239
 20
134.393873
 30
0.0
  0
VERTEX
  8
0
  6
CONTINUOUS
 10
71.743167
 20
134.431231
 30
0.0
  0
SEQEND
  8
0
  6
CONTINUOUS
  0
POLYLINE
  8
0
  6
CONTINUOUS
 66
     1
 10
0.0
 20
0.0
 30
0.0
  0
VERTEX
  8
0
  6
CONTINUOUS
 10
70.788573
 20
127.062349
 30
0.0
  0
VERTEX
  8
0
  6
CONTINUOUS
 10
70.682507
 20
127.033929
 30
0.0
  0
VERTEX
  8
0
  6
CONTINUOUS
 10
70.604862
 20
127.078758
 30
0.0
  0
VERTEX
  8
0
  6
CONTINUOUS
 10
70.576441
 20
127.184824
 30
0.0
  0
SEQEND
  8
0
  6
CONTINUOUS
  0
POLYLINE
  8
0
  6
CONTINUOUS
 66
     1
 10
0.0
 20
0.0
 30
0.0
  0
VERTEX
  8
0
  6
CONTINUOUS
 10
70.576441
 20
127.184824
 30
0.0
  0
VERTEX
  8
0
  6
CONTINUOUS
 10
70.604862
 20
127.323707
 30
0.0
  0
VERTEX
  8
0
  6
CONTINUOUS
 10
70.682507
 20
127.458193
 30
0.0
  0
VERTEX
  8
0
  6
CONTINUOUS
 10
70.788573
 20
127.552247
 30
0.0
  0
SEQEND
  8
0
  6
CONTINUOUS
  0
POLYLINE
  8
0
  6
CONTINUOUS
 66
     1
 10
0.0
 20
0.0
 30
0.0
  0
VERTEX
  8
0
  6
CONTINUOUS
 10
67.5005
 20
123.05534
 30
0.0
  0
VERTEX
  8
0
  6
CONTINUOUS
 10
67.375516
 20
123.042954
 30
0.0
  0
VERTEX
  8
0
  6
CONTINUOUS
 10
67.32375
 20
123.157386
 30
0.0
  0
SEQEND
  8
0
  6
CONTINUOUS
  0
POLYLINE
  8
0
  6
CONTINUOUS
 66
     1
 10
0.0
 20
0.0
 30
0.0
  0
VERTEX
  8
0
  6
CONTINUOUS
 10
71.212837
 20
125.606845
 30
0.0
  0
VERTEX
  8
0
  6
CONTINUOUS
 10
71.109306
 20
125.258433
 30
0.0
  0
VERTEX
  8
0
  6
CONTINUOUS
 10
70.859338
 20
124.994566
 30
0.0
  0
SEQEND
  8
0
  6
CONTINUOUS
  0
POLYLINE
  8
0
  6
CONTINUOUS
 66
     1
 10
0.0
 20
0.0
 30
0.0
  0
VERTEX
  8
0
  6
CONTINUOUS
 10
70.85923
 20
127.593041
 30
0.0
  0
VERTEX
  8
0
  6
CONTINUOUS
 10
71.109268
 20
127.617827
 30
0.0
  0
VERTEX
  8
0
  6
CONTINUOUS
 10
71.212837
 20
127.388948
 30
0.0
  0
SEQEND
  8
0
  6
CONTINUOUS
  0
POLYLINE
  8
0
  6
CONTINUOUS
 66
     1
 10
0.0
 20
0.0
 30
0.0
  0
VERTEX
  8
0
  6
CONTINUOUS
 10
70.164466
 20
128.008415
 30
0.0
  0
VERTEX
  8
0
  6
CONTINUOUS
 10
70.30125
 20
128.055607
 30
0.0
  0
VERTEX
  8
0
  6
CONTINUOUS
 10
70.416737
 20
128.031889
 30
0.0
  0
SEQEND
  8
0
  6
CONTINUOUS
  0
POLYLINE
  8
0
  6
CONTINUOUS
 66
     1
 10
0.0
 20
0.0
 30
0.0
  0
VERTEX
  8
0
  6
CONTINUOUS
 10
70.381857
 20
130.201607
 30
0.0
  0
VERTEX
  8
0
  6
CONTINUOUS
 10
70.342715
 20
130.245685
 30
0.0
  0
VERTEX
  8
0
  6
CONTINUOUS
 10
70.328954
 20
130.316712
 30
0.0
  0
SEQEND
  8
0
  6
CONTINUOUS
  0
POLYLINE
  8
0
  6
CONTINUOUS
 66
     1
 10
0.0
 20
0.0
 30
0.0
  0
VERTEX
  8
0
  6
CONTINUOUS
 10
66.658287
 20
123.428587
 30
0.0
  0
VERTEX
  8
0
  6
CONTINUOUS
 10
66.618356
 20
123.472606
 30
0.0
  0
VERTEX
  8
0
  6
CONTINUOUS
 10
66.604301
 20
123.544257
 30
0.0
  0
SEQEND
  8
0
  6
CONTINUOUS
  0
POLYLINE
  8
0
  6
CONTINUOUS
 66
     1
 10
0.0
 20
0.0
 30
0.0
  0
VERTEX
  8
0
  6
CONTINUOUS
 10
87.384592
 20
133.116512
 30
0.0
  0
VERTEX
  8
0
  6
CONTINUOUS
 10
87.317818
 20
133.061044
 30
0.0
  0
VERTEX
  8
0
  6
CONTINUOUS
 10
87.261477
 20
132.983427
 30
0.0
  0
VERTEX
  8
0
  6
CONTINUOUS
 10
87.22248
 20
132.895895
 30
0.0
  0
VERTEX
  8
0
  6
CONTINUOUS
 10
87.207842
 20
132.810372
 30
0.0
  0
SEQEND
  8
0
  6
CONTINUOUS
  0
POLYLINE
  8
0
  6
CONTINUOUS
 66
     1
 10
0.0
 20
0.0
 30
0.0
  0
VERTEX
  8
0
  6
CONTINUOUS
 10
87.207842
 20
132.810372
 30
0.0
  0
VERTEX
  8
0
  6
CONTINUOUS
 10
90.891883
 20
130.68339
 30
0.0
  0
VERTEX
  8
0
  6
CONTINUOUS
 10
91.847204
 20
130.131835
 30
0.0
  0
SEQEND
  8
0
  6
CONTINUOUS
  0
POLYLINE
  8
0
  6
CONTINUOUS
 66
     1
 10
0.0
 20
0.0
 30
0.0
  0
VERTEX
  8
0
  6
CONTINUOUS
 10
91.4743
 20
133.294244
 30
0.0
  0
VERTEX
  8
0
  6
CONTINUOUS
 10
92.692573
 20
132.540892
 30
0.0
  0
SEQEND
  8
0
  6
CONTINUOUS
  0
POLYLINE
  8
0
  6
CONTINUOUS
 66
     1
 10
0.0
 20
0.0
 30
0.0
  0
VERTEX
  8
0
  6
CONTINUOUS
 10
92.695919
 20
132.336206
 30
0.0
  0
VERTEX
  8
0
  6
CONTINUOUS
 10
91.255424
 20
133.167876
 30
0.0
  0
SEQEND
  8
0
  6
CONTINUOUS
  0
POLYLINE
  8
0
  6
CONTINUOUS
 66
     1
 10
0.0
 20
0.0
 30
0.0
  0
VERTEX
  8
0
  6
CONTINUOUS
 10
92.656468
 20
131.950797
 30
0.0
  0
VERTEX
  8
0
  6
CONTINUOUS
 10
91.078675
 20
132.861736
 30
0.0
  0
SEQEND
  8
0
  6
CONTINUOUS
  0
POLYLINE
  8
0
  6
CONTINUOUS
 66
     1
 10
0.0
 20
0.0
 30
0.0
  0
VERTEX
  8
0
  6
CONTINUOUS
 10
87.384716
 20
133.116583
 30
0.0
  0
VERTEX
  8
0
  6
CONTINUOUS
 10
87.625001
 20
133.316161
 30
0.0
  0
VERTEX
  8
0
  6
CONTINUOUS
 10
87.827702
 20
133.595298
 30
0.0
  0
VERTEX
  8
0
  6
CONTINUOUS
 10
87.968274
 20
133.910664
 30
0.0
  0
VERTEX
  8
0
  6
CONTINUOUS
 10
88.021015
 20
134.218686
 30
0.0
  0
SEQEND
  8
0
  6
CONTINUOUS
  0
POLYLINE
  8
0
  6
CONTINUOUS
 66
     1
 10
0.0
 20
0.0
 30
0.0
  0
VERTEX
  8
0
  6
CONTINUOUS
 10
92.579739
 20
131.586705
 30
0.0
  0
VERTEX
  8
0
  6
CONTINUOUS
 10
91.719486
 20
132.083372
 30
0.0
  0
VERTEX
  8
0
  6
CONTINUOUS
 10
88.021015
 20
134.218686
 30
0.0
  0
SEQEND
  8
0
  6
CONTINUOUS
  0
POLYLINE
  8
0
  6
CONTINUOUS
 66
     1
 10
0.0
 20
0.0
 30
0.0
  0
VERTEX
  8
0
  6
CONTINUOUS
 10
87.384592
 20
133.116512
 30
0.0
  0
VERTEX
  8
0
  6
CONTINUOUS
 10
91.068633
 20
130.98953
 30
0.0
  0
VERTEX
  8
0
  6
CONTINUOUS
 10
92.05317
 20
130.421107
 30
0.0
  0
SEQEND
  8
0
  6
CONTINUOUS
  0
POLYLINE
  8
0
  6
CONTINUOUS
 66
     1
 10
0.0
 20
0.0
 30
0.0
  0
VERTEX
  8
0
  6
CONTINUOUS
 10
92.053238
 20
130.421211
 30
0.0
  0
VERTEX
  8
0
  6
CONTINUOUS
 10
91.083187
 20
130.98127
 30
0.0
  0
VERTEX
  8
0
  6
CONTINUOUS
 10
87.384716
 20
133.116583
 30
0.0
  0
SEQEND
  8
0
  6
CONTINUOUS
  0
POLYLINE
  8
0
  6
CONTINUOUS
 66
     1
 10
0.0
 20
0.0
 30
0.0
  0
VERTEX
  8
0
  6
CONTINUOUS
 10
87.263915
 20
132.324013
 30
0.0
  0
VERTEX
  8
0
  6
CONTINUOUS
 10
87.26154
 20
132.325336
 30
0.0
  0
VERTEX
  8
0
  6
CONTINUOUS
 10
87.222492
 20
132.36785
 30
0.0
  0
VERTEX
  8
0
  6
CONTINUOUS
 10
87.207842
 20
132.436494
 30
0.0
  0
SEQEND
  8
0
  6
CONTINUOUS
  0
POLYLINE
  8
0
  6
CONTINUOUS
 66
     1
 10
0.0
 20
0.0
 30
0.0
  0
VERTEX
  8
0
  6
CONTINUOUS
 10
91.739355
 20
129.999759
 30
0.0
  0
VERTEX
  8
0
  6
CONTINUOUS
 10
90.891883
 20
130.455471
 30
0.0
  0
VERTEX
  8
0
  6
CONTINUOUS
 10
87.207842
 20
132.436494
 30
0.0
  0
SEQEND
  8
0
  6
CONTINUOUS
  0
POLYLINE
  8
0
  6
CONTINUOUS
 66
     1
 10
0.0
 20
0.0
 30
0.0
  0
VERTEX
  8
0
  6
CONTINUOUS
 10
92.072541
 20
146.777174
 30
0.0
  0
VERTEX
  8
0
  6
CONTINUOUS
 10
92.072541
 20
149.038609
 30
0.0
  0
VERTEX
  8
0
  6
CONTINUOUS
 10
92.072541
 20
150.573508
 30
0.0
  0
SEQEND
  8
0
  6
CONTINUOUS
  0
POLYLINE
  8
0
  6
CONTINUOUS
 66
     1
 10
0.0
 20
0.0
 30
0.0
  0
VERTEX
  8
0
  6
CONTINUOUS
 10
92.069402
 20
146.77896
 30
0.0
  0
VERTEX
  8
0
  6
CONTINUOUS
 10
92.070186
 20
146.77852
 30
0.0
  0
VERTEX
  8
0
  6
CONTINUOUS
 10
92.070971
 20
146.778076
 30
0.0
  0
VERTEX
  8
0
  6
CONTINUOUS
 10
92.071756
 20
146.777627
 30
0.0
  0
VERTEX
  8
0
  6
CONTINUOUS
 10
92.072541
 20
146.777174
 30
0.0
  0
SEQEND
  8
0
  6
CONTINUOUS
  0
POLYLINE
  8
0
  6
CONTINUOUS
 66
     1
 10
0.0
 20
0.0
 30
0.0
  0
VERTEX
  8
0
  6
CONTINUOUS
 10
77.099555
 20
141.259169
 30
0.0
  0
VERTEX
  8
0
  6
CONTINUOUS
 10
77.099555
 20
141.931942
 30
0.0
  0
SEQEND
  8
0
  6
CONTINUOUS
  0
POLYLINE
  8
0
  6
CONTINUOUS
 66
     1
 10
0.0
 20
0.0
 30
0.0
  0
VERTEX
  8
0
  6
CONTINUOUS
 10
77.449996
 20
141.481443
 30
0.0
  0
VERTEX
  8
0
  6
CONTINUOUS
 10
77.449996
 20
142.134315
 30
0.0
  0
SEQEND
  8
0
  6
CONTINUOUS
  0
POLYLINE
  8
0
  6
CONTINUOUS
 66
     1
 10
0.0
 20
0.0
 30
0.0
  0
VERTEX
  8
0
  6
CONTINUOUS
 10
77.526824
 20
130.18626
 30
0.0
  0
VERTEX
  8
0
  6
CONTINUOUS
 10
77.526824
 20
131.150706
 30
0.0
  0
SEQEND
  8
0
  6
CONTINUOUS
  0
POLYLINE
  8
0
  6
CONTINUOUS
 66
     1
 10
0.0
 20
0.0
 30
0.0
  0
VERTEX
  8
0
  6
CONTINUOUS
 10
77.526824
 20
141.5258
 30
0.0
  0
VERTEX
  8
0
  6
CONTINUOUS
 10
77.526824
 20
142.178672
 30
0.0
  0
SEQEND
  8
0
  6
CONTINUOUS
  0
POLYLINE
  8
0
  6
CONTINUOUS
 66
     1
 10
0.0
 20
0.0
 30
0.0
  0
VERTEX
  8
0
  6
CONTINUOUS
 10
91.599753
 20
133.301921
 30
0.0
  0
VERTEX
  8
0
  6
CONTINUOUS
 10
91.597352
 20
133.303356
 30
0.0
  0
VERTEX
  8
0
  6
CONTINUOUS
 10
91.541046
 20
133.315877
 30
0.0
  0
VERTEX
  8
0
  6
CONTINUOUS
 10
91.4743
 20
133.294244
 30
0.0
  0
SEQEND
  8
0
  6
CONTINUOUS
  0
POLYLINE
  8
0
  6
CONTINUOUS
 66
     1
 10
0.0
 20
0.0
 30
0.0
  0
VERTEX
  8
0
  6
CONTINUOUS
 10
91.255424
 20
133.167876
 30
0.0
  0
VERTEX
  8
0
  6
CONTINUOUS
 10
91.188651
 20
133.112408
 30
0.0
  0
VERTEX
  8
0
  6
CONTINUOUS
 10
91.132309
 20
133.034791
 30
0.0
  0
VERTEX
  8
0
  6
CONTINUOUS
 10
91.093312
 20
132.947259
 30
0.0
  0
VERTEX
  8
0
  6
CONTINUOUS
 10
91.078675
 20
132.861736
 30
0.0
  0
SEQEND
  8
0
  6
CONTINUOUS
  0
POLYLINE
  8
0
  6
CONTINUOUS
 66
     1
 10
0.0
 20
0.0
 30
0.0
  0
VERTEX
  8
0
  6
CONTINUOUS
 10
90.901925
 20
137.368403
 30
0.0
  0
VERTEX
  8
0
  6
CONTINUOUS
 10
91.026909
 20
137.380789
 30
0.0
  0
VERTEX
  8
0
  6
CONTINUOUS
 10
91.078675
 20
137.266357
 30
0.0
  0
SEQEND
  8
0
  6
CONTINUOUS
  0
POLYLINE
  8
0
  6
CONTINUOUS
 66
     1
 10
0.0
 20
0.0
 30
0.0
  0
VERTEX
  8
0
  6
CONTINUOUS
 10
88.726019
 20
138.724933
 30
0.0
  0
VERTEX
  8
0
  6
CONTINUOUS
 10
88.862803
 20
138.772124
 30
0.0
  0
VERTEX
  8
0
  6
CONTINUOUS
 10
88.97829
 20
138.748407
 30
0.0
  0
SEQEND
  8
0
  6
CONTINUOUS
  0
POLYLINE
  8
0
  6
CONTINUOUS
 66
     1
 10
0.0
 20
0.0
 30
0.0
  0
VERTEX
  8
0
  6
CONTINUOUS
 10
88.945406
 20
140.921365
 30
0.0
  0
VERTEX
  8
0
  6
CONTINUOUS
 10
88.944212
 20
140.922042
 30
0.0
  0
VERTEX
  8
0
  6
CONTINUOUS
 10
88.90516
 20
140.96457
 30
0.0
  0
VERTEX
  8
0
  6
CONTINUOUS
 10
88.890507
 20
141.03323
 30
0.0
  0
SEQEND
  8
0
  6
CONTINUOUS
  0
POLYLINE
  8
0
  6
CONTINUOUS
 66
     1
 10
0.0
 20
0.0
 30
0.0
  0
VERTEX
  8
0
  6
CONTINUOUS
 10
73.015655
 20
127.100998
 30
0.0
  0
VERTEX
  8
0
  6
CONTINUOUS
 10
73.01328
 20
127.102322
 30
0.0
  0
VERTEX
  8
0
  6
CONTINUOUS
 10
72.974232
 20
127.144835
 30
0.0
  0
VERTEX
  8
0
  6
CONTINUOUS
 10
72.959582
 20
127.21348
 30
0.0
  0
SEQEND
  8
0
  6
CONTINUOUS
  0
POLYLINE
  8
0
  6
CONTINUOUS
 66
     1
 10
0.0
 20
0.0
 30
0.0
  0
VERTEX
  8
0
  6
CONTINUOUS
 10
74.13106
 20
126.58354
 30
0.0
  0
VERTEX
  8
0
  6
CONTINUOUS
 10
72.959582
 20
127.21348
 30
0.0
  0
SEQEND
  8
0
  6
CONTINUOUS
  0
POLYLINE
  8
0
  6
CONTINUOUS
 66
     1
 10
0.0
 20
0.0
 30
0.0
  0
VERTEX
  8
0
  6
CONTINUOUS
 10
67.32375
 20
123.239098
 30
0.0
  0
VERTEX
  8
0
  6
CONTINUOUS
 10
67.375516
 20
123.413305
 30
0.0
  0
VERTEX
  8
0
  6
CONTINUOUS
 10
67.5005
 20
123.545238
 30
0.0
  0
SEQEND
  8
0
  6
CONTINUOUS
  0
POLYLINE
  8
0
  6
CONTINUOUS
 66
     1
 10
0.0
 20
0.0
 30
0.0
  0
VERTEX
  8
0
  6
CONTINUOUS
 10
66.604301
 20
123.654473
 30
0.0
  0
VERTEX
  8
0
  6
CONTINUOUS
 10
66.656066
 20
123.828679
 30
0.0
  0
VERTEX
  8
0
  6
CONTINUOUS
 10
66.78105
 20
123.960612
 30
0.0
  0
SEQEND
  8
0
  6
CONTINUOUS
  0
POLYLINE
  8
0
  6
CONTINUOUS
 66
     1
 10
0.0
 20
0.0
 30
0.0
  0
VERTEX
  8
0
  6
CONTINUOUS
 10
86.062053
 20
133.771858
 30
0.0
  0
VERTEX
  8
0
  6
CONTINUOUS
 10
85.937069
 20
133.759472
 30
0.0
  0
VERTEX
  8
0
  6
CONTINUOUS
 10
85.885303
 20
133.873904
 30
0.0
  0
SEQEND
  8
0
  6
CONTINUOUS
  0
POLYLINE
  8
0
  6
CONTINUOUS
 66
     1
 10
0.0
 20
0.0
 30
0.0
  0
VERTEX
  8
0
  6
CONTINUOUS
 10
85.21984
 20
134.145105
 30
0.0
  0
VERTEX
  8
0
  6
CONTINUOUS
 10
85.179909
 20
134.189124
 30
0.0
  0
VERTEX
  8
0
  6
CONTINUOUS
 10
85.165854
 20
134.260774
 30
0.0
  0
SEQEND
  8
0
  6
CONTINUOUS
  0
POLYLINE
  8
0
  6
CONTINUOUS
 66
     1
 10
0.0
 20
0.0
 30
0.0
  0
VERTEX
  8
0
  6
CONTINUOUS
 10
87.915709
 20
141.680985
 30
0.0
  0
VERTEX
  8
0
  6
CONTINUOUS
 10
87.815704
 20
141.671048
 30
0.0
  0
VERTEX
  8
0
  6
CONTINUOUS
 10
87.774288
 20
141.76256
 30
0.0
  0
SEQEND
  8
0
  6
CONTINUOUS
  0
POLYLINE
  8
0
  6
CONTINUOUS
 66
     1
 10
0.0
 20
0.0
 30
0.0
  0
VERTEX
  8
0
  6
CONTINUOUS
 10
90.482778
 20
140.116434
 30
0.0
  0
VERTEX
  8
0
  6
CONTINUOUS
 10
90.360547
 20
140.132868
 30
0.0
  0
SEQEND
  8
0
  6
CONTINUOUS
  0
POLYLINE
  8
0
  6
CONTINUOUS
 66
     1
 10
0.0
 20
0.0
 30
0.0
  0
VERTEX
  8
0
  6
CONTINUOUS
 10
90.605747
 20
140.134574
 30
0.0
  0
VERTEX
  8
0
  6
CONTINUOUS
 10
90.482778
 20
140.116434
 30
0.0
  0
SEQEND
  8
0
  6
CONTINUOUS
  0
POLYLINE
  8
0
  6
CONTINUOUS
 66
     1
 10
0.0
 20
0.0
 30
0.0
  0
VERTEX
  8
0
  6
CONTINUOUS
 10
90.605747
 20
140.134574
 30
0.0
  0
VERTEX
  8
0
  6
CONTINUOUS
 10
90.604555
 20
140.133873
 30
0.0
  0
SEQEND
  8
0
  6
CONTINUOUS
  0
POLYLINE
  8
0
  6
CONTINUOUS
 66
     1
 10
0.0
 20
0.0
 30
0.0
  0
VERTEX
  8
0
  6
CONTINUOUS
 10
90.361796
 20
140.13216
 30
0.0
  0
VERTEX
  8
0
  6
CONTINUOUS
 10
90.360547
 20
140.132868
 30
0.0
  0
SEQEND
  8
0
  6
CONTINUOUS
  0
POLYLINE
  8
0
  6
CONTINUOUS
 66
     1
 10
0.0
 20
0.0
 30
0.0
  0
VERTEX
  8
0
  6
CONTINUOUS
 10
92.49981
 20
150.820307
 30
0.0
  0
VERTEX
  8
0
  6
CONTINUOUS
 10
92.49981
 20
146.471942
 30
0.0
  0
VERTEX
  8
0
  6
CONTINUOUS
 10
92.49981
 20
141.308449
 30
0.0
  0
SEQEND
  8
0
  6
CONTINUOUS
  0
POLYLINE
  8
0
  6
CONTINUOUS
 66
     1
 10
0.0
 20
0.0
 30
0.0
  0
VERTEX
  8
0
  6
CONTINUOUS
 10
92.569394
 20
151.247817
 30
0.0
  0
VERTEX
  8
0
  6
CONTINUOUS
 10
92.569384
 20
151.246434
 30
0.0
  0
SEQEND
  8
0
  6
CONTINUOUS
  0
POLYLINE
  8
0
  6
CONTINUOUS
 66
     1
 10
0.0
 20
0.0
 30
0.0
  0
VERTEX
  8
0
  6
CONTINUOUS
 10
92.569384
 20
141.409269
 30
0.0
  0
VERTEX
  8
0
  6
CONTINUOUS
 10
92.569394
 20
141.410653
 30
0.0
  0
SEQEND
  8
0
  6
CONTINUOUS
  0
POLYLINE
  8
0
  6
CONTINUOUS
 66
     1
 10
0.0
 20
0.0
 30
0.0
  0
VERTEX
  8
0
  6
CONTINUOUS
 10
92.49981
 20
141.308449
 30
0.0
  0
VERTEX
  8
0
  6
CONTINUOUS
 10
92.569384
 20
141.409269
 30
0.0
  0
SEQEND
  8
0
  6
CONTINUOUS
  0
POLYLINE
  8
0
  6
CONTINUOUS
 66
     1
 10
0.0
 20
0.0
 30
0.0
  0
VERTEX
  8
0
  6
CONTINUOUS
 10
69.637705
 20
127.726803
 30
0.0
  0
VERTEX
  8
0
  6
CONTINUOUS
 10
69.627521
 20
127.887975
 30
0.0
  0
VERTEX
  8
0
  6
CONTINUOUS
 10
69.676906
 20
128.038777
 30
0.0
  0
VERTEX
  8
0
  6
CONTINUOUS
 10
69.772628
 20
128.138804
 30
0.0
  0
SEQEND
  8
0
  6
CONTINUOUS
  0
POLYLINE
  8
0
  6
CONTINUOUS
 66
     1
 10
0.0
 20
0.0
 30
0.0
  0
VERTEX
  8
0
  6
CONTINUOUS
 10
69.754479
 20
127.557922
 30
0.0
  0
VERTEX
  8
0
  6
CONTINUOUS
 10
69.683417
 20
127.625304
 30
0.0
  0
VERTEX
  8
0
  6
CONTINUOUS
 10
69.637705
 20
127.726803
 30
0.0
  0
SEQEND
  8
0
  6
CONTINUOUS
  0
POLYLINE
  8
0
  6
CONTINUOUS
 66
     1
 10
0.0
 20
0.0
 30
0.0
  0
VERTEX
  8
0
  6
CONTINUOUS
 10
97.857532
 20
126.114613
 30
0.0
  0
VERTEX
  8
0
  6
CONTINUOUS
 10
97.858913
 20
126.115418
 30
0.0
  0
SEQEND
  8
0
  6
CONTINUOUS
  0
POLYLINE
  8
0
  6
CONTINUOUS
 66
     1
 10
0.0
 20
0.0
 30
0.0
  0
VERTEX
  8
0
  6
CONTINUOUS
 10
99.356663
 20
128.711183
 30
0.0
  0
VERTEX
  8
0
  6
CONTINUOUS
 10
99.356656
 20
128.70958
 30
0.0
  0
SEQEND
  8
0
  6
CONTINUOUS
  0
POLYLINE
  8
0
  6
CONTINUOUS
 66
     1
 10
0.0
 20
0.0
 30
0.0
  0
VERTEX
  8
0
  6
CONTINUOUS
 10
98.900161
 20
127.245622
 30
0.0
  0
VERTEX
  8
0
  6
CONTINUOUS
 10
98.804635
 20
127.29885
 30
0.0
  0
SEQEND
  8
0
  6
CONTINUOUS
  0
POLYLINE
  8
0
  6
CONTINUOUS
 66
     1
 10
0.0
 20
0.0
 30
0.0
  0
VERTEX
  8
0
  6
CONTINUOUS
 10
62.138838
 20
106.029301
 30
0.0
  0
VERTEX
  8
0
  6
CONTINUOUS
 10
61.778722
 20
106.420536
 30
0.0
  0
VERTEX
  8
0
  6
CONTINUOUS
 10
61.665512
 20
106.950187
 30
0.0
  0
SEQEND
  8
0
  6
CONTINUOUS
  0
POLYLINE
  8
0
  6
CONTINUOUS
 66
     1
 10
0.0
 20
0.0
 30
0.0
  0
VERTEX
  8
0
  6
CONTINUOUS
 10
61.646897
 20
106.019912
 30
0.0
  0
VERTEX
  8
0
  6
CONTINUOUS
 10
62.138838
 20
106.029301
 30
0.0
  0
SEQEND
  8
0
  6
CONTINUOUS
  0
POLYLINE
  8
0
  6
CONTINUOUS
 66
     1
 10
0.0
 20
0.0
 30
0.0
  0
VERTEX
  8
0
  6
CONTINUOUS
 10
62.138838
 20
106.029301
 30
0.0
  0
VERTEX
  8
0
  6
CONTINUOUS
 10
62.650879
 20
105.918505
 30
0.0
  0
VERTEX
  8
0
  6
CONTINUOUS
 10
63.164642
 20
106.084664
 30
0.0
  0
SEQEND
  8
0
  6
CONTINUOUS
  0
POLYLINE
  8
0
  6
CONTINUOUS
 66
     1
 10
0.0
 20
0.0
 30
0.0
  0
VERTEX
  8
0
  6
CONTINUOUS
 10
62.138838
 20
106.029301
 30
0.0
  0
VERTEX
  8
0
  6
CONTINUOUS
 10
62.536146
 20
106.359228
 30
0.0
  0
SEQEND
  8
0
  6
CONTINUOUS
  0
POLYLINE
  8
0
  6
CONTINUOUS
 66
     1
 10
0.0
 20
0.0
 30
0.0
  0
VERTEX
  8
0
  6
CONTINUOUS
 10
98.804635
 20
154.277031
 30
0.0
  0
VERTEX
  8
0
  6
CONTINUOUS
 10
98.890223
 20
154.786929
 30
0.0
  0
SEQEND
  8
0
  6
CONTINUOUS
  0
POLYLINE
  8
0
  6
CONTINUOUS
 66
     1
 10
0.0
 20
0.0
 30
0.0
  0
VERTEX
  8
0
  6
CONTINUOUS
 10
99.356663
 20
153.870019
 30
0.0
  0
VERTEX
  8
0
  6
CONTINUOUS
 10
99.243088
 20
154.39988
 30
0.0
  0
VERTEX
  8
0
  6
CONTINUOUS
 10
98.890223
 20
154.786929
 30
0.0
  0
SEQEND
  8
0
  6
CONTINUOUS
  0
POLYLINE
  8
0
  6
CONTINUOUS
 66
     1
 10
0.0
 20
0.0
 30
0.0
  0
VERTEX
  8
0
  6
CONTINUOUS
 10
98.653867
 20
155.216801
 30
0.0
  0
VERTEX
  8
0
  6
CONTINUOUS
 10
98.890223
 20
154.786929
 30
0.0
  0
SEQEND
  8
0
  6
CONTINUOUS
  0
POLYLINE
  8
0
  6
CONTINUOUS
 66
     1
 10
0.0
 20
0.0
 30
0.0
  0
VERTEX
  8
0
  6
CONTINUOUS
 10
98.890223
 20
154.786929
 30
0.0
  0
VERTEX
  8
0
  6
CONTINUOUS
 10
98.371382
 20
154.901652
 30
0.0
  0
VERTEX
  8
0
  6
CONTINUOUS
 10
97.857532
 20
154.735543
 30
0.0
  0
SEQEND
  8
0
  6
CONTINUOUS
  0
POLYLINE
  8
0
  6
CONTINUOUS
 66
     1
 10
0.0
 20
0.0
 30
0.0
  0
VERTEX
  8
0
  6
CONTINUOUS
 10
62.137356
 20
133.565939
 30
0.0
  0
VERTEX
  8
0
  6
CONTINUOUS
 10
62.648982
 20
134.277153
 30
0.0
  0
VERTEX
  8
0
  6
CONTINUOUS
 10
63.164642
 20
134.705593
 30
0.0
  0
SEQEND
  8
0
  6
CONTINUOUS
  0
POLYLINE
  8
0
  6
CONTINUOUS
 66
     1
 10
0.0
 20
0.0
 30
0.0
  0
VERTEX
  8
0
  6
CONTINUOUS
 10
61.646897
 20
133.850817
 30
0.0
  0
VERTEX
  8
0
  6
CONTINUOUS
 10
62.137356
 20
133.565939
 30
0.0
  0
SEQEND
  8
0
  6
CONTINUOUS
  0
POLYLINE
  8
0
  6
CONTINUOUS
 66
     1
 10
0.0
 20
0.0
 30
0.0
  0
VERTEX
  8
0
  6
CONTINUOUS
 10
62.137356
 20
133.565939
 30
0.0
  0
VERTEX
  8
0
  6
CONTINUOUS
 10
61.778582
 20
132.767547
 30
0.0
  0
VERTEX
  8
0
  6
CONTINUOUS
 10
61.665512
 20
132.109023
 30
0.0
  0
SEQEND
  8
0
  6
CONTINUOUS
  0
POLYLINE
  8
0
  6
CONTINUOUS
 66
     1
 10
0.0
 20
0.0
 30
0.0
  0
VERTEX
  8
0
  6
CONTINUOUS
 10
62.137356
 20
133.565939
 30
0.0
  0
VERTEX
  8
0
  6
CONTINUOUS
 10
62.536146
 20
133.337409
 30
0.0
  0
SEQEND
  8
0
  6
CONTINUOUS
  0
POLYLINE
  8
0
  6
CONTINUOUS
 66
     1
 10
0.0
 20
0.0
 30
0.0
  0
VERTEX
  8
0
  6
CONTINUOUS
 10
61.136606
 20
107.067904
 30
0.0
  0
VERTEX
  8
0
  6
CONTINUOUS
 10
61.278193
 20
106.421127
 30
0.0
  0
VERTEX
  8
0
  6
CONTINUOUS
 10
61.646897
 20
106.019912
 30
0.0
  0
SEQEND
  8
0
  6
CONTINUOUS
  0
POLYLINE
  8
0
  6
CONTINUOUS
 66
     1
 10
0.0
 20
0.0
 30
0.0
  0
VERTEX
  8
0
  6
CONTINUOUS
 10
61.658229
 20
106.013483
 30
0.0
  0
VERTEX
  8
0
  6
CONTINUOUS
 10
61.646897
 20
106.019912
 30
0.0
  0
SEQEND
  8
0
  6
CONTINUOUS
  0
POLYLINE
  8
0
  6
CONTINUOUS
 66
     1
 10
0.0
 20
0.0
 30
0.0
  0
VERTEX
  8
0
  6
CONTINUOUS
 10
98.653867
 20
155.216801
 30
0.0
  0
VERTEX
  8
0
  6
CONTINUOUS
 10
98.665101
 20
155.210202
 30
0.0
  0
SEQEND
  8
0
  6
CONTINUOUS
  0
POLYLINE
  8
0
  6
CONTINUOUS
 66
     1
 10
0.0
 20
0.0
 30
0.0
  0
VERTEX
  8
0
  6
CONTINUOUS
 10
98.653867
 20
155.216801
 30
0.0
  0
VERTEX
  8
0
  6
CONTINUOUS
 10
98.122052
 20
155.3355
 30
0.0
  0
VERTEX
  8
0
  6
CONTINUOUS
 10
97.491133
 20
155.13473
 30
0.0
  0
SEQEND
  8
0
  6
CONTINUOUS
  0
POLYLINE
  8
0
  6
CONTINUOUS
 66
     1
 10
0.0
 20
0.0
 30
0.0
  0
VERTEX
  8
0
  6
CONTINUOUS
 10
62.798244
 20
135.104781
 30
0.0
  0
VERTEX
  8
0
  6
CONTINUOUS
 10
62.175866
 20
134.58196
 30
0.0
  0
VERTEX
  8
0
  6
CONTINUOUS
 10
61.646897
 20
133.850817
 30
0.0
  0
SEQEND
  8
0
  6
CONTINUOUS
  0
POLYLINE
  8
0
  6
CONTINUOUS
 66
     1
 10
0.0
 20
0.0
 30
0.0
  0
VERTEX
  8
0
  6
CONTINUOUS
 10
61.646897
 20
133.850817
 30
0.0
  0
VERTEX
  8
0
  6
CONTINUOUS
 10
61.278193
 20
133.027145
 30
0.0
  0
VERTEX
  8
0
  6
CONTINUOUS
 10
61.136606
 20
132.22674
 30
0.0
  0
SEQEND
  8
0
  6
CONTINUOUS
  0
POLYLINE
  8
0
  6
CONTINUOUS
 66
     1
 10
0.0
 20
0.0
 30
0.0
  0
VERTEX
  8
0
  6
CONTINUOUS
 10
99.356663
 20
153.870019
 30
0.0
  0
VERTEX
  8
0
  6
CONTINUOUS
 10
99.148163
 20
153.565694
 30
0.0
  0
SEQEND
  8
0
  6
CONTINUOUS
  0
POLYLINE
  8
0
  6
CONTINUOUS
 66
     1
 10
0.0
 20
0.0
 30
0.0
  0
VERTEX
  8
0
  6
CONTINUOUS
 10
99.35667
 20
153.872097
 30
0.0
  0
VERTEX
  8
0
  6
CONTINUOUS
 10
99.356663
 20
153.870019
 30
0.0
  0
SEQEND
  8
0
  6
CONTINUOUS
  0
POLYLINE
  8
0
  6
CONTINUOUS
 66
     1
 10
0.0
 20
0.0
 30
0.0
  0
VERTEX
  8
0
  6
CONTINUOUS
 10
99.356663
 20
128.711183
 30
0.0
  0
VERTEX
  8
0
  6
CONTINUOUS
 10
99.35667
 20
128.713261
 30
0.0
  0
SEQEND
  8
0
  6
CONTINUOUS
  0
POLYLINE
  8
0
  6
CONTINUOUS
 66
     1
 10
0.0
 20
0.0
 30
0.0
  0
VERTEX
  8
0
  6
CONTINUOUS
 10
99.148163
 20
128.406858
 30
0.0
  0
VERTEX
  8
0
  6
CONTINUOUS
 10
99.356663
 20
128.711183
 30
0.0
  0
SEQEND
  8
0
  6
CONTINUOUS
  0
POLYLINE
  8
0
  6
CONTINUOUS
 66
     1
 10
0.0
 20
0.0
 30
0.0
  0
VERTEX
  8
0
  6
CONTINUOUS
 10
63.164642
 20
106.084664
 30
0.0
  0
VERTEX
  8
0
  6
CONTINUOUS
 10
63.162847
 20
106.083618
 30
0.0
  0
SEQEND
  8
0
  6
CONTINUOUS
  0
POLYLINE
  8
0
  6
CONTINUOUS
 66
     1
 10
0.0
 20
0.0
 30
0.0
  0
VERTEX
  8
0
  6
CONTINUOUS
 10
63.323946
 20
106.417392
 30
0.0
  0
VERTEX
  8
0
  6
CONTINUOUS
 10
63.164642
 20
106.084664
 30
0.0
  0
SEQEND
  8
0
  6
CONTINUOUS
  0
POLYLINE
  8
0
  6
CONTINUOUS
 66
     1
 10
0.0
 20
0.0
 30
0.0
  0
VERTEX
  8
0
  6
CONTINUOUS
 10
97.857532
 20
126.114613
 30
0.0
  0
VERTEX
  8
0
  6
CONTINUOUS
 10
98.016835
 20
126.447341
 30
0.0
  0
SEQEND
  8
0
  6
CONTINUOUS
  0
POLYLINE
  8
0
  6
CONTINUOUS
 66
     1
 10
0.0
 20
0.0
 30
0.0
  0
VERTEX
  8
0
  6
CONTINUOUS
 10
97.855736
 20
126.113567
 30
0.0
  0
VERTEX
  8
0
  6
CONTINUOUS
 10
97.857532
 20
126.114613
 30
0.0
  0
SEQEND
  8
0
  6
CONTINUOUS
  0
POLYLINE
  8
0
  6
CONTINUOUS
 66
     1
 10
0.0
 20
0.0
 30
0.0
  0
VERTEX
  8
0
  6
CONTINUOUS
 10
61.665512
 20
132.109023
 30
0.0
  0
VERTEX
  8
0
  6
CONTINUOUS
 10
61.136606
 20
132.22674
 30
0.0
  0
SEQEND
  8
0
  6
CONTINUOUS
  0
POLYLINE
  8
0
  6
CONTINUOUS
 66
     1
 10
0.0
 20
0.0
 30
0.0
  0
VERTEX
  8
0
  6
CONTINUOUS
 10
62.192618
 20
132.2294
 30
0.0
  0
VERTEX
  8
0
  6
CONTINUOUS
 10
61.665512
 20
132.109023
 30
0.0
  0
SEQEND
  8
0
  6
CONTINUOUS
  0
POLYLINE
  8
0
  6
CONTINUOUS
 66
     1
 10
0.0
 20
0.0
 30
0.0
  0
VERTEX
  8
0
  6
CONTINUOUS
 10
61.665512
 20
106.950187
 30
0.0
  0
VERTEX
  8
0
  6
CONTINUOUS
 10
62.192618
 20
107.070564
 30
0.0
  0
SEQEND
  8
0
  6
CONTINUOUS
  0
POLYLINE
  8
0
  6
CONTINUOUS
 66
     1
 10
0.0
 20
0.0
 30
0.0
  0
VERTEX
  8
0
  6
CONTINUOUS
 10
61.136606
 20
107.067904
 30
0.0
  0
VERTEX
  8
0
  6
CONTINUOUS
 10
61.665512
 20
106.950187
 30
0.0
  0
SEQEND
  8
0
  6
CONTINUOUS
  0
POLYLINE
  8
0
  6
CONTINUOUS
 66
     1
 10
0.0
 20
0.0
 30
0.0
  0
VERTEX
  8
0
  6
CONTINUOUS
 10
63.164642
 20
134.705593
 30
0.0
  0
VERTEX
  8
0
  6
CONTINUOUS
 10
63.323946
 20
134.188917
 30
0.0
  0
SEQEND
  8
0
  6
CONTINUOUS
  0
POLYLINE
  8
0
  6
CONTINUOUS
 66
     1
 10
0.0
 20
0.0
 30
0.0
  0
VERTEX
  8
0
  6
CONTINUOUS
 10
62.798244
 20
135.104781
 30
0.0
  0
VERTEX
  8
0
  6
CONTINUOUS
 10
63.164642
 20
134.705593
 30
0.0
  0
SEQEND
  8
0
  6
CONTINUOUS
  0
POLYLINE
  8
0
  6
CONTINUOUS
 66
     1
 10
0.0
 20
0.0
 30
0.0
  0
VERTEX
  8
0
  6
CONTINUOUS
 10
97.857532
 20
154.735543
 30
0.0
  0
VERTEX
  8
0
  6
CONTINUOUS
 10
97.491133
 20
155.13473
 30
0.0
  0
SEQEND
  8
0
  6
CONTINUOUS
  0
POLYLINE
  8
0
  6
CONTINUOUS
 66
     1
 10
0.0
 20
0.0
 30
0.0
  0
VERTEX
  8
0
  6
CONTINUOUS
 10
98.016835
 20
154.218866
 30
0.0
  0
VERTEX
  8
0
  6
CONTINUOUS
 10
97.857532
 20
154.735543
 30
0.0
  0
SEQEND
  8
0
  6
CONTINUOUS
  0
POLYLINE
  8
0
  6
CONTINUOUS
 66
     1
 10
0.0
 20
0.0
 30
0.0
  0
VERTEX
  8
0
  6
CONTINUOUS
 10
94.812526
 20
131.134626
 30
0.0
  0
VERTEX
  8
0
  6
CONTINUOUS
 10
94.788843
 20
131.01889
 30
0.0
  0
VERTEX
  8
0
  6
CONTINUOUS
 10
94.724138
 20
130.906818
 30
0.0
  0
VERTEX
  8
0
  6
CONTINUOUS
 10
94.635749
 20
130.82844
 30
0.0
  0
SEQEND
  8
0
  6
CONTINUOUS
  0
POLYLINE
  8
0
  6
CONTINUOUS
 66
     1
 10
0.0
 20
0.0
 30
0.0
  0
VERTEX
  8
0
  6
CONTINUOUS
 10
93.044759
 20
132.155247
 30
0.0
  0
VERTEX
  8
0
  6
CONTINUOUS
 10
92.526992
 20
130.412938
 30
0.0
  0
VERTEX
  8
0
  6
CONTINUOUS
 10
91.276992
 20
129.093384
 30
0.0
  0
SEQEND
  8
0
  6
CONTINUOUS
  0
POLYLINE
  8
0
  6
CONTINUOUS
 66
     1
 10
0.0
 20
0.0
 30
0.0
  0
VERTEX
  8
0
  6
CONTINUOUS
 10
62.709586
 20
124.05445
 30
0.0
  0
VERTEX
  8
0
  6
CONTINUOUS
 10
62.731552
 20
123.98827
 30
0.0
  0
VERTEX
  8
0
  6
CONTINUOUS
 10
62.752724
 20
123.922123
 30
0.0
  0
SEQEND
  8
0
  6
CONTINUOUS
  0
POLYLINE
  8
0
  6
CONTINUOUS
 66
     1
 10
0.0
 20
0.0
 30
0.0
  0
VERTEX
  8
0
  6
CONTINUOUS
 10
74.483206
 20
121.438729
 30
0.0
  0
VERTEX
  8
0
  6
CONTINUOUS
 10
73.965439
 20
119.69642
 30
0.0
  0
VERTEX
  8
0
  6
CONTINUOUS
 10
72.715439
 20
118.376867
 30
0.0
  0
SEQEND
  8
0
  6
CONTINUOUS
  0
POLYLINE
  8
0
  6
CONTINUOUS
 66
     1
 10
0.0
 20
0.0
 30
0.0
  0
VERTEX
  8
0
  6
CONTINUOUS
 10
77.400022
 20
120.469139
 30
0.0
  0
VERTEX
  8
0
  6
CONTINUOUS
 10
77.305287
 20
120.006196
 30
0.0
  0
VERTEX
  8
0
  6
CONTINUOUS
 10
77.046468
 20
119.557908
 30
0.0
  0
VERTEX
  8
0
  6
CONTINUOUS
 10
76.692915
 20
119.244394
 30
0.0
  0
SEQEND
  8
0
  6
CONTINUOUS
  0
POLYLINE
  8
0
  6
CONTINUOUS
 66
     1
 10
0.0
 20
0.0
 30
0.0
  0
VERTEX
  8
0
  6
CONTINUOUS
 10
61.136606
 20
132.22674
 30
0.0
  0
VERTEX
  8
0
  6
CONTINUOUS
 10
55.94605
 20
135.223509
 30
0.0
  0
VERTEX
  8
0
  6
CONTINUOUS
 10
50.254454
 20
138.509553
 30
0.0
  0
SEQEND
  8
0
  6
CONTINUOUS
  0
POLYLINE
  8
0
  6
CONTINUOUS
 66
     1
 10
0.0
 20
0.0
 30
0.0
  0
VERTEX
  8
0
  6
CONTINUOUS
 10
61.136606
 20
132.22674
 30
0.0
  0
VERTEX
  8
0
  6
CONTINUOUS
 10
61.136606
 20
119.647322
 30
0.0
  0
VERTEX
  8
0
  6
CONTINUOUS
 10
61.136606
 20
107.067904
 30
0.0
  0
SEQEND
  8
0
  6
CONTINUOUS
  0
POLYLINE
  8
0
  6
CONTINUOUS
 66
     1
 10
0.0
 20
0.0
 30
0.0
  0
VERTEX
  8
0
  6
CONTINUOUS
 10
50.254454
 20
113.133298
 30
0.0
  0
VERTEX
  8
0
  6
CONTINUOUS
 10
55.94605
 20
109.960969
 30
0.0
  0
VERTEX
  8
0
  6
CONTINUOUS
 10
61.136606
 20
107.067904
 30
0.0
  0
SEQEND
  8
0
  6
CONTINUOUS
  0
POLYLINE
  8
0
  6
CONTINUOUS
 66
     1
 10
0.0
 20
0.0
 30
0.0
  0
VERTEX
  8
0
  6
CONTINUOUS
 10
86.797272
 20
161.526253
 30
0.0
  0
VERTEX
  8
0
  6
CONTINUOUS
 10
92.390388
 20
158.183351
 30
0.0
  0
VERTEX
  8
0
  6
CONTINUOUS
 10
97.491133
 20
155.13473
 30
0.0
  0
SEQEND
  8
0
  6
CONTINUOUS
  0
POLYLINE
  8
0
  6
CONTINUOUS
 66
     1
 10
0.0
 20
0.0
 30
0.0
  0
VERTEX
  8
0
  6
CONTINUOUS
 10
97.491133
 20
155.13473
 30
0.0
  0
VERTEX
  8
0
  6
CONTINUOUS
 10
80.144688
 20
145.119755
 30
0.0
  0
VERTEX
  8
0
  6
CONTINUOUS
 10
62.798244
 20
135.104781
 30
0.0
  0
SEQEND
  8
0
  6
CONTINUOUS
  0
POLYLINE
  8
0
  6
CONTINUOUS
 66
     1
 10
0.0
 20
0.0
 30
0.0
  0
VERTEX
  8
0
  6
CONTINUOUS
 10
62.798244
 20
135.104781
 30
0.0
  0
VERTEX
  8
0
  6
CONTINUOUS
 10
57.607687
 20
138.10155
 30
0.0
  0
VERTEX
  8
0
  6
CONTINUOUS
 10
51.916092
 20
141.387594
 30
0.0
  0
SEQEND
  8
0
  6
CONTINUOUS
  0
POLYLINE
  8
0
  6
CONTINUOUS
 66
     1
 10
0.0
 20
0.0
 30
0.0
  0
VERTEX
  8
0
  6
CONTINUOUS
 10
96.739399
 20
142.877161
 30
0.0
  0
VERTEX
  8
0
  6
CONTINUOUS
 10
96.759891
 20
141.129409
 30
0.0
  0
VERTEX
  8
0
  6
CONTINUOUS
 10
96.04961
 20
140.009354
 30
0.0
  0
SEQEND
  8
0
  6
CONTINUOUS
  0
POLYLINE
  8
0
  6
CONTINUOUS
 66
     1
 10
0.0
 20
0.0
 30
0.0
  0
VERTEX
  8
0
  6
CONTINUOUS
 10
95.961575
 20
131.185657
 30
0.0
  0
VERTEX
  8
0
  6
CONTINUOUS
 10
95.86684
 20
130.722714
 30
0.0
  0
VERTEX
  8
0
  6
CONTINUOUS
 10
95.608021
 20
130.274426
 30
0.0
  0
VERTEX
  8
0
  6
CONTINUOUS
 10
95.254468
 20
129.960912
 30
0.0
  0
SEQEND
  8
0
  6
CONTINUOUS
  0
POLYLINE
  8
0
  6
CONTINUOUS
 66
     1
 10
0.0
 20
0.0
 30
0.0
  0
VERTEX
  8
0
  6
CONTINUOUS
 10
96.740804
 20
145.15117
 30
0.0
  0
VERTEX
  8
0
  6
CONTINUOUS
 10
97.552168
 20
142.254226
 30
0.0
  0
VERTEX
  8
0
  6
CONTINUOUS
 10
96.672845
 20
140.36515
 30
0.0
  0
SEQEND
  8
0
  6
CONTINUOUS
  0
POLYLINE
  8
0
  6
CONTINUOUS
 66
     1
 10
0.0
 20
0.0
 30
0.0
  0
VERTEX
  8
0
  6
CONTINUOUS
 10
95.961575
 20
146.290844
 30
0.0
  0
VERTEX
  8
0
  6
CONTINUOUS
 10
96.216004
 20
145.968118
 30
0.0
  0
VERTEX
  8
0
  6
CONTINUOUS
 10
96.454188
 20
145.626675
 30
0.0
  0
SEQEND
  8
0
  6
CONTINUOUS
  0
POLYLINE
  8
0
  6
CONTINUOUS
 66
     1
 10
0.0
 20
0.0
 30
0.0
  0
VERTEX
  8
0
  6
CONTINUOUS
 10
74.474384
 20
140.416736
 30
0.0
  0
VERTEX
  8
0
  6
CONTINUOUS
 10
74.480999
 20
140.318843
 30
0.0
  0
VERTEX
  8
0
  6
CONTINUOUS
 10
74.483206
 20
140.21815
 30
0.0
  0
SEQEND
  8
0
  6
CONTINUOUS
  0
POLYLINE
  8
0
  6
CONTINUOUS
 66
     1
 10
0.0
 20
0.0
 30
0.0
  0
VERTEX
  8
0
  6
CONTINUOUS
 10
62.551442
 20
124.405883
 30
0.0
  0
VERTEX
  8
0
  6
CONTINUOUS
 10
62.600442
 20
124.28354
 30
0.0
  0
VERTEX
  8
0
  6
CONTINUOUS
 10
62.646761
 20
124.160976
 30
0.0
  0
SEQEND
  8
0
  6
CONTINUOUS
  0
POLYLINE
  8
0
  6
CONTINUOUS
 66
     1
 10
0.0
 20
0.0
 30
0.0
  0
VERTEX
  8
0
  6
CONTINUOUS
 10
62.763983
 20
124.011304
 30
0.0
  0
VERTEX
  8
0
  6
CONTINUOUS
 10
62.754389
 20
124.016855
 30
0.0
  0
VERTEX
  8
0
  6
CONTINUOUS
 10
62.709586
 20
124.05445
 30
0.0
  0
SEQEND
  8
0
  6
CONTINUOUS
  0
POLYLINE
  8
0
  6
CONTINUOUS
 66
     1
 10
0.0
 20
0.0
 30
0.0
  0
VERTEX
  8
0
  6
CONTINUOUS
 10
62.709586
 20
124.05445
 30
0.0
  0
VERTEX
  8
0
  6
CONTINUOUS
 10
62.690669
 20
124.077556
 30
0.0
  0
VERTEX
  8
0
  6
CONTINUOUS
 10
62.673829
 20
124.103249
 30
0.0
  0
VERTEX
  8
0
  6
CONTINUOUS
 10
62.659156
 20
124.131181
 30
0.0
  0
VERTEX
  8
0
  6
CONTINUOUS
 10
62.646761
 20
124.160976
 30
0.0
  0
SEQEND
  8
0
  6
CONTINUOUS
  0
POLYLINE
  8
0
  6
CONTINUOUS
 66
     1
 10
0.0
 20
0.0
 30
0.0
  0
VERTEX
  8
0
  6
CONTINUOUS
 10
62.639195
 20
128.58309
 30
0.0
  0
VERTEX
  8
0
  6
CONTINUOUS
 10
62.708273
 20
128.606743
 30
0.0
  0
VERTEX
  8
0
  6
CONTINUOUS
 10
62.766361
 20
128.594171
 30
0.0
  0
SEQEND
  8
0
  6
CONTINUOUS
  0
POLYLINE
  8
0
  6
CONTINUOUS
 66
     1
 10
0.0
 20
0.0
 30
0.0
  0
VERTEX
  8
0
  6
CONTINUOUS
 10
50.254454
 20
113.133298
 30
0.0
  0
VERTEX
  8
0
  6
CONTINUOUS
 10
50.3922
 20
112.487987
 30
0.0
  0
VERTEX
  8
0
  6
CONTINUOUS
 10
50.759299
 20
112.088335
 30
0.0
  0
VERTEX
  8
0
  6
CONTINUOUS
 10
50.770274
 20
112.082112
 30
0.0
  0
SEQEND
  8
0
  6
CONTINUOUS
  0
POLYLINE
  8
0
  6
CONTINUOUS
 66
     1
 10
0.0
 20
0.0
 30
0.0
  0
VERTEX
  8
0
  6
CONTINUOUS
 10
64.406935
 20
113.579949
 30
0.0
  0
VERTEX
  8
0
  6
CONTINUOUS
 10
63.467728
 20
113.349627
 30
0.0
  0
VERTEX
  8
0
  6
CONTINUOUS
 10
62.815569
 20
113.813555
 30
0.0
  0
SEQEND
  8
0
  6
CONTINUOUS
  0
POLYLINE
  8
0
  6
CONTINUOUS
 66
     1
 10
0.0
 20
0.0
 30
0.0
  0
VERTEX
  8
0
  6
CONTINUOUS
 10
64.053381
 20
113.784073
 30
0.0
  0
VERTEX
  8
0
  6
CONTINUOUS
 10
63.495299
 20
113.566255
 30
0.0
  0
VERTEX
  8
0
  6
CONTINUOUS
 10
62.994299
 20
113.579495
 30
0.0
  0
SEQEND
  8
0
  6
CONTINUOUS
  0
POLYLINE
  8
0
  6
CONTINUOUS
 66
     1
 10
0.0
 20
0.0
 30
0.0
  0
VERTEX
  8
0
  6
CONTINUOUS
 10
62.550935
 20
120.805195
 30
0.0
  0
VERTEX
  8
0
  6
CONTINUOUS
 10
62.600202
 20
120.873215
 30
0.0
  0
VERTEX
  8
0
  6
CONTINUOUS
 10
62.646761
 20
120.944478
 30
0.0
  0
SEQEND
  8
0
  6
CONTINUOUS
  0
POLYLINE
  8
0
  6
CONTINUOUS
 66
     1
 10
0.0
 20
0.0
 30
0.0
  0
VERTEX
  8
0
  6
CONTINUOUS
 10
62.131624
 20
120.422767
 30
0.0
  0
VERTEX
  8
0
  6
CONTINUOUS
 10
62.08724
 20
120.398124
 30
0.0
  0
VERTEX
  8
0
  6
CONTINUOUS
 10
62.041966
 20
120.375067
 30
0.0
  0
SEQEND
  8
0
  6
CONTINUOUS
  0
POLYLINE
  8
0
  6
CONTINUOUS
 66
     1
 10
0.0
 20
0.0
 30
0.0
  0
VERTEX
  8
0
  6
CONTINUOUS
 10
62.646761
 20
120.944478
 30
0.0
  0
VERTEX
  8
0
  6
CONTINUOUS
 10
62.65915
 20
120.963358
 30
0.0
  0
VERTEX
  8
0
  6
CONTINUOUS
 10
62.673816
 20
120.983695
 30
0.0
  0
VERTEX
  8
0
  6
CONTINUOUS
 10
62.690644
 20
121.00526
 30
0.0
  0
VERTEX
  8
0
  6
CONTINUOUS
 10
62.709586
 20
121.027886
 30
0.0
  0
SEQEND
  8
0
  6
CONTINUOUS
  0
POLYLINE
  8
0
  6
CONTINUOUS
 66
     1
 10
0.0
 20
0.0
 30
0.0
  0
VERTEX
  8
0
  6
CONTINUOUS
 10
62.752724
 20
121.110402
 30
0.0
  0
VERTEX
  8
0
  6
CONTINUOUS
 10
62.731552
 20
121.068702
 30
0.0
  0
VERTEX
  8
0
  6
CONTINUOUS
 10
62.709586
 20
121.027886
 30
0.0
  0
SEQEND
  8
0
  6
CONTINUOUS
  0
POLYLINE
  8
0
  6
CONTINUOUS
 66
     1
 10
0.0
 20
0.0
 30
0.0
  0
VERTEX
  8
0
  6
CONTINUOUS
 10
62.709586
 20
121.027886
 30
0.0
  0
VERTEX
  8
0
  6
CONTINUOUS
 10
62.754373
 20
121.076257
 30
0.0
  0
VERTEX
  8
0
  6
CONTINUOUS
 10
62.804804
 20
121.123845
 30
0.0
  0
VERTEX
  8
0
  6
CONTINUOUS
 10
62.857857
 20
121.16676
 30
0.0
  0
VERTEX
  8
0
  6
CONTINUOUS
 10
62.909548
 20
121.200944
 30
0.0
  0
SEQEND
  8
0
  6
CONTINUOUS
  0
POLYLINE
  8
0
  6
CONTINUOUS
 66
     1
 10
0.0
 20
0.0
 30
0.0
  0
VERTEX
  8
0
  6
CONTINUOUS
 10
64.071032
 20
117.208632
 30
0.0
  0
VERTEX
  8
0
  6
CONTINUOUS
 10
63.946048
 20
117.196246
 30
0.0
  0
VERTEX
  8
0
  6
CONTINUOUS
 10
63.894282
 20
117.310678
 30
0.0
  0
SEQEND
  8
0
  6
CONTINUOUS
  0
POLYLINE
  8
0
  6
CONTINUOUS
 66
     1
 10
0.0
 20
0.0
 30
0.0
  0
VERTEX
  8
0
  6
CONTINUOUS
 10
63.894282
 20
120.224221
 30
0.0
  0
VERTEX
  8
0
  6
CONTINUOUS
 10
63.946048
 20
120.398428
 30
0.0
  0
VERTEX
  8
0
  6
CONTINUOUS
 10
64.071032
 20
120.530361
 30
0.0
  0
SEQEND
  8
0
  6
CONTINUOUS
  0
POLYLINE
  8
0
  6
CONTINUOUS
 66
     1
 10
0.0
 20
0.0
 30
0.0
  0
VERTEX
  8
0
  6
CONTINUOUS
 10
64.071032
 20
123.388099
 30
0.0
  0
VERTEX
  8
0
  6
CONTINUOUS
 10
63.946048
 20
123.375713
 30
0.0
  0
VERTEX
  8
0
  6
CONTINUOUS
 10
63.894282
 20
123.490146
 30
0.0
  0
SEQEND
  8
0
  6
CONTINUOUS
  0
POLYLINE
  8
0
  6
CONTINUOUS
 66
     1
 10
0.0
 20
0.0
 30
0.0
  0
VERTEX
  8
0
  6
CONTINUOUS
 10
63.894282
 20
126.403689
 30
0.0
  0
VERTEX
  8
0
  6
CONTINUOUS
 10
63.946048
 20
126.577895
 30
0.0
  0
VERTEX
  8
0
  6
CONTINUOUS
 10
64.071032
 20
126.709828
 30
0.0
  0
SEQEND
  8
0
  6
CONTINUOUS
  0
POLYLINE
  8
0
  6
CONTINUOUS
 66
     1
 10
0.0
 20
0.0
 30
0.0
  0
VERTEX
  8
0
  6
CONTINUOUS
 10
64.897178
 20
127.186804
 30
0.0
  0
VERTEX
  8
0
  6
CONTINUOUS
 10
65.022162
 20
127.19919
 30
0.0
  0
VERTEX
  8
0
  6
CONTINUOUS
 10
65.073928
 20
127.084758
 30
0.0
  0
SEQEND
  8
0
  6
CONTINUOUS
  0
POLYLINE
  8
0
  6
CONTINUOUS
 66
     1
 10
0.0
 20
0.0
 30
0.0
  0
VERTEX
  8
0
  6
CONTINUOUS
 10
65.073928
 20
126.941142
 30
0.0
  0
VERTEX
  8
0
  6
CONTINUOUS
 10
65.022162
 20
126.766936
 30
0.0
  0
VERTEX
  8
0
  6
CONTINUOUS
 10
64.897178
 20
126.635003
 30
0.0
  0
SEQEND
  8
0
  6
CONTINUOUS
  0
POLYLINE
  8
0
  6
CONTINUOUS
 66
     1
 10
0.0
 20
0.0
 30
0.0
  0
VERTEX
  8
0
  6
CONTINUOUS
 10
64.897178
 20
124.463195
 30
0.0
  0
VERTEX
  8
0
  6
CONTINUOUS
 10
65.022162
 20
124.475581
 30
0.0
  0
VERTEX
  8
0
  6
CONTINUOUS
 10
65.073928
 20
124.361149
 30
0.0
  0
SEQEND
  8
0
  6
CONTINUOUS
  0
POLYLINE
  8
0
  6
CONTINUOUS
 66
     1
 10
0.0
 20
0.0
 30
0.0
  0
VERTEX
  8
0
  6
CONTINUOUS
 10
65.073928
 20
120.715356
 30
0.0
  0
VERTEX
  8
0
  6
CONTINUOUS
 10
65.022162
 20
120.54115
 30
0.0
  0
VERTEX
  8
0
  6
CONTINUOUS
 10
64.897178
 20
120.409216
 30
0.0
  0
SEQEND
  8
0
  6
CONTINUOUS
  0
POLYLINE
  8
0
  6
CONTINUOUS
 66
     1
 10
0.0
 20
0.0
 30
0.0
  0
VERTEX
  8
0
  6
CONTINUOUS
 10
64.897178
 20
118.237409
 30
0.0
  0
VERTEX
  8
0
  6
CONTINUOUS
 10
65.022162
 20
118.249795
 30
0.0
  0
VERTEX
  8
0
  6
CONTINUOUS
 10
65.073928
 20
118.135362
 30
0.0
  0
SEQEND
  8
0
  6
CONTINUOUS
  0
POLYLINE
  8
0
  6
CONTINUOUS
 66
     1
 10
0.0
 20
0.0
 30
0.0
  0
VERTEX
  8
0
  6
CONTINUOUS
 10
65.073928
 20
117.991747
 30
0.0
  0
VERTEX
  8
0
  6
CONTINUOUS
 10
65.022162
 20
117.817541
 30
0.0
  0
VERTEX
  8
0
  6
CONTINUOUS
 10
64.897178
 20
117.685607
 30
0.0
  0
SEQEND
  8
0
  6
CONTINUOUS
  0
POLYLINE
  8
0
  6
CONTINUOUS
 66
     1
 10
0.0
 20
0.0
 30
0.0
  0
VERTEX
  8
0
  6
CONTINUOUS
 10
81.112995
 20
135.122401
 30
0.0
  0
VERTEX
  8
0
  6
CONTINUOUS
 10
81.161995
 20
135.000058
 30
0.0
  0
VERTEX
  8
0
  6
CONTINUOUS
 10
81.208314
 20
134.877494
 30
0.0
  0
SEQEND
  8
0
  6
CONTINUOUS
  0
POLYLINE
  8
0
  6
CONTINUOUS
 66
     1
 10
0.0
 20
0.0
 30
0.0
  0
VERTEX
  8
0
  6
CONTINUOUS
 10
86.797272
 20
161.526253
 30
0.0
  0
VERTEX
  8
0
  6
CONTINUOUS
 10
87.424742
 20
161.729602
 30
0.0
  0
VERTEX
  8
0
  6
CONTINUOUS
 10
87.954065
 20
161.611868
 30
0.0
  0
VERTEX
  8
0
  6
CONTINUOUS
 10
87.965558
 20
161.605119
 30
0.0
  0
SEQEND
  8
0
  6
CONTINUOUS
  0
POLYLINE
  8
0
  6
CONTINUOUS
 66
     1
 10
0.0
 20
0.0
 30
0.0
  0
VERTEX
  8
0
  6
CONTINUOUS
 10
51.916092
 20
141.387594
 30
0.0
  0
VERTEX
  8
0
  6
CONTINUOUS
 10
51.288363
 20
140.86612
 30
0.0
  0
VERTEX
  8
0
  6
CONTINUOUS
 10
50.758705
 20
140.136432
 30
0.0
  0
VERTEX
  8
0
  6
CONTINUOUS
 10
50.392084
 20
139.313554
 30
0.0
  0
VERTEX
  8
0
  6
CONTINUOUS
 10
50.254454
 20
138.509553
 30
0.0
  0
SEQEND
  8
0
  6
CONTINUOUS
  0
POLYLINE
  8
0
  6
CONTINUOUS
 66
     1
 10
0.0
 20
0.0
 30
0.0
  0
VERTEX
  8
0
  6
CONTINUOUS
 10
76.250973
 20
120.418108
 30
0.0
  0
VERTEX
  8
0
  6
CONTINUOUS
 10
76.22729
 20
120.302372
 30
0.0
  0
VERTEX
  8
0
  6
CONTINUOUS
 10
76.162585
 20
120.1903
 30
0.0
  0
VERTEX
  8
0
  6
CONTINUOUS
 10
76.074196
 20
120.111922
 30
0.0
  0
SEQEND
  8
0
  6
CONTINUOUS
  0
POLYLINE
  8
0
  6
CONTINUOUS
 66
     1
 10
0.0
 20
0.0
 30
0.0
  0
VERTEX
  8
0
  6
CONTINUOUS
 10
82.632585
 20
127.925149
 30
0.0
  0
VERTEX
  8
0
  6
CONTINUOUS
 10
82.507601
 20
127.912763
 30
0.0
  0
VERTEX
  8
0
  6
CONTINUOUS
 10
82.455835
 20
128.027196
 30
0.0
  0
SEQEND
  8
0
  6
CONTINUOUS
  0
POLYLINE
  8
0
  6
CONTINUOUS
 66
     1
 10
0.0
 20
0.0
 30
0.0
  0
VERTEX
  8
0
  6
CONTINUOUS
 10
82.455835
 20
137.120206
 30
0.0
  0
VERTEX
  8
0
  6
CONTINUOUS
 10
82.507601
 20
137.294413
 30
0.0
  0
VERTEX
  8
0
  6
CONTINUOUS
 10
82.632585
 20
137.426346
 30
0.0
  0
SEQEND
  8
0
  6
CONTINUOUS
  0
POLYLINE
  8
0
  6
CONTINUOUS
 66
     1
 10
0.0
 20
0.0
 30
0.0
  0
VERTEX
  8
0
  6
CONTINUOUS
 10
83.635481
 20
137.65766
 30
0.0
  0
VERTEX
  8
0
  6
CONTINUOUS
 10
83.583715
 20
137.483454
 30
0.0
  0
VERTEX
  8
0
  6
CONTINUOUS
 10
83.458731
 20
137.35152
 30
0.0
  0
SEQEND
  8
0
  6
CONTINUOUS
  0
POLYLINE
  8
0
  6
CONTINUOUS
 66
     1
 10
0.0
 20
0.0
 30
0.0
  0
VERTEX
  8
0
  6
CONTINUOUS
 10
83.458731
 20
135.179713
 30
0.0
  0
VERTEX
  8
0
  6
CONTINUOUS
 10
83.583715
 20
135.192099
 30
0.0
  0
VERTEX
  8
0
  6
CONTINUOUS
 10
83.635481
 20
135.077666
 30
0.0
  0
SEQEND
  8
0
  6
CONTINUOUS
  0
POLYLINE
  8
0
  6
CONTINUOUS
 66
     1
 10
0.0
 20
0.0
 30
0.0
  0
VERTEX
  8
0
  6
CONTINUOUS
 10
83.635481
 20
131.431873
 30
0.0
  0
VERTEX
  8
0
  6
CONTINUOUS
 10
83.583715
 20
131.257667
 30
0.0
  0
VERTEX
  8
0
  6
CONTINUOUS
 10
83.458731
 20
131.125734
 30
0.0
  0
SEQEND
  8
0
  6
CONTINUOUS
  0
POLYLINE
  8
0
  6
CONTINUOUS
 66
     1
 10
0.0
 20
0.0
 30
0.0
  0
VERTEX
  8
0
  6
CONTINUOUS
 10
83.458731
 20
128.953926
 30
0.0
  0
VERTEX
  8
0
  6
CONTINUOUS
 10
83.583715
 20
128.966312
 30
0.0
  0
VERTEX
  8
0
  6
CONTINUOUS
 10
83.635481
 20
128.85188
 30
0.0
  0
SEQEND
  8
0
  6
CONTINUOUS
  0
POLYLINE
  8
0
  6
CONTINUOUS
 66
     1
 10
0.0
 20
0.0
 30
0.0
  0
VERTEX
  8
0
  6
CONTINUOUS
 10
83.635481
 20
128.708265
 30
0.0
  0
VERTEX
  8
0
  6
CONTINUOUS
 10
83.583715
 20
128.534058
 30
0.0
  0
VERTEX
  8
0
  6
CONTINUOUS
 10
83.458731
 20
128.402125
 30
0.0
  0
SEQEND
  8
0
  6
CONTINUOUS
  0
POLYLINE
  8
0
  6
CONTINUOUS
 66
     1
 10
0.0
 20
0.0
 30
0.0
  0
VERTEX
  8
0
  6
CONTINUOUS
 10
81.325536
 20
134.727822
 30
0.0
  0
VERTEX
  8
0
  6
CONTINUOUS
 10
81.315942
 20
134.733373
 30
0.0
  0
VERTEX
  8
0
  6
CONTINUOUS
 10
81.271139
 20
134.770967
 30
0.0
  0
SEQEND
  8
0
  6
CONTINUOUS
  0
POLYLINE
  8
0
  6
CONTINUOUS
 66
     1
 10
0.0
 20
0.0
 30
0.0
  0
VERTEX
  8
0
  6
CONTINUOUS
 10
81.271139
 20
134.770967
 30
0.0
  0
VERTEX
  8
0
  6
CONTINUOUS
 10
81.252222
 20
134.794073
 30
0.0
  0
VERTEX
  8
0
  6
CONTINUOUS
 10
81.235382
 20
134.819767
 30
0.0
  0
VERTEX
  8
0
  6
CONTINUOUS
 10
81.220709
 20
134.847698
 30
0.0
  0
VERTEX
  8
0
  6
CONTINUOUS
 10
81.208314
 20
134.877494
 30
0.0
  0
SEQEND
  8
0
  6
CONTINUOUS
  0
POLYLINE
  8
0
  6
CONTINUOUS
 66
     1
 10
0.0
 20
0.0
 30
0.0
  0
VERTEX
  8
0
  6
CONTINUOUS
 10
82.632585
 20
134.104617
 30
0.0
  0
VERTEX
  8
0
  6
CONTINUOUS
 10
82.507601
 20
134.092231
 30
0.0
  0
VERTEX
  8
0
  6
CONTINUOUS
 10
82.455835
 20
134.206663
 30
0.0
  0
SEQEND
  8
0
  6
CONTINUOUS
  0
POLYLINE
  8
0
  6
CONTINUOUS
 66
     1
 10
0.0
 20
0.0
 30
0.0
  0
VERTEX
  8
0
  6
CONTINUOUS
 10
81.314277
 20
131.826919
 30
0.0
  0
VERTEX
  8
0
  6
CONTINUOUS
 10
81.293105
 20
131.78522
 30
0.0
  0
VERTEX
  8
0
  6
CONTINUOUS
 10
81.271139
 20
131.744404
 30
0.0
  0
SEQEND
  8
0
  6
CONTINUOUS
  0
POLYLINE
  8
0
  6
CONTINUOUS
 66
     1
 10
0.0
 20
0.0
 30
0.0
  0
VERTEX
  8
0
  6
CONTINUOUS
 10
82.455835
 20
130.940739
 30
0.0
  0
VERTEX
  8
0
  6
CONTINUOUS
 10
82.507601
 20
131.114945
 30
0.0
  0
VERTEX
  8
0
  6
CONTINUOUS
 10
82.632585
 20
131.246879
 30
0.0
  0
SEQEND
  8
0
  6
CONTINUOUS
  0
POLYLINE
  8
0
  6
CONTINUOUS
 66
     1
 10
0.0
 20
0.0
 30
0.0
  0
VERTEX
  8
0
  6
CONTINUOUS
 10
81.271139
 20
131.744404
 30
0.0
  0
VERTEX
  8
0
  6
CONTINUOUS
 10
81.315926
 20
131.792775
 30
0.0
  0
VERTEX
  8
0
  6
CONTINUOUS
 10
81.366357
 20
131.840363
 30
0.0
  0
VERTEX
  8
0
  6
CONTINUOUS
 10
81.41941
 20
131.883278
 30
0.0
  0
VERTEX
  8
0
  6
CONTINUOUS
 10
81.471101
 20
131.917462
 30
0.0
  0
SEQEND
  8
0
  6
CONTINUOUS
  0
POLYLINE
  8
0
  6
CONTINUOUS
 66
     1
 10
0.0
 20
0.0
 30
0.0
  0
VERTEX
  8
0
  6
CONTINUOUS
 10
81.208314
 20
131.660995
 30
0.0
  0
VERTEX
  8
0
  6
CONTINUOUS
 10
81.220703
 20
131.679876
 30
0.0
  0
VERTEX
  8
0
  6
CONTINUOUS
 10
81.235369
 20
131.700213
 30
0.0
  0
VERTEX
  8
0
  6
CONTINUOUS
 10
81.252197
 20
131.721777
 30
0.0
  0
VERTEX
  8
0
  6
CONTINUOUS
 10
81.271139
 20
131.744404
 30
0.0
  0
SEQEND
  8
0
  6
CONTINUOUS
  0
POLYLINE
  8
0
  6
CONTINUOUS
 66
     1
 10
0.0
 20
0.0
 30
0.0
  0
VERTEX
  8
0
  6
CONTINUOUS
 10
81.112488
 20
131.521713
 30
0.0
  0
VERTEX
  8
0
  6
CONTINUOUS
 10
81.161755
 20
131.589732
 30
0.0
  0
VERTEX
  8
0
  6
CONTINUOUS
 10
81.208314
 20
131.660995
 30
0.0
  0
SEQEND
  8
0
  6
CONTINUOUS
  0
POLYLINE
  8
0
  6
CONTINUOUS
 66
     1
 10
0.0
 20
0.0
 30
0.0
  0
VERTEX
  8
0
  6
CONTINUOUS
 10
83.458731
 20
137.903322
 30
0.0
  0
VERTEX
  8
0
  6
CONTINUOUS
 10
83.583715
 20
137.915708
 30
0.0
  0
VERTEX
  8
0
  6
CONTINUOUS
 10
83.635481
 20
137.801275
 30
0.0
  0
SEQEND
  8
0
  6
CONTINUOUS
  0
POLYLINE
  8
0
  6
CONTINUOUS
 66
     1
 10
0.0
 20
0.0
 30
0.0
  0
VERTEX
  8
0
  6
CONTINUOUS
 10
81.200748
 20
139.299607
 30
0.0
  0
VERTEX
  8
0
  6
CONTINUOUS
 10
81.269826
 20
139.32326
 30
0.0
  0
VERTEX
  8
0
  6
CONTINUOUS
 10
81.327914
 20
139.310689
 30
0.0
  0
SEQEND
  8
0
  6
CONTINUOUS
  0
POLYLINE
  8
0
  6
CONTINUOUS
 66
     1
 10
0.0
 20
0.0
 30
0.0
  0
VERTEX
  8
0
  6
CONTINUOUS
 10
93.035937
 20
151.133253
 30
0.0
  0
VERTEX
  8
0
  6
CONTINUOUS
 10
93.042552
 20
151.03536
 30
0.0
  0
VERTEX
  8
0
  6
CONTINUOUS
 10
93.044759
 20
150.934668
 30
0.0
  0
SEQEND
  8
0
  6
CONTINUOUS
  0
POLYLINE
  8
0
  6
CONTINUOUS
 66
     1
 10
0.0
 20
0.0
 30
0.0
  0
VERTEX
  8
0
  6
CONTINUOUS
 10
94.431825
 20
146.876235
 30
0.0
  0
VERTEX
  8
0
  6
CONTINUOUS
 10
94.373738
 20
146.888807
 30
0.0
  0
VERTEX
  8
0
  6
CONTINUOUS
 10
94.304659
 20
146.865154
 30
0.0
  0
SEQEND
  8
0
  6
CONTINUOUS
  0
POLYLINE
  8
0
  6
CONTINUOUS
 66
     1
 10
0.0
 20
0.0
 30
0.0
  0
VERTEX
  8
0
  6
CONTINUOUS
 10
92.691206
 20
132.359371
 30
0.0
  0
VERTEX
  8
0
  6
CONTINUOUS
 10
92.173439
 20
130.617062
 30
0.0
  0
VERTEX
  8
0
  6
CONTINUOUS
 10
90.923439
 20
129.297509
 30
0.0
  0
SEQEND
  8
0
  6
CONTINUOUS
  0
POLYLINE
  8
0
  6
CONTINUOUS
 66
     1
 10
0.0
 20
0.0
 30
0.0
  0
VERTEX
  8
0
  6
CONTINUOUS
 10
80.228449
 20
118.836146
 30
0.0
  0
VERTEX
  8
0
  6
CONTINUOUS
 10
80.133714
 20
118.373203
 30
0.0
  0
VERTEX
  8
0
  6
CONTINUOUS
 10
79.874895
 20
117.924915
 30
0.0
  0
VERTEX
  8
0
  6
CONTINUOUS
 10
79.521342
 20
117.611401
 30
0.0
  0
SEQEND
  8
0
  6
CONTINUOUS
  0
POLYLINE
  8
0
  6
CONTINUOUS
 66
     1
 10
0.0
 20
0.0
 30
0.0
  0
VERTEX
  8
0
  6
CONTINUOUS
 10
79.521342
 20
143.331044
 30
0.0
  0
VERTEX
  8
0
  6
CONTINUOUS
 10
79.874895
 20
143.425778
 30
0.0
  0
VERTEX
  8
0
  6
CONTINUOUS
 10
80.133714
 20
143.276349
 30
0.0
  0
VERTEX
  8
0
  6
CONTINUOUS
 10
80.228449
 20
142.922795
 30
0.0
  0
SEQEND
  8
0
  6
CONTINUOUS
  0
POLYLINE
  8
0
  6
CONTINUOUS
 66
     1
 10
0.0
 20
0.0
 30
0.0
  0
VERTEX
  8
0
  6
CONTINUOUS
 10
62.550779
 20
132.716588
 30
0.0
  0
VERTEX
  8
0
  6
CONTINUOUS
 10
62.757886
 20
133.413511
 30
0.0
  0
VERTEX
  8
0
  6
CONTINUOUS
 10
63.257886
 20
133.941333
 30
0.0
  0
SEQEND
  8
0
  6
CONTINUOUS
  0
POLYLINE
  8
0
  6
CONTINUOUS
 66
     1
 10
0.0
 20
0.0
 30
0.0
  0
VERTEX
  8
0
  6
CONTINUOUS
 10
63.257886
 20
108.221691
 30
0.0
  0
VERTEX
  8
0
  6
CONTINUOUS
 10
62.904333
 20
108.126956
 30
0.0
  0
VERTEX
  8
0
  6
CONTINUOUS
 10
62.645514
 20
108.276385
 30
0.0
  0
VERTEX
  8
0
  6
CONTINUOUS
 10
62.550779
 20
108.629939
 30
0.0
  0
SEQEND
  8
0
  6
CONTINUOUS
  0
POLYLINE
  8
0
  6
CONTINUOUS
 66
     1
 10
0.0
 20
0.0
 30
0.0
  0
VERTEX
  8
0
  6
CONTINUOUS
 10
63.323946
 20
106.417392
 30
0.0
  0
VERTEX
  8
0
  6
CONTINUOUS
 10
80.670391
 20
116.432367
 30
0.0
  0
VERTEX
  8
0
  6
CONTINUOUS
 10
98.016835
 20
126.447341
 30
0.0
  0
SEQEND
  8
0
  6
CONTINUOUS
  0
POLYLINE
  8
0
  6
CONTINUOUS
 66
     1
 10
0.0
 20
0.0
 30
0.0
  0
VERTEX
  8
0
  6
CONTINUOUS
 10
63.323946
 20
106.417392
 30
0.0
  0
VERTEX
  8
0
  6
CONTINUOUS
 10
62.897273
 20
106.278981
 30
0.0
  0
VERTEX
  8
0
  6
CONTINUOUS
 10
62.536146
 20
106.359228
 30
0.0
  0
SEQEND
  8
0
  6
CONTINUOUS
  0
POLYLINE
  8
0
  6
CONTINUOUS
 66
     1
 10
0.0
 20
0.0
 30
0.0
  0
VERTEX
  8
0
  6
CONTINUOUS
 10
62.536146
 20
106.359228
 30
0.0
  0
VERTEX
  8
0
  6
CONTINUOUS
 10
62.286087
 20
106.63185
 30
0.0
  0
VERTEX
  8
0
  6
CONTINUOUS
 10
62.192618
 20
107.070564
 30
0.0
  0
SEQEND
  8
0
  6
CONTINUOUS
  0
POLYLINE
  8
0
  6
CONTINUOUS
 66
     1
 10
0.0
 20
0.0
 30
0.0
  0
VERTEX
  8
0
  6
CONTINUOUS
 10
62.192618
 20
132.2294
 30
0.0
  0
VERTEX
  8
0
  6
CONTINUOUS
 10
62.192618
 20
119.649982
 30
0.0
  0
VERTEX
  8
0
  6
CONTINUOUS
 10
62.192618
 20
107.070564
 30
0.0
  0
SEQEND
  8
0
  6
CONTINUOUS
  0
POLYLINE
  8
0
  6
CONTINUOUS
 66
     1
 10
0.0
 20
0.0
 30
0.0
  0
VERTEX
  8
0
  6
CONTINUOUS
 10
62.192618
 20
132.2294
 30
0.0
  0
VERTEX
  8
0
  6
CONTINUOUS
 10
62.286087
 20
132.776044
 30
0.0
  0
VERTEX
  8
0
  6
CONTINUOUS
 10
62.536146
 20
133.337409
 30
0.0
  0
SEQEND
  8
0
  6
CONTINUOUS
  0
POLYLINE
  8
0
  6
CONTINUOUS
 66
     1
 10
0.0
 20
0.0
 30
0.0
  0
VERTEX
  8
0
  6
CONTINUOUS
 10
62.536146
 20
133.337409
 30
0.0
  0
VERTEX
  8
0
  6
CONTINUOUS
 10
62.897273
 20
133.834649
 30
0.0
  0
VERTEX
  8
0
  6
CONTINUOUS
 10
63.323946
 20
134.188917
 30
0.0
  0
SEQEND
  8
0
  6
CONTINUOUS
  0
POLYLINE
  8
0
  6
CONTINUOUS
 66
     1
 10
0.0
 20
0.0
 30
0.0
  0
VERTEX
  8
0
  6
CONTINUOUS
 10
98.016835
 20
154.218866
 30
0.0
  0
VERTEX
  8
0
  6
CONTINUOUS
 10
80.670391
 20
144.203892
 30
0.0
  0
VERTEX
  8
0
  6
CONTINUOUS
 10
63.323946
 20
134.188917
 30
0.0
  0
SEQEND
  8
0
  6
CONTINUOUS
  0
POLYLINE
  8
0
  6
CONTINUOUS
 66
     1
 10
0.0
 20
0.0
 30
0.0
  0
VERTEX
  8
0
  6
CONTINUOUS
 10
98.016835
 20
154.218866
 30
0.0
  0
VERTEX
  8
0
  6
CONTINUOUS
 10
98.443508
 20
154.357277
 30
0.0
  0
VERTEX
  8
0
  6
CONTINUOUS
 10
98.804635
 20
154.277031
 30
0.0
  0
SEQEND
  8
0
  6
CONTINUOUS
  0
POLYLINE
  8
0
  6
CONTINUOUS
 66
     1
 10
0.0
 20
0.0
 30
0.0
  0
VERTEX
  8
0
  6
CONTINUOUS
 10
98.804635
 20
154.277031
 30
0.0
  0
VERTEX
  8
0
  6
CONTINUOUS
 10
99.054694
 20
154.004409
 30
0.0
  0
VERTEX
  8
0
  6
CONTINUOUS
 10
99.148163
 20
153.565694
 30
0.0
  0
SEQEND
  8
0
  6
CONTINUOUS
  0
POLYLINE
  8
0
  6
CONTINUOUS
 66
     1
 10
0.0
 20
0.0
 30
0.0
  0
VERTEX
  8
0
  6
CONTINUOUS
 10
99.148163
 20
153.565694
 30
0.0
  0
VERTEX
  8
0
  6
CONTINUOUS
 10
99.148163
 20
140.986276
 30
0.0
  0
VERTEX
  8
0
  6
CONTINUOUS
 10
99.148163
 20
128.406858
 30
0.0
  0
SEQEND
  8
0
  6
CONTINUOUS
  0
POLYLINE
  8
0
  6
CONTINUOUS
 66
     1
 10
0.0
 20
0.0
 30
0.0
  0
VERTEX
  8
0
  6
CONTINUOUS
 10
99.148163
 20
128.406858
 30
0.0
  0
VERTEX
  8
0
  6
CONTINUOUS
 10
99.054694
 20
127.860215
 30
0.0
  0
VERTEX
  8
0
  6
CONTINUOUS
 10
98.804635
 20
127.29885
 30
0.0
  0
SEQEND
  8
0
  6
CONTINUOUS
  0
POLYLINE
  8
0
  6
CONTINUOUS
 66
     1
 10
0.0
 20
0.0
 30
0.0
  0
VERTEX
  8
0
  6
CONTINUOUS
 10
98.804635
 20
127.29885
 30
0.0
  0
VERTEX
  8
0
  6
CONTINUOUS
 10
98.443508
 20
126.80161
 30
0.0
  0
VERTEX
  8
0
  6
CONTINUOUS
 10
98.016835
 20
126.447341
 30
0.0
  0
SEQEND
  8
0
  6
CONTINUOUS
  0
POLYLINE
  8
0
  6
CONTINUOUS
 66
     1
 10
0.0
 20
0.0
 30
0.0
  0
VERTEX
  8
0
  6
CONTINUOUS
 10
98.790002
 20
129.552664
 30
0.0
  0
VERTEX
  8
0
  6
CONTINUOUS
 10
98.582895
 20
128.85574
 30
0.0
  0
VERTEX
  8
0
  6
CONTINUOUS
 10
98.082895
 20
128.327919
 30
0.0
  0
SEQEND
  8
0
  6
CONTINUOUS
  0
POLYLINE
  8
0
  6
CONTINUOUS
 66
     1
 10
0.0
 20
0.0
 30
0.0
  0
VERTEX
  8
0
  6
CONTINUOUS
 10
98.082895
 20
154.047561
 30
0.0
  0
VERTEX
  8
0
  6
CONTINUOUS
 10
98.582895
 20
154.09709
 30
0.0
  0
VERTEX
  8
0
  6
CONTINUOUS
 10
98.790002
 20
153.639313
 30
0.0
  0
SEQEND
  8
0
  6
CONTINUOUS
  0
POLYLINE
  8
0
  6
CONTINUOUS
 66
     1
 10
0.0
 20
0.0
 30
0.0
  0
VERTEX
  8
0
  6
CONTINUOUS
 10
81.112332
 20
143.433106
 30
0.0
  0
VERTEX
  8
0
  6
CONTINUOUS
 10
81.207067
 20
143.896049
 30
0.0
  0
VERTEX
  8
0
  6
CONTINUOUS
 10
81.465886
 20
144.344337
 30
0.0
  0
VERTEX
  8
0
  6
CONTINUOUS
 10
81.819439
 20
144.65785
 30
0.0
  0
SEQEND
  8
0
  6
CONTINUOUS
  0
POLYLINE
  8
0
  6
CONTINUOUS
 66
     1
 10
0.0
 20
0.0
 30
0.0
  0
VERTEX
  8
0
  6
CONTINUOUS
 10
81.819439
 20
118.938208
 30
0.0
  0
VERTEX
  8
0
  6
CONTINUOUS
 10
81.465886
 20
118.843474
 30
0.0
  0
VERTEX
  8
0
  6
CONTINUOUS
 10
81.207067
 20
118.992903
 30
0.0
  0
VERTEX
  8
0
  6
CONTINUOUS
 10
81.112332
 20
119.346456
 30
0.0
  0
SEQEND
  8
0
  6
CONTINUOUS
  0
POLYLINE
  8
0
  6
CONTINUOUS
 66
     1
 10
0.0
 20
0.0
 30
0.0
  0
VERTEX
  8
0
  6
CONTINUOUS
 10
96.150093
 20
140.804011
 30
0.0
  0
VERTEX
  8
0
  6
CONTINUOUS
 10
96.100308
 20
140.801647
 30
0.0
  0
VERTEX
  8
0
  6
CONTINUOUS
 10
96.04995
 20
140.800879
 30
0.0
  0
SEQEND
  8
0
  6
CONTINUOUS
  0
POLYLINE
  8
0
  6
CONTINUOUS
 66
     1
 10
0.0
 20
0.0
 30
0.0
  0
VERTEX
  8
0
  6
CONTINUOUS
 10
96.491905
 20
142.105777
 30
0.0
  0
VERTEX
  8
0
  6
CONTINUOUS
 10
96.378483
 20
141.285859
 30
0.0
  0
VERTEX
  8
0
  6
CONTINUOUS
 10
96.04817
 20
140.666864
 30
0.0
  0
SEQEND
  8
0
  6
CONTINUOUS
  0
POLYLINE
  8
0
  6
CONTINUOUS
 66
     1
 10
0.0
 20
0.0
 30
0.0
  0
VERTEX
  8
0
  6
CONTINUOUS
 10
74.129653
 20
121.642853
 30
0.0
  0
VERTEX
  8
0
  6
CONTINUOUS
 10
73.892817
 20
120.485495
 30
0.0
  0
VERTEX
  8
0
  6
CONTINUOUS
 10
73.245769
 20
119.364776
 30
0.0
  0
VERTEX
  8
0
  6
CONTINUOUS
 10
72.361886
 20
118.580991
 30
0.0
  0
SEQEND
  8
0
  6
CONTINUOUS
  0
POLYLINE
  8
0
  6
CONTINUOUS
 66
     1
 10
0.0
 20
0.0
 30
0.0
  0
VERTEX
  8
0
  6
CONTINUOUS
 10
76.33273
 20
134.096821
 30
0.0
  0
VERTEX
  8
0
  6
CONTINUOUS
 10
76.292799
 20
134.14084
 30
0.0
  0
VERTEX
  8
0
  6
CONTINUOUS
 10
76.278744
 20
134.21249
 30
0.0
  0
SEQEND
  8
0
  6
CONTINUOUS
  0
POLYLINE
  8
0
  6
CONTINUOUS
 66
     1
 10
0.0
 20
0.0
 30
0.0
  0
VERTEX
  8
0
  6
CONTINUOUS
 10
76.278744
 20
131.661001
 30
0.0
  0
VERTEX
  8
0
  6
CONTINUOUS
 10
76.33051
 20
131.835207
 30
0.0
  0
VERTEX
  8
0
  6
CONTINUOUS
 10
76.455494
 20
131.96714
 30
0.0
  0
SEQEND
  8
0
  6
CONTINUOUS
  0
POLYLINE
  8
0
  6
CONTINUOUS
 66
     1
 10
0.0
 20
0.0
 30
0.0
  0
VERTEX
  8
0
  6
CONTINUOUS
 10
76.278744
 20
127.986704
 30
0.0
  0
VERTEX
  8
0
  6
CONTINUOUS
 10
76.292799
 20
127.915053
 30
0.0
  0
VERTEX
  8
0
  6
CONTINUOUS
 10
76.33273
 20
127.871034
 30
0.0
  0
SEQEND
  8
0
  6
CONTINUOUS
  0
POLYLINE
  8
0
  6
CONTINUOUS
 66
     1
 10
0.0
 20
0.0
 30
0.0
  0
VERTEX
  8
0
  6
CONTINUOUS
 10
76.455494
 20
125.741354
 30
0.0
  0
VERTEX
  8
0
  6
CONTINUOUS
 10
76.33051
 20
125.609421
 30
0.0
  0
VERTEX
  8
0
  6
CONTINUOUS
 10
76.278744
 20
125.435214
 30
0.0
  0
SEQEND
  8
0
  6
CONTINUOUS
  0
POLYLINE
  8
0
  6
CONTINUOUS
 66
     1
 10
0.0
 20
0.0
 30
0.0
  0
VERTEX
  8
0
  6
CONTINUOUS
 10
74.713969
 20
126.017883
 30
0.0
  0
VERTEX
  8
0
  6
CONTINUOUS
 10
74.674038
 20
126.061903
 30
0.0
  0
VERTEX
  8
0
  6
CONTINUOUS
 10
74.659983
 20
126.133553
 30
0.0
  0
SEQEND
  8
0
  6
CONTINUOUS
  0
POLYLINE
  8
0
  6
CONTINUOUS
 66
     1
 10
0.0
 20
0.0
 30
0.0
  0
VERTEX
  8
0
  6
CONTINUOUS
 10
75.870272
 20
136.159718
 30
0.0
  0
VERTEX
  8
0
  6
CONTINUOUS
 10
75.812185
 20
136.172289
 30
0.0
  0
VERTEX
  8
0
  6
CONTINUOUS
 10
75.743106
 20
136.148636
 30
0.0
  0
SEQEND
  8
0
  6
CONTINUOUS
  0
POLYLINE
  8
0
  6
CONTINUOUS
 66
     1
 10
0.0
 20
0.0
 30
0.0
  0
VERTEX
  8
0
  6
CONTINUOUS
 10
74.836733
 20
135.625341
 30
0.0
  0
VERTEX
  8
0
  6
CONTINUOUS
 10
74.711748
 20
135.493408
 30
0.0
  0
VERTEX
  8
0
  6
CONTINUOUS
 10
74.659983
 20
135.319202
 30
0.0
  0
SEQEND
  8
0
  6
CONTINUOUS
  0
POLYLINE
  8
0
  6
CONTINUOUS
 66
     1
 10
0.0
 20
0.0
 30
0.0
  0
VERTEX
  8
0
  6
CONTINUOUS
 10
77.930352
 20
131.389259
 30
0.0
  0
VERTEX
  8
0
  6
CONTINUOUS
 10
77.81693
 20
130.569341
 30
0.0
  0
VERTEX
  8
0
  6
CONTINUOUS
 10
77.486617
 20
129.950347
 30
0.0
  0
SEQEND
  8
0
  6
CONTINUOUS
  0
POLYLINE
  8
0
  6
CONTINUOUS
 66
     1
 10
0.0
 20
0.0
 30
0.0
  0
VERTEX
  8
0
  6
CONTINUOUS
 10
81.271139
 20
134.770967
 30
0.0
  0
VERTEX
  8
0
  6
CONTINUOUS
 10
81.293105
 20
134.704787
 30
0.0
  0
VERTEX
  8
0
  6
CONTINUOUS
 10
81.314277
 20
134.63864
 30
0.0
  0
SEQEND
  8
0
  6
CONTINUOUS
  0
POLYLINE
  8
0
  6
CONTINUOUS
 66
     1
 10
0.0
 20
0.0
 30
0.0
  0
VERTEX
  8
0
  6
CONTINUOUS
 10
82.968488
 20
124.296467
 30
0.0
  0
VERTEX
  8
0
  6
CONTINUOUS
 10
82.029281
 20
124.066145
 30
0.0
  0
VERTEX
  8
0
  6
CONTINUOUS
 10
81.377122
 20
124.530073
 30
0.0
  0
SEQEND
  8
0
  6
CONTINUOUS
  0
POLYLINE
  8
0
  6
CONTINUOUS
 66
     1
 10
0.0
 20
0.0
 30
0.0
  0
VERTEX
  8
0
  6
CONTINUOUS
 10
82.614934
 20
124.500591
 30
0.0
  0
VERTEX
  8
0
  6
CONTINUOUS
 10
82.056852
 20
124.282773
 30
0.0
  0
VERTEX
  8
0
  6
CONTINUOUS
 10
81.555852
 20
124.296013
 30
0.0
  0
SEQEND
  8
0
  6
CONTINUOUS
  0
POLYLINE
  8
0
  6
CONTINUOUS
 66
     1
 10
0.0
 20
0.0
 30
0.0
  0
VERTEX
  8
0
  6
CONTINUOUS
 10
93.398286
 20
146.341859
 30
0.0
  0
VERTEX
  8
0
  6
CONTINUOUS
 10
93.273301
 20
146.209926
 30
0.0
  0
VERTEX
  8
0
  6
CONTINUOUS
 10
93.221536
 20
146.03572
 30
0.0
  0
SEQEND
  8
0
  6
CONTINUOUS
  0
POLYLINE
  8
0
  6
CONTINUOUS
 66
     1
 10
0.0
 20
0.0
 30
0.0
  0
VERTEX
  8
0
  6
CONTINUOUS
 10
94.894283
 20
144.813338
 30
0.0
  0
VERTEX
  8
0
  6
CONTINUOUS
 10
94.854352
 20
144.857358
 30
0.0
  0
VERTEX
  8
0
  6
CONTINUOUS
 10
94.840297
 20
144.929008
 30
0.0
  0
SEQEND
  8
0
  6
CONTINUOUS
  0
POLYLINE
  8
0
  6
CONTINUOUS
 66
     1
 10
0.0
 20
0.0
 30
0.0
  0
VERTEX
  8
0
  6
CONTINUOUS
 10
94.840297
 20
142.377518
 30
0.0
  0
VERTEX
  8
0
  6
CONTINUOUS
 10
94.892063
 20
142.551725
 30
0.0
  0
VERTEX
  8
0
  6
CONTINUOUS
 10
95.017047
 20
142.683658
 30
0.0
  0
SEQEND
  8
0
  6
CONTINUOUS
  0
POLYLINE
  8
0
  6
CONTINUOUS
 66
     1
 10
0.0
 20
0.0
 30
0.0
  0
VERTEX
  8
0
  6
CONTINUOUS
 10
94.840297
 20
138.703222
 30
0.0
  0
VERTEX
  8
0
  6
CONTINUOUS
 10
94.854352
 20
138.631571
 30
0.0
  0
VERTEX
  8
0
  6
CONTINUOUS
 10
94.894283
 20
138.587552
 30
0.0
  0
SEQEND
  8
0
  6
CONTINUOUS
  0
POLYLINE
  8
0
  6
CONTINUOUS
 66
     1
 10
0.0
 20
0.0
 30
0.0
  0
VERTEX
  8
0
  6
CONTINUOUS
 10
95.017047
 20
136.457872
 30
0.0
  0
VERTEX
  8
0
  6
CONTINUOUS
 10
94.892063
 20
136.325938
 30
0.0
  0
VERTEX
  8
0
  6
CONTINUOUS
 10
94.840297
 20
136.151732
 30
0.0
  0
SEQEND
  8
0
  6
CONTINUOUS
  0
POLYLINE
  8
0
  6
CONTINUOUS
 66
     1
 10
0.0
 20
0.0
 30
0.0
  0
VERTEX
  8
0
  6
CONTINUOUS
 10
95.736496
 20
136.042497
 30
0.0
  0
VERTEX
  8
0
  6
CONTINUOUS
 10
95.611512
 20
135.910564
 30
0.0
  0
VERTEX
  8
0
  6
CONTINUOUS
 10
95.559746
 20
135.736358
 30
0.0
  0
SEQEND
  8
0
  6
CONTINUOUS
  0
POLYLINE
  8
0
  6
CONTINUOUS
 66
     1
 10
0.0
 20
0.0
 30
0.0
  0
VERTEX
  8
0
  6
CONTINUOUS
 10
95.559746
 20
138.316351
 30
0.0
  0
VERTEX
  8
0
  6
CONTINUOUS
 10
95.611512
 20
138.201919
 30
0.0
  0
VERTEX
  8
0
  6
CONTINUOUS
 10
95.736496
 20
138.214305
 30
0.0
  0
SEQEND
  8
0
  6
CONTINUOUS
  0
POLYLINE
  8
0
  6
CONTINUOUS
 66
     1
 10
0.0
 20
0.0
 30
0.0
  0
VERTEX
  8
0
  6
CONTINUOUS
 10
95.736496
 20
142.268284
 30
0.0
  0
VERTEX
  8
0
  6
CONTINUOUS
 10
95.611512
 20
142.13635
 30
0.0
  0
VERTEX
  8
0
  6
CONTINUOUS
 10
95.559746
 20
141.962144
 30
0.0
  0
SEQEND
  8
0
  6
CONTINUOUS
  0
POLYLINE
  8
0
  6
CONTINUOUS
 66
     1
 10
0.0
 20
0.0
 30
0.0
  0
VERTEX
  8
0
  6
CONTINUOUS
 10
95.559746
 20
144.542138
 30
0.0
  0
VERTEX
  8
0
  6
CONTINUOUS
 10
95.611512
 20
144.427705
 30
0.0
  0
VERTEX
  8
0
  6
CONTINUOUS
 10
95.736496
 20
144.440091
 30
0.0
  0
SEQEND
  8
0
  6
CONTINUOUS
  0
POLYLINE
  8
0
  6
CONTINUOUS
 66
     1
 10
0.0
 20
0.0
 30
0.0
  0
VERTEX
  8
0
  6
CONTINUOUS
 10
95.736496
 20
144.991893
 30
0.0
  0
VERTEX
  8
0
  6
CONTINUOUS
 10
95.611512
 20
144.859959
 30
0.0
  0
VERTEX
  8
0
  6
CONTINUOUS
 10
95.559746
 20
144.685753
 30
0.0
  0
SEQEND
  8
0
  6
CONTINUOUS
  0
POLYLINE
  8
0
  6
CONTINUOUS
 66
     1
 10
0.0
 20
0.0
 30
0.0
  0
VERTEX
  8
0
  6
CONTINUOUS
 10
96.739392
 20
145.366822
 30
0.0
  0
VERTEX
  8
0
  6
CONTINUOUS
 10
96.687627
 20
145.481254
 30
0.0
  0
VERTEX
  8
0
  6
CONTINUOUS
 10
96.562642
 20
145.468868
 30
0.0
  0
SEQEND
  8
0
  6
CONTINUOUS
  0
POLYLINE
  8
0
  6
CONTINUOUS
 66
     1
 10
0.0
 20
0.0
 30
0.0
  0
VERTEX
  8
0
  6
CONTINUOUS
 10
96.562642
 20
142.147139
 30
0.0
  0
VERTEX
  8
0
  6
CONTINUOUS
 10
96.687627
 20
142.279072
 30
0.0
  0
VERTEX
  8
0
  6
CONTINUOUS
 10
96.739392
 20
142.453279
 30
0.0
  0
SEQEND
  8
0
  6
CONTINUOUS
  0
POLYLINE
  8
0
  6
CONTINUOUS
 66
     1
 10
0.0
 20
0.0
 30
0.0
  0
VERTEX
  8
0
  6
CONTINUOUS
 10
96.739392
 20
139.187354
 30
0.0
  0
VERTEX
  8
0
  6
CONTINUOUS
 10
96.687627
 20
139.301787
 30
0.0
  0
VERTEX
  8
0
  6
CONTINUOUS
 10
96.562642
 20
139.289401
 30
0.0
  0
SEQEND
  8
0
  6
CONTINUOUS
  0
POLYLINE
  8
0
  6
CONTINUOUS
 66
     1
 10
0.0
 20
0.0
 30
0.0
  0
VERTEX
  8
0
  6
CONTINUOUS
 10
95.559746
 20
135.592742
 30
0.0
  0
VERTEX
  8
0
  6
CONTINUOUS
 10
95.611512
 20
135.47831
 30
0.0
  0
VERTEX
  8
0
  6
CONTINUOUS
 10
95.736496
 20
135.490696
 30
0.0
  0
SEQEND
  8
0
  6
CONTINUOUS
  0
POLYLINE
  8
0
  6
CONTINUOUS
 66
     1
 10
0.0
 20
0.0
 30
0.0
  0
VERTEX
  8
0
  6
CONTINUOUS
 10
93.275522
 20
136.734401
 30
0.0
  0
VERTEX
  8
0
  6
CONTINUOUS
 10
93.235591
 20
136.77842
 30
0.0
  0
VERTEX
  8
0
  6
CONTINUOUS
 10
93.221536
 20
136.850071
 30
0.0
  0
SEQEND
  8
0
  6
CONTINUOUS
  0
POLYLINE
  8
0
  6
CONTINUOUS
 66
     1
 10
0.0
 20
0.0
 30
0.0
  0
VERTEX
  8
0
  6
CONTINUOUS
 10
96.562642
 20
135.967672
 30
0.0
  0
VERTEX
  8
0
  6
CONTINUOUS
 10
96.687627
 20
136.099605
 30
0.0
  0
VERTEX
  8
0
  6
CONTINUOUS
 10
96.739392
 20
136.273811
 30
0.0
  0
SEQEND
  8
0
  6
CONTINUOUS
  0
POLYLINE
  8
0
  6
CONTINUOUS
 66
     1
 10
0.0
 20
0.0
 30
0.0
  0
VERTEX
  8
0
  6
CONTINUOUS
 10
76.998193
 20
124.876225
 30
0.0
  0
VERTEX
  8
0
  6
CONTINUOUS
 10
77.049959
 20
124.761792
 30
0.0
  0
VERTEX
  8
0
  6
CONTINUOUS
 10
77.174943
 20
124.774178
 30
0.0
  0
SEQEND
  8
0
  6
CONTINUOUS
  0
POLYLINE
  8
0
  6
CONTINUOUS
 66
     1
 10
0.0
 20
0.0
 30
0.0
  0
VERTEX
  8
0
  6
CONTINUOUS
 10
77.174943
 20
125.32598
 30
0.0
  0
VERTEX
  8
0
  6
CONTINUOUS
 10
77.049959
 20
125.194046
 30
0.0
  0
VERTEX
  8
0
  6
CONTINUOUS
 10
76.998193
 20
125.01984
 30
0.0
  0
SEQEND
  8
0
  6
CONTINUOUS
  0
POLYLINE
  8
0
  6
CONTINUOUS
 66
     1
 10
0.0
 20
0.0
 30
0.0
  0
VERTEX
  8
0
  6
CONTINUOUS
 10
76.998193
 20
127.599834
 30
0.0
  0
VERTEX
  8
0
  6
CONTINUOUS
 10
77.049959
 20
127.485401
 30
0.0
  0
VERTEX
  8
0
  6
CONTINUOUS
 10
77.174943
 20
127.497787
 30
0.0
  0
SEQEND
  8
0
  6
CONTINUOUS
  0
POLYLINE
  8
0
  6
CONTINUOUS
 66
     1
 10
0.0
 20
0.0
 30
0.0
  0
VERTEX
  8
0
  6
CONTINUOUS
 10
77.174943
 20
131.551766
 30
0.0
  0
VERTEX
  8
0
  6
CONTINUOUS
 10
77.049959
 20
131.419833
 30
0.0
  0
VERTEX
  8
0
  6
CONTINUOUS
 10
76.998193
 20
131.245626
 30
0.0
  0
SEQEND
  8
0
  6
CONTINUOUS
  0
POLYLINE
  8
0
  6
CONTINUOUS
 66
     1
 10
0.0
 20
0.0
 30
0.0
  0
VERTEX
  8
0
  6
CONTINUOUS
 10
76.998193
 20
133.82562
 30
0.0
  0
VERTEX
  8
0
  6
CONTINUOUS
 10
77.049959
 20
133.711188
 30
0.0
  0
VERTEX
  8
0
  6
CONTINUOUS
 10
77.174943
 20
133.723574
 30
0.0
  0
SEQEND
  8
0
  6
CONTINUOUS
  0
POLYLINE
  8
0
  6
CONTINUOUS
 66
     1
 10
0.0
 20
0.0
 30
0.0
  0
VERTEX
  8
0
  6
CONTINUOUS
 10
77.174943
 20
134.275375
 30
0.0
  0
VERTEX
  8
0
  6
CONTINUOUS
 10
77.049959
 20
134.143442
 30
0.0
  0
VERTEX
  8
0
  6
CONTINUOUS
 10
76.998193
 20
133.969235
 30
0.0
  0
SEQEND
  8
0
  6
CONTINUOUS
  0
POLYLINE
  8
0
  6
CONTINUOUS
 66
     1
 10
0.0
 20
0.0
 30
0.0
  0
VERTEX
  8
0
  6
CONTINUOUS
 10
78.177839
 20
134.650304
 30
0.0
  0
VERTEX
  8
0
  6
CONTINUOUS
 10
78.126074
 20
134.764737
 30
0.0
  0
VERTEX
  8
0
  6
CONTINUOUS
 10
78.001089
 20
134.752351
 30
0.0
  0
SEQEND
  8
0
  6
CONTINUOUS
  0
POLYLINE
  8
0
  6
CONTINUOUS
 66
     1
 10
0.0
 20
0.0
 30
0.0
  0
VERTEX
  8
0
  6
CONTINUOUS
 10
78.001089
 20
131.430621
 30
0.0
  0
VERTEX
  8
0
  6
CONTINUOUS
 10
78.126074
 20
131.562555
 30
0.0
  0
VERTEX
  8
0
  6
CONTINUOUS
 10
78.177839
 20
131.736761
 30
0.0
  0
SEQEND
  8
0
  6
CONTINUOUS
  0
POLYLINE
  8
0
  6
CONTINUOUS
 66
     1
 10
0.0
 20
0.0
 30
0.0
  0
VERTEX
  8
0
  6
CONTINUOUS
 10
78.177839
 20
128.470837
 30
0.0
  0
VERTEX
  8
0
  6
CONTINUOUS
 10
78.126074
 20
128.585269
 30
0.0
  0
VERTEX
  8
0
  6
CONTINUOUS
 10
78.001089
 20
128.572883
 30
0.0
  0
SEQEND
  8
0
  6
CONTINUOUS
  0
POLYLINE
  8
0
  6
CONTINUOUS
 66
     1
 10
0.0
 20
0.0
 30
0.0
  0
VERTEX
  8
0
  6
CONTINUOUS
 10
78.001089
 20
125.251154
 30
0.0
  0
VERTEX
  8
0
  6
CONTINUOUS
 10
78.126074
 20
125.383087
 30
0.0
  0
VERTEX
  8
0
  6
CONTINUOUS
 10
78.177839
 20
125.557294
 30
0.0
  0
SEQEND
  8
0
  6
CONTINUOUS
  0
POLYLINE
  8
0
  6
CONTINUOUS
 66
     1
 10
0.0
 20
0.0
 30
0.0
  0
VERTEX
  8
0
  6
CONTINUOUS
 10
78.179251
 20
134.434652
 30
0.0
  0
VERTEX
  8
0
  6
CONTINUOUS
 10
78.990615
 20
131.537709
 30
0.0
  0
VERTEX
  8
0
  6
CONTINUOUS
 10
78.111292
 20
129.648632
 30
0.0
  0
SEQEND
  8
0
  6
CONTINUOUS
  0
POLYLINE
  8
0
  6
CONTINUOUS
 66
     1
 10
0.0
 20
0.0
 30
0.0
  0
VERTEX
  8
0
  6
CONTINUOUS
 10
77.400022
 20
135.574326
 30
0.0
  0
VERTEX
  8
0
  6
CONTINUOUS
 10
77.654451
 20
135.2516
 30
0.0
  0
VERTEX
  8
0
  6
CONTINUOUS
 10
77.892635
 20
134.910157
 30
0.0
  0
SEQEND
  8
0
  6
CONTINUOUS
  0
POLYLINE
  8
0
  6
CONTINUOUS
 66
     1
 10
0.0
 20
0.0
 30
0.0
  0
VERTEX
  8
0
  6
CONTINUOUS
 10
78.177846
 20
132.160643
 30
0.0
  0
VERTEX
  8
0
  6
CONTINUOUS
 10
78.198338
 20
130.412891
 30
0.0
  0
VERTEX
  8
0
  6
CONTINUOUS
 10
77.488057
 20
129.292837
 30
0.0
  0
SEQEND
  8
0
  6
CONTINUOUS
  0
POLYLINE
  8
0
  6
CONTINUOUS
 66
     1
 10
0.0
 20
0.0
 30
0.0
  0
VERTEX
  8
0
  6
CONTINUOUS
 10
31.01626
 20
82.668664
 30
0.0
  0
VERTEX
  8
0
  6
CONTINUOUS
 10
31.287208
 20
82.437417
 30
0.0
  0
VERTEX
  8
0
  6
CONTINUOUS
 10
31.488753
 20
82.096091
 30
0.0
  0
VERTEX
  8
0
  6
CONTINUOUS
 10
31.564564
 20
81.740088
 30
0.0
  0
SEQEND
  8
0
  6
CONTINUOUS
  0
POLYLINE
  8
0
  6
CONTINUOUS
 66
     1
 10
0.0
 20
0.0
 30
0.0
  0
VERTEX
  8
0
  6
CONTINUOUS
 10
31.568563
 20
81.206382
 30
0.0
  0
VERTEX
  8
0
  6
CONTINUOUS
 10
31.522977
 20
81.064728
 30
0.0
  0
VERTEX
  8
0
  6
CONTINUOUS
 10
31.401103
 20
81.031278
 30
0.0
  0
VERTEX
  8
0
  6
CONTINUOUS
 10
31.249494
 20
81.11881
 30
0.0
  0
VERTEX
  8
0
  6
CONTINUOUS
 10
31.126059
 20
81.293889
 30
0.0
  0
VERTEX
  8
0
  6
CONTINUOUS
 10
31.077945
 20
81.489641
 30
0.0
  0
SEQEND
  8
0
  6
CONTINUOUS
  0
POLYLINE
  8
0
  6
CONTINUOUS
 66
     1
 10
0.0
 20
0.0
 30
0.0
  0
VERTEX
  8
0
  6
CONTINUOUS
 10
30.89245
 20
82.163086
 30
0.0
  0
VERTEX
  8
0
  6
CONTINUOUS
 10
30.982766
 20
82.086004
 30
0.0
  0
VERTEX
  8
0
  6
CONTINUOUS
 10
31.049948
 20
81.972229
 30
0.0
  0
VERTEX
  8
0
  6
CONTINUOUS
 10
31.075219
 20
81.853561
 30
0.0
  0
SEQEND
  8
0
  6
CONTINUOUS
  0
POLYLINE
  8
0
  6
CONTINUOUS
 66
     1
 10
0.0
 20
0.0
 30
0.0
  0
VERTEX
  8
0
  6
CONTINUOUS
 10
25.574841
 20
84.82316
 30
0.0
  0
VERTEX
  8
0
  6
CONTINUOUS
 10
25.622987
 20
84.937203
 30
0.0
  0
VERTEX
  8
0
  6
CONTINUOUS
 10
25.742514
 20
84.930358
 30
0.0
  0
SEQEND
  8
0
  6
CONTINUOUS
  0
POLYLINE
  8
0
  6
CONTINUOUS
 66
     1
 10
0.0
 20
0.0
 30
0.0
  0
VERTEX
  8
0
  6
CONTINUOUS
 10
25.988809
 20
76.141089
 30
0.0
  0
VERTEX
  8
0
  6
CONTINUOUS
 10
25.74011
 20
76.404249
 30
0.0
  0
VERTEX
  8
0
  6
CONTINUOUS
 10
25.635296
 20
76.753438
 30
0.0
  0
SEQEND
  8
0
  6
CONTINUOUS
  0
POLYLINE
  8
0
  6
CONTINUOUS
 66
     1
 10
0.0
 20
0.0
 30
0.0
  0
VERTEX
  8
0
  6
CONTINUOUS
 10
29.910679
 20
74.285045
 30
0.0
  0
VERTEX
  8
0
  6
CONTINUOUS
 10
29.865265
 20
74.10714
 30
0.0
  0
VERTEX
  8
0
  6
CONTINUOUS
 10
29.738119
 20
74.031119
 30
0.0
  0
VERTEX
  8
0
  6
CONTINUOUS
 10
29.56331
 20
74.07735
 30
0.0
  0
SEQEND
  8
0
  6
CONTINUOUS
  0
POLYLINE
  8
0
  6
CONTINUOUS
 66
     1
 10
0.0
 20
0.0
 30
0.0
  0
VERTEX
  8
0
  6
CONTINUOUS
 10
29.906686
 20
74.818073
 30
0.0
  0
VERTEX
  8
0
  6
CONTINUOUS
 10
29.974808
 20
75.084929
 30
0.0
  0
VERTEX
  8
0
  6
CONTINUOUS
 10
30.165527
 20
75.198961
 30
0.0
  0
VERTEX
  8
0
  6
CONTINUOUS
 10
30.427741
 20
75.129614
 30
0.0
  0
SEQEND
  8
0
  6
CONTINUOUS
  0
POLYLINE
  8
0
  6
CONTINUOUS
 66
     1
 10
0.0
 20
0.0
 30
0.0
  0
VERTEX
  8
0
  6
CONTINUOUS
 10
31.127087
 20
74.92997
 30
0.0
  0
VERTEX
  8
0
  6
CONTINUOUS
 10
31.10438
 20
74.841018
 30
0.0
  0
VERTEX
  8
0
  6
CONTINUOUS
 10
31.040807
 20
74.803008
 30
0.0
  0
VERTEX
  8
0
  6
CONTINUOUS
 10
30.953402
 20
74.826123
 30
0.0
  0
SEQEND
  8
0
  6
CONTINUOUS
  0
POLYLINE
  8
0
  6
CONTINUOUS
 66
     1
 10
0.0
 20
0.0
 30
0.0
  0
VERTEX
  8
0
  6
CONTINUOUS
 10
31.124016
 20
75.339992
 30
0.0
  0
VERTEX
  8
0
  6
CONTINUOUS
 10
31.155806
 20
75.464525
 30
0.0
  0
VERTEX
  8
0
  6
CONTINUOUS
 10
31.244808
 20
75.51774
 30
0.0
  0
VERTEX
  8
0
  6
CONTINUOUS
 10
31.367174
 20
75.485378
 30
0.0
  0
VERTEX
  8
0
  6
CONTINUOUS
 10
31.490117
 20
75.376111
 30
0.0
  0
VERTEX
  8
0
  6
CONTINUOUS
 10
31.580693
 20
75.219216
 30
0.0
  0
VERTEX
  8
0
  6
CONTINUOUS
 10
31.614633
 20
75.056734
 30
0.0
  0
SEQEND
  8
0
  6
CONTINUOUS
  0
POLYLINE
  8
0
  6
CONTINUOUS
 66
     1
 10
0.0
 20
0.0
 30
0.0
  0
VERTEX
  8
0
  6
CONTINUOUS
 10
31.623887
 20
73.82157
 30
0.0
  0
VERTEX
  8
0
  6
CONTINUOUS
 10
31.601595
 20
73.623115
 30
0.0
  0
VERTEX
  8
0
  6
CONTINUOUS
 10
31.533058
 20
73.465762
 30
0.0
  0
SEQEND
  8
0
  6
CONTINUOUS
  0
POLYLINE
  8
0
  6
CONTINUOUS
 66
     1
 10
0.0
 20
0.0
 30
0.0
  0
VERTEX
  8
0
  6
CONTINUOUS
 10
31.326317
 20
73.161539
 30
0.0
  0
VERTEX
  8
0
  6
CONTINUOUS
 10
31.242277
 20
73.123536
 30
0.0
  0
VERTEX
  8
0
  6
CONTINUOUS
 10
31.129937
 20
73.179813
 30
0.0
  0
VERTEX
  8
0
  6
CONTINUOUS
 10
31.035727
 20
73.307111
 30
0.0
  0
VERTEX
  8
0
  6
CONTINUOUS
 10
30.998583
 20
73.452819
 30
0.0
  0
SEQEND
  8
0
  6
CONTINUOUS
  0
POLYLINE
  8
0
  6
CONTINUOUS
 66
     1
 10
0.0
 20
0.0
 30
0.0
  0
VERTEX
  8
0
  6
CONTINUOUS
 10
30.817526
 20
74.333024
 30
0.0
  0
VERTEX
  8
0
  6
CONTINUOUS
 10
30.941876
 20
74.201444
 30
0.0
  0
VERTEX
  8
0
  6
CONTINUOUS
 10
30.994283
 20
74.026849
 30
0.0
  0
SEQEND
  8
0
  6
CONTINUOUS
  0
POLYLINE
  8
0
  6
CONTINUOUS
 66
     1
 10
0.0
 20
0.0
 30
0.0
  0
VERTEX
  8
0
  6
CONTINUOUS
 10
30.398533
 20
74.370806
 30
0.0
  0
VERTEX
  8
0
  6
CONTINUOUS
 10
30.42124
 20
74.459758
 30
0.0
  0
VERTEX
  8
0
  6
CONTINUOUS
 10
30.484813
 20
74.497769
 30
0.0
  0
VERTEX
  8
0
  6
CONTINUOUS
 10
30.572217
 20
74.474653
 30
0.0
  0
SEQEND
  8
0
  6
CONTINUOUS
  0
POLYLINE
  8
0
  6
CONTINUOUS
 66
     1
 10
0.0
 20
0.0
 30
0.0
  0
VERTEX
  8
0
  6
CONTINUOUS
 10
30.407133
 20
73.222745
 30
0.0
  0
VERTEX
  8
0
  6
CONTINUOUS
 10
30.356899
 20
73.10741
 30
0.0
  0
VERTEX
  8
0
  6
CONTINUOUS
 10
30.233449
 20
73.118898
 30
0.0
  0
SEQEND
  8
0
  6
CONTINUOUS
  0
POLYLINE
  8
0
  6
CONTINUOUS
 66
     1
 10
0.0
 20
0.0
 30
0.0
  0
VERTEX
  8
0
  6
CONTINUOUS
 10
25.327271
 20
75.951481
 30
0.0
  0
VERTEX
  8
0
  6
CONTINUOUS
 10
25.239455
 20
76.029529
 30
0.0
  0
VERTEX
  8
0
  6
CONTINUOUS
 10
25.174757
 20
76.141597
 30
0.0
  0
VERTEX
  8
0
  6
CONTINUOUS
 10
25.150514
 20
76.257655
 30
0.0
  0
SEQEND
  8
0
  6
CONTINUOUS
  0
POLYLINE
  8
0
  6
CONTINUOUS
 66
     1
 10
0.0
 20
0.0
 30
0.0
  0
VERTEX
  8
0
  6
CONTINUOUS
 10
25.0
 20
96.348721
 30
0.0
  0
VERTEX
  8
0
  6
CONTINUOUS
 10
25.022707
 20
96.437673
 30
0.0
  0
VERTEX
  8
0
  6
CONTINUOUS
 10
25.08628
 20
96.475684
 30
0.0
  0
VERTEX
  8
0
  6
CONTINUOUS
 10
25.173685
 20
96.452568
 30
0.0
  0
SEQEND
  8
0
  6
CONTINUOUS
  0
POLYLINE
  8
0
  6
CONTINUOUS
 66
     1
 10
0.0
 20
0.0
 30
0.0
  0
VERTEX
  8
0
  6
CONTINUOUS
 10
114.208139
 20
147.052675
 30
0.0
  0
VERTEX
  8
0
  6
CONTINUOUS
 10
114.264087
 20
147.063245
 30
0.0
  0
VERTEX
  8
0
  6
CONTINUOUS
 10
114.329962
 20
147.04024
 30
0.0
  0
SEQEND
  8
0
  6
CONTINUOUS
  0
POLYLINE
  8
0
  6
CONTINUOUS
 66
     1
 10
0.0
 20
0.0
 30
0.0
  0
VERTEX
  8
0
  6
CONTINUOUS
 10
30.079863
 20
93.619985
 30
0.0
  0
VERTEX
  8
0
  6
CONTINUOUS
 10
30.167679
 20
93.541937
 30
0.0
  0
VERTEX
  8
0
  6
CONTINUOUS
 10
30.232376
 20
93.429869
 30
0.0
  0
VERTEX
  8
0
  6
CONTINUOUS
 10
30.256619
 20
93.31381
 30
0.0
  0
SEQEND
  8
0
  6
CONTINUOUS
  0
POLYLINE
  8
0
  6
CONTINUOUS
 66
     1
 10
0.0
 20
0.0
 30
0.0
  0
VERTEX
  8
0
  6
CONTINUOUS
 10
119.23614
 20
144.207657
 30
0.0
  0
VERTEX
  8
0
  6
CONTINUOUS
 10
119.335727
 20
144.114204
 30
0.0
  0
VERTEX
  8
0
  6
CONTINUOUS
 10
119.40077
 20
143.981449
 30
0.0
  0
SEQEND
  8
0
  6
CONTINUOUS
  0
POLYLINE
  8
0
  6
CONTINUOUS
 66
     1
 10
0.0
 20
0.0
 30
0.0
  0
VERTEX
  8
0
  6
CONTINUOUS
 10
30.441977
 20
91.859575
 30
0.0
  0
VERTEX
  8
0
  6
CONTINUOUS
 10
30.317627
 20
91.991155
 30
0.0
  0
VERTEX
  8
0
  6
CONTINUOUS
 10
30.26522
 20
92.16575
 30
0.0
  0
SEQEND
  8
0
  6
CONTINUOUS
  0
POLYLINE
  8
0
  6
CONTINUOUS
 66
     1
 10
0.0
 20
0.0
 30
0.0
  0
VERTEX
  8
0
  6
CONTINUOUS
 10
30.86097
 20
91.821793
 30
0.0
  0
VERTEX
  8
0
  6
CONTINUOUS
 10
30.838263
 20
91.732841
 30
0.0
  0
VERTEX
  8
0
  6
CONTINUOUS
 10
30.77469
 20
91.69483
 30
0.0
  0
VERTEX
  8
0
  6
CONTINUOUS
 10
30.687286
 20
91.717946
 30
0.0
  0
SEQEND
  8
0
  6
CONTINUOUS
  0
POLYLINE
  8
0
  6
CONTINUOUS
 66
     1
 10
0.0
 20
0.0
 30
0.0
  0
VERTEX
  8
0
  6
CONTINUOUS
 10
30.85667
 20
92.395824
 30
0.0
  0
VERTEX
  8
0
  6
CONTINUOUS
 10
30.891944
 20
92.499721
 30
0.0
  0
VERTEX
  8
0
  6
CONTINUOUS
 10
30.985057
 20
92.518868
 30
0.0
  0
VERTEX
  8
0
  6
CONTINUOUS
 10
31.097526
 20
92.445352
 30
0.0
  0
VERTEX
  8
0
  6
CONTINUOUS
 10
31.182868
 20
92.309555
 30
0.0
  0
SEQEND
  8
0
  6
CONTINUOUS
  0
POLYLINE
  8
0
  6
CONTINUOUS
 66
     1
 10
0.0
 20
0.0
 30
0.0
  0
VERTEX
  8
0
  6
CONTINUOUS
 10
31.395983
 20
91.762929
 30
0.0
  0
VERTEX
  8
0
  6
CONTINUOUS
 10
31.467483
 20
91.524725
 30
0.0
  0
VERTEX
  8
0
  6
CONTINUOUS
 10
31.492955
 20
91.298694
 30
0.0
  0
SEQEND
  8
0
  6
CONTINUOUS
  0
POLYLINE
  8
0
  6
CONTINUOUS
 66
     1
 10
0.0
 20
0.0
 30
0.0
  0
VERTEX
  8
0
  6
CONTINUOUS
 10
31.502208
 20
90.06353
 30
0.0
  0
VERTEX
  8
0
  6
CONTINUOUS
 10
31.456623
 20
89.921875
 30
0.0
  0
VERTEX
  8
0
  6
CONTINUOUS
 10
31.334749
 20
89.888425
 30
0.0
  0
VERTEX
  8
0
  6
CONTINUOUS
 10
31.18314
 20
89.975957
 30
0.0
  0
VERTEX
  8
0
  6
CONTINUOUS
 10
31.059704
 20
90.151036
 30
0.0
  0
VERTEX
  8
0
  6
CONTINUOUS
 10
31.011591
 20
90.346788
 30
0.0
  0
SEQEND
  8
0
  6
CONTINUOUS
  0
POLYLINE
  8
0
  6
CONTINUOUS
 66
     1
 10
0.0
 20
0.0
 30
0.0
  0
VERTEX
  8
0
  6
CONTINUOUS
 10
30.831762
 20
91.062984
 30
0.0
  0
VERTEX
  8
0
  6
CONTINUOUS
 10
30.956112
 20
90.931405
 30
0.0
  0
VERTEX
  8
0
  6
CONTINUOUS
 10
31.008519
 20
90.75681
 30
0.0
  0
SEQEND
  8
0
  6
CONTINUOUS
  0
POLYLINE
  8
0
  6
CONTINUOUS
 66
     1
 10
0.0
 20
0.0
 30
0.0
  0
VERTEX
  8
0
  6
CONTINUOUS
 10
30.306101
 20
91.366476
 30
0.0
  0
VERTEX
  8
0
  6
CONTINUOUS
 10
30.042652
 20
91.60062
 30
0.0
  0
VERTEX
  8
0
  6
CONTINUOUS
 10
29.84856
 20
91.936823
 30
0.0
  0
VERTEX
  8
0
  6
CONTINUOUS
 10
29.775831
 20
92.284999
 30
0.0
  0
SEQEND
  8
0
  6
CONTINUOUS
  0
POLYLINE
  8
0
  6
CONTINUOUS
 66
     1
 10
0.0
 20
0.0
 30
0.0
  0
VERTEX
  8
0
  6
CONTINUOUS
 10
29.418325
 20
93.430377
 30
0.0
  0
VERTEX
  8
0
  6
CONTINUOUS
 10
29.593957
 20
93.27428
 30
0.0
  0
VERTEX
  8
0
  6
CONTINUOUS
 10
29.723352
 20
93.050145
 30
0.0
  0
VERTEX
  8
0
  6
CONTINUOUS
 10
29.771838
 20
92.818027
 30
0.0
  0
SEQEND
  8
0
  6
CONTINUOUS
  0
POLYLINE
  8
0
  6
CONTINUOUS
 66
     1
 10
0.0
 20
0.0
 30
0.0
  0
VERTEX
  8
0
  6
CONTINUOUS
 10
25.496454
 20
95.286421
 30
0.0
  0
VERTEX
  8
0
  6
CONTINUOUS
 10
25.541868
 20
95.464326
 30
0.0
  0
VERTEX
  8
0
  6
CONTINUOUS
 10
25.669015
 20
95.540347
 30
0.0
  0
VERTEX
  8
0
  6
CONTINUOUS
 10
25.843824
 20
95.494116
 30
0.0
  0
SEQEND
  8
0
  6
CONTINUOUS
  0
POLYLINE
  8
0
  6
CONTINUOUS
 66
     1
 10
0.0
 20
0.0
 30
0.0
  0
VERTEX
  8
0
  6
CONTINUOUS
 10
25.727652
 20
86.914117
 30
0.0
  0
VERTEX
  8
0
  6
CONTINUOUS
 10
25.60719
 20
87.045831
 30
0.0
  0
VERTEX
  8
0
  6
CONTINUOUS
 10
25.556909
 20
87.2167
 30
0.0
  0
SEQEND
  8
0
  6
CONTINUOUS
  0
POLYLINE
  8
0
  6
CONTINUOUS
 66
     1
 10
0.0
 20
0.0
 30
0.0
  0
VERTEX
  8
0
  6
CONTINUOUS
 10
31.060388
 20
83.833219
 30
0.0
  0
VERTEX
  8
0
  6
CONTINUOUS
 10
31.036684
 20
83.742827
 30
0.0
  0
VERTEX
  8
0
  6
CONTINUOUS
 10
30.97063
 20
83.705975
 30
0.0
  0
VERTEX
  8
0
  6
CONTINUOUS
 10
30.88069
 20
83.732964
 30
0.0
  0
SEQEND
  8
0
  6
CONTINUOUS
  0
POLYLINE
  8
0
  6
CONTINUOUS
 66
     1
 10
0.0
 20
0.0
 30
0.0
  0
VERTEX
  8
0
  6
CONTINUOUS
 10
31.057661
 20
84.19714
 30
0.0
  0
VERTEX
  8
0
  6
CONTINUOUS
 10
31.089451
 20
84.321673
 30
0.0
  0
VERTEX
  8
0
  6
CONTINUOUS
 10
31.178454
 20
84.374888
 30
0.0
  0
VERTEX
  8
0
  6
CONTINUOUS
 10
31.30082
 20
84.342526
 30
0.0
  0
VERTEX
  8
0
  6
CONTINUOUS
 10
31.423763
 20
84.233258
 30
0.0
  0
VERTEX
  8
0
  6
CONTINUOUS
 10
31.514339
 20
84.076364
 30
0.0
  0
VERTEX
  8
0
  6
CONTINUOUS
 10
31.548279
 20
83.913881
 30
0.0
  0
SEQEND
  8
0
  6
CONTINUOUS
  0
POLYLINE
  8
0
  6
CONTINUOUS
 66
     1
 10
0.0
 20
0.0
 30
0.0
  0
VERTEX
  8
0
  6
CONTINUOUS
 10
31.552277
 20
83.380175
 30
0.0
  0
VERTEX
  8
0
  6
CONTINUOUS
 10
31.481165
 20
83.108999
 30
0.0
  0
VERTEX
  8
0
  6
CONTINUOUS
 10
31.283005
 20
82.998444
 30
0.0
  0
VERTEX
  8
0
  6
CONTINUOUS
 10
31.013183
 20
83.07941
 30
0.0
  0
SEQEND
  8
0
  6
CONTINUOUS
  0
POLYLINE
  8
0
  6
CONTINUOUS
 66
     1
 10
0.0
 20
0.0
 30
0.0
  0
VERTEX
  8
0
  6
CONTINUOUS
 10
25.929374
 20
85.402056
 30
0.0
  0
VERTEX
  8
0
  6
CONTINUOUS
 10
25.748742
 20
85.556221
 30
0.0
  0
VERTEX
  8
0
  6
CONTINUOUS
 10
25.614379
 20
85.783771
 30
0.0
  0
VERTEX
  8
0
  6
CONTINUOUS
 10
25.563838
 20
86.021106
 30
0.0
  0
VERTEX
  8
0
  6
CONTINUOUS
 10
25.611246
 20
86.20189
 30
0.0
  0
VERTEX
  8
0
  6
CONTINUOUS
 10
25.743353
 20
86.275594
 30
0.0
  0
VERTEX
  8
0
  6
CONTINUOUS
 10
25.923234
 20
86.221616
 30
0.0
  0
SEQEND
  8
0
  6
CONTINUOUS
  0
POLYLINE
  8
0
  6
CONTINUOUS
 66
     1
 10
0.0
 20
0.0
 30
0.0
  0
VERTEX
  8
0
  6
CONTINUOUS
 10
32.15934
 20
72.211108
 30
0.0
  0
VERTEX
  8
0
  6
CONTINUOUS
 10
32.136633
 20
72.122156
 30
0.0
  0
VERTEX
  8
0
  6
CONTINUOUS
 10
32.07306
 20
72.084145
 30
0.0
  0
VERTEX
  8
0
  6
CONTINUOUS
 10
31.985655
 20
72.107261
 30
0.0
  0
SEQEND
  8
0
  6
CONTINUOUS
  0
POLYLINE
  8
0
  6
CONTINUOUS
 66
     1
 10
0.0
 20
0.0
 30
0.0
  0
VERTEX
  8
0
  6
CONTINUOUS
 10
121.315617
 20
122.79878
 30
0.0
  0
VERTEX
  8
0
  6
CONTINUOUS
 10
121.302431
 20
122.727039
 30
0.0
  0
VERTEX
  8
0
  6
CONTINUOUS
 10
121.263755
 20
122.682498
 30
0.0
  0
SEQEND
  8
0
  6
CONTINUOUS
  0
POLYLINE
  8
0
  6
CONTINUOUS
 66
     1
 10
0.0
 20
0.0
 30
0.0
  0
VERTEX
  8
0
  6
CONTINUOUS
 10
30.58389
 20
72.91657
 30
0.0
  0
VERTEX
  8
0
  6
CONTINUOUS
 10
30.45954
 20
73.04815
 30
0.0
  0
VERTEX
  8
0
  6
CONTINUOUS
 10
30.407133
 20
73.222745
 30
0.0
  0
SEQEND
  8
0
  6
CONTINUOUS
  0
POLYLINE
  8
0
  6
CONTINUOUS
 66
     1
 10
0.0
 20
0.0
 30
0.0
  0
VERTEX
  8
0
  6
CONTINUOUS
 10
30.399147
 20
74.288801
 30
0.0
  0
VERTEX
  8
0
  6
CONTINUOUS
 10
30.430937
 20
74.413334
 30
0.0
  0
VERTEX
  8
0
  6
CONTINUOUS
 10
30.519939
 20
74.466549
 30
0.0
  0
VERTEX
  8
0
  6
CONTINUOUS
 10
30.642306
 20
74.434187
 30
0.0
  0
VERTEX
  8
0
  6
CONTINUOUS
 10
30.765248
 20
74.32492
 30
0.0
  0
VERTEX
  8
0
  6
CONTINUOUS
 10
30.855825
 20
74.168025
 30
0.0
  0
VERTEX
  8
0
  6
CONTINUOUS
 10
30.889765
 20
74.005543
 30
0.0
  0
SEQEND
  8
0
  6
CONTINUOUS
  0
POLYLINE
  8
0
  6
CONTINUOUS
 66
     1
 10
0.0
 20
0.0
 30
0.0
  0
VERTEX
  8
0
  6
CONTINUOUS
 10
31.070207
 20
73.207342
 30
0.0
  0
VERTEX
  8
0
  6
CONTINUOUS
 10
30.945858
 20
73.338922
 30
0.0
  0
VERTEX
  8
0
  6
CONTINUOUS
 10
30.893451
 20
73.513517
 30
0.0
  0
SEQEND
  8
0
  6
CONTINUOUS
  0
POLYLINE
  8
0
  6
CONTINUOUS
 66
     1
 10
0.0
 20
0.0
 30
0.0
  0
VERTEX
  8
0
  6
CONTINUOUS
 10
31.664422
 20
73.068397
 30
0.0
  0
VERTEX
  8
0
  6
CONTINUOUS
 10
31.641715
 20
72.979445
 30
0.0
  0
VERTEX
  8
0
  6
CONTINUOUS
 10
31.578141
 20
72.941434
 30
0.0
  0
VERTEX
  8
0
  6
CONTINUOUS
 10
31.490737
 20
72.96455
 30
0.0
  0
SEQEND
  8
0
  6
CONTINUOUS
  0
POLYLINE
  8
0
  6
CONTINUOUS
 66
     1
 10
0.0
 20
0.0
 30
0.0
  0
VERTEX
  8
0
  6
CONTINUOUS
 10
31.345752
 20
92.317576
 30
0.0
  0
VERTEX
  8
0
  6
CONTINUOUS
 10
31.470101
 20
92.185996
 30
0.0
  0
VERTEX
  8
0
  6
CONTINUOUS
 10
31.522508
 20
92.011401
 30
0.0
  0
SEQEND
  8
0
  6
CONTINUOUS
  0
POLYLINE
  8
0
  6
CONTINUOUS
 66
     1
 10
0.0
 20
0.0
 30
0.0
  0
VERTEX
  8
0
  6
CONTINUOUS
 10
30.751538
 20
92.456522
 30
0.0
  0
VERTEX
  8
0
  6
CONTINUOUS
 10
30.774245
 20
92.545474
 30
0.0
  0
VERTEX
  8
0
  6
CONTINUOUS
 10
30.837818
 20
92.583485
 30
0.0
  0
VERTEX
  8
0
  6
CONTINUOUS
 10
30.925222
 20
92.560369
 30
0.0
  0
SEQEND
  8
0
  6
CONTINUOUS
  0
POLYLINE
  8
0
  6
CONTINUOUS
 66
     1
 10
0.0
 20
0.0
 30
0.0
  0
VERTEX
  8
0
  6
CONTINUOUS
 10
30.755193
 20
91.968613
 30
0.0
  0
VERTEX
  8
0
  6
CONTINUOUS
 10
30.709607
 20
91.826959
 30
0.0
  0
VERTEX
  8
0
  6
CONTINUOUS
 10
30.587733
 20
91.793509
 30
0.0
  0
VERTEX
  8
0
  6
CONTINUOUS
 10
30.436124
 20
91.881041
 30
0.0
  0
VERTEX
  8
0
  6
CONTINUOUS
 10
30.312689
 20
92.056119
 30
0.0
  0
VERTEX
  8
0
  6
CONTINUOUS
 10
30.264575
 20
92.251872
 30
0.0
  0
SEQEND
  8
0
  6
CONTINUOUS
  0
POLYLINE
  8
0
  6
CONTINUOUS
 66
     1
 10
0.0
 20
0.0
 30
0.0
  0
VERTEX
  8
0
  6
CONTINUOUS
 10
30.256619
 20
93.31381
 30
0.0
  0
VERTEX
  8
0
  6
CONTINUOUS
 10
30.279327
 20
93.402763
 30
0.0
  0
VERTEX
  8
0
  6
CONTINUOUS
 10
30.3429
 20
93.440773
 30
0.0
  0
VERTEX
  8
0
  6
CONTINUOUS
 10
30.430304
 20
93.417658
 30
0.0
  0
SEQEND
  8
0
  6
CONTINUOUS
  0
POLYLINE
  8
0
  6
CONTINUOUS
 66
     1
 10
0.0
 20
0.0
 30
0.0
  0
VERTEX
  8
0
  6
CONTINUOUS
 10
119.464758
 20
144.017765
 30
0.0
  0
VERTEX
  8
0
  6
CONTINUOUS
 10
119.520707
 20
144.028334
 30
0.0
  0
VERTEX
  8
0
  6
CONTINUOUS
 10
119.586581
 20
144.00533
 30
0.0
  0
SEQEND
  8
0
  6
CONTINUOUS
  0
POLYLINE
  8
0
  6
CONTINUOUS
 66
     1
 10
0.0
 20
0.0
 30
0.0
  0
VERTEX
  8
0
  6
CONTINUOUS
 10
31.832069
 20
92.608348
 30
0.0
  0
VERTEX
  8
0
  6
CONTINUOUS
 10
31.956419
 20
92.476768
 30
0.0
  0
VERTEX
  8
0
  6
CONTINUOUS
 10
32.008826
 20
92.302174
 30
0.0
  0
SEQEND
  8
0
  6
CONTINUOUS
  0
POLYLINE
  8
0
  6
CONTINUOUS
 66
     1
 10
0.0
 20
0.0
 30
0.0
  0
VERTEX
  8
0
  6
CONTINUOUS
 10
120.988346
 20
143.19602
 30
0.0
  0
VERTEX
  8
0
  6
CONTINUOUS
 10
121.112696
 20
143.06444
 30
0.0
  0
VERTEX
  8
0
  6
CONTINUOUS
 10
121.165103
 20
142.889846
 30
0.0
  0
SEQEND
  8
0
  6
CONTINUOUS
  0
LINE
  8
0
  6
CONTINUOUS
 10
67.467441
 20
92.157996
 30
0.0
 11
71.135969
 21
90.03997
 31
0.0
  0
LINE
  8
0
  6
CONTINUOUS
 10
71.384344
 20
90.03904
 30
0.0
 11
87.432474
 21
99.144821
 31
0.0
  0
LINE
  8
0
  6
CONTINUOUS
 10
87.559092
 20
99.36413
 30
0.0
 11
87.418894
 21
120.087856
 31
0.0
  0
LINE
  8
0
  6
CONTINUOUS
 10
88.315986
 20
138.274467
 30
0.0
 11
89.200126
 21
137.764008
 31
0.0
  0
LINE
  8
0
  6
CONTINUOUS
 10
69.754433
 20
127.557949
 30
0.0
 11
70.638573
 21
127.04749
 31
0.0
  0
LINE
  8
0
  6
CONTINUOUS
 10
70.381846
 20
130.201613
 30
0.0
 11
71.79826
 21
129.412394
 31
0.0
  0
LINE
  8
0
  6
CONTINUOUS
 10
72.044944
 20
129.414275
 30
0.0
 11
74.525662
 21
130.846518
 31
0.0
  0
LINE
  8
0
  6
CONTINUOUS
 10
89.673032
 20
138.333046
 30
0.0
 11
88.978268
 21
138.748421
 31
0.0
  0
LINE
  8
0
  6
CONTINUOUS
 10
66.658266
 20
123.428598
 30
0.0
 11
67.377716
 21
123.041728
 31
0.0
  0
LINE
  8
0
  6
CONTINUOUS
 10
71.111479
 20
127.616529
 30
0.0
 11
70.416715
 21
128.031903
 31
0.0
  0
LINE
  8
0
  6
CONTINUOUS
 10
85.219819
 20
134.145116
 30
0.0
 11
85.939269
 21
133.758245
 31
0.0
  0
LINE
  8
0
  6
CONTINUOUS
 10
78.128235
 20
128.583977
 30
0.0
 11
77.488706
 21
128.979447
 31
0.0
  0
LINE
  8
0
  6
CONTINUOUS
 10
96.689788
 20
145.479962
 30
0.0
 11
94.431805
 21
146.876248
 31
0.0
  0
LINE
  8
0
  6
CONTINUOUS
 10
81.113118
 20
128.662577
 30
0.0
 11
82.509801
 21
127.911537
 31
0.0
  0
LINE
  8
0
  6
CONTINUOUS
 10
96.689788
 20
139.300495
 30
0.0
 11
96.050259
 21
139.695965
 31
0.0
  0
LINE
  8
0
  6
CONTINUOUS
 10
86.296383
 20
124.584362
 30
0.0
 11
85.752256
 21
124.882346
 31
0.0
  0
LINE
  8
0
  6
CONTINUOUS
 10
65.024324
 20
127.197898
 30
0.0
 11
62.766341
 21
128.594183
 31
0.0
  0
LINE
  8
0
  6
CONTINUOUS
 10
65.024324
 20
124.474289
 30
0.0
 11
64.412553
 21
124.852594
 31
0.0
  0
LINE
  8
0
  6
CONTINUOUS
 10
65.024324
 20
118.248503
 30
0.0
 11
64.412553
 21
118.626808
 31
0.0
  0
LINE
  8
0
  6
CONTINUOUS
 10
62.551565
 20
117.946059
 30
0.0
 11
63.948248
 21
117.195019
 31
0.0
  0
LINE
  8
0
  6
CONTINUOUS
 10
83.585877
 20
128.96502
 30
0.0
 11
82.974106
 21
129.343326
 31
0.0
  0
LINE
  8
0
  6
CONTINUOUS
 10
96.050766
 20
140.005992
 30
0.0
 11
96.672361
 21
140.36487
 31
0.0
  0
LINE
  8
0
  6
CONTINUOUS
 10
83.585877
 20
135.190807
 30
0.0
 11
82.974106
 21
135.569112
 31
0.0
  0
LINE
  8
0
  6
CONTINUOUS
 10
66.989729
 20
115.478073
 30
0.0
 11
62.818947
 21
117.762147
 31
0.0
  0
LINE
  8
0
  6
CONTINUOUS
 10
62.764034
 20
124.011275
 30
0.0
 11
63.948248
 21
123.374487
 31
0.0
  0
LINE
  8
0
  6
CONTINUOUS
 10
81.325587
 20
134.727793
 30
0.0
 11
82.509801
 21
134.091004
 31
0.0
  0
LINE
  8
0
  6
CONTINUOUS
 10
83.585877
 20
137.914416
 30
0.0
 11
81.327894
 21
139.310701
 31
0.0
  0
LINE
  8
0
  6
CONTINUOUS
 10
78.128235
 20
134.763445
 30
0.0
 11
75.870252
 21
136.15973
 31
0.0
  0
LINE
  8
0
  6
CONTINUOUS
 10
76.332709
 20
134.096832
 30
0.0
 11
77.052159
 21
133.709961
 31
0.0
  0
LINE
  8
0
  6
CONTINUOUS
 10
76.332709
 20
127.871045
 30
0.0
 11
77.052159
 21
127.484175
 31
0.0
  0
LINE
  8
0
  6
CONTINUOUS
 10
74.713948
 20
126.017895
 30
0.0
 11
77.052159
 21
124.760566
 31
0.0
  0
LINE
  8
0
  6
CONTINUOUS
 10
94.894262
 20
144.813349
 30
0.0
 11
95.613712
 21
144.426479
 31
0.0
  0
LINE
  8
0
  6
CONTINUOUS
 10
94.894262
 20
138.587563
 30
0.0
 11
95.613712
 21
138.200693
 31
0.0
  0
LINE
  8
0
  6
CONTINUOUS
 10
93.275501
 20
136.734412
 30
0.0
 11
95.613712
 21
135.477084
 31
0.0
  0
LINE
  8
0
  6
CONTINUOUS
 10
77.489213
 20
129.289474
 30
0.0
 11
78.110808
 21
129.648352
 31
0.0
  0
LINE
  8
0
  6
CONTINUOUS
 10
31.495978
 20
81.0436
 30
0.0
 11
31.604263
 21
81.105042
 31
0.0
  0
LINE
  8
0
  6
CONTINUOUS
 10
31.642697
 20
76.063659
 30
0.0
 11
30.062224
 21
75.166892
 31
0.0
  0
LINE
  8
0
  6
CONTINUOUS
 10
31.644483
 20
75.756905
 30
0.0
 11
31.1966
 21
75.502774
 31
0.0
  0
LINE
  8
0
  6
CONTINUOUS
 10
31.297178
 20
73.134218
 30
0.0
 11
31.662541
 21
73.341527
 31
0.0
  0
LINE
  8
0
  6
CONTINUOUS
 10
30.355287
 20
73.106472
 30
0.0
 11
30.419376
 21
73.142836
 31
0.0
  0
LINE
  8
0
  6
CONTINUOUS
 10
114.208123
 20
147.052666
 30
0.0
 11
99.346788
 21
138.620278
 31
0.0
  0
LINE
  8
0
  6
CONTINUOUS
 10
74.133036
 20
124.313882
 30
0.0
 11
66.303447
 21
119.871338
 31
0.0
  0
LINE
  8
0
  6
CONTINUOUS
 10
51.681003
 20
111.574497
 30
0.0
 11
25.051846
 21
96.464994
 31
0.0
  0
LINE
  8
0
  6
CONTINUOUS
 10
30.959104
 20
92.5408
 30
0.0
 11
30.908516
 21
92.512097
 31
0.0
  0
LINE
  8
0
  6
CONTINUOUS
 10
31.429624
 20
89.900748
 30
0.0
 11
31.537909
 21
89.962189
 31
0.0
  0
LINE
  8
0
  6
CONTINUOUS
 10
31.578129
 20
84.614053
 30
0.0
 11
31.130246
 21
84.359922
 31
0.0
  0
LINE
  8
0
  6
CONTINUOUS
 10
31.396739
 20
83.031356
 30
0.0
 11
31.589053
 21
83.140476
 31
0.0
  0
LINE
  8
0
  6
CONTINUOUS
 10
32.107494
 20
72.094835
 30
0.0
 11
67.813354
 21
92.3545
 31
0.0
  0
LINE
  8
0
  6
CONTINUOUS
 10
87.529337
 20
103.541438
 30
0.0
 11
121.263771
 21
122.682507
 31
0.0
  0
LINE
  8
0
  6
CONTINUOUS
 10
30.53922
 20
74.489877
 30
0.0
 11
30.471732
 21
74.451584
 31
0.0
  0
LINE
  8
0
  6
CONTINUOUS
 10
30.682608
 20
91.805831
 30
0.0
 11
30.860414
 21
91.906719
 31
0.0
  0
LINE
  8
0
  6
CONTINUOUS
 10
119.464742
 20
144.017756
 30
0.0
 11
99.358936
 21
132.609631
 31
0.0
  0
LINE
  8
0
  6
CONTINUOUS
 10
68.727189
 20
115.22904
 30
0.0
 11
68.244163
 21
114.954969
 31
0.0
  0
LINE
  8
0
  6
CONTINUOUS
 10
57.030945
 20
108.592538
 30
0.0
 11
30.308465
 21
93.430083
 31
0.0
  0
LINE
  8
0
  6
CONTINUOUS
 10
68.439798
 20
114.951309
 30
0.0
 11
69.025486
 21
114.613162
 31
0.0
  0
LINE
  8
0
  6
CONTINUOUS
 10
67.541229
 20
92.199946
 30
0.0
 11
71.082657
 21
90.155301
 31
0.0
  0
LINE
  8
0
  6
CONTINUOUS
 10
83.275403
 20
123.369098
 30
0.0
 11
83.733308
 21
123.104726
 31
0.0
  0
LINE
  8
0
  6
CONTINUOUS
 10
84.157572
 20
123.349675
 30
0.0
 11
83.925073
 21
123.483908
 31
0.0
  0
LINE
  8
0
  6
CONTINUOUS
 10
87.48432
 20
99.261094
 30
0.0
 11
87.342608
 21
120.043813
 31
0.0
  0
LINE
  8
0
  6
CONTINUOUS
 10
87.48432
 20
99.261094
 30
0.0
 11
71.43619
 21
90.155313
 31
0.0
  0
LINE
  8
0
  6
CONTINUOUS
 10
71.43619
 20
90.155313
 30
0.0
 11
71.291262
 21
110.776568
 31
0.0
  0
LINE
  8
0
  6
CONTINUOUS
 10
71.082657
 20
90.155301
 30
0.0
 11
70.935875
 21
110.571385
 31
0.0
  0
LINE
  8
0
  6
CONTINUOUS
 10
68.601222
 20
114.368213
 30
0.0
 11
68.170558
 21
114.616857
 31
0.0
  0
LINE
  8
0
  6
CONTINUOUS
 10
67.698671
 20
108.706526
 30
0.0
 11
67.813354
 21
92.3545
 31
0.0
  0
LINE
  8
0
  6
CONTINUOUS
 10
68.243396
 20
114.83987
 30
0.0
 11
68.439798
 21
114.951309
 31
0.0
  0
LINE
  8
0
  6
CONTINUOUS
 10
67.67478
 20
113.832939
 30
0.0
 11
67.854326
 21
114.299317
 31
0.0
  0
LINE
  8
0
  6
CONTINUOUS
 10
86.062053
 20
134.261756
 30
0.0
 11
85.342603
 21
134.67713
 31
0.0
  0
LINE
  8
0
  6
CONTINUOUS
 10
88.630677
 20
136.5755
 30
0.0
 11
89.350126
 21
136.160126
 31
0.0
  0
LINE
  8
0
  6
CONTINUOUS
 10
89.350126
 20
136.160126
 30
0.0
 11
89.350126
 21
137.778867
 31
0.0
  0
LINE
  8
0
  6
CONTINUOUS
 10
86.062053
 20
134.261756
 30
0.0
 11
89.350126
 21
136.160126
 31
0.0
  0
LINE
  8
0
  6
CONTINUOUS
 10
89.420783
 20
138.309558
 30
0.0
 11
89.350126
 21
138.268765
 31
0.0
  0
LINE
  8
0
  6
CONTINUOUS
 10
88.726019
 20
138.724933
 30
0.0
 11
89.420783
 21
138.309558
 31
0.0
  0
LINE
  8
0
  6
CONTINUOUS
 10
88.64302
 20
138.677013
 30
0.0
 11
89.350126
 21
138.268765
 31
0.0
  0
LINE
  8
0
  6
CONTINUOUS
 10
88.199258
 20
138.443321
 30
0.0
 11
89.137994
 21
137.901341
 31
0.0
  0
LINE
  8
0
  6
CONTINUOUS
 10
88.334181
 20
138.855321
 30
0.0
 11
88.64302
 21
138.677013
 31
0.0
  0
LINE
  8
0
  6
CONTINUOUS
 10
88.530806
 20
147.409809
 30
0.0
 11
90.133424
 21
148.335081
 31
0.0
  0
LINE
  8
0
  6
CONTINUOUS
 10
90.30472
 20
146.372493
 30
0.0
 11
91.529815
 21
147.079802
 31
0.0
  0
LINE
  8
0
  6
CONTINUOUS
 10
89.77439
 20
140.949045
 30
0.0
 11
89.77439
 21
145.453935
 31
0.0
  0
LINE
  8
0
  6
CONTINUOUS
 10
89.77439
 20
140.949045
 30
0.0
 11
88.890507
 21
141.44154
 31
0.0
  0
LINE
  8
0
  6
CONTINUOUS
 10
88.64302
 20
141.298653
 30
0.0
 11
87.935913
 21
141.692649
 31
0.0
  0
LINE
  8
0
  6
CONTINUOUS
 10
87.774674
 20
141.75417
 30
0.0
 11
87.915709
 21
141.680985
 31
0.0
  0
LINE
  8
0
  6
CONTINUOUS
 10
87.774529
 20
142.201158
 30
0.0
 11
87.935913
 21
142.294333
 31
0.0
  0
LINE
  8
0
  6
CONTINUOUS
 10
88.64302
 20
141.900337
 30
0.0
 11
87.935913
 21
142.294333
 31
0.0
  0
LINE
  8
0
  6
CONTINUOUS
 10
73.157381
 20
124.674097
 30
0.0
 11
72.592019
 21
125.000508
 31
0.0
  0
LINE
  8
0
  6
CONTINUOUS
 10
74.13299
 20
124.682376
 30
0.0
 11
73.65268
 21
124.959683
 31
0.0
  0
LINE
  8
0
  6
CONTINUOUS
 10
66.604301
 20
123.544257
 30
0.0
 11
67.32375
 21
123.157386
 31
0.0
  0
LINE
  8
0
  6
CONTINUOUS
 10
87.935913
 20
140.348771
 30
0.0
 11
88.334181
 21
138.855321
 31
0.0
  0
LINE
  8
0
  6
CONTINUOUS
 10
88.500711
 20
138.167797
 30
0.0
 11
88.630677
 21
137.690091
 31
0.0
  0
LINE
  8
0
  6
CONTINUOUS
 10
88.630677
 20
137.690091
 30
0.0
 11
83.638699
 21
134.807971
 31
0.0
  0
LINE
  8
0
  6
CONTINUOUS
 10
82.428711
 20
134.109385
 30
0.0
 11
81.115712
 21
133.351324
 31
0.0
  0
LINE
  8
0
  6
CONTINUOUS
 10
88.630677
 20
137.690091
 30
0.0
 11
88.630677
 21
136.5755
 31
0.0
  0
LINE
  8
0
  6
CONTINUOUS
 10
88.630677
 20
136.5755
 30
0.0
 11
85.342603
 21
134.67713
 31
0.0
  0
LINE
  8
0
  6
CONTINUOUS
 10
69.644601
 20
131.132155
 30
0.0
 11
69.240707
 21
131.357203
 31
0.0
  0
LINE
  8
0
  6
CONTINUOUS
 10
69.241971
 20
134.509798
 30
0.0
 11
71.567919
 21
135.852684
 31
0.0
  0
LINE
  8
0
  6
CONTINUOUS
 10
72.968262
 20
136.812357
 30
0.0
 11
71.571871
 21
137.618564
 31
0.0
  0
LINE
  8
0
  6
CONTINUOUS
 10
71.571871
 20
137.618564
 30
0.0
 11
71.73292
 21
138.829266
 31
0.0
  0
LINE
  8
0
  6
CONTINUOUS
 10
71.571871
 20
137.618564
 30
0.0
 11
69.922443
 21
136.666266
 31
0.0
  0
LINE
  8
0
  6
CONTINUOUS
 10
69.240523
 20
134.729247
 30
0.0
 11
69.397341
 21
135.908149
 31
0.0
  0
LINE
  8
0
  6
CONTINUOUS
 10
71.743167
 20
129.528719
 30
0.0
 11
70.328954
 21
130.316712
 31
0.0
  0
LINE
  8
0
  6
CONTINUOUS
 10
71.212837
 20
130.232527
 30
0.0
 11
70.328954
 21
130.725022
 31
0.0
  0
LINE
  8
0
  6
CONTINUOUS
 10
71.212837
 20
134.737417
 30
0.0
 11
71.743167
 21
134.431231
 31
0.0
  0
LINE
  8
0
  6
CONTINUOUS
 10
71.743167
 20
134.431231
 30
0.0
 11
71.743167
 21
129.528719
 31
0.0
  0
LINE
  8
0
  6
CONTINUOUS
 10
72.096721
 20
129.528719
 30
0.0
 11
74.578343
 21
130.961485
 31
0.0
  0
LINE
  8
0
  6
CONTINUOUS
 10
72.096721
 20
134.431231
 30
0.0
 11
72.096721
 21
129.528719
 31
0.0
  0
LINE
  8
0
  6
CONTINUOUS
 10
74.578343
 20
130.961485
 30
0.0
 11
74.578343
 21
134.939601
 31
0.0
  0
LINE
  8
0
  6
CONTINUOUS
 10
88.64302
 20
141.900337
 30
0.0
 11
89.775034
 21
142.553905
 31
0.0
  0
LINE
  8
0
  6
CONTINUOUS
 10
69.37436
 20
130.976132
 30
0.0
 11
69.644601
 21
131.132155
 31
0.0
  0
LINE
  8
0
  6
CONTINUOUS
 10
62.818439
 20
131.021454
 30
0.0
 11
69.240523
 21
134.729247
 31
0.0
  0
LINE
  8
0
  6
CONTINUOUS
 10
69.240523
 20
131.36545
 30
0.0
 11
69.240523
 21
134.729247
 31
0.0
  0
LINE
  8
0
  6
CONTINUOUS
 10
72.968262
 20
136.363284
 30
0.0
 11
72.968262
 21
136.812357
 31
0.0
  0
LINE
  8
0
  6
CONTINUOUS
 10
71.56639
 20
135.517628
 30
0.0
 11
71.56639
 21
137.615372
 31
0.0
  0
LINE
  8
0
  6
CONTINUOUS
 10
73.861429
 20
135.858334
 30
0.0
 11
72.450274
 21
135.043603
 31
0.0
  0
LINE
  8
0
  6
CONTINUOUS
 10
71.743167
 20
135.655976
 30
0.0
 11
72.273498
 21
135.349789
 31
0.0
  0
LINE
  8
0
  6
CONTINUOUS
 10
72.968262
 20
136.363284
 30
0.0
 11
73.507849
 21
136.062442
 31
0.0
  0
LINE
  8
0
  6
CONTINUOUS
 10
73.507849
 20
136.062442
 30
0.0
 11
72.273498
 21
135.349789
 31
0.0
  0
LINE
  8
0
  6
CONTINUOUS
 10
71.743167
 20
135.655976
 30
0.0
 11
72.968262
 21
136.363284
 31
0.0
  0
LINE
  8
0
  6
CONTINUOUS
 10
71.212837
 20
134.737417
 30
0.0
 11
71.212837
 21
130.232527
 31
0.0
  0
LINE
  8
0
  6
CONTINUOUS
 10
69.37436
 20
130.976132
 30
0.0
 11
69.37436
 21
129.632254
 31
0.0
  0
LINE
  8
0
  6
CONTINUOUS
 10
70.081467
 20
130.582136
 30
0.0
 11
69.37436
 21
130.976132
 31
0.0
  0
LINE
  8
0
  6
CONTINUOUS
 10
69.637705
 20
127.726803
 30
0.0
 11
70.576441
 21
127.184824
 31
0.0
  0
LINE
  8
0
  6
CONTINUOUS
 10
69.772628
 20
128.138804
 30
0.0
 11
70.081467
 21
127.960495
 31
0.0
  0
LINE
  8
0
  6
CONTINUOUS
 10
70.081467
 20
127.960495
 30
0.0
 11
70.788573
 21
127.552247
 31
0.0
  0
LINE
  8
0
  6
CONTINUOUS
 10
70.85923
 20
127.593041
 30
0.0
 11
70.788573
 21
127.552247
 31
0.0
  0
LINE
  8
0
  6
CONTINUOUS
 10
67.32375
 20
123.239098
 30
0.0
 11
67.32375
 21
123.157386
 31
0.0
  0
LINE
  8
0
  6
CONTINUOUS
 10
71.212837
 20
127.388948
 30
0.0
 11
71.212837
 21
125.606845
 31
0.0
  0
LINE
  8
0
  6
CONTINUOUS
 10
70.164466
 20
128.008415
 30
0.0
 11
70.85923
 21
127.593041
 31
0.0
  0
LINE
  8
0
  6
CONTINUOUS
 10
72.959582
 20
127.21348
 30
0.0
 11
72.959582
 21
129.941323
 31
0.0
  0
LINE
  8
0
  6
CONTINUOUS
 10
70.164466
 20
128.008415
 30
0.0
 11
70.081467
 21
127.960495
 31
0.0
  0
LINE
  8
0
  6
CONTINUOUS
 10
70.081467
 20
127.960495
 30
0.0
 11
70.081467
 21
130.582136
 31
0.0
  0
LINE
  8
0
  6
CONTINUOUS
 10
70.328954
 20
130.725022
 30
0.0
 11
70.081467
 21
130.582136
 31
0.0
  0
LINE
  8
0
  6
CONTINUOUS
 10
70.328954
 20
130.725022
 30
0.0
 11
70.328954
 21
130.316712
 31
0.0
  0
LINE
  8
0
  6
CONTINUOUS
 10
70.788573
 20
125.443608
 30
0.0
 11
70.788573
 21
127.062349
 31
0.0
  0
LINE
  8
0
  6
CONTINUOUS
 10
83.638699
 20
133.174978
 30
0.0
 11
85.271178
 21
134.117491
 31
0.0
  0
LINE
  8
0
  6
CONTINUOUS
 10
86.062053
 20
133.771858
 30
0.0
 11
89.420891
 21
135.711084
 31
0.0
  0
LINE
  8
0
  6
CONTINUOUS
 10
67.5005
 20
123.05534
 30
0.0
 11
70.859338
 21
124.994566
 31
0.0
  0
LINE
  8
0
  6
CONTINUOUS
 10
71.213159
 20
126.001089
 30
0.0
 11
73.068771
 21
127.072427
 31
0.0
  0
LINE
  8
0
  6
CONTINUOUS
 10
66.604301
 20
123.654473
 30
0.0
 11
66.604301
 21
123.544257
 31
0.0
  0
LINE
  8
0
  6
CONTINUOUS
 10
66.709625
 20
123.400973
 30
0.0
 11
65.077146
 21
122.458461
 31
0.0
  0
LINE
  8
0
  6
CONTINUOUS
 10
70.069124
 20
126.973573
 30
0.0
 11
70.069124
 21
125.858982
 31
0.0
  0
LINE
  8
0
  6
CONTINUOUS
 10
82.978409
 20
129.790537
 30
0.0
 11
87.317031
 21
132.295442
 31
0.0
  0
LINE
  8
0
  6
CONTINUOUS
 10
74.218041
 20
125.286469
 30
0.0
 11
74.218041
 21
124.853014
 31
0.0
  0
LINE
  8
0
  6
CONTINUOUS
 10
74.218041
 20
125.286469
 30
0.0
 11
73.157381
 21
124.674097
 31
0.0
  0
LINE
  8
0
  6
CONTINUOUS
 10
73.157381
 20
125.327294
 30
0.0
 11
73.157381
 21
124.674097
 31
0.0
  0
LINE
  8
0
  6
CONTINUOUS
 10
73.157381
 20
125.327294
 30
0.0
 11
67.32375
 21
121.959246
 31
0.0
  0
LINE
  8
0
  6
CONTINUOUS
 10
67.32375
 20
121.959246
 30
0.0
 11
67.32375
 21
121.306048
 31
0.0
  0
LINE
  8
0
  6
CONTINUOUS
 10
66.26309
 20
120.693676
 30
0.0
 11
67.32375
 21
121.306048
 31
0.0
  0
LINE
  8
0
  6
CONTINUOUS
 10
66.26309
 20
120.693676
 30
0.0
 11
66.26309
 21
120.040479
 31
0.0
  0
LINE
  8
0
  6
CONTINUOUS
 10
66.142548
 20
119.970884
 30
0.0
 11
66.26309
 21
120.040479
 31
0.0
  0
LINE
  8
0
  6
CONTINUOUS
 10
87.207842
 20
132.436494
 30
0.0
 11
87.207842
 21
132.810372
 31
0.0
  0
LINE
  8
0
  6
CONTINUOUS
 10
89.036592
 20
146.170871
 30
0.0
 11
87.994143
 21
146.77273
 31
0.0
  0
LINE
  8
0
  6
CONTINUOUS
 10
88.021015
 20
134.218686
 30
0.0
 11
88.021015
 21
134.900409
 31
0.0
  0
LINE
  8
0
  6
CONTINUOUS
 10
91.078675
 20
137.266357
 30
0.0
 11
90.895751
 21
137.36472
 31
0.0
  0
LINE
  8
0
  6
CONTINUOUS
 10
87.384716
 20
133.116583
 30
0.0
 11
87.384592
 21
133.116512
 31
0.0
  0
LINE
  8
0
  6
CONTINUOUS
 10
90.127943
 20
146.229895
 30
0.0
 11
90.127943
 21
148.331889
 31
0.0
  0
LINE
  8
0
  6
CONTINUOUS
 10
91.529815
 20
147.079802
 30
0.0
 11
92.069402
 21
146.77896
 31
0.0
  0
LINE
  8
0
  6
CONTINUOUS
 10
91.529815
 20
147.079802
 30
0.0
 11
91.529815
 21
147.528875
 31
0.0
  0
LINE
  8
0
  6
CONTINUOUS
 10
91.529815
 20
147.528875
 30
0.0
 11
90.133424
 21
148.335081
 31
0.0
  0
LINE
  8
0
  6
CONTINUOUS
 10
90.133424
 20
148.335081
 30
0.0
 11
90.294473
 21
149.545784
 31
0.0
  0
LINE
  8
0
  6
CONTINUOUS
 10
89.036346
 20
145.558547
 30
0.0
 11
87.883041
 21
146.224408
 31
0.0
  0
LINE
  8
0
  6
CONTINUOUS
 10
91.65105
 20
133.270195
 30
0.0
 11
91.65105
 21
140.737051
 31
0.0
  0
LINE
  8
0
  6
CONTINUOUS
 10
91.255424
 20
133.167876
 30
0.0
 11
91.4743
 21
133.294244
 31
0.0
  0
LINE
  8
0
  6
CONTINUOUS
 10
91.078675
 20
132.861736
 30
0.0
 11
91.078675
 21
137.266357
 31
0.0
  0
LINE
  8
0
  6
CONTINUOUS
 10
89.774712
 20
136.717607
 30
0.0
 11
90.901925
 21
137.368403
 31
0.0
  0
LINE
  8
0
  6
CONTINUOUS
 10
88.726019
 20
138.724933
 30
0.0
 11
88.64302
 21
138.677013
 31
0.0
  0
LINE
  8
0
  6
CONTINUOUS
 10
88.64302
 20
138.677013
 30
0.0
 11
88.64302
 21
141.298653
 31
0.0
  0
LINE
  8
0
  6
CONTINUOUS
 10
88.890507
 20
141.44154
 30
0.0
 11
88.64302
 21
141.298653
 31
0.0
  0
LINE
  8
0
  6
CONTINUOUS
 10
88.890507
 20
141.44154
 30
0.0
 11
88.890507
 21
141.03323
 31
0.0
  0
LINE
  8
0
  6
CONTINUOUS
 10
70.069124
 20
125.858982
 30
0.0
 11
66.78105
 21
123.960612
 31
0.0
  0
LINE
  8
0
  6
CONTINUOUS
 10
70.069124
 20
125.858982
 30
0.0
 11
70.788573
 21
125.443608
 31
0.0
  0
LINE
  8
0
  6
CONTINUOUS
 10
67.5005
 20
123.545238
 30
0.0
 11
70.788573
 21
125.443608
 31
0.0
  0
LINE
  8
0
  6
CONTINUOUS
 10
67.32375
 20
123.239098
 30
0.0
 11
66.604301
 21
123.654473
 31
0.0
  0
LINE
  8
0
  6
CONTINUOUS
 10
67.5005
 20
123.545238
 30
0.0
 11
66.78105
 21
123.960612
 31
0.0
  0
LINE
  8
0
  6
CONTINUOUS
 10
89.036346
 20
147.700603
 30
0.0
 11
89.036346
 21
145.558547
 31
0.0
  0
LINE
  8
0
  6
CONTINUOUS
 10
87.774288
 20
145.429721
 30
0.0
 11
87.923564
 21
146.534437
 31
0.0
  0
LINE
  8
0
  6
CONTINUOUS
 10
87.774288
 20
145.429721
 30
0.0
 11
81.379992
 21
141.737972
 31
0.0
  0
LINE
  8
0
  6
CONTINUOUS
 10
87.774288
 20
145.429721
 30
0.0
 11
87.774288
 21
141.76256
 31
0.0
  0
LINE
  8
0
  6
CONTINUOUS
 10
87.935913
 20
141.692649
 30
0.0
 11
87.915709
 21
141.680985
 31
0.0
  0
LINE
  8
0
  6
CONTINUOUS
 10
87.935913
 20
141.692649
 30
0.0
 11
87.935913
 21
140.348771
 31
0.0
  0
LINE
  8
0
  6
CONTINUOUS
 10
83.628398
 20
137.861827
 30
0.0
 11
87.935913
 21
140.348771
 31
0.0
  0
LINE
  8
0
  6
CONTINUOUS
 10
85.165854
 20
134.37099
 30
0.0
 11
85.165854
 21
134.260774
 31
0.0
  0
LINE
  8
0
  6
CONTINUOUS
 10
85.885303
 20
133.955616
 30
0.0
 11
85.165854
 21
134.37099
 31
0.0
  0
LINE
  8
0
  6
CONTINUOUS
 10
85.885303
 20
133.955616
 30
0.0
 11
85.885303
 21
133.873904
 31
0.0
  0
LINE
  8
0
  6
CONTINUOUS
 10
85.165854
 20
134.260774
 30
0.0
 11
85.885303
 21
133.873904
 31
0.0
  0
LINE
  8
0
  6
CONTINUOUS
 10
89.77439
 20
138.105465
 30
0.0
 11
89.77439
 21
136.323363
 31
0.0
  0
LINE
  8
0
  6
CONTINUOUS
 10
62.554159
 20
122.634806
 30
0.0
 11
63.867158
 21
123.392867
 31
0.0
  0
LINE
  8
0
  6
CONTINUOUS
 10
65.077146
 20
124.091454
 30
0.0
 11
70.069124
 21
126.973573
 31
0.0
  0
LINE
  8
0
  6
CONTINUOUS
 10
69.37436
 20
129.632254
 30
0.0
 11
65.066845
 21
127.145309
 31
0.0
  0
LINE
  8
0
  6
CONTINUOUS
 10
69.37436
 20
129.632254
 30
0.0
 11
69.772628
 21
128.138804
 31
0.0
  0
LINE
  8
0
  6
CONTINUOUS
 10
69.939158
 20
127.45128
 30
0.0
 11
70.069124
 21
126.973573
 31
0.0
  0
LINE
  8
0
  6
CONTINUOUS
 10
94.304659
 20
146.865154
 30
0.0
 11
96.562642
 21
145.468868
 31
0.0
  0
LINE
  8
0
  6
CONTINUOUS
 10
85.824746
 20
125.945529
 30
0.0
 11
86.597487
 21
126.065072
 31
0.0
  0
LINE
  8
0
  6
CONTINUOUS
 10
86.597487
 20
126.065072
 30
0.0
 11
86.804542
 21
126.511214
 31
0.0
  0
LINE
  8
0
  6
CONTINUOUS
 10
86.597487
 20
126.065072
 30
0.0
 11
86.597487
 21
125.044451
 31
0.0
  0
LINE
  8
0
  6
CONTINUOUS
 10
86.804542
 20
126.511214
 30
0.0
 11
86.804542
 21
125.490593
 31
0.0
  0
LINE
  8
0
  6
CONTINUOUS
 10
86.450988
 20
126.715338
 30
0.0
 11
86.804542
 21
126.511214
 31
0.0
  0
LINE
  8
0
  6
CONTINUOUS
 10
81.113094
 20
128.749229
 30
0.0
 11
82.455835
 21
128.027196
 31
0.0
  0
LINE
  8
0
  6
CONTINUOUS
 10
75.887877
 20
132.096653
 30
0.0
 11
75.685068
 21
132.747079
 31
0.0
  0
LINE
  8
0
  6
CONTINUOUS
 10
75.384089
 20
134.456972
 30
0.0
 11
75.685068
 21
132.747079
 31
0.0
  0
LINE
  8
0
  6
CONTINUOUS
 10
77.400022
 20
141.024441
 30
0.0
 11
76.251054
 21
140.361084
 31
0.0
  0
LINE
  8
0
  6
CONTINUOUS
 10
91.718934
 20
127.919671
 30
0.0
 11
91.895711
 21
127.817608
 31
0.0
  0
LINE
  8
0
  6
CONTINUOUS
 10
85.824746
 20
124.924908
 30
0.0
 11
86.597487
 21
125.044451
 31
0.0
  0
LINE
  8
0
  6
CONTINUOUS
 10
86.597487
 20
125.044451
 30
0.0
 11
86.804542
 21
125.490593
 31
0.0
  0
LINE
  8
0
  6
CONTINUOUS
 10
82.526546
 20
122.612443
 30
0.0
 11
82.703323
 21
122.510381
 31
0.0
  0
LINE
  8
0
  6
CONTINUOUS
 10
86.224467
 20
124.542875
 30
0.0
 11
85.68034
 21
124.840858
 31
0.0
  0
LINE
  8
0
  6
CONTINUOUS
 10
85.976142
 20
124.399504
 30
0.0
 11
85.450684
 21
124.708267
 31
0.0
  0
LINE
  8
0
  6
CONTINUOUS
 10
85.624266
 20
124.196231
 30
0.0
 11
85.098809
 21
124.504993
 31
0.0
  0
LINE
  8
0
  6
CONTINUOUS
 10
91.895711
 20
127.817608
 30
0.0
 11
82.703323
 21
122.510381
 31
0.0
  0
LINE
  8
0
  6
CONTINUOUS
 10
94.812526
 20
135.907674
 30
0.0
 11
94.812526
 21
131.134626
 31
0.0
  0
LINE
  8
0
  6
CONTINUOUS
 10
94.635749
 20
130.82844
 30
0.0
 11
93.221536
 21
130.011943
 31
0.0
  0
LINE
  8
0
  6
CONTINUOUS
 10
93.221536
 20
130.011943
 30
0.0
 11
93.221536
 21
136.850071
 31
0.0
  0
LINE
  8
0
  6
CONTINUOUS
 10
93.044759
 20
130.114005
 30
0.0
 11
93.221536
 21
130.011943
 31
0.0
  0
LINE
  8
0
  6
CONTINUOUS
 10
93.044759
 20
135.319171
 30
0.0
 11
92.691206
 21
135.523295
 31
0.0
  0
LINE
  8
0
  6
CONTINUOUS
 10
93.044759
 20
135.319171
 30
0.0
 11
93.044759
 21
136.74804
 31
0.0
  0
LINE
  8
0
  6
CONTINUOUS
 10
93.044759
 20
136.74804
 30
0.0
 11
92.691206
 21
136.952164
 31
0.0
  0
LINE
  8
0
  6
CONTINUOUS
 10
92.691206
 20
132.359371
 30
0.0
 11
93.044759
 21
132.155247
 31
0.0
  0
LINE
  8
0
  6
CONTINUOUS
 10
88.420734
 20
126.423702
 30
0.0
 11
88.213679
 21
125.97756
 31
0.0
  0
LINE
  8
0
  6
CONTINUOUS
 10
90.923439
 20
129.297509
 30
0.0
 11
91.276992
 21
129.093384
 31
0.0
  0
LINE
  8
0
  6
CONTINUOUS
 10
88.420734
 20
127.444323
 30
0.0
 11
88.213679
 21
126.998181
 31
0.0
  0
LINE
  8
0
  6
CONTINUOUS
 10
87.440938
 20
125.858017
 30
0.0
 11
87.087385
 21
126.062141
 31
0.0
  0
LINE
  8
0
  6
CONTINUOUS
 10
87.087385
 20
127.082762
 30
0.0
 11
87.440938
 21
126.878637
 31
0.0
  0
LINE
  8
0
  6
CONTINUOUS
 10
88.213679
 20
126.998181
 30
0.0
 11
88.213679
 21
125.97756
 31
0.0
  0
LINE
  8
0
  6
CONTINUOUS
 10
88.213679
 20
125.97756
 30
0.0
 11
87.440938
 21
125.858017
 31
0.0
  0
LINE
  8
0
  6
CONTINUOUS
 10
87.440938
 20
126.878637
 30
0.0
 11
87.440938
 21
125.858017
 31
0.0
  0
LINE
  8
0
  6
CONTINUOUS
 10
88.213679
 20
126.998181
 30
0.0
 11
87.440938
 21
126.878637
 31
0.0
  0
LINE
  8
0
  6
CONTINUOUS
 10
94.812607
 20
131.481683
 30
0.0
 11
95.961575
 21
132.14504
 31
0.0
  0
LINE
  8
0
  6
CONTINUOUS
 10
91.718934
 20
127.919671
 30
0.0
 11
95.254468
 21
129.960912
 31
0.0
  0
LINE
  8
0
  6
CONTINUOUS
 10
91.718934
 20
127.919671
 30
0.0
 11
91.718934
 21
128.327919
 31
0.0
  0
LINE
  8
0
  6
CONTINUOUS
 10
91.718934
 20
128.327919
 30
0.0
 11
88.420734
 21
126.423702
 31
0.0
  0
LINE
  8
0
  6
CONTINUOUS
 10
88.420734
 20
126.423702
 30
0.0
 11
88.420734
 21
127.444323
 31
0.0
  0
LINE
  8
0
  6
CONTINUOUS
 10
88.420734
 20
127.444323
 30
0.0
 11
91.276992
 21
129.093384
 31
0.0
  0
LINE
  8
0
  6
CONTINUOUS
 10
93.044759
 20
132.155247
 30
0.0
 11
93.044759
 21
130.114005
 31
0.0
  0
LINE
  8
0
  6
CONTINUOUS
 10
95.91861
 20
132.528483
 30
0.0
 11
96.138492
 21
132.399299
 31
0.0
  0
LINE
  8
0
  6
CONTINUOUS
 10
64.412494
 20
124.762913
 30
0.0
 11
64.897178
 21
124.463195
 31
0.0
  0
LINE
  8
0
  6
CONTINUOUS
 10
64.897178
 20
118.237409
 30
0.0
 11
64.412494
 21
118.537126
 31
0.0
  0
LINE
  8
0
  6
CONTINUOUS
 10
62.752724
 20
123.922123
 30
0.0
 11
62.838123
 21
123.971428
 31
0.0
  0
LINE
  8
0
  6
CONTINUOUS
 10
62.551541
 20
118.032712
 30
0.0
 11
63.894282
 21
117.310678
 31
0.0
  0
LINE
  8
0
  6
CONTINUOUS
 10
62.551551
 20
124.034215
 30
0.0
 11
62.752724
 21
123.922123
 31
0.0
  0
LINE
  8
0
  6
CONTINUOUS
 10
83.458731
 20
128.953926
 30
0.0
 11
82.974047
 21
129.253644
 31
0.0
  0
LINE
  8
0
  6
CONTINUOUS
 10
74.129653
 20
121.642853
 30
0.0
 11
74.483206
 21
121.438729
 31
0.0
  0
LINE
  8
0
  6
CONTINUOUS
 10
74.483206
 20
124.602653
 30
0.0
 11
74.129653
 21
124.806777
 31
0.0
  0
LINE
  8
0
  6
CONTINUOUS
 10
74.483206
 20
124.602653
 30
0.0
 11
74.483206
 21
126.031522
 31
0.0
  0
LINE
  8
0
  6
CONTINUOUS
 10
74.483206
 20
126.031522
 30
0.0
 11
74.129653
 21
126.235646
 31
0.0
  0
LINE
  8
0
  6
CONTINUOUS
 10
69.859181
 20
115.707184
 30
0.0
 11
69.652126
 21
115.261042
 31
0.0
  0
LINE
  8
0
  6
CONTINUOUS
 10
72.361886
 20
118.580991
 30
0.0
 11
72.715439
 21
118.376867
 31
0.0
  0
LINE
  8
0
  6
CONTINUOUS
 10
69.859181
 20
116.727805
 30
0.0
 11
69.652126
 21
116.281663
 31
0.0
  0
LINE
  8
0
  6
CONTINUOUS
 10
69.652126
 20
116.281663
 30
0.0
 11
69.652126
 21
115.261042
 31
0.0
  0
LINE
  8
0
  6
CONTINUOUS
 10
69.652126
 20
115.261042
 30
0.0
 11
68.879385
 21
115.141499
 31
0.0
  0
LINE
  8
0
  6
CONTINUOUS
 10
69.652126
 20
116.281663
 30
0.0
 11
68.879385
 21
116.16212
 31
0.0
  0
LINE
  8
0
  6
CONTINUOUS
 10
68.879385
 20
115.141499
 30
0.0
 11
68.525832
 21
115.345623
 31
0.0
  0
LINE
  8
0
  6
CONTINUOUS
 10
68.525832
 20
116.366244
 30
0.0
 11
68.879385
 21
116.16212
 31
0.0
  0
LINE
  8
0
  6
CONTINUOUS
 10
68.879385
 20
116.16212
 30
0.0
 11
68.879385
 21
115.141499
 31
0.0
  0
LINE
  8
0
  6
CONTINUOUS
 10
76.251054
 20
120.765166
 30
0.0
 11
77.400022
 21
121.428523
 31
0.0
  0
LINE
  8
0
  6
CONTINUOUS
 10
73.157381
 20
117.611401
 30
0.0
 11
69.859181
 21
115.707184
 31
0.0
  0
LINE
  8
0
  6
CONTINUOUS
 10
69.859181
 20
115.707184
 30
0.0
 11
69.859181
 21
116.727805
 31
0.0
  0
LINE
  8
0
  6
CONTINUOUS
 10
69.859181
 20
116.727805
 30
0.0
 11
72.715439
 21
118.376867
 31
0.0
  0
LINE
  8
0
  6
CONTINUOUS
 10
74.483206
 20
121.438729
 30
0.0
 11
74.483206
 21
119.397487
 31
0.0
  0
LINE
  8
0
  6
CONTINUOUS
 10
74.483206
 20
119.397487
 30
0.0
 11
74.659983
 21
119.295425
 31
0.0
  0
LINE
  8
0
  6
CONTINUOUS
 10
73.157381
 20
117.203153
 30
0.0
 11
73.157381
 21
117.611401
 31
0.0
  0
LINE
  8
0
  6
CONTINUOUS
 10
73.157381
 20
117.203153
 30
0.0
 11
73.334158
 21
117.101091
 31
0.0
  0
LINE
  8
0
  6
CONTINUOUS
 10
73.157381
 20
117.203153
 30
0.0
 11
76.692915
 21
119.244394
 31
0.0
  0
LINE
  8
0
  6
CONTINUOUS
 10
79.521342
 20
117.611401
 30
0.0
 11
76.692915
 21
119.244394
 31
0.0
  0
LINE
  8
0
  6
CONTINUOUS
 10
50.611093
 20
125.210834
 30
0.0
 11
50.254454
 21
125.413177
 31
0.0
  0
LINE
  8
0
  6
CONTINUOUS
 10
50.611093
 20
127.660324
 30
0.0
 11
50.611093
 21
125.210834
 31
0.0
  0
LINE
  8
0
  6
CONTINUOUS
 10
50.254454
 20
127.862667
 30
0.0
 11
50.611093
 21
127.660324
 31
0.0
  0
LINE
  8
0
  6
CONTINUOUS
 10
81.819439
 20
118.938208
 30
0.0
 11
81.112654
 21
119.346271
 31
0.0
  0
LINE
  8
0
  6
CONTINUOUS
 10
81.377497
 20
123.173784
 30
0.0
 11
81.377497
 21
128.520229
 31
0.0
  0
LINE
  8
0
  6
CONTINUOUS
 10
81.113539
 20
123.021388
 30
0.0
 11
81.377497
 21
123.173784
 31
0.0
  0
LINE
  8
0
  6
CONTINUOUS
 10
85.824746
 20
125.945529
 30
0.0
 11
82.968488
 21
124.296467
 31
0.0
  0
LINE
  8
0
  6
CONTINUOUS
 10
85.824746
 20
124.924908
 30
0.0
 11
85.824746
 21
125.945529
 31
0.0
  0
LINE
  8
0
  6
CONTINUOUS
 10
82.526546
 20
123.020691
 30
0.0
 11
85.824746
 21
124.924908
 31
0.0
  0
LINE
  8
0
  6
CONTINUOUS
 10
82.526546
 20
122.612443
 30
0.0
 11
82.526546
 21
123.020691
 31
0.0
  0
LINE
  8
0
  6
CONTINUOUS
 10
82.526546
 20
122.612443
 30
0.0
 11
81.11362
 21
121.796689
 31
0.0
  0
LINE
  8
0
  6
CONTINUOUS
 10
96.138492
 20
151.995217
 30
0.0
 11
95.91861
 21
152.124401
 31
0.0
  0
LINE
  8
0
  6
CONTINUOUS
 10
95.961575
 20
151.740958
 30
0.0
 11
94.812607
 21
151.077601
 31
0.0
  0
LINE
  8
0
  6
CONTINUOUS
 10
95.961575
 20
146.290844
 30
0.0
 11
95.659886
 21
146.116663
 31
0.0
  0
LINE
  8
0
  6
CONTINUOUS
 10
95.961575
 20
134.717005
 30
0.0
 11
94.812607
 21
134.053648
 31
0.0
  0
LINE
  8
0
  6
CONTINUOUS
 10
98.082895
 20
128.327919
 30
0.0
 11
95.254468
 21
129.960912
 31
0.0
  0
LINE
  8
0
  6
CONTINUOUS
 10
98.790002
 20
129.552664
 30
0.0
 11
95.961575
 21
131.185657
 31
0.0
  0
LINE
  8
0
  6
CONTINUOUS
 10
95.961575
 20
131.185657
 30
0.0
 11
95.961575
 21
132.14504
 31
0.0
  0
LINE
  8
0
  6
CONTINUOUS
 10
95.961575
 20
132.14504
 30
0.0
 11
96.138351
 21
132.042978
 31
0.0
  0
LINE
  8
0
  6
CONTINUOUS
 10
96.138351
 20
134.614943
 30
0.0
 11
96.138351
 21
132.042978
 31
0.0
  0
LINE
  8
0
  6
CONTINUOUS
 10
96.138351
 20
134.614943
 30
0.0
 11
95.961575
 21
134.717005
 31
0.0
  0
LINE
  8
0
  6
CONTINUOUS
 10
95.961575
 20
134.717005
 30
0.0
 11
95.961575
 21
135.619008
 31
0.0
  0
LINE
  8
0
  6
CONTINUOUS
 10
95.961575
 20
151.740958
 30
0.0
 11
95.961575
 21
146.290844
 31
0.0
  0
LINE
  8
0
  6
CONTINUOUS
 10
96.138351
 20
151.638896
 30
0.0
 11
95.961575
 21
151.740958
 31
0.0
  0
LINE
  8
0
  6
CONTINUOUS
 10
96.138351
 20
151.638896
 30
0.0
 11
96.138351
 21
152.923124
 31
0.0
  0
LINE
  8
0
  6
CONTINUOUS
 10
98.790002
 20
153.639313
 30
0.0
 11
98.083299
 21
154.047328
 31
0.0
  0
LINE
  8
0
  6
CONTINUOUS
 10
82.974047
 20
135.47943
 30
0.0
 11
83.458731
 21
135.179713
 31
0.0
  0
LINE
  8
0
  6
CONTINUOUS
 10
72.803929
 20
117.407102
 30
0.0
 11
73.069069
 21
116.947866
 31
0.0
  0
LINE
  8
0
  6
CONTINUOUS
 10
62.551541
 20
127.178921
 30
0.0
 11
63.894282
 21
126.403689
 31
0.0
  0
LINE
  8
0
  6
CONTINUOUS
 10
62.646761
 20
124.160976
 30
0.0
 11
63.894282
 21
123.490146
 31
0.0
  0
LINE
  8
0
  6
CONTINUOUS
 10
64.897178
 20
127.186804
 30
0.0
 11
62.639195
 21
128.58309
 31
0.0
  0
LINE
  8
0
  6
CONTINUOUS
 10
62.55162
 20
127.587061
 30
0.0
 11
64.071032
 21
126.709828
 31
0.0
  0
LINE
  8
0
  6
CONTINUOUS
 10
62.551986
 20
128.53274
 30
0.0
 11
62.639195
 21
128.58309
 31
0.0
  0
LINE
  8
0
  6
CONTINUOUS
 10
62.815944
 20
133.504203
 30
0.0
 11
62.815944
 21
128.563504
 31
0.0
  0
LINE
  8
0
  6
CONTINUOUS
 10
67.263193
 20
114.20839
 30
0.0
 11
68.035934
 21
114.327934
 31
0.0
  0
LINE
  8
0
  6
CONTINUOUS
 10
68.242989
 20
115.794696
 30
0.0
 11
68.242989
 21
114.774076
 31
0.0
  0
LINE
  8
0
  6
CONTINUOUS
 10
68.035934
 20
114.327934
 30
0.0
 11
68.242989
 21
114.774076
 31
0.0
  0
LINE
  8
0
  6
CONTINUOUS
 10
68.035934
 20
115.348554
 30
0.0
 11
68.035934
 21
114.327934
 31
0.0
  0
LINE
  8
0
  6
CONTINUOUS
 10
68.035934
 20
115.348554
 30
0.0
 11
68.242989
 21
115.794696
 31
0.0
  0
LINE
  8
0
  6
CONTINUOUS
 10
67.263193
 20
115.229011
 30
0.0
 11
68.035934
 21
115.348554
 31
0.0
  0
LINE
  8
0
  6
CONTINUOUS
 10
67.889435
 20
115.99882
 30
0.0
 11
68.242989
 21
115.794696
 31
0.0
  0
LINE
  8
0
  6
CONTINUOUS
 10
63.964993
 20
111.895925
 30
0.0
 11
64.14177
 21
111.793863
 31
0.0
  0
LINE
  8
0
  6
CONTINUOUS
 10
50.254454
 20
125.413177
 30
0.0
 11
50.611254
 21
125.619176
 31
0.0
  0
LINE
  8
0
  6
CONTINUOUS
 10
50.254454
 20
113.133298
 30
0.0
 11
50.254454
 21
125.413177
 31
0.0
  0
LINE
  8
0
  6
CONTINUOUS
 10
66.917813
 20
115.436586
 30
0.0
 11
62.818892
 21
117.681305
 31
0.0
  0
LINE
  8
0
  6
CONTINUOUS
 10
66.731719
 20
115.329144
 30
0.0
 11
62.818871
 21
117.628364
 31
0.0
  0
LINE
  8
0
  6
CONTINUOUS
 10
83.925855
 20
123.612376
 30
0.0
 11
84.269836
 21
123.413778
 31
0.0
  0
LINE
  8
0
  6
CONTINUOUS
 10
84.923737
 20
123.791308
 30
0.0
 11
84.39828
 21
124.100071
 31
0.0
  0
LINE
  8
0
  6
CONTINUOUS
 10
67.430805
 20
113.691759
 30
0.0
 11
66.905347
 21
114.000522
 31
0.0
  0
LINE
  8
0
  6
CONTINUOUS
 10
65.679314
 20
114.720949
 30
0.0
 11
62.818789
 21
116.401815
 31
0.0
  0
LINE
  8
0
  6
CONTINUOUS
 10
67.841843
 20
114.266789
 30
0.0
 11
67.800679
 21
114.290977
 31
0.0
  0
LINE
  8
0
  6
CONTINUOUS
 10
66.379843
 20
115.125871
 30
0.0
 11
62.818789
 21
117.218374
 31
0.0
  0
LINE
  8
0
  6
CONTINUOUS
 10
64.14177
 20
111.793863
 30
0.0
 11
73.334158
 21
117.101091
 31
0.0
  0
LINE
  8
0
  6
CONTINUOUS
 10
64.053381
 20
113.784073
 30
0.0
 11
67.889435
 21
115.99882
 31
0.0
  0
LINE
  8
0
  6
CONTINUOUS
 10
67.263193
 20
115.229011
 30
0.0
 11
64.406935
 21
113.579949
 31
0.0
  0
LINE
  8
0
  6
CONTINUOUS
 10
67.263193
 20
114.20839
 30
0.0
 11
67.263193
 21
115.229011
 31
0.0
  0
LINE
  8
0
  6
CONTINUOUS
 10
63.964993
 20
112.304173
 30
0.0
 11
67.263193
 21
114.20839
 31
0.0
  0
LINE
  8
0
  6
CONTINUOUS
 10
63.964993
 20
111.895925
 30
0.0
 11
63.964993
 21
112.304173
 31
0.0
  0
LINE
  8
0
  6
CONTINUOUS
 10
63.964993
 20
111.895925
 30
0.0
 11
62.552067
 21
111.080172
 31
0.0
  0
LINE
  8
0
  6
CONTINUOUS
 10
62.551986
 20
112.30487
 30
0.0
 11
62.815944
 21
112.457267
 31
0.0
  0
LINE
  8
0
  6
CONTINUOUS
 10
64.053381
 20
113.784073
 30
0.0
 11
64.406935
 21
113.579949
 31
0.0
  0
LINE
  8
0
  6
CONTINUOUS
 10
62.815944
 20
112.457267
 30
0.0
 11
62.815944
 21
117.803712
 31
0.0
  0
LINE
  8
0
  6
CONTINUOUS
 10
62.646761
 20
120.944478
 30
0.0
 11
63.894282
 21
120.224221
 31
0.0
  0
LINE
  8
0
  6
CONTINUOUS
 10
62.909548
 20
121.200944
 30
0.0
 11
64.071032
 21
120.530361
 31
0.0
  0
LINE
  8
0
  6
CONTINUOUS
 10
62.752724
 20
121.110402
 30
0.0
 11
62.909548
 21
121.200944
 31
0.0
  0
LINE
  8
0
  6
CONTINUOUS
 10
62.551551
 20
121.230604
 30
0.0
 11
62.752724
 21
121.110402
 31
0.0
  0
LINE
  8
0
  6
CONTINUOUS
 10
64.897178
 20
117.685607
 30
0.0
 11
64.071032
 21
117.208632
 31
0.0
  0
LINE
  8
0
  6
CONTINUOUS
 10
63.894282
 20
120.224221
 30
0.0
 11
63.894282
 21
117.310678
 31
0.0
  0
LINE
  8
0
  6
CONTINUOUS
 10
64.071032
 20
120.530361
 30
0.0
 11
64.583711
 21
120.826357
 31
0.0
  0
LINE
  8
0
  6
CONTINUOUS
 10
64.071032
 20
123.388099
 30
0.0
 11
64.583711
 21
123.684095
 31
0.0
  0
LINE
  8
0
  6
CONTINUOUS
 10
63.894282
 20
123.490146
 30
0.0
 11
63.894282
 21
126.403689
 31
0.0
  0
LINE
  8
0
  6
CONTINUOUS
 10
64.897178
 20
127.186804
 30
0.0
 11
64.071032
 21
126.709828
 31
0.0
  0
LINE
  8
0
  6
CONTINUOUS
 10
65.073928
 20
126.941142
 30
0.0
 11
65.073928
 21
127.084758
 31
0.0
  0
LINE
  8
0
  6
CONTINUOUS
 10
64.897178
 20
126.635003
 30
0.0
 11
64.41227
 21
126.355041
 31
0.0
  0
LINE
  8
0
  6
CONTINUOUS
 10
64.41227
 20
126.355041
 30
0.0
 11
64.41227
 21
124.183233
 31
0.0
  0
LINE
  8
0
  6
CONTINUOUS
 10
64.41227
 20
124.183233
 30
0.0
 11
64.897178
 21
124.463195
 31
0.0
  0
LINE
  8
0
  6
CONTINUOUS
 10
65.073928
 20
124.361149
 30
0.0
 11
65.073928
 21
120.715356
 31
0.0
  0
LINE
  8
0
  6
CONTINUOUS
 10
64.41227
 20
120.129254
 30
0.0
 11
64.897178
 21
120.409216
 31
0.0
  0
LINE
  8
0
  6
CONTINUOUS
 10
64.41227
 20
117.957447
 30
0.0
 11
64.41227
 21
120.129254
 31
0.0
  0
LINE
  8
0
  6
CONTINUOUS
 10
64.897178
 20
118.237409
 30
0.0
 11
64.41227
 21
117.957447
 31
0.0
  0
LINE
  8
0
  6
CONTINUOUS
 10
65.073928
 20
118.135362
 30
0.0
 11
65.073928
 21
117.991747
 31
0.0
  0
LINE
  8
0
  6
CONTINUOUS
 10
64.583711
 20
120.826357
 30
0.0
 11
62.785088
 21
121.864792
 31
0.0
  0
LINE
  8
0
  6
CONTINUOUS
 10
64.583711
 20
123.684095
 30
0.0
 11
64.583711
 21
120.826357
 31
0.0
  0
LINE
  8
0
  6
CONTINUOUS
 10
63.8645
 20
122.189322
 30
0.0
 11
63.337017
 21
122.493864
 31
0.0
  0
LINE
  8
0
  6
CONTINUOUS
 10
62.785088
 20
122.175208
 30
0.0
 11
63.864262
 21
121.594902
 31
0.0
  0
LINE
  8
0
  6
CONTINUOUS
 10
63.864262
 20
121.594902
 30
0.0
 11
63.864262
 21
123.419552
 31
0.0
  0
LINE
  8
0
  6
CONTINUOUS
 10
63.337017
 20
122.493864
 30
0.0
 11
62.785088
 21
122.175208
 31
0.0
  0
LINE
  8
0
  6
CONTINUOUS
 10
62.785088
 20
121.864792
 30
0.0
 11
62.785088
 21
122.175208
 31
0.0
  0
LINE
  8
0
  6
CONTINUOUS
 10
62.785088
 20
121.864792
 30
0.0
 11
62.551745
 21
121.730072
 31
0.0
  0
LINE
  8
0
  6
CONTINUOUS
 10
88.208314
 20
147.123048
 30
0.0
 11
88.208314
 21
146.9176
 31
0.0
  0
LINE
  8
0
  6
CONTINUOUS
 10
88.208314
 20
146.9176
 30
0.0
 11
88.103759
 21
146.979028
 31
0.0
  0
LINE
  8
0
  6
CONTINUOUS
 10
51.916092
 20
141.387594
 30
0.0
 11
86.797272
 21
161.526253
 31
0.0
  0
LINE
  8
0
  6
CONTINUOUS
 10
50.254454
 20
127.862667
 30
0.0
 11
50.254454
 21
138.509553
 31
0.0
  0
LINE
  8
0
  6
CONTINUOUS
 10
63.257886
 20
108.221691
 30
0.0
 11
62.551101
 21
108.629753
 31
0.0
  0
LINE
  8
0
  6
CONTINUOUS
 10
80.228449
 20
118.836146
 30
0.0
 11
77.400022
 21
120.469139
 31
0.0
  0
LINE
  8
0
  6
CONTINUOUS
 10
77.400022
 20
120.469139
 30
0.0
 11
77.400022
 21
121.428523
 31
0.0
  0
LINE
  8
0
  6
CONTINUOUS
 10
77.400022
 20
121.428523
 30
0.0
 11
77.576798
 21
121.326461
 31
0.0
  0
LINE
  8
0
  6
CONTINUOUS
 10
77.400022
 20
141.024441
 30
0.0
 11
77.400022
 21
135.574326
 31
0.0
  0
LINE
  8
0
  6
CONTINUOUS
 10
77.576798
 20
140.922379
 30
0.0
 11
77.400022
 21
141.024441
 31
0.0
  0
LINE
  8
0
  6
CONTINUOUS
 10
77.576798
 20
140.922379
 30
0.0
 11
77.576798
 21
142.206607
 31
0.0
  0
LINE
  8
0
  6
CONTINUOUS
 10
80.228449
 20
142.922795
 30
0.0
 11
79.521746
 21
143.33081
 31
0.0
  0
LINE
  8
0
  6
CONTINUOUS
 10
77.576798
 20
123.898425
 30
0.0
 11
77.400022
 21
124.000487
 31
0.0
  0
LINE
  8
0
  6
CONTINUOUS
 10
77.400022
 20
124.000487
 30
0.0
 11
77.400022
 21
124.90249
 31
0.0
  0
LINE
  8
0
  6
CONTINUOUS
 10
77.400022
 20
124.000487
 30
0.0
 11
76.251054
 21
123.33713
 31
0.0
  0
LINE
  8
0
  6
CONTINUOUS
 10
77.576798
 20
123.898425
 30
0.0
 11
77.576798
 21
121.326461
 31
0.0
  0
LINE
  8
0
  6
CONTINUOUS
 10
76.250973
 20
125.191156
 30
0.0
 11
76.250973
 21
120.418108
 31
0.0
  0
LINE
  8
0
  6
CONTINUOUS
 10
76.074196
 20
120.111922
 30
0.0
 11
74.659983
 21
119.295425
 31
0.0
  0
LINE
  8
0
  6
CONTINUOUS
 10
74.659983
 20
119.295425
 30
0.0
 11
74.659983
 21
126.133553
 31
0.0
  0
LINE
  8
0
  6
CONTINUOUS
 10
76.251215
 20
140.769425
 30
0.0
 11
77.57704
 21
141.53489
 31
0.0
  0
LINE
  8
0
  6
CONTINUOUS
 10
74.483367
 20
136.033698
 30
0.0
 11
74.129653
 21
135.829481
 31
0.0
  0
LINE
  8
0
  6
CONTINUOUS
 10
93.04492
 20
146.750216
 30
0.0
 11
92.691206
 21
146.545999
 31
0.0
  0
LINE
  8
0
  6
CONTINUOUS
 10
94.812768
 20
151.485942
 30
0.0
 11
95.91861
 21
152.124401
 31
0.0
  0
LINE
  8
0
  6
CONTINUOUS
 10
81.377497
 20
144.220721
 30
0.0
 11
81.377497
 21
139.280021
 31
0.0
  0
LINE
  8
0
  6
CONTINUOUS
 10
81.113539
 20
139.249257
 30
0.0
 11
81.200748
 21
139.299607
 31
0.0
  0
LINE
  8
0
  6
CONTINUOUS
 10
81.113094
 20
137.895438
 30
0.0
 11
82.455835
 21
137.120206
 31
0.0
  0
LINE
  8
0
  6
CONTINUOUS
 10
81.113173
 20
138.303579
 30
0.0
 11
82.632585
 21
137.426346
 31
0.0
  0
LINE
  8
0
  6
CONTINUOUS
 10
83.458731
 20
128.402125
 30
0.0
 11
82.632585
 21
127.925149
 31
0.0
  0
LINE
  8
0
  6
CONTINUOUS
 10
82.455835
 20
130.940739
 30
0.0
 11
82.455835
 21
128.027196
 31
0.0
  0
LINE
  8
0
  6
CONTINUOUS
 10
82.455835
 20
134.206663
 30
0.0
 11
82.455835
 21
137.120206
 31
0.0
  0
LINE
  8
0
  6
CONTINUOUS
 10
83.458731
 20
137.903322
 30
0.0
 11
82.632585
 21
137.426346
 31
0.0
  0
LINE
  8
0
  6
CONTINUOUS
 10
83.635481
 20
137.65766
 30
0.0
 11
83.635481
 21
137.801275
 31
0.0
  0
LINE
  8
0
  6
CONTINUOUS
 10
83.458731
 20
137.35152
 30
0.0
 11
82.973823
 21
137.071558
 31
0.0
  0
LINE
  8
0
  6
CONTINUOUS
 10
82.973823
 20
137.071558
 30
0.0
 11
82.973823
 21
134.899751
 31
0.0
  0
LINE
  8
0
  6
CONTINUOUS
 10
82.973823
 20
134.899751
 30
0.0
 11
83.458731
 21
135.179713
 31
0.0
  0
LINE
  8
0
  6
CONTINUOUS
 10
83.635481
 20
135.077666
 30
0.0
 11
83.635481
 21
131.431873
 31
0.0
  0
LINE
  8
0
  6
CONTINUOUS
 10
82.973823
 20
130.845772
 30
0.0
 11
83.458731
 21
131.125734
 31
0.0
  0
LINE
  8
0
  6
CONTINUOUS
 10
82.973823
 20
128.673964
 30
0.0
 11
82.973823
 21
130.845772
 31
0.0
  0
LINE
  8
0
  6
CONTINUOUS
 10
83.458731
 20
128.953926
 30
0.0
 11
82.973823
 21
128.673964
 31
0.0
  0
LINE
  8
0
  6
CONTINUOUS
 10
83.635481
 20
128.85188
 30
0.0
 11
83.635481
 21
128.708265
 31
0.0
  0
LINE
  8
0
  6
CONTINUOUS
 10
82.632585
 20
134.104617
 30
0.0
 11
83.145264
 21
134.400612
 31
0.0
  0
LINE
  8
0
  6
CONTINUOUS
 10
81.314277
 20
134.63864
 30
0.0
 11
81.399676
 21
134.687945
 31
0.0
  0
LINE
  8
0
  6
CONTINUOUS
 10
81.208314
 20
134.877494
 30
0.0
 11
82.455835
 21
134.206663
 31
0.0
  0
LINE
  8
0
  6
CONTINUOUS
 10
81.89857
 20
133.210382
 30
0.0
 11
81.346641
 21
132.891725
 31
0.0
  0
LINE
  8
0
  6
CONTINUOUS
 10
82.426053
 20
132.90584
 30
0.0
 11
81.89857
 21
133.210382
 31
0.0
  0
LINE
  8
0
  6
CONTINUOUS
 10
81.346641
 20
132.58131
 30
0.0
 11
81.346641
 21
132.891725
 31
0.0
  0
LINE
  8
0
  6
CONTINUOUS
 10
81.346641
 20
132.891725
 30
0.0
 11
82.425815
 21
132.31142
 31
0.0
  0
LINE
  8
0
  6
CONTINUOUS
 10
82.425815
 20
132.31142
 30
0.0
 11
82.425815
 21
134.13607
 31
0.0
  0
LINE
  8
0
  6
CONTINUOUS
 10
83.145264
 20
134.400612
 30
0.0
 11
83.145264
 21
131.542874
 31
0.0
  0
LINE
  8
0
  6
CONTINUOUS
 10
81.113104
 20
131.947121
 30
0.0
 11
81.314277
 21
131.826919
 31
0.0
  0
LINE
  8
0
  6
CONTINUOUS
 10
81.346641
 20
132.58131
 30
0.0
 11
81.113298
 21
132.446589
 31
0.0
  0
LINE
  8
0
  6
CONTINUOUS
 10
83.145264
 20
131.542874
 30
0.0
 11
81.346641
 21
132.58131
 31
0.0
  0
LINE
  8
0
  6
CONTINUOUS
 10
82.632585
 20
131.246879
 30
0.0
 11
83.145264
 21
131.542874
 31
0.0
  0
LINE
  8
0
  6
CONTINUOUS
 10
81.314277
 20
131.826919
 30
0.0
 11
81.471101
 21
131.917462
 31
0.0
  0
LINE
  8
0
  6
CONTINUOUS
 10
81.471101
 20
131.917462
 30
0.0
 11
82.632585
 21
131.246879
 31
0.0
  0
LINE
  8
0
  6
CONTINUOUS
 10
81.208314
 20
131.660995
 30
0.0
 11
82.455835
 21
130.940739
 31
0.0
  0
LINE
  8
0
  6
CONTINUOUS
 10
83.458731
 20
137.903322
 30
0.0
 11
81.200748
 21
139.299607
 31
0.0
  0
LINE
  8
0
  6
CONTINUOUS
 10
94.304659
 20
146.865154
 30
0.0
 11
93.398286
 21
146.341859
 31
0.0
  0
LINE
  8
0
  6
CONTINUOUS
 10
94.812526
 20
146.640773
 30
0.0
 11
94.812526
 21
152.157659
 31
0.0
  0
LINE
  8
0
  6
CONTINUOUS
 10
93.221536
 20
137.279735
 30
0.0
 11
93.221536
 21
136.850071
 31
0.0
  0
LINE
  8
0
  6
CONTINUOUS
 10
94.44943
 20
138.703418
 30
0.0
 11
94.44943
 21
136.643797
 31
0.0
  0
LINE
  8
0
  6
CONTINUOUS
 10
94.840297
 20
141.601816
 30
0.0
 11
94.840297
 21
139.478924
 31
0.0
  0
LINE
  8
0
  6
CONTINUOUS
 10
93.761123
 20
142.224877
 30
0.0
 11
93.761123
 21
143.183295
 31
0.0
  0
LINE
  8
0
  6
CONTINUOUS
 10
93.221536
 20
145.606056
 30
0.0
 11
94.44943
 21
144.872792
 31
0.0
  0
LINE
  8
0
  6
CONTINUOUS
 10
93.221536
 20
145.606056
 30
0.0
 11
92.691206
 21
145.933626
 31
0.0
  0
LINE
  8
0
  6
CONTINUOUS
 10
92.691206
 20
145.933626
 30
0.0
 11
92.691206
 21
146.545999
 31
0.0
  0
LINE
  8
0
  6
CONTINUOUS
 10
93.044759
 20
146.341875
 30
0.0
 11
92.691206
 21
146.545999
 31
0.0
  0
LINE
  8
0
  6
CONTINUOUS
 10
93.044759
 20
147.770744
 30
0.0
 11
93.044759
 21
146.341875
 31
0.0
  0
LINE
  8
0
  6
CONTINUOUS
 10
93.044759
 20
147.770744
 30
0.0
 11
92.691206
 21
147.974868
 31
0.0
  0
LINE
  8
0
  6
CONTINUOUS
 10
92.691206
 20
147.974868
 30
0.0
 11
92.691206
 21
150.932563
 31
0.0
  0
LINE
  8
0
  6
CONTINUOUS
 10
92.869703
 20
151.035737
 30
0.0
 11
93.044759
 21
150.934668
 31
0.0
  0
LINE
  8
0
  6
CONTINUOUS
 10
93.044759
 20
150.934668
 30
0.0
 11
93.044759
 21
151.136921
 31
0.0
  0
LINE
  8
0
  6
CONTINUOUS
 10
93.221536
 20
151.2391
 30
0.0
 11
93.221536
 21
146.03572
 31
0.0
  0
LINE
  8
0
  6
CONTINUOUS
 10
93.221536
 20
145.606056
 30
0.0
 11
93.221536
 21
146.03572
 31
0.0
  0
LINE
  8
0
  6
CONTINUOUS
 10
91.365482
 20
128.123619
 30
0.0
 11
91.630622
 21
127.664384
 31
0.0
  0
LINE
  8
0
  6
CONTINUOUS
 10
95.91861
 20
132.528483
 30
0.0
 11
94.812768
 21
131.890025
 31
0.0
  0
LINE
  8
0
  6
CONTINUOUS
 10
93.928643
 20
138.278971
 30
0.0
 11
93.928643
 21
139.003928
 31
0.0
  0
LINE
  8
0
  6
CONTINUOUS
 10
92.691206
 20
137.564536
 30
0.0
 11
92.691206
 21
136.952164
 31
0.0
  0
LINE
  8
0
  6
CONTINUOUS
 10
92.691206
 20
135.523295
 30
0.0
 11
93.04492
 21
135.727512
 31
0.0
  0
LINE
  8
0
  6
CONTINUOUS
 10
92.691206
 20
135.523295
 30
0.0
 11
92.691206
 21
132.359371
 31
0.0
  0
LINE
  8
0
  6
CONTINUOUS
 10
90.923439
 20
129.297509
 30
0.0
 11
87.087385
 21
127.082762
 31
0.0
  0
LINE
  8
0
  6
CONTINUOUS
 10
87.087385
 20
126.062141
 30
0.0
 11
87.087385
 21
127.082762
 31
0.0
  0
LINE
  8
0
  6
CONTINUOUS
 10
93.221536
 20
137.279735
 30
0.0
 11
92.691206
 21
137.564536
 31
0.0
  0
LINE
  8
0
  6
CONTINUOUS
 10
93.928643
 20
138.278971
 30
0.0
 11
92.691206
 21
137.564536
 31
0.0
  0
LINE
  8
0
  6
CONTINUOUS
 10
94.44943
 20
136.643797
 30
0.0
 11
93.928643
 21
138.278971
 31
0.0
  0
LINE
  8
0
  6
CONTINUOUS
 10
93.221536
 20
137.279735
 30
0.0
 11
94.44943
 21
136.643797
 31
0.0
  0
LINE
  8
0
  6
CONTINUOUS
 10
80.228449
 20
118.836146
 30
0.0
 11
80.228449
 21
142.922795
 31
0.0
  0
LINE
  8
0
  6
CONTINUOUS
 10
63.257886
 20
133.941333
 30
0.0
 11
79.521342
 21
143.331044
 31
0.0
  0
LINE
  8
0
  6
CONTINUOUS
 10
62.550779
 20
108.629939
 30
0.0
 11
62.550779
 21
132.716588
 31
0.0
  0
LINE
  8
0
  6
CONTINUOUS
 10
63.257886
 20
108.221691
 30
0.0
 11
79.521342
 21
117.611401
 31
0.0
  0
LINE
  8
0
  6
CONTINUOUS
 10
98.082895
 20
128.327919
 30
0.0
 11
81.819439
 21
118.938208
 31
0.0
  0
LINE
  8
0
  6
CONTINUOUS
 10
98.790002
 20
129.552664
 30
0.0
 11
98.790002
 21
153.639313
 31
0.0
  0
LINE
  8
0
  6
CONTINUOUS
 10
98.082895
 20
154.047561
 30
0.0
 11
81.819439
 21
144.65785
 31
0.0
  0
LINE
  8
0
  6
CONTINUOUS
 10
81.112332
 20
119.346456
 30
0.0
 11
81.112332
 21
143.433106
 31
0.0
  0
LINE
  8
0
  6
CONTINUOUS
 10
93.761123
 20
139.100812
 30
0.0
 11
94.44943
 21
138.703418
 31
0.0
  0
LINE
  8
0
  6
CONTINUOUS
 10
94.840297
 20
139.478924
 30
0.0
 11
93.761123
 21
140.05923
 31
0.0
  0
LINE
  8
0
  6
CONTINUOUS
 10
94.313053
 20
140.377887
 30
0.0
 11
94.840535
 21
140.073344
 31
0.0
  0
LINE
  8
0
  6
CONTINUOUS
 10
94.840297
 20
141.601816
 30
0.0
 11
93.761123
 21
142.224877
 31
0.0
  0
LINE
  8
0
  6
CONTINUOUS
 10
96.0502
 20
139.606283
 30
0.0
 11
96.562642
 21
139.289401
 31
0.0
  0
LINE
  8
0
  6
CONTINUOUS
 10
93.761123
 20
140.05923
 30
0.0
 11
93.761123
 21
139.100812
 31
0.0
  0
LINE
  8
0
  6
CONTINUOUS
 10
94.581848
 20
140.22266
 30
0.0
 11
94.84078
 21
140.372155
 31
0.0
  0
LINE
  8
0
  6
CONTINUOUS
 10
93.761123
 20
140.05923
 30
0.0
 11
94.313053
 21
140.377887
 31
0.0
  0
LINE
  8
0
  6
CONTINUOUS
 10
94.44943
 20
142.813171
 30
0.0
 11
94.44943
 21
144.872792
 31
0.0
  0
LINE
  8
0
  6
CONTINUOUS
 10
93.945642
 20
145.17349
 30
0.0
 11
94.246621
 21
143.463597
 31
0.0
  0
LINE
  8
0
  6
CONTINUOUS
 10
93.761123
 20
143.183295
 30
0.0
 11
94.44943
 21
142.813171
 31
0.0
  0
LINE
  8
0
  6
CONTINUOUS
 10
93.761123
 20
143.183295
 30
0.0
 11
94.246621
 21
143.463597
 31
0.0
  0
LINE
  8
0
  6
CONTINUOUS
 10
94.44943
 20
142.813171
 30
0.0
 11
94.246621
 21
143.463597
 31
0.0
  0
LINE
  8
0
  6
CONTINUOUS
 10
77.57704
 20
121.938972
 30
0.0
 11
76.251215
 21
121.173507
 31
0.0
  0
LINE
  8
0
  6
CONTINUOUS
 10
82.614934
 20
124.500591
 30
0.0
 11
86.450988
 21
126.715338
 31
0.0
  0
LINE
  8
0
  6
CONTINUOUS
 10
74.129653
 20
126.848019
 30
0.0
 11
74.129653
 21
126.235646
 31
0.0
  0
LINE
  8
0
  6
CONTINUOUS
 10
74.129653
 20
124.806777
 30
0.0
 11
74.483367
 21
125.010994
 31
0.0
  0
LINE
  8
0
  6
CONTINUOUS
 10
74.129653
 20
124.806777
 30
0.0
 11
74.129653
 21
121.642853
 31
0.0
  0
LINE
  8
0
  6
CONTINUOUS
 10
72.361886
 20
118.580991
 30
0.0
 11
68.525832
 21
116.366244
 31
0.0
  0
LINE
  8
0
  6
CONTINUOUS
 10
68.525832
 20
115.345623
 30
0.0
 11
68.525832
 21
116.366244
 31
0.0
  0
LINE
  8
0
  6
CONTINUOUS
 10
74.659983
 20
126.563217
 30
0.0
 11
74.129653
 21
126.848019
 31
0.0
  0
LINE
  8
0
  6
CONTINUOUS
 10
75.36709
 20
127.562453
 30
0.0
 11
74.129653
 21
126.848019
 31
0.0
  0
LINE
  8
0
  6
CONTINUOUS
 10
75.887877
 20
125.927279
 30
0.0
 11
75.36709
 21
127.562453
 31
0.0
  0
LINE
  8
0
  6
CONTINUOUS
 10
75.36709
 20
127.562453
 30
0.0
 11
75.36709
 21
128.28741
 31
0.0
  0
LINE
  8
0
  6
CONTINUOUS
 10
75.19957
 20
129.342712
 30
0.0
 11
75.7515
 21
129.661369
 31
0.0
  0
LINE
  8
0
  6
CONTINUOUS
 10
75.743106
 20
136.148636
 30
0.0
 11
78.001089
 21
134.752351
 31
0.0
  0
LINE
  8
0
  6
CONTINUOUS
 10
77.174943
 20
134.275375
 30
0.0
 11
74.836733
 21
135.625341
 31
0.0
  0
LINE
  8
0
  6
CONTINUOUS
 10
76.940402
 20
132.247102
 30
0.0
 11
76.455494
 21
131.96714
 31
0.0
  0
LINE
  8
0
  6
CONTINUOUS
 10
77.659852
 20
131.831728
 30
0.0
 11
76.940402
 21
132.247102
 31
0.0
  0
LINE
  8
0
  6
CONTINUOUS
 10
76.940402
 20
133.769965
 30
0.0
 11
76.940402
 21
132.247102
 31
0.0
  0
LINE
  8
0
  6
CONTINUOUS
 10
76.455494
 20
131.96714
 30
0.0
 11
77.174943
 21
131.551766
 31
0.0
  0
LINE
  8
0
  6
CONTINUOUS
 10
77.659852
 20
125.605942
 30
0.0
 11
76.940402
 21
126.021316
 31
0.0
  0
LINE
  8
0
  6
CONTINUOUS
 10
76.940402
 20
126.021316
 30
0.0
 11
76.940402
 21
127.544178
 31
0.0
  0
LINE
  8
0
  6
CONTINUOUS
 10
76.455494
 20
125.741354
 30
0.0
 11
76.940402
 21
126.021316
 31
0.0
  0
LINE
  8
0
  6
CONTINUOUS
 10
77.174943
 20
125.32598
 30
0.0
 11
76.455494
 21
125.741354
 31
0.0
  0
LINE
  8
0
  6
CONTINUOUS
 10
76.998193
 20
133.969235
 30
0.0
 11
74.659983
 21
135.319202
 31
0.0
  0
LINE
  8
0
  6
CONTINUOUS
 10
76.998193
 20
133.82562
 30
0.0
 11
76.278744
 21
134.21249
 31
0.0
  0
LINE
  8
0
  6
CONTINUOUS
 10
76.278744
 20
131.661001
 30
0.0
 11
76.278744
 21
134.21249
 31
0.0
  0
LINE
  8
0
  6
CONTINUOUS
 10
76.278744
 20
131.661001
 30
0.0
 11
76.998193
 21
131.245626
 31
0.0
  0
LINE
  8
0
  6
CONTINUOUS
 10
76.278744
 20
127.986704
 30
0.0
 11
76.998193
 21
127.599834
 31
0.0
  0
LINE
  8
0
  6
CONTINUOUS
 10
76.278744
 20
127.986704
 30
0.0
 11
76.278744
 21
125.435214
 31
0.0
  0
LINE
  8
0
  6
CONTINUOUS
 10
76.998193
 20
125.01984
 30
0.0
 11
76.278744
 21
125.435214
 31
0.0
  0
LINE
  8
0
  6
CONTINUOUS
 10
76.998193
 20
124.876225
 30
0.0
 11
74.659983
 21
126.133553
 31
0.0
  0
LINE
  8
0
  6
CONTINUOUS
 10
74.659983
 20
126.563217
 30
0.0
 11
74.659983
 21
126.133553
 31
0.0
  0
LINE
  8
0
  6
CONTINUOUS
 10
74.659983
 20
126.563217
 30
0.0
 11
75.887877
 21
125.927279
 31
0.0
  0
LINE
  8
0
  6
CONTINUOUS
 10
75.887877
 20
127.9869
 30
0.0
 11
75.887877
 21
125.927279
 31
0.0
  0
LINE
  8
0
  6
CONTINUOUS
 10
75.19957
 20
128.384294
 30
0.0
 11
75.887877
 21
127.9869
 31
0.0
  0
LINE
  8
0
  6
CONTINUOUS
 10
75.19957
 20
129.342712
 30
0.0
 11
75.19957
 21
128.384294
 31
0.0
  0
LINE
  8
0
  6
CONTINUOUS
 10
76.278744
 20
128.762407
 30
0.0
 11
75.19957
 21
129.342712
 31
0.0
  0
LINE
  8
0
  6
CONTINUOUS
 10
76.278744
 20
130.885298
 30
0.0
 11
76.278744
 21
128.762407
 31
0.0
  0
LINE
  8
0
  6
CONTINUOUS
 10
75.19957
 20
132.466777
 30
0.0
 11
75.887877
 21
132.096653
 31
0.0
  0
LINE
  8
0
  6
CONTINUOUS
 10
75.887877
 20
132.096653
 30
0.0
 11
75.887877
 21
134.156274
 31
0.0
  0
LINE
  8
0
  6
CONTINUOUS
 10
74.659983
 20
134.889538
 30
0.0
 11
75.887877
 21
134.156274
 31
0.0
  0
LINE
  8
0
  6
CONTINUOUS
 10
74.659983
 20
134.889538
 30
0.0
 11
74.129653
 21
135.217109
 31
0.0
  0
LINE
  8
0
  6
CONTINUOUS
 10
74.129653
 20
135.217109
 30
0.0
 11
74.129653
 21
135.829481
 31
0.0
  0
LINE
  8
0
  6
CONTINUOUS
 10
74.483206
 20
135.625357
 30
0.0
 11
74.129653
 21
135.829481
 31
0.0
  0
LINE
  8
0
  6
CONTINUOUS
 10
74.483206
 20
137.054226
 30
0.0
 11
74.483206
 21
135.625357
 31
0.0
  0
LINE
  8
0
  6
CONTINUOUS
 10
74.483206
 20
137.054226
 30
0.0
 11
74.129653
 21
137.25835
 31
0.0
  0
LINE
  8
0
  6
CONTINUOUS
 10
74.129653
 20
137.25835
 30
0.0
 11
74.129653
 21
140.216046
 31
0.0
  0
LINE
  8
0
  6
CONTINUOUS
 10
74.30815
 20
140.319219
 30
0.0
 11
74.483206
 21
140.21815
 31
0.0
  0
LINE
  8
0
  6
CONTINUOUS
 10
74.483206
 20
140.21815
 30
0.0
 11
74.483206
 21
140.420404
 31
0.0
  0
LINE
  8
0
  6
CONTINUOUS
 10
74.659983
 20
134.889538
 30
0.0
 11
74.659983
 21
135.319202
 31
0.0
  0
LINE
  8
0
  6
CONTINUOUS
 10
75.743106
 20
136.148636
 30
0.0
 11
74.836733
 21
135.625341
 31
0.0
  0
LINE
  8
0
  6
CONTINUOUS
 10
74.659983
 20
140.522583
 30
0.0
 11
74.659983
 21
135.319202
 31
0.0
  0
LINE
  8
0
  6
CONTINUOUS
 10
76.250973
 20
135.924255
 30
0.0
 11
76.250973
 21
141.441141
 31
0.0
  0
LINE
  8
0
  6
CONTINUOUS
 10
77.704486
 20
130.290252
 30
0.0
 11
77.489697
 21
130.166243
 31
0.0
  0
LINE
  8
0
  6
CONTINUOUS
 10
81.113104
 20
134.750733
 30
0.0
 11
81.314277
 21
134.63864
 31
0.0
  0
LINE
  8
0
  6
CONTINUOUS
 10
82.614934
 20
124.500591
 30
0.0
 11
82.968488
 21
124.296467
 31
0.0
  0
LINE
  8
0
  6
CONTINUOUS
 10
95.736496
 20
144.991893
 30
0.0
 11
93.398286
 21
146.341859
 31
0.0
  0
LINE
  8
0
  6
CONTINUOUS
 10
95.559746
 20
144.685753
 30
0.0
 11
93.221536
 21
146.03572
 31
0.0
  0
LINE
  8
0
  6
CONTINUOUS
 10
95.559746
 20
144.542138
 30
0.0
 11
94.840297
 21
144.929008
 31
0.0
  0
LINE
  8
0
  6
CONTINUOUS
 10
94.840297
 20
142.377518
 30
0.0
 11
94.840297
 21
144.929008
 31
0.0
  0
LINE
  8
0
  6
CONTINUOUS
 10
95.501955
 20
142.96362
 30
0.0
 11
95.017047
 21
142.683658
 31
0.0
  0
LINE
  8
0
  6
CONTINUOUS
 10
96.221405
 20
142.548246
 30
0.0
 11
95.501955
 21
142.96362
 31
0.0
  0
LINE
  8
0
  6
CONTINUOUS
 10
95.501955
 20
144.486482
 30
0.0
 11
95.501955
 21
142.96362
 31
0.0
  0
LINE
  8
0
  6
CONTINUOUS
 10
95.017047
 20
142.683658
 30
0.0
 11
95.736496
 21
142.268284
 31
0.0
  0
LINE
  8
0
  6
CONTINUOUS
 10
94.840297
 20
142.377518
 30
0.0
 11
95.559746
 21
141.962144
 31
0.0
  0
LINE
  8
0
  6
CONTINUOUS
 10
96.221405
 20
136.322459
 30
0.0
 11
95.501955
 21
136.737834
 31
0.0
  0
LINE
  8
0
  6
CONTINUOUS
 10
94.840297
 20
138.703222
 30
0.0
 11
95.559746
 21
138.316351
 31
0.0
  0
LINE
  8
0
  6
CONTINUOUS
 10
95.501955
 20
136.737834
 30
0.0
 11
95.501955
 21
138.260696
 31
0.0
  0
LINE
  8
0
  6
CONTINUOUS
 10
95.017047
 20
136.457872
 30
0.0
 11
95.501955
 21
136.737834
 31
0.0
  0
LINE
  8
0
  6
CONTINUOUS
 10
94.840297
 20
138.703222
 30
0.0
 11
94.840297
 21
136.151732
 31
0.0
  0
LINE
  8
0
  6
CONTINUOUS
 10
95.736496
 20
136.042497
 30
0.0
 11
95.017047
 21
136.457872
 31
0.0
  0
LINE
  8
0
  6
CONTINUOUS
 10
95.559746
 20
135.736358
 30
0.0
 11
94.840297
 21
136.151732
 31
0.0
  0
LINE
  8
0
  6
CONTINUOUS
 10
95.559746
 20
135.736358
 30
0.0
 11
95.559746
 21
135.592742
 31
0.0
  0
LINE
  8
0
  6
CONTINUOUS
 10
95.736496
 20
136.042497
 30
0.0
 11
96.221405
 21
136.322459
 31
0.0
  0
LINE
  8
0
  6
CONTINUOUS
 10
96.221405
 20
136.322459
 30
0.0
 11
96.221405
 21
138.494267
 31
0.0
  0
LINE
  8
0
  6
CONTINUOUS
 10
96.221405
 20
138.494267
 30
0.0
 11
95.736496
 21
138.214305
 31
0.0
  0
LINE
  8
0
  6
CONTINUOUS
 10
95.559746
 20
141.962144
 30
0.0
 11
95.559746
 21
138.316351
 31
0.0
  0
LINE
  8
0
  6
CONTINUOUS
 10
96.221405
 20
142.548246
 30
0.0
 11
95.736496
 21
142.268284
 31
0.0
  0
LINE
  8
0
  6
CONTINUOUS
 10
96.221405
 20
144.720053
 30
0.0
 11
96.221405
 21
142.548246
 31
0.0
  0
LINE
  8
0
  6
CONTINUOUS
 10
95.736496
 20
144.440091
 30
0.0
 11
96.221405
 21
144.720053
 31
0.0
  0
LINE
  8
0
  6
CONTINUOUS
 10
95.559746
 20
144.542138
 30
0.0
 11
95.559746
 21
144.685753
 31
0.0
  0
LINE
  8
0
  6
CONTINUOUS
 10
95.736496
 20
144.991893
 30
0.0
 11
96.562642
 21
145.468868
 31
0.0
  0
LINE
  8
0
  6
CONTINUOUS
 10
96.739392
 20
142.453279
 30
0.0
 11
96.739392
 21
145.366822
 31
0.0
  0
LINE
  8
0
  6
CONTINUOUS
 10
96.562642
 20
142.147139
 30
0.0
 11
96.049963
 21
141.851143
 31
0.0
  0
LINE
  8
0
  6
CONTINUOUS
 10
96.049963
 20
141.851143
 30
0.0
 11
96.049963
 21
138.993405
 31
0.0
  0
LINE
  8
0
  6
CONTINUOUS
 10
96.562642
 20
139.289401
 30
0.0
 11
96.049963
 21
138.993405
 31
0.0
  0
LINE
  8
0
  6
CONTINUOUS
 10
96.739392
 20
139.187354
 30
0.0
 11
96.739392
 21
136.273811
 31
0.0
  0
LINE
  8
0
  6
CONTINUOUS
 10
95.736496
 20
135.490696
 30
0.0
 11
96.562642
 21
135.967672
 31
0.0
  0
LINE
  8
0
  6
CONTINUOUS
 10
95.559746
 20
135.592742
 30
0.0
 11
93.221536
 21
136.850071
 31
0.0
  0
LINE
  8
0
  6
CONTINUOUS
 10
76.020295
 20
129.506143
 30
0.0
 11
76.279227
 21
129.655637
 31
0.0
  0
LINE
  8
0
  6
CONTINUOUS
 10
77.488647
 20
128.889766
 30
0.0
 11
78.001089
 21
128.572883
 31
0.0
  0
LINE
  8
0
  6
CONTINUOUS
 10
75.7515
 20
129.661369
 30
0.0
 11
76.278982
 21
129.356827
 31
0.0
  0
LINE
  8
0
  6
CONTINUOUS
 10
76.278744
 20
130.885298
 30
0.0
 11
75.19957
 21
131.508359
 31
0.0
  0
LINE
  8
0
  6
CONTINUOUS
 10
76.998193
 20
125.01984
 30
0.0
 11
76.998193
 21
124.876225
 31
0.0
  0
LINE
  8
0
  6
CONTINUOUS
 10
77.174943
 20
125.32598
 30
0.0
 11
77.659852
 21
125.605942
 31
0.0
  0
LINE
  8
0
  6
CONTINUOUS
 10
77.659852
 20
125.605942
 30
0.0
 11
77.659852
 21
127.777749
 31
0.0
  0
LINE
  8
0
  6
CONTINUOUS
 10
77.659852
 20
127.777749
 30
0.0
 11
77.174943
 21
127.497787
 31
0.0
  0
LINE
  8
0
  6
CONTINUOUS
 10
76.998193
 20
131.245626
 30
0.0
 11
76.998193
 21
127.599834
 31
0.0
  0
LINE
  8
0
  6
CONTINUOUS
 10
77.659852
 20
131.831728
 30
0.0
 11
77.174943
 21
131.551766
 31
0.0
  0
LINE
  8
0
  6
CONTINUOUS
 10
77.659852
 20
134.003536
 30
0.0
 11
77.659852
 21
131.831728
 31
0.0
  0
LINE
  8
0
  6
CONTINUOUS
 10
77.174943
 20
133.723574
 30
0.0
 11
77.659852
 21
134.003536
 31
0.0
  0
LINE
  8
0
  6
CONTINUOUS
 10
76.998193
 20
133.82562
 30
0.0
 11
76.998193
 21
133.969235
 31
0.0
  0
LINE
  8
0
  6
CONTINUOUS
 10
77.174943
 20
134.275375
 30
0.0
 11
78.001089
 21
134.752351
 31
0.0
  0
LINE
  8
0
  6
CONTINUOUS
 10
78.177839
 20
131.736761
 30
0.0
 11
78.177839
 21
134.650304
 31
0.0
  0
LINE
  8
0
  6
CONTINUOUS
 10
77.48841
 20
131.134626
 30
0.0
 11
77.48841
 21
128.276888
 31
0.0
  0
LINE
  8
0
  6
CONTINUOUS
 10
78.001089
 20
128.572883
 30
0.0
 11
77.48841
 21
128.276888
 31
0.0
  0
LINE
  8
0
  6
CONTINUOUS
 10
78.177839
 20
128.470837
 30
0.0
 11
78.177839
 21
125.557294
 31
0.0
  0
LINE
  8
0
  6
CONTINUOUS
 10
77.174943
 20
124.774178
 30
0.0
 11
78.001089
 21
125.251154
 31
0.0
  0
LINE
  8
0
  6
CONTINUOUS
 10
78.001089
 20
131.430621
 30
0.0
 11
77.48841
 21
131.134626
 31
0.0
  0
LINE
  8
0
  6
CONTINUOUS
 10
75.19957
 20
132.466777
 30
0.0
 11
75.685068
 21
132.747079
 31
0.0
  0
LINE
  8
0
  6
CONTINUOUS
 10
75.19957
 20
131.508359
 30
0.0
 11
75.19957
 21
132.466777
 31
0.0
  0
LINE
  8
0
  6
CONTINUOUS
 10
77.400022
 20
135.574326
 30
0.0
 11
77.098333
 21
135.400146
 31
0.0
  0
LINE
  8
0
  6
CONTINUOUS
 10
25.929374
 20
85.402056
 30
0.0
 11
31.01626
 21
82.668664
 31
0.0
  0
LINE
  8
0
  6
CONTINUOUS
 10
31.01626
 20
82.668664
 30
0.0
 11
31.59032
 21
82.994388
 31
0.0
  0
LINE
  8
0
  6
CONTINUOUS
 10
31.564564
 20
81.740088
 30
0.0
 11
31.568563
 21
81.206382
 31
0.0
  0
LINE
  8
0
  6
CONTINUOUS
 10
31.564564
 20
81.740088
 30
0.0
 11
31.599325
 21
81.759812
 31
0.0
  0
LINE
  8
0
  6
CONTINUOUS
 10
31.568563
 20
81.206382
 30
0.0
 11
31.603323
 21
81.226106
 31
0.0
  0
LINE
  8
0
  6
CONTINUOUS
 10
31.077945
 20
81.489641
 30
0.0
 11
31.075219
 21
81.853561
 31
0.0
  0
LINE
  8
0
  6
CONTINUOUS
 10
30.89245
 20
82.163086
 30
0.0
 11
25.742514
 21
84.930358
 31
0.0
  0
LINE
  8
0
  6
CONTINUOUS
 10
25.574841
 20
84.82316
 30
0.0
 11
25.635296
 21
76.753438
 31
0.0
  0
LINE
  8
0
  6
CONTINUOUS
 10
25.574841
 20
84.82316
 30
0.0
 11
25.753405
 21
84.924478
 31
0.0
  0
LINE
  8
0
  6
CONTINUOUS
 10
25.635296
 20
76.753438
 30
0.0
 11
31.614103
 21
80.145841
 31
0.0
  0
LINE
  8
0
  6
CONTINUOUS
 10
25.988809
 20
76.141089
 30
0.0
 11
29.56331
 21
74.07735
 31
0.0
  0
LINE
  8
0
  6
CONTINUOUS
 10
25.988809
 20
76.141089
 30
0.0
 11
31.620011
 21
79.336259
 31
0.0
  0
LINE
  8
0
  6
CONTINUOUS
 10
29.56331
 20
74.07735
 30
0.0
 11
29.910872
 21
74.274559
 31
0.0
  0
LINE
  8
0
  6
CONTINUOUS
 10
29.910679
 20
74.285045
 30
0.0
 11
29.906686
 21
74.818073
 31
0.0
  0
LINE
  8
0
  6
CONTINUOUS
 10
30.427741
 20
75.129614
 30
0.0
 11
30.953402
 21
74.826123
 31
0.0
  0
LINE
  8
0
  6
CONTINUOUS
 10
30.427741
 20
75.129614
 30
0.0
 11
31.644358
 21
75.819929
 31
0.0
  0
LINE
  8
0
  6
CONTINUOUS
 10
30.953402
 20
74.826123
 30
0.0
 11
31.127184
 21
74.924728
 31
0.0
  0
LINE
  8
0
  6
CONTINUOUS
 10
31.127087
 20
74.92997
 30
0.0
 11
31.124016
 21
75.339992
 31
0.0
  0
LINE
  8
0
  6
CONTINUOUS
 10
31.614633
 20
75.056734
 30
0.0
 11
31.623887
 21
73.82157
 31
0.0
  0
LINE
  8
0
  6
CONTINUOUS
 10
31.614633
 20
75.056734
 30
0.0
 11
31.649394
 21
75.076457
 31
0.0
  0
LINE
  8
0
  6
CONTINUOUS
 10
31.623887
 20
73.82157
 30
0.0
 11
31.658647
 21
73.841293
 31
0.0
  0
LINE
  8
0
  6
CONTINUOUS
 10
31.533058
 20
73.465762
 30
0.0
 11
31.326317
 21
73.161539
 31
0.0
  0
LINE
  8
0
  6
CONTINUOUS
 10
31.533058
 20
73.465762
 30
0.0
 11
31.660959
 21
73.538333
 31
0.0
  0
LINE
  8
0
  6
CONTINUOUS
 10
31.326317
 20
73.161539
 30
0.0
 11
31.662447
 21
73.352261
 31
0.0
  0
LINE
  8
0
  6
CONTINUOUS
 10
30.998583
 20
73.452819
 30
0.0
 11
30.994283
 21
74.026849
 31
0.0
  0
LINE
  8
0
  6
CONTINUOUS
 10
30.817526
 20
74.333024
 30
0.0
 11
30.572217
 21
74.474653
 31
0.0
  0
LINE
  8
0
  6
CONTINUOUS
 10
30.398533
 20
74.370806
 30
0.0
 11
30.399147
 21
74.288801
 31
0.0
  0
LINE
  8
0
  6
CONTINUOUS
 10
30.398533
 20
74.370806
 30
0.0
 11
30.413589
 21
74.379349
 31
0.0
  0
LINE
  8
0
  6
CONTINUOUS
 10
30.233449
 20
73.118898
 30
0.0
 11
25.327271
 21
75.951481
 31
0.0
  0
LINE
  8
0
  6
CONTINUOUS
 10
25.150514
 20
76.257655
 30
0.0
 11
25.0
 21
96.348721
 31
0.0
  0
LINE
  8
0
  6
CONTINUOUS
 10
25.173685
 20
96.452568
 30
0.0
 11
30.079863
 21
93.619985
 31
0.0
  0
LINE
  8
0
  6
CONTINUOUS
 10
25.173685
 20
96.452568
 30
0.0
 11
51.753513
 21
111.534082
 31
0.0
  0
LINE
  8
0
  6
CONTINUOUS
 10
66.372232
 20
119.828809
 30
0.0
 11
74.132981
 21
124.232293
 31
0.0
  0
LINE
  8
0
  6
CONTINUOUS
 10
99.346733
 20
138.538689
 30
0.0
 11
114.329962
 21
147.04024
 31
0.0
  0
LINE
  8
0
  6
CONTINUOUS
 10
119.23614
 20
144.207657
 30
0.0
 11
114.329962
 21
147.04024
 31
0.0
  0
LINE
  8
0
  6
CONTINUOUS
 10
30.079863
 20
93.619985
 30
0.0
 11
56.746795
 21
108.750922
 31
0.0
  0
LINE
  8
0
  6
CONTINUOUS
 10
68.244267
 20
115.27464
 30
0.0
 11
68.526948
 21
115.435034
 31
0.0
  0
LINE
  8
0
  6
CONTINUOUS
 10
99.359041
 20
132.929302
 30
0.0
 11
119.23614
 21
144.207657
 31
0.0
  0
LINE
  8
0
  6
CONTINUOUS
 10
30.264575
 20
92.251872
 30
0.0
 11
30.26522
 21
92.16575
 31
0.0
  0
LINE
  8
0
  6
CONTINUOUS
 10
30.26522
 20
92.16575
 30
0.0
 11
30.27393
 21
92.170692
 31
0.0
  0
LINE
  8
0
  6
CONTINUOUS
 10
30.441977
 20
91.859575
 30
0.0
 11
30.687286
 21
91.717946
 31
0.0
  0
LINE
  8
0
  6
CONTINUOUS
 10
30.441977
 20
91.859575
 30
0.0
 11
30.452916
 21
91.865782
 31
0.0
  0
LINE
  8
0
  6
CONTINUOUS
 10
30.687286
 20
91.717946
 30
0.0
 11
30.861067
 21
91.81655
 31
0.0
  0
LINE
  8
0
  6
CONTINUOUS
 10
30.86097
 20
91.821793
 30
0.0
 11
30.85667
 21
92.395824
 31
0.0
  0
LINE
  8
0
  6
CONTINUOUS
 10
31.182868
 20
92.309555
 30
0.0
 11
31.395983
 21
91.762929
 31
0.0
  0
LINE
  8
0
  6
CONTINUOUS
 10
31.182868
 20
92.309555
 30
0.0
 11
31.272014
 21
92.360137
 31
0.0
  0
LINE
  8
0
  6
CONTINUOUS
 10
31.395983
 20
91.762929
 30
0.0
 11
31.523884
 21
91.835501
 31
0.0
  0
LINE
  8
0
  6
CONTINUOUS
 10
31.492955
 20
91.298694
 30
0.0
 11
31.502208
 21
90.06353
 31
0.0
  0
LINE
  8
0
  6
CONTINUOUS
 10
31.492955
 20
91.298694
 30
0.0
 11
31.527716
 21
91.318417
 31
0.0
  0
LINE
  8
0
  6
CONTINUOUS
 10
31.502208
 20
90.06353
 30
0.0
 11
31.536969
 21
90.083253
 31
0.0
  0
LINE
  8
0
  6
CONTINUOUS
 10
31.011591
 20
90.346788
 30
0.0
 11
31.008519
 21
90.75681
 31
0.0
  0
LINE
  8
0
  6
CONTINUOUS
 10
30.831762
 20
91.062984
 30
0.0
 11
30.306101
 21
91.366476
 31
0.0
  0
LINE
  8
0
  6
CONTINUOUS
 10
29.775831
 20
92.284999
 30
0.0
 11
29.771838
 21
92.818027
 31
0.0
  0
LINE
  8
0
  6
CONTINUOUS
 10
29.418325
 20
93.430377
 30
0.0
 11
25.843824
 21
95.494116
 31
0.0
  0
LINE
  8
0
  6
CONTINUOUS
 10
25.496454
 20
95.286421
 30
0.0
 11
25.556909
 21
87.2167
 31
0.0
  0
LINE
  8
0
  6
CONTINUOUS
 10
25.496454
 20
95.286421
 30
0.0
 11
25.853037
 21
95.488748
 31
0.0
  0
LINE
  8
0
  6
CONTINUOUS
 10
25.556909
 20
87.2167
 30
0.0
 11
31.015648
 21
90.314012
 31
0.0
  0
LINE
  8
0
  6
CONTINUOUS
 10
25.727652
 20
86.914117
 30
0.0
 11
30.88069
 21
83.732964
 31
0.0
  0
LINE
  8
0
  6
CONTINUOUS
 10
25.727652
 20
86.914117
 30
0.0
 11
31.16219
 21
89.997698
 31
0.0
  0
LINE
  8
0
  6
CONTINUOUS
 10
30.88069
 20
83.732964
 30
0.0
 11
31.060456
 21
83.834964
 31
0.0
  0
LINE
  8
0
  6
CONTINUOUS
 10
31.060388
 20
83.833219
 30
0.0
 11
31.057661
 21
84.19714
 31
0.0
  0
LINE
  8
0
  6
CONTINUOUS
 10
31.548279
 20
83.913881
 30
0.0
 11
31.552277
 21
83.380175
 31
0.0
  0
LINE
  8
0
  6
CONTINUOUS
 10
31.548279
 20
83.913881
 30
0.0
 11
31.58304
 21
83.933605
 31
0.0
  0
LINE
  8
0
  6
CONTINUOUS
 10
31.552277
 20
83.380175
 30
0.0
 11
31.587038
 21
83.399899
 31
0.0
  0
LINE
  8
0
  6
CONTINUOUS
 10
31.013183
 20
83.07941
 30
0.0
 11
25.923234
 21
86.221616
 31
0.0
  0
LINE
  8
0
  6
CONTINUOUS
 10
25.929374
 20
85.402056
 30
0.0
 11
26.61787
 21
85.792712
 31
0.0
  0
LINE
  8
0
  6
CONTINUOUS
 10
31.985655
 20
72.107261
 30
0.0
 11
30.58389
 21
72.91657
 31
0.0
  0
LINE
  8
0
  6
CONTINUOUS
 10
30.407133
 20
73.222745
 30
0.0
 11
30.399147
 21
74.288801
 31
0.0
  0
LINE
  8
0
  6
CONTINUOUS
 10
30.889765
 20
74.005543
 30
0.0
 11
30.893451
 21
73.513517
 31
0.0
  0
LINE
  8
0
  6
CONTINUOUS
 10
30.889765
 20
74.005543
 30
0.0
 11
30.991256
 21
74.06313
 31
0.0
  0
LINE
  8
0
  6
CONTINUOUS
 10
30.893451
 20
73.513517
 30
0.0
 11
30.997732
 21
73.572687
 31
0.0
  0
LINE
  8
0
  6
CONTINUOUS
 10
31.070207
 20
73.207342
 30
0.0
 11
31.490737
 21
72.96455
 31
0.0
  0
LINE
  8
0
  6
CONTINUOUS
 10
31.070207
 20
73.207342
 30
0.0
 11
31.091753
 21
73.219567
 31
0.0
  0
LINE
  8
0
  6
CONTINUOUS
 10
31.490737
 20
72.96455
 30
0.0
 11
31.664518
 21
73.063154
 31
0.0
  0
LINE
  8
0
  6
CONTINUOUS
 10
31.664422
 20
73.068397
 30
0.0
 11
31.522508
 21
92.011401
 31
0.0
  0
LINE
  8
0
  6
CONTINUOUS
 10
31.345752
 20
92.317576
 30
0.0
 11
30.925222
 21
92.560369
 31
0.0
  0
LINE
  8
0
  6
CONTINUOUS
 10
30.751538
 20
92.456522
 30
0.0
 11
30.755193
 21
91.968613
 31
0.0
  0
LINE
  8
0
  6
CONTINUOUS
 10
30.751538
 20
92.456522
 30
0.0
 11
30.929829
 21
92.557685
 31
0.0
  0
LINE
  8
0
  6
CONTINUOUS
 10
30.755193
 20
91.968613
 30
0.0
 11
30.859474
 21
92.027783
 31
0.0
  0
LINE
  8
0
  6
CONTINUOUS
 10
30.264575
 20
92.251872
 30
0.0
 11
30.256619
 21
93.31381
 31
0.0
  0
LINE
  8
0
  6
CONTINUOUS
 10
30.430304
 20
93.417658
 30
0.0
 11
31.832069
 21
92.608348
 31
0.0
  0
LINE
  8
0
  6
CONTINUOUS
 10
30.430304
 20
93.417658
 30
0.0
 11
57.103461
 21
108.552127
 31
0.0
  0
LINE
  8
0
  6
CONTINUOUS
 10
68.244108
 20
114.87338
 30
0.0
 11
68.79844
 21
115.18791
 31
0.0
  0
LINE
  8
0
  6
CONTINUOUS
 10
99.358881
 20
132.528042
 30
0.0
 11
119.586581
 21
144.00533
 31
0.0
  0
LINE
  8
0
  6
CONTINUOUS
 10
120.988346
 20
143.19602
 30
0.0
 11
119.586581
 21
144.00533
 31
0.0
  0
LINE
  8
0
  6
CONTINUOUS
 10
31.832069
 20
92.608348
 30
0.0
 11
58.530126
 21
107.756946
 31
0.0
  0
LINE
  8
0
  6
CONTINUOUS
 10
99.358243
 20
130.923002
 30
0.0
 11
120.988346
 21
143.19602
 31
0.0
  0
LINE
  8
0
  6
CONTINUOUS
 10
32.15934
 20
72.211108
 30
0.0
 11
67.812747
 21
92.441011
 31
0.0
  0
LINE
  8
0
  6
CONTINUOUS
 10
87.528666
 20
103.627912
 30
0.0
 11
121.315617
 21
122.79878
 31
0.0
  0
LINE
  8
0
  6
CONTINUOUS
 10
32.008826
 20
92.302174
 30
0.0
 11
32.15934
 21
72.211108
 31
0.0
  0
LINE
  8
0
  6
CONTINUOUS
 10
32.008826
 20
92.302174
 30
0.0
 11
58.891479
 21
107.555512
 31
0.0
  0
LINE
  8
0
  6
CONTINUOUS
 10
99.358162
 20
130.51649
 30
0.0
 11
121.165103
 21
142.889846
 31
0.0
  0
LINE
  8
0
  6
CONTINUOUS
 10
121.315617
 20
122.79878
 30
0.0
 11
121.165103
 21
142.889846
 31
0.0
  0
ARC
  8
0
  6
CONTINUOUS
 10
87.309099
 20
99.362258
 30
0.0
 40
0.25
 50
299.570771
 51
0.429229
  0
ARC
  8
0
  6
CONTINUOUS
 10
71.260969
 20
90.256477
 30
0.0
 40
0.25
 50
240.0
 51
299.570771
  0
ARC
  8
0
  6
CONTINUOUS
 10
71.919944
 20
129.630781
 30
0.0
 40
0.25
 50
240.873671
 51
300.0
  0
ENDSEC
  0
EOF
