  0
SECTION
  2
HEADER
  9
$ACADVER
  1
AC1009
  9
$INSBASE
 10
0.0
 20
0.0
 30
0.0
  9
$EXTMIN
 10
153.917539
 20
658.033084
 30
0.0
  9
$EXTMAX
 10
184.458202
 20
745.971357
 30
0.0
  9
$LIMMIN
 10
153.917539
 20
658.033084
  9
$LIMMAX
 10
184.458202
 20
745.971357
  9
$ORTHOMODE
 70
     0
  9
$REGENMODE
 70
     1
  9
$FILLMODE
 70
     1
  9
$QTEXTMODE
 70
     0
  9
$MIRRTEXT
 70
     1
  9
$DRAGMODE
 70
     2
  9
$LTSCALE
 40
1.0
  9
$OSMODE
 70
     0
  9
$ATTMODE
 70
     1
  9
$TEXTSIZE
 40
3.5
  9
$TRACEWID
 40
0.5
  9
$TEXTSTYLE
  7
STANDARD
  9
$CLAYER
  8
0
  9
$CELTYPE
  6
BYLAYER
  9
$CECOLOR
 62
   256
  9
$DIMSCALE
 40
1.0
  9
$DIMASZ
 40
0.18
  9
$DIMEXO
 40
0.0625
  9
$DIMDLI
 40
0.38
  9
$DIMRND
 40
0.0
  9
$DIMDLE
 40
0.0
  9
$DIMEXE
 40
0.18
  9
$DIMTP
 40
0.0
  9
$DIMTM
 40
0.0
  9
$DIMTXT
 40
0.18
  9
$DIMCEN
 40
0.09
  9
$DIMTSZ
 40
0.0
  9
$DIMTOL
 70
     0
  9
$DIMLIM
 70
     0
  9
$DIMTIH
 70
     1
  9
$DIMTOH
 70
     1
  9
$DIMSE1
 70
     0
  9
$DIMSE2
 70
     0
  9
$DIMTAD
 70
     0
  9
$DIMZIN
 70
     0
  9
$DIMBLK
  1

  9
$DIMASO
 70
     1
  9
$DIMSHO
 70
     1
  9
$DIMPOST
  1

  9
$DIMAPOST
  1

  9
$DIMALT
 70
     0
  9
$DIMALTD
 70
     2
  9
$DIMALTF
 40
25.4
  9
$DIMLFAC
 40
1.0
  9
$DIMTOFL
 70
     0
  9
$DIMTVP
 40
0.0
  9
$DIMTIX
 70
     0
  9
$DIMSOXD
 70
     0
  9
$DIMSAH
 70
     0
  9
$DIMBLK1
  1

  9
$DIMBLK2
  1

  9
$DIMSTYLE
  2
*UNNAMED
  9
$DIMCLRD
 70
     0
  9
$DIMCLRE
 70
     0
  9
$DIMCLRT
 70
     0
  9
$DIMTFAC
 40
1.0
  9
$DIMGAP
 40
0.09
  9
$LUNITS
 70
     2
  9
$LUPREC
 70
     4
  9
$SKETCHINC
 40
0.1
  9
$FILLETRAD
 40
2.0
  9
$AUNITS
 70
     0
  9
$AUPREC
 70
     0
  9
$MENU
  1
ACAD
  9
$ELEVATION
 40
0.0
  9
$PELEVATION
 40
0.0
  9
$THICKNESS
 40
0.0
  9
$LIMCHECK
 70
     0
  9
$BLIPMODE
 70
     1
  9
$CHAMFERA
 40
0.0
  9
$CHAMFERB
 40
0.0
  9
$SKPOLY
 70
     0
  9
$TDCREATE
 40
2450955.378200694
  9
$TDUPDATE
 40
2450955.378447453
  9
$TDINDWG
 40
0.0000940972
  9
$TDUSRTIMER
 40
0.0000940972
  9
$USRTIMER
 70
     1
  9
$ANGBASE
 50
0.0
  9
$ANGDIR
 70
     0
  9
$PDMODE
 70
     0
  9
$PDSIZE
 40
0.0
  9
$PLINEWID
 40
0.0
  9
$COORDS
 70
     2
  9
$SPLFRAME
 70
     0
  9
$SPLINETYPE
 70
     6
  9
$SPLINESEGS
 70
     8
  9
$ATTDIA
 70
     0
  9
$ATTREQ
 70
     1
  9
$HANDLING
 70
     0
  9
$HANDSEED
  5
0
  9
$SURFTAB1
 70
     6
  9
$SURFTAB2
 70
     6
  9
$SURFTYPE
 70
     6
  9
$SURFU
 70
     6
  9
$SURFV
 70
     6
  9
$UCSNAME
  2

  9
$UCSORG
 10
0.0
 20
0.0
 30
0.0
  9
$UCSXDIR
 10
1.0
 20
0.0
 30
0.0
  9
$UCSYDIR
 10
0.0
 20
1.0
 30
0.0
  9
$PUCSNAME
  2

  9
$PUCSORG
 10
0.0
 20
0.0
 30
0.0
  9
$PUCSXDIR
 10
1.0
 20
0.0
 30
0.0
  9
$PUCSYDIR
 10
0.0
 20
1.0
 30
0.0
  9
$USERI1
 70
     0
  9
$USERI2
 70
     0
  9
$USERI3
 70
     0
  9
$USERI4
 70
     0
  9
$USERI5
 70
     0
  9
$USERR1
 40
0.0
  9
$USERR2
 40
0.0
  9
$USERR3
 40
0.0
  9
$USERR4
 40
0.0
  9
$USERR5
 40
0.0
  9
$WORLDVIEW
 70
     1
  9
$SHADEDGE
 70
     3
  9
$SHADEDIF
 70
    70
  9
$TILEMODE
 70
     1
  9
$MAXACTVP
 70
    16
  9
$PINSBASE
 10
0.0
 20
0.0
 30
0.0
  9
$PLIMCHECK
 70
     0
  9
$PEXTMIN
 10
1.000000E+20
 20
1.000000E+20
 30
1.000000E+20
  9
$PEXTMAX
 10
-1.000000E+20
 20
-1.000000E+20
 30
-1.000000E+20
  9
$PLIMMIN
 10
0.0
 20
0.0
  9
$PLIMMAX
 10
420.0
 20
297.0
  9
$UNITMODE
 70
     0
  9
$VISRETAIN
 70
     0
  9
$PLINEGEN
 70
     0
  9
$PSLTSCALE
 70
     1
  9
$TREEDEPTH
 70
  3020
  9
$DWGCODEPAGE
  3
iso8859-1
  0
ENDSEC
  0
SECTION
  2
TABLES
  0
TABLE
  2
VPORT
 70
     2
  0
VPORT
  2
*ACTIVE
 70
     0
 10
0.0
 20
0.0
 11
1.0
 21
1.0
 12
232.619344
 22
694.93438
 13
0.0
 23
0.0
 14
1.0
 24
1.0
 15
0.0
 25
0.0
 16
0.0
 26
0.0
 36
1.0
 17
0.0
 27
0.0
 37
0.0
 40
135.647313
 41
1.748359
 42
50.0
 43
0.0
 44
0.0
 50
0.0
 51
0.0
 71
     0
 72
   100
 73
     1
 74
     0
 75
     0
 76
     0
 77
     0
 78
     0
  0
ENDTAB
  0
TABLE
  2
LTYPE
 70
     1
  0
LTYPE
  2
CONTINUOUS
 70
    64
  3
Solid line
 72
    65
 73
     0
 40
0.0
  0
ENDTAB
  0
TABLE
  2
LAYER
 70
     1
  0
LAYER
  2
0
 70
    64
 62
     7
  6
CONTINUOUS
  0
ENDTAB
  0
TABLE
  2
STYLE
 70
     1
  0
STYLE
  2
STANDARD
 70
     0
 40
0.0
 41
1.0
 50
0.0
 71
     0
 42
3.5
  3
txt
  4

  0
ENDTAB
  0
TABLE
  2
VIEW
 70
     0
  0
ENDTAB
  0
TABLE
  2
UCS
 70
     0
  0
ENDTAB
  0
TABLE
  2
APPID
 70
     1
  0
APPID
  2
ACAD
 70
    64
  0
ENDTAB
  0
TABLE
  2
DIMSTYLE
 70
     0
  0
ENDTAB
  0
ENDSEC
  0
SECTION
  2
BLOCKS
  0
ENDSEC
  0
SECTION
  2
ENTITIES
  0
POLYLINE
  8
0
  6
CONTINUOUS
 66
     1
 10
0.0
 20
0.0
 30
0.0
  0
VERTEX
  8
0
  6
CONTINUOUS
 10
176.228447
 20
698.873873
 30
0.0
  0
VERTEX
  8
0
  6
CONTINUOUS
 10
176.253463
 20
698.858553
 30
0.0
  0
VERTEX
  8
0
  6
CONTINUOUS
 10
176.281134
 20
698.839019
 30
0.0
  0
VERTEX
  8
0
  6
CONTINUOUS
 10
176.304797
 20
698.816928
 30
0.0
  0
VERTEX
  8
0
  6
CONTINUOUS
 10
176.308751
 20
698.809096
 30
0.0
  0
VERTEX
  8
0
  6
CONTINUOUS
 10
176.309757
 20
698.805375
 30
0.0
  0
VERTEX
  8
0
  6
CONTINUOUS
 10
176.309665
 20
698.805832
 30
0.0
  0
VERTEX
  8
0
  6
CONTINUOUS
 10
176.309554
 20
698.806394
 30
0.0
  0
VERTEX
  8
0
  6
CONTINUOUS
 10
176.30945
 20
698.806921
 30
0.0
  0
VERTEX
  8
0
  6
CONTINUOUS
 10
176.309338
 20
698.80749
 30
0.0
  0
VERTEX
  8
0
  6
CONTINUOUS
 10
176.309192
 20
698.80823
 30
0.0
  0
VERTEX
  8
0
  6
CONTINUOUS
 10
176.308963
 20
698.809374
 30
0.0
  0
VERTEX
  8
0
  6
CONTINUOUS
 10
176.308079
 20
698.813593
 30
0.0
  0
SEQEND
  8
0
  6
CONTINUOUS
  0
POLYLINE
  8
0
  6
CONTINUOUS
 66
     1
 10
0.0
 20
0.0
 30
0.0
  0
VERTEX
  8
0
  6
CONTINUOUS
 10
175.376976
 20
702.098888
 30
0.0
  0
VERTEX
  8
0
  6
CONTINUOUS
 10
174.647139
 20
702.527614
 30
0.0
  0
SEQEND
  8
0
  6
CONTINUOUS
  0
POLYLINE
  8
0
  6
CONTINUOUS
 66
     1
 10
0.0
 20
0.0
 30
0.0
  0
VERTEX
  8
0
  6
CONTINUOUS
 10
175.955509
 20
700.303778
 30
0.0
  0
VERTEX
  8
0
  6
CONTINUOUS
 10
175.720477
 20
701.297094
 30
0.0
  0
VERTEX
  8
0
  6
CONTINUOUS
 10
175.955509
 20
700.303778
 30
0.0
  0
VERTEX
  8
0
  6
CONTINUOUS
 10
176.30739
 20
698.816624
 30
0.0
  0
SEQEND
  8
0
  6
CONTINUOUS
  0
POLYLINE
  8
0
  6
CONTINUOUS
 66
     1
 10
0.0
 20
0.0
 30
0.0
  0
VERTEX
  8
0
  6
CONTINUOUS
 10
182.502477
 20
696.986354
 30
0.0
  0
VERTEX
  8
0
  6
CONTINUOUS
 10
182.498359
 20
697.041334
 30
0.0
  0
VERTEX
  8
0
  6
CONTINUOUS
 10
182.445405
 20
697.177539
 30
0.0
  0
VERTEX
  8
0
  6
CONTINUOUS
 10
182.322988
 20
697.297244
 30
0.0
  0
VERTEX
  8
0
  6
CONTINUOUS
 10
182.305893
 20
697.307772
 30
0.0
  0
SEQEND
  8
0
  6
CONTINUOUS
  0
POLYLINE
  8
0
  6
CONTINUOUS
 66
     1
 10
0.0
 20
0.0
 30
0.0
  0
VERTEX
  8
0
  6
CONTINUOUS
 10
176.06158
 20
681.630619
 30
0.0
  0
VERTEX
  8
0
  6
CONTINUOUS
 10
176.051674
 20
681.625004
 30
0.0
  0
VERTEX
  8
0
  6
CONTINUOUS
 10
176.04174
 20
681.619582
 30
0.0
  0
VERTEX
  8
0
  6
CONTINUOUS
 10
176.031782
 20
681.614354
 30
0.0
  0
VERTEX
  8
0
  6
CONTINUOUS
 10
176.0218
 20
681.609321
 30
0.0
  0
VERTEX
  8
0
  6
CONTINUOUS
 10
176.011796
 20
681.604483
 30
0.0
  0
VERTEX
  8
0
  6
CONTINUOUS
 10
176.001773
 20
681.599842
 30
0.0
  0
VERTEX
  8
0
  6
CONTINUOUS
 10
175.991731
 20
681.595399
 30
0.0
  0
VERTEX
  8
0
  6
CONTINUOUS
 10
175.981674
 20
681.591153
 30
0.0
  0
VERTEX
  8
0
  6
CONTINUOUS
 10
175.971601
 20
681.587106
 30
0.0
  0
VERTEX
  8
0
  6
CONTINUOUS
 10
175.961505
 20
681.583255
 30
0.0
  0
VERTEX
  8
0
  6
CONTINUOUS
 10
175.95136
 20
681.579591
 30
0.0
  0
VERTEX
  8
0
  6
CONTINUOUS
 10
175.941167
 20
681.576117
 30
0.0
  0
VERTEX
  8
0
  6
CONTINUOUS
 10
175.93093
 20
681.572838
 30
0.0
  0
VERTEX
  8
0
  6
CONTINUOUS
 10
175.920649
 20
681.569755
 30
0.0
  0
VERTEX
  8
0
  6
CONTINUOUS
 10
175.910328
 20
681.566872
 30
0.0
  0
VERTEX
  8
0
  6
CONTINUOUS
 10
175.89997
 20
681.564192
 30
0.0
  0
VERTEX
  8
0
  6
CONTINUOUS
 10
175.889575
 20
681.561718
 30
0.0
  0
VERTEX
  8
0
  6
CONTINUOUS
 10
175.879148
 20
681.559454
 30
0.0
  0
VERTEX
  8
0
  6
CONTINUOUS
 10
175.86869
 20
681.557401
 30
0.0
  0
VERTEX
  8
0
  6
CONTINUOUS
 10
175.858203
 20
681.555564
 30
0.0
  0
VERTEX
  8
0
  6
CONTINUOUS
 10
175.847691
 20
681.553945
 30
0.0
  0
VERTEX
  8
0
  6
CONTINUOUS
 10
175.837156
 20
681.552547
 30
0.0
  0
VERTEX
  8
0
  6
CONTINUOUS
 10
175.8266
 20
681.551372
 30
0.0
  0
VERTEX
  8
0
  6
CONTINUOUS
 10
175.816025
 20
681.550425
 30
0.0
  0
VERTEX
  8
0
  6
CONTINUOUS
 10
175.805436
 20
681.549708
 30
0.0
  0
VERTEX
  8
0
  6
CONTINUOUS
 10
175.794846
 20
681.549224
 30
0.0
  0
VERTEX
  8
0
  6
CONTINUOUS
 10
175.784259
 20
681.548975
 30
0.0
  0
VERTEX
  8
0
  6
CONTINUOUS
 10
175.773679
 20
681.548964
 30
0.0
  0
VERTEX
  8
0
  6
CONTINUOUS
 10
175.763107
 20
681.549192
 30
0.0
  0
VERTEX
  8
0
  6
CONTINUOUS
 10
175.752549
 20
681.549662
 30
0.0
  0
VERTEX
  8
0
  6
CONTINUOUS
 10
175.742007
 20
681.550376
 30
0.0
  0
VERTEX
  8
0
  6
CONTINUOUS
 10
175.731485
 20
681.551335
 30
0.0
  0
VERTEX
  8
0
  6
CONTINUOUS
 10
175.720986
 20
681.552542
 30
0.0
  0
VERTEX
  8
0
  6
CONTINUOUS
 10
175.710513
 20
681.553999
 30
0.0
  0
VERTEX
  8
0
  6
CONTINUOUS
 10
175.70007
 20
681.555707
 30
0.0
  0
VERTEX
  8
0
  6
CONTINUOUS
 10
175.68966
 20
681.55767
 30
0.0
  0
VERTEX
  8
0
  6
CONTINUOUS
 10
175.679286
 20
681.559888
 30
0.0
  0
VERTEX
  8
0
  6
CONTINUOUS
 10
175.668952
 20
681.562365
 30
0.0
  0
VERTEX
  8
0
  6
CONTINUOUS
 10
175.658678
 20
681.565097
 30
0.0
  0
VERTEX
  8
0
  6
CONTINUOUS
 10
175.648496
 20
681.568078
 30
0.0
  0
VERTEX
  8
0
  6
CONTINUOUS
 10
175.63841
 20
681.571306
 30
0.0
  0
VERTEX
  8
0
  6
CONTINUOUS
 10
175.628423
 20
681.574779
 30
0.0
  0
VERTEX
  8
0
  6
CONTINUOUS
 10
175.61854
 20
681.578496
 30
0.0
  0
VERTEX
  8
0
  6
CONTINUOUS
 10
175.608763
 20
681.582456
 30
0.0
  0
VERTEX
  8
0
  6
CONTINUOUS
 10
175.599095
 20
681.586657
 30
0.0
  0
VERTEX
  8
0
  6
CONTINUOUS
 10
175.589541
 20
681.591098
 30
0.0
  0
VERTEX
  8
0
  6
CONTINUOUS
 10
175.580103
 20
681.595779
 30
0.0
  0
VERTEX
  8
0
  6
CONTINUOUS
 10
175.570785
 20
681.600697
 30
0.0
  0
VERTEX
  8
0
  6
CONTINUOUS
 10
175.561591
 20
681.605851
 30
0.0
  0
SEQEND
  8
0
  6
CONTINUOUS
  0
POLYLINE
  8
0
  6
CONTINUOUS
 66
     1
 10
0.0
 20
0.0
 30
0.0
  0
VERTEX
  8
0
  6
CONTINUOUS
 10
173.621101
 20
674.504412
 30
0.0
  0
VERTEX
  8
0
  6
CONTINUOUS
 10
177.176289
 20
672.592677
 30
0.0
  0
VERTEX
  8
0
  6
CONTINUOUS
 10
177.791305
 20
672.261964
 30
0.0
  0
SEQEND
  8
0
  6
CONTINUOUS
  0
POLYLINE
  8
0
  6
CONTINUOUS
 66
     1
 10
0.0
 20
0.0
 30
0.0
  0
VERTEX
  8
0
  6
CONTINUOUS
 10
180.964773
 20
691.914869
 30
0.0
  0
VERTEX
  8
0
  6
CONTINUOUS
 10
180.401795
 20
692.263002
 30
0.0
  0
SEQEND
  8
0
  6
CONTINUOUS
  0
POLYLINE
  8
0
  6
CONTINUOUS
 66
     1
 10
0.0
 20
0.0
 30
0.0
  0
VERTEX
  8
0
  6
CONTINUOUS
 10
184.458202
 20
695.327573
 30
0.0
  0
VERTEX
  8
0
  6
CONTINUOUS
 10
184.458111
 20
695.337092
 30
0.0
  0
VERTEX
  8
0
  6
CONTINUOUS
 10
184.457824
 20
695.347795
 30
0.0
  0
VERTEX
  8
0
  6
CONTINUOUS
 10
184.456589
 20
695.373001
 30
0.0
  0
VERTEX
  8
0
  6
CONTINUOUS
 10
184.451161
 20
695.437704
 30
0.0
  0
VERTEX
  8
0
  6
CONTINUOUS
 10
184.426621
 20
695.608395
 30
0.0
  0
VERTEX
  8
0
  6
CONTINUOUS
 10
184.318861
 20
695.987111
 30
0.0
  0
VERTEX
  8
0
  6
CONTINUOUS
 10
184.21236
 20
696.19826
 30
0.0
  0
VERTEX
  8
0
  6
CONTINUOUS
 10
184.079763
 20
696.383136
 30
0.0
  0
VERTEX
  8
0
  6
CONTINUOUS
 10
183.970074
 20
696.503684
 30
0.0
  0
VERTEX
  8
0
  6
CONTINUOUS
 10
183.877734
 20
696.587499
 30
0.0
  0
VERTEX
  8
0
  6
CONTINUOUS
 10
183.766689
 20
696.665639
 30
0.0
  0
SEQEND
  8
0
  6
CONTINUOUS
  0
POLYLINE
  8
0
  6
CONTINUOUS
 66
     1
 10
0.0
 20
0.0
 30
0.0
  0
VERTEX
  8
0
  6
CONTINUOUS
 10
165.321371
 20
658.185439
 30
0.0
  0
VERTEX
  8
0
  6
CONTINUOUS
 10
165.417605
 20
658.139033
 30
0.0
  0
VERTEX
  8
0
  6
CONTINUOUS
 10
165.511368
 20
658.105353
 30
0.0
  0
VERTEX
  8
0
  6
CONTINUOUS
 10
165.672314
 20
658.064884
 30
0.0
  0
VERTEX
  8
0
  6
CONTINUOUS
 10
166.0101
 20
658.033084
 30
0.0
  0
VERTEX
  8
0
  6
CONTINUOUS
 10
166.477156
 20
658.112628
 30
0.0
  0
VERTEX
  8
0
  6
CONTINUOUS
 10
166.736235
 20
658.210783
 30
0.0
  0
VERTEX
  8
0
  6
CONTINUOUS
 10
166.789118
 20
658.235958
 30
0.0
  0
VERTEX
  8
0
  6
CONTINUOUS
 10
166.81008
 20
658.246812
 30
0.0
  0
VERTEX
  8
0
  6
CONTINUOUS
 10
166.825927
 20
658.255604
 30
0.0
  0
SEQEND
  8
0
  6
CONTINUOUS
  0
POLYLINE
  8
0
  6
CONTINUOUS
 66
     1
 10
0.0
 20
0.0
 30
0.0
  0
VERTEX
  8
0
  6
CONTINUOUS
 10
182.960445
 20
667.570889
 30
0.0
  0
VERTEX
  8
0
  6
CONTINUOUS
 10
182.970283
 20
667.576805
 30
0.0
  0
VERTEX
  8
0
  6
CONTINUOUS
 10
182.981474
 20
667.583801
 30
0.0
  0
VERTEX
  8
0
  6
CONTINUOUS
 10
183.00804
 20
667.601174
 30
0.0
  0
VERTEX
  8
0
  6
CONTINUOUS
 10
183.076625
 20
667.649065
 30
0.0
  0
VERTEX
  8
0
  6
CONTINUOUS
 10
183.257029
 20
667.789644
 30
0.0
  0
VERTEX
  8
0
  6
CONTINUOUS
 10
183.652749
 20
668.183651
 30
0.0
  0
VERTEX
  8
0
  6
CONTINUOUS
 10
184.001693
 20
668.701093
 30
0.0
  0
SEQEND
  8
0
  6
CONTINUOUS
  0
POLYLINE
  8
0
  6
CONTINUOUS
 66
     1
 10
0.0
 20
0.0
 30
0.0
  0
VERTEX
  8
0
  6
CONTINUOUS
 10
182.960445
 20
667.570889
 30
0.0
  0
VERTEX
  8
0
  6
CONTINUOUS
 10
182.957263
 20
667.569036
 30
0.0
  0
SEQEND
  8
0
  6
CONTINUOUS
  0
POLYLINE
  8
0
  6
CONTINUOUS
 66
     1
 10
0.0
 20
0.0
 30
0.0
  0
VERTEX
  8
0
  6
CONTINUOUS
 10
184.458202
 20
670.168739
 30
0.0
  0
VERTEX
  8
0
  6
CONTINUOUS
 10
184.458188
 20
670.165052
 30
0.0
  0
SEQEND
  8
0
  6
CONTINUOUS
  0
POLYLINE
  8
0
  6
CONTINUOUS
 66
     1
 10
0.0
 20
0.0
 30
0.0
  0
VERTEX
  8
0
  6
CONTINUOUS
 10
184.001693
 20
668.701093
 30
0.0
  0
VERTEX
  8
0
  6
CONTINUOUS
 10
184.306322
 20
669.352727
 30
0.0
  0
VERTEX
  8
0
  6
CONTINUOUS
 10
184.447809
 20
670.017926
 30
0.0
  0
VERTEX
  8
0
  6
CONTINUOUS
 10
184.456492
 20
670.120372
 30
0.0
  0
VERTEX
  8
0
  6
CONTINUOUS
 10
184.457798
 20
670.147551
 30
0.0
  0
VERTEX
  8
0
  6
CONTINUOUS
 10
184.458188
 20
670.165052
 30
0.0
  0
SEQEND
  8
0
  6
CONTINUOUS
  0
POLYLINE
  8
0
  6
CONTINUOUS
 66
     1
 10
0.0
 20
0.0
 30
0.0
  0
VERTEX
  8
0
  6
CONTINUOUS
 10
154.433454
 20
664.254046
 30
0.0
  0
VERTEX
  8
0
  6
CONTINUOUS
 10
159.87736
 20
661.219772
 30
0.0
  0
VERTEX
  8
0
  6
CONTINUOUS
 10
165.321349
 20
658.185452
 30
0.0
  0
SEQEND
  8
0
  6
CONTINUOUS
  0
POLYLINE
  8
0
  6
CONTINUOUS
 66
     1
 10
0.0
 20
0.0
 30
0.0
  0
VERTEX
  8
0
  6
CONTINUOUS
 10
184.458202
 20
670.168738
 30
0.0
  0
VERTEX
  8
0
  6
CONTINUOUS
 10
184.458202
 20
682.748156
 30
0.0
  0
VERTEX
  8
0
  6
CONTINUOUS
 10
184.458202
 20
695.327574
 30
0.0
  0
SEQEND
  8
0
  6
CONTINUOUS
  0
POLYLINE
  8
0
  6
CONTINUOUS
 66
     1
 10
0.0
 20
0.0
 30
0.0
  0
VERTEX
  8
0
  6
CONTINUOUS
 10
175.356391
 20
701.841931
 30
0.0
  0
VERTEX
  8
0
  6
CONTINUOUS
 10
175.497058
 20
701.940215
 30
0.0
  0
SEQEND
  8
0
  6
CONTINUOUS
  0
POLYLINE
  8
0
  6
CONTINUOUS
 66
     1
 10
0.0
 20
0.0
 30
0.0
  0
VERTEX
  8
0
  6
CONTINUOUS
 10
175.608477
 20
701.748884
 30
0.0
  0
VERTEX
  8
0
  6
CONTINUOUS
 10
175.497058
 20
701.940215
 30
0.0
  0
SEQEND
  8
0
  6
CONTINUOUS
  0
POLYLINE
  8
0
  6
CONTINUOUS
 66
     1
 10
0.0
 20
0.0
 30
0.0
  0
VERTEX
  8
0
  6
CONTINUOUS
 10
175.497058
 20
701.940215
 30
0.0
  0
VERTEX
  8
0
  6
CONTINUOUS
 10
175.3564
 20
702.109246
 30
0.0
  0
SEQEND
  8
0
  6
CONTINUOUS
  0
POLYLINE
  8
0
  6
CONTINUOUS
 66
     1
 10
0.0
 20
0.0
 30
0.0
  0
VERTEX
  8
0
  6
CONTINUOUS
 10
176.558844
 20
698.576869
 30
0.0
  0
VERTEX
  8
0
  6
CONTINUOUS
 10
176.403198
 20
698.637662
 30
0.0
  0
SEQEND
  8
0
  6
CONTINUOUS
  0
POLYLINE
  8
0
  6
CONTINUOUS
 66
     1
 10
0.0
 20
0.0
 30
0.0
  0
VERTEX
  8
0
  6
CONTINUOUS
 10
176.403198
 20
698.637662
 30
0.0
  0
VERTEX
  8
0
  6
CONTINUOUS
 10
176.305631
 20
698.822777
 30
0.0
  0
SEQEND
  8
0
  6
CONTINUOUS
  0
POLYLINE
  8
0
  6
CONTINUOUS
 66
     1
 10
0.0
 20
0.0
 30
0.0
  0
VERTEX
  8
0
  6
CONTINUOUS
 10
176.312239
 20
698.774577
 30
0.0
  0
VERTEX
  8
0
  6
CONTINUOUS
 10
176.403198
 20
698.637662
 30
0.0
  0
SEQEND
  8
0
  6
CONTINUOUS
  0
POLYLINE
  8
0
  6
CONTINUOUS
 66
     1
 10
0.0
 20
0.0
 30
0.0
  0
VERTEX
  8
0
  6
CONTINUOUS
 10
176.238248
 20
698.390933
 30
0.0
  0
VERTEX
  8
0
  6
CONTINUOUS
 10
176.403198
 20
698.637662
 30
0.0
  0
SEQEND
  8
0
  6
CONTINUOUS
  0
POLYLINE
  8
0
  6
CONTINUOUS
 66
     1
 10
0.0
 20
0.0
 30
0.0
  0
VERTEX
  8
0
  6
CONTINUOUS
 10
164.119244
 20
691.394862
 30
0.0
  0
VERTEX
  8
0
  6
CONTINUOUS
 10
164.11887
 20
691.546277
 30
0.0
  0
SEQEND
  8
0
  6
CONTINUOUS
  0
POLYLINE
  8
0
  6
CONTINUOUS
 66
     1
 10
0.0
 20
0.0
 30
0.0
  0
VERTEX
  8
0
  6
CONTINUOUS
 10
164.11887
 20
691.546277
 30
0.0
  0
VERTEX
  8
0
  6
CONTINUOUS
 10
164.53005
 20
691.631202
 30
0.0
  0
SEQEND
  8
0
  6
CONTINUOUS
  0
POLYLINE
  8
0
  6
CONTINUOUS
 66
     1
 10
0.0
 20
0.0
 30
0.0
  0
VERTEX
  8
0
  6
CONTINUOUS
 10
164.12074
 20
691.735812
 30
0.0
  0
VERTEX
  8
0
  6
CONTINUOUS
 10
164.11887
 20
691.546277
 30
0.0
  0
SEQEND
  8
0
  6
CONTINUOUS
  0
POLYLINE
  8
0
  6
CONTINUOUS
 66
     1
 10
0.0
 20
0.0
 30
0.0
  0
VERTEX
  8
0
  6
CONTINUOUS
 10
163.709231
 20
691.635328
 30
0.0
  0
VERTEX
  8
0
  6
CONTINUOUS
 10
164.11887
 20
691.546277
 30
0.0
  0
SEQEND
  8
0
  6
CONTINUOUS
  0
POLYLINE
  8
0
  6
CONTINUOUS
 66
     1
 10
0.0
 20
0.0
 30
0.0
  0
VERTEX
  8
0
  6
CONTINUOUS
 10
164.145132
 20
695.385735
 30
0.0
  0
VERTEX
  8
0
  6
CONTINUOUS
 10
164.143304
 20
695.129463
 30
0.0
  0
SEQEND
  8
0
  6
CONTINUOUS
  0
POLYLINE
  8
0
  6
CONTINUOUS
 66
     1
 10
0.0
 20
0.0
 30
0.0
  0
VERTEX
  8
0
  6
CONTINUOUS
 10
164.374518
 20
695.501544
 30
0.0
  0
VERTEX
  8
0
  6
CONTINUOUS
 10
164.145132
 20
695.385735
 30
0.0
  0
SEQEND
  8
0
  6
CONTINUOUS
  0
POLYLINE
  8
0
  6
CONTINUOUS
 66
     1
 10
0.0
 20
0.0
 30
0.0
  0
VERTEX
  8
0
  6
CONTINUOUS
 10
163.915521
 20
695.503852
 30
0.0
  0
VERTEX
  8
0
  6
CONTINUOUS
 10
164.145132
 20
695.385735
 30
0.0
  0
SEQEND
  8
0
  6
CONTINUOUS
  0
POLYLINE
  8
0
  6
CONTINUOUS
 66
     1
 10
0.0
 20
0.0
 30
0.0
  0
VERTEX
  8
0
  6
CONTINUOUS
 10
164.143304
 20
695.129463
 30
0.0
  0
VERTEX
  8
0
  6
CONTINUOUS
 10
163.793037
 20
695.18727
 30
0.0
  0
SEQEND
  8
0
  6
CONTINUOUS
  0
POLYLINE
  8
0
  6
CONTINUOUS
 66
     1
 10
0.0
 20
0.0
 30
0.0
  0
VERTEX
  8
0
  6
CONTINUOUS
 10
164.493249
 20
695.18375
 30
0.0
  0
VERTEX
  8
0
  6
CONTINUOUS
 10
164.143304
 20
695.129463
 30
0.0
  0
SEQEND
  8
0
  6
CONTINUOUS
  0
POLYLINE
  8
0
  6
CONTINUOUS
 66
     1
 10
0.0
 20
0.0
 30
0.0
  0
VERTEX
  8
0
  6
CONTINUOUS
 10
164.12074
 20
691.735812
 30
0.0
  0
VERTEX
  8
0
  6
CONTINUOUS
 10
164.470685
 20
691.790099
 30
0.0
  0
SEQEND
  8
0
  6
CONTINUOUS
  0
POLYLINE
  8
0
  6
CONTINUOUS
 66
     1
 10
0.0
 20
0.0
 30
0.0
  0
VERTEX
  8
0
  6
CONTINUOUS
 10
163.770473
 20
691.793619
 30
0.0
  0
VERTEX
  8
0
  6
CONTINUOUS
 10
164.12074
 20
691.735812
 30
0.0
  0
SEQEND
  8
0
  6
CONTINUOUS
  0
POLYLINE
  8
0
  6
CONTINUOUS
 66
     1
 10
0.0
 20
0.0
 30
0.0
  0
VERTEX
  8
0
  6
CONTINUOUS
 10
164.374518
 20
695.501544
 30
0.0
  0
VERTEX
  8
0
  6
CONTINUOUS
 10
164.493249
 20
695.18375
 30
0.0
  0
SEQEND
  8
0
  6
CONTINUOUS
  0
POLYLINE
  8
0
  6
CONTINUOUS
 66
     1
 10
0.0
 20
0.0
 30
0.0
  0
VERTEX
  8
0
  6
CONTINUOUS
 10
164.145805
 20
695.739292
 30
0.0
  0
VERTEX
  8
0
  6
CONTINUOUS
 10
164.374518
 20
695.501544
 30
0.0
  0
SEQEND
  8
0
  6
CONTINUOUS
  0
POLYLINE
  8
0
  6
CONTINUOUS
 66
     1
 10
0.0
 20
0.0
 30
0.0
  0
VERTEX
  8
0
  6
CONTINUOUS
 10
175.356391
 20
701.841931
 30
0.0
  0
VERTEX
  8
0
  6
CONTINUOUS
 10
175.127678
 20
702.079679
 30
0.0
  0
SEQEND
  8
0
  6
CONTINUOUS
  0
POLYLINE
  8
0
  6
CONTINUOUS
 66
     1
 10
0.0
 20
0.0
 30
0.0
  0
VERTEX
  8
0
  6
CONTINUOUS
 10
175.475121
 20
701.524137
 30
0.0
  0
VERTEX
  8
0
  6
CONTINUOUS
 10
175.356391
 20
701.841931
 30
0.0
  0
SEQEND
  8
0
  6
CONTINUOUS
  0
POLYLINE
  8
0
  6
CONTINUOUS
 66
     1
 10
0.0
 20
0.0
 30
0.0
  0
VERTEX
  8
0
  6
CONTINUOUS
 10
175.3564
 20
702.109246
 30
0.0
  0
VERTEX
  8
0
  6
CONTINUOUS
 10
175.376884
 20
702.098942
 30
0.0
  0
SEQEND
  8
0
  6
CONTINUOUS
  0
POLYLINE
  8
0
  6
CONTINUOUS
 66
     1
 10
0.0
 20
0.0
 30
0.0
  0
VERTEX
  8
0
  6
CONTINUOUS
 10
175.127678
 20
702.079679
 30
0.0
  0
VERTEX
  8
0
  6
CONTINUOUS
 10
175.3564
 20
702.109246
 30
0.0
  0
SEQEND
  8
0
  6
CONTINUOUS
  0
POLYLINE
  8
0
  6
CONTINUOUS
 66
     1
 10
0.0
 20
0.0
 30
0.0
  0
VERTEX
  8
0
  6
CONTINUOUS
 10
176.296124
 20
698.862855
 30
0.0
  0
VERTEX
  8
0
  6
CONTINUOUS
 10
176.352625
 20
698.883752
 30
0.0
  0
SEQEND
  8
0
  6
CONTINUOUS
  0
POLYLINE
  8
0
  6
CONTINUOUS
 66
     1
 10
0.0
 20
0.0
 30
0.0
  0
VERTEX
  8
0
  6
CONTINUOUS
 10
176.312239
 20
698.774577
 30
0.0
  0
VERTEX
  8
0
  6
CONTINUOUS
 10
176.307426
 20
698.816471
 30
0.0
  0
SEQEND
  8
0
  6
CONTINUOUS
  0
POLYLINE
  8
0
  6
CONTINUOUS
 66
     1
 10
0.0
 20
0.0
 30
0.0
  0
VERTEX
  8
0
  6
CONTINUOUS
 10
176.178883
 20
698.54983
 30
0.0
  0
VERTEX
  8
0
  6
CONTINUOUS
 10
176.312239
 20
698.774577
 30
0.0
  0
SEQEND
  8
0
  6
CONTINUOUS
  0
POLYLINE
  8
0
  6
CONTINUOUS
 66
     1
 10
0.0
 20
0.0
 30
0.0
  0
VERTEX
  8
0
  6
CONTINUOUS
 10
175.608477
 20
701.748884
 30
0.0
  0
VERTEX
  8
0
  6
CONTINUOUS
 10
175.475121
 20
701.524137
 30
0.0
  0
SEQEND
  8
0
  6
CONTINUOUS
  0
POLYLINE
  8
0
  6
CONTINUOUS
 66
     1
 10
0.0
 20
0.0
 30
0.0
  0
VERTEX
  8
0
  6
CONTINUOUS
 10
164.53005
 20
691.631202
 30
0.0
  0
VERTEX
  8
0
  6
CONTINUOUS
 10
164.644407
 20
691.512328
 30
0.0
  0
SEQEND
  8
0
  6
CONTINUOUS
  0
POLYLINE
  8
0
  6
CONTINUOUS
 66
     1
 10
0.0
 20
0.0
 30
0.0
  0
VERTEX
  8
0
  6
CONTINUOUS
 10
164.470685
 20
691.790099
 30
0.0
  0
VERTEX
  8
0
  6
CONTINUOUS
 10
164.53005
 20
691.631202
 30
0.0
  0
SEQEND
  8
0
  6
CONTINUOUS
  0
POLYLINE
  8
0
  6
CONTINUOUS
 66
     1
 10
0.0
 20
0.0
 30
0.0
  0
VERTEX
  8
0
  6
CONTINUOUS
 10
176.238248
 20
698.390933
 30
0.0
  0
VERTEX
  8
0
  6
CONTINUOUS
 10
176.178883
 20
698.54983
 30
0.0
  0
SEQEND
  8
0
  6
CONTINUOUS
  0
POLYLINE
  8
0
  6
CONTINUOUS
 66
     1
 10
0.0
 20
0.0
 30
0.0
  0
VERTEX
  8
0
  6
CONTINUOUS
 10
176.352605
 20
698.272059
 30
0.0
  0
VERTEX
  8
0
  6
CONTINUOUS
 10
176.238248
 20
698.390933
 30
0.0
  0
SEQEND
  8
0
  6
CONTINUOUS
  0
POLYLINE
  8
0
  6
CONTINUOUS
 66
     1
 10
0.0
 20
0.0
 30
0.0
  0
VERTEX
  8
0
  6
CONTINUOUS
 10
163.709231
 20
691.635328
 30
0.0
  0
VERTEX
  8
0
  6
CONTINUOUS
 10
163.770473
 20
691.793619
 30
0.0
  0
SEQEND
  8
0
  6
CONTINUOUS
  0
POLYLINE
  8
0
  6
CONTINUOUS
 66
     1
 10
0.0
 20
0.0
 30
0.0
  0
VERTEX
  8
0
  6
CONTINUOUS
 10
163.594089
 20
691.517608
 30
0.0
  0
VERTEX
  8
0
  6
CONTINUOUS
 10
163.709231
 20
691.635328
 30
0.0
  0
SEQEND
  8
0
  6
CONTINUOUS
  0
POLYLINE
  8
0
  6
CONTINUOUS
 66
     1
 10
0.0
 20
0.0
 30
0.0
  0
VERTEX
  8
0
  6
CONTINUOUS
 10
163.915521
 20
695.503852
 30
0.0
  0
VERTEX
  8
0
  6
CONTINUOUS
 10
164.145805
 20
695.739292
 30
0.0
  0
SEQEND
  8
0
  6
CONTINUOUS
  0
POLYLINE
  8
0
  6
CONTINUOUS
 66
     1
 10
0.0
 20
0.0
 30
0.0
  0
VERTEX
  8
0
  6
CONTINUOUS
 10
163.793037
 20
695.18727
 30
0.0
  0
VERTEX
  8
0
  6
CONTINUOUS
 10
163.915521
 20
695.503852
 30
0.0
  0
SEQEND
  8
0
  6
CONTINUOUS
  0
POLYLINE
  8
0
  6
CONTINUOUS
 66
     1
 10
0.0
 20
0.0
 30
0.0
  0
VERTEX
  8
0
  6
CONTINUOUS
 10
157.943905
 20
698.623209
 30
0.0
  0
VERTEX
  8
0
  6
CONTINUOUS
 10
157.985926
 20
698.78275
 30
0.0
  0
VERTEX
  8
0
  6
CONTINUOUS
 10
158.066511
 20
698.93998
 30
0.0
  0
VERTEX
  8
0
  6
CONTINUOUS
 10
158.174014
 20
699.076917
 30
0.0
  0
VERTEX
  8
0
  6
CONTINUOUS
 10
158.296674
 20
699.175231
 30
0.0
  0
SEQEND
  8
0
  6
CONTINUOUS
  0
POLYLINE
  8
0
  6
CONTINUOUS
 66
     1
 10
0.0
 20
0.0
 30
0.0
  0
VERTEX
  8
0
  6
CONTINUOUS
 10
157.381809
 20
695.16687
 30
0.0
  0
VERTEX
  8
0
  6
CONTINUOUS
 10
157.443287
 20
695.216181
 30
0.0
  0
VERTEX
  8
0
  6
CONTINUOUS
 10
157.497011
 20
695.284685
 30
0.0
  0
VERTEX
  8
0
  6
CONTINUOUS
 10
157.537263
 20
695.363315
 30
0.0
  0
VERTEX
  8
0
  6
CONTINUOUS
 10
157.558193
 20
695.442881
 30
0.0
  0
SEQEND
  8
0
  6
CONTINUOUS
  0
POLYLINE
  8
0
  6
CONTINUOUS
 66
     1
 10
0.0
 20
0.0
 30
0.0
  0
VERTEX
  8
0
  6
CONTINUOUS
 10
163.793037
 20
695.18727
 30
0.0
  0
VERTEX
  8
0
  6
CONTINUOUS
 10
163.782006
 20
693.528205
 30
0.0
  0
VERTEX
  8
0
  6
CONTINUOUS
 10
163.770473
 20
691.793619
 30
0.0
  0
SEQEND
  8
0
  6
CONTINUOUS
  0
POLYLINE
  8
0
  6
CONTINUOUS
 66
     1
 10
0.0
 20
0.0
 30
0.0
  0
VERTEX
  8
0
  6
CONTINUOUS
 10
157.558193
 20
695.442881
 30
0.0
  0
VERTEX
  8
0
  6
CONTINUOUS
 10
160.850076
 20
693.50914
 30
0.0
  0
VERTEX
  8
0
  6
CONTINUOUS
 10
163.770473
 20
691.793619
 30
0.0
  0
SEQEND
  8
0
  6
CONTINUOUS
  0
POLYLINE
  8
0
  6
CONTINUOUS
 66
     1
 10
0.0
 20
0.0
 30
0.0
  0
VERTEX
  8
0
  6
CONTINUOUS
 10
157.943905
 20
698.623209
 30
0.0
  0
VERTEX
  8
0
  6
CONTINUOUS
 10
161.022135
 20
696.814974
 30
0.0
  0
VERTEX
  8
0
  6
CONTINUOUS
 10
163.793037
 20
695.18727
 30
0.0
  0
SEQEND
  8
0
  6
CONTINUOUS
  0
POLYLINE
  8
0
  6
CONTINUOUS
 66
     1
 10
0.0
 20
0.0
 30
0.0
  0
VERTEX
  8
0
  6
CONTINUOUS
 10
175.475121
 20
701.524137
 30
0.0
  0
VERTEX
  8
0
  6
CONTINUOUS
 10
169.984185
 20
698.353944
 30
0.0
  0
VERTEX
  8
0
  6
CONTINUOUS
 10
164.493249
 20
695.18375
 30
0.0
  0
SEQEND
  8
0
  6
CONTINUOUS
  0
POLYLINE
  8
0
  6
CONTINUOUS
 66
     1
 10
0.0
 20
0.0
 30
0.0
  0
VERTEX
  8
0
  6
CONTINUOUS
 10
176.178883
 20
698.54983
 30
0.0
  0
VERTEX
  8
0
  6
CONTINUOUS
 10
175.819172
 20
700.070078
 30
0.0
  0
VERTEX
  8
0
  6
CONTINUOUS
 10
175.475121
 20
701.524137
 30
0.0
  0
SEQEND
  8
0
  6
CONTINUOUS
  0
POLYLINE
  8
0
  6
CONTINUOUS
 66
     1
 10
0.0
 20
0.0
 30
0.0
  0
VERTEX
  8
0
  6
CONTINUOUS
 10
176.178883
 20
698.54983
 30
0.0
  0
VERTEX
  8
0
  6
CONTINUOUS
 10
170.324784
 20
695.169964
 30
0.0
  0
VERTEX
  8
0
  6
CONTINUOUS
 10
164.470685
 20
691.790099
 30
0.0
  0
SEQEND
  8
0
  6
CONTINUOUS
  0
POLYLINE
  8
0
  6
CONTINUOUS
 66
     1
 10
0.0
 20
0.0
 30
0.0
  0
VERTEX
  8
0
  6
CONTINUOUS
 10
164.493249
 20
695.18375
 30
0.0
  0
VERTEX
  8
0
  6
CONTINUOUS
 10
164.482218
 20
693.524685
 30
0.0
  0
VERTEX
  8
0
  6
CONTINUOUS
 10
164.470685
 20
691.790099
 30
0.0
  0
SEQEND
  8
0
  6
CONTINUOUS
  0
POLYLINE
  8
0
  6
CONTINUOUS
 66
     1
 10
0.0
 20
0.0
 30
0.0
  0
VERTEX
  8
0
  6
CONTINUOUS
 10
176.352625
 20
698.883752
 30
0.0
  0
VERTEX
  8
0
  6
CONTINUOUS
 10
176.281474
 20
698.925548
 30
0.0
  0
SEQEND
  8
0
  6
CONTINUOUS
  0
POLYLINE
  8
0
  6
CONTINUOUS
 66
     1
 10
0.0
 20
0.0
 30
0.0
  0
VERTEX
  8
0
  6
CONTINUOUS
 10
157.381809
 20
695.16687
 30
0.0
  0
VERTEX
  8
0
  6
CONTINUOUS
 10
160.673691
 20
693.233129
 30
0.0
  0
VERTEX
  8
0
  6
CONTINUOUS
 10
163.594089
 20
691.517608
 30
0.0
  0
SEQEND
  8
0
  6
CONTINUOUS
  0
POLYLINE
  8
0
  6
CONTINUOUS
 66
     1
 10
0.0
 20
0.0
 30
0.0
  0
VERTEX
  8
0
  6
CONTINUOUS
 10
164.119244
 20
691.394862
 30
0.0
  0
VERTEX
  8
0
  6
CONTINUOUS
 10
163.594089
 20
691.517608
 30
0.0
  0
SEQEND
  8
0
  6
CONTINUOUS
  0
POLYLINE
  8
0
  6
CONTINUOUS
 66
     1
 10
0.0
 20
0.0
 30
0.0
  0
VERTEX
  8
0
  6
CONTINUOUS
 10
164.644407
 20
691.512328
 30
0.0
  0
VERTEX
  8
0
  6
CONTINUOUS
 10
164.119244
 20
691.394862
 30
0.0
  0
SEQEND
  8
0
  6
CONTINUOUS
  0
POLYLINE
  8
0
  6
CONTINUOUS
 66
     1
 10
0.0
 20
0.0
 30
0.0
  0
VERTEX
  8
0
  6
CONTINUOUS
 10
176.352605
 20
698.272059
 30
0.0
  0
VERTEX
  8
0
  6
CONTINUOUS
 10
170.498506
 20
694.892193
 30
0.0
  0
VERTEX
  8
0
  6
CONTINUOUS
 10
164.644407
 20
691.512328
 30
0.0
  0
SEQEND
  8
0
  6
CONTINUOUS
  0
POLYLINE
  8
0
  6
CONTINUOUS
 66
     1
 10
0.0
 20
0.0
 30
0.0
  0
VERTEX
  8
0
  6
CONTINUOUS
 10
176.558844
 20
698.576869
 30
0.0
  0
VERTEX
  8
0
  6
CONTINUOUS
 10
176.352605
 20
698.272059
 30
0.0
  0
SEQEND
  8
0
  6
CONTINUOUS
  0
POLYLINE
  8
0
  6
CONTINUOUS
 66
     1
 10
0.0
 20
0.0
 30
0.0
  0
VERTEX
  8
0
  6
CONTINUOUS
 10
176.352625
 20
698.883752
 30
0.0
  0
VERTEX
  8
0
  6
CONTINUOUS
 10
176.558844
 20
698.576869
 30
0.0
  0
SEQEND
  8
0
  6
CONTINUOUS
  0
POLYLINE
  8
0
  6
CONTINUOUS
 66
     1
 10
0.0
 20
0.0
 30
0.0
  0
VERTEX
  8
0
  6
CONTINUOUS
 10
166.624454
 20
688.108074
 30
0.0
  0
VERTEX
  8
0
  6
CONTINUOUS
 10
166.512383
 20
688.070955
 30
0.0
  0
VERTEX
  8
0
  6
CONTINUOUS
 10
166.382976
 20
688.071606
 30
0.0
  0
VERTEX
  8
0
  6
CONTINUOUS
 10
166.270907
 20
688.109852
 30
0.0
  0
SEQEND
  8
0
  6
CONTINUOUS
  0
POLYLINE
  8
0
  6
CONTINUOUS
 66
     1
 10
0.0
 20
0.0
 30
0.0
  0
VERTEX
  8
0
  6
CONTINUOUS
 10
175.127678
 20
702.079679
 30
0.0
  0
VERTEX
  8
0
  6
CONTINUOUS
 10
169.636742
 20
698.909486
 30
0.0
  0
VERTEX
  8
0
  6
CONTINUOUS
 10
164.145805
 20
695.739292
 30
0.0
  0
SEQEND
  8
0
  6
CONTINUOUS
  0
POLYLINE
  8
0
  6
CONTINUOUS
 66
     1
 10
0.0
 20
0.0
 30
0.0
  0
VERTEX
  8
0
  6
CONTINUOUS
 10
158.296674
 20
699.175231
 30
0.0
  0
VERTEX
  8
0
  6
CONTINUOUS
 10
161.374903
 20
697.366995
 30
0.0
  0
VERTEX
  8
0
  6
CONTINUOUS
 10
164.145805
 20
695.739292
 30
0.0
  0
SEQEND
  8
0
  6
CONTINUOUS
  0
POLYLINE
  8
0
  6
CONTINUOUS
 66
     1
 10
0.0
 20
0.0
 30
0.0
  0
VERTEX
  8
0
  6
CONTINUOUS
 10
175.127678
 20
702.079679
 30
0.0
  0
VERTEX
  8
0
  6
CONTINUOUS
 10
174.646
 20
702.36263
 30
0.0
  0
SEQEND
  8
0
  6
CONTINUOUS
  0
POLYLINE
  8
0
  6
CONTINUOUS
 66
     1
 10
0.0
 20
0.0
 30
0.0
  0
VERTEX
  8
0
  6
CONTINUOUS
 10
155.627806
 20
693.951861
 30
0.0
  0
VERTEX
  8
0
  6
CONTINUOUS
 10
155.652261
 20
694.067148
 30
0.0
  0
VERTEX
  8
0
  6
CONTINUOUS
 10
155.71753
 20
694.178891
 30
0.0
  0
VERTEX
  8
0
  6
CONTINUOUS
 10
155.806125
 20
694.257149
 30
0.0
  0
SEQEND
  8
0
  6
CONTINUOUS
  0
POLYLINE
  8
0
  6
CONTINUOUS
 66
     1
 10
0.0
 20
0.0
 30
0.0
  0
VERTEX
  8
0
  6
CONTINUOUS
 10
166.092588
 20
687.804564
 30
0.0
  0
VERTEX
  8
0
  6
CONTINUOUS
 10
166.145455
 20
687.978159
 30
0.0
  0
VERTEX
  8
0
  6
CONTINUOUS
 10
166.270907
 20
688.109852
 30
0.0
  0
SEQEND
  8
0
  6
CONTINUOUS
  0
POLYLINE
  8
0
  6
CONTINUOUS
 66
     1
 10
0.0
 20
0.0
 30
0.0
  0
VERTEX
  8
0
  6
CONTINUOUS
 10
166.799681
 20
687.801009
 30
0.0
  0
VERTEX
  8
0
  6
CONTINUOUS
 10
166.575539
 20
687.726771
 30
0.0
  0
VERTEX
  8
0
  6
CONTINUOUS
 10
166.316725
 20
687.728072
 30
0.0
  0
VERTEX
  8
0
  6
CONTINUOUS
 10
166.092588
 20
687.804564
 30
0.0
  0
SEQEND
  8
0
  6
CONTINUOUS
  0
POLYLINE
  8
0
  6
CONTINUOUS
 66
     1
 10
0.0
 20
0.0
 30
0.0
  0
VERTEX
  8
0
  6
CONTINUOUS
 10
166.624454
 20
688.108074
 30
0.0
  0
VERTEX
  8
0
  6
CONTINUOUS
 10
166.748997
 20
687.975125
 30
0.0
  0
VERTEX
  8
0
  6
CONTINUOUS
 10
166.799681
 20
687.801009
 30
0.0
  0
SEQEND
  8
0
  6
CONTINUOUS
  0
POLYLINE
  8
0
  6
CONTINUOUS
 66
     1
 10
0.0
 20
0.0
 30
0.0
  0
VERTEX
  8
0
  6
CONTINUOUS
 10
182.180803
 20
697.089537
 30
0.0
  0
VERTEX
  8
0
  6
CONTINUOUS
 10
182.268981
 20
697.01039
 30
0.0
  0
VERTEX
  8
0
  6
CONTINUOUS
 10
182.333119
 20
696.897996
 30
0.0
  0
VERTEX
  8
0
  6
CONTINUOUS
 10
182.35603
 20
696.782471
 30
0.0
  0
SEQEND
  8
0
  6
CONTINUOUS
  0
POLYLINE
  8
0
  6
CONTINUOUS
 66
     1
 10
0.0
 20
0.0
 30
0.0
  0
VERTEX
  8
0
  6
CONTINUOUS
 10
182.18081
 20
697.295438
 30
0.0
  0
VERTEX
  8
0
  6
CONTINUOUS
 10
182.245511
 20
697.229845
 30
0.0
  0
VERTEX
  8
0
  6
CONTINUOUS
 10
182.245509
 20
697.154479
 30
0.0
  0
VERTEX
  8
0
  6
CONTINUOUS
 10
182.180803
 20
697.089537
 30
0.0
  0
SEQEND
  8
0
  6
CONTINUOUS
  0
POLYLINE
  8
0
  6
CONTINUOUS
 66
     1
 10
0.0
 20
0.0
 30
0.0
  0
VERTEX
  8
0
  6
CONTINUOUS
 10
182.18081
 20
697.295438
 30
0.0
  0
VERTEX
  8
0
  6
CONTINUOUS
 10
182.248698
 20
697.319062
 30
0.0
  0
VERTEX
  8
0
  6
CONTINUOUS
 10
182.305899
 20
697.307769
 30
0.0
  0
SEQEND
  8
0
  6
CONTINUOUS
  0
POLYLINE
  8
0
  6
CONTINUOUS
 66
     1
 10
0.0
 20
0.0
 30
0.0
  0
VERTEX
  8
0
  6
CONTINUOUS
 10
182.502476
 20
696.986341
 30
0.0
  0
VERTEX
  8
0
  6
CONTINUOUS
 10
182.463991
 20
696.875799
 30
0.0
  0
VERTEX
  8
0
  6
CONTINUOUS
 10
182.35603
 20
696.782471
 30
0.0
  0
SEQEND
  8
0
  6
CONTINUOUS
  0
POLYLINE
  8
0
  6
CONTINUOUS
 66
     1
 10
0.0
 20
0.0
 30
0.0
  0
VERTEX
  8
0
  6
CONTINUOUS
 10
166.796905
 20
687.435203
 30
0.0
  0
VERTEX
  8
0
  6
CONTINUOUS
 10
166.443355
 20
687.351693
 30
0.0
  0
VERTEX
  8
0
  6
CONTINUOUS
 10
166.089811
 20
687.438758
 30
0.0
  0
SEQEND
  8
0
  6
CONTINUOUS
  0
POLYLINE
  8
0
  6
CONTINUOUS
 66
     1
 10
0.0
 20
0.0
 30
0.0
  0
VERTEX
  8
0
  6
CONTINUOUS
 10
182.499699
 20
696.620535
 30
0.0
  0
VERTEX
  8
0
  6
CONTINUOUS
 10
182.461214
 20
696.509993
 30
0.0
  0
VERTEX
  8
0
  6
CONTINUOUS
 10
182.353254
 20
696.416665
 30
0.0
  0
SEQEND
  8
0
  6
CONTINUOUS
  0
POLYLINE
  8
0
  6
CONTINUOUS
 66
     1
 10
0.0
 20
0.0
 30
0.0
  0
VERTEX
  8
0
  6
CONTINUOUS
 10
174.643996
 20
702.084296
 30
0.0
  0
VERTEX
  8
0
  6
CONTINUOUS
 10
174.624754
 20
702.029025
 30
0.0
  0
VERTEX
  8
0
  6
CONTINUOUS
 10
174.570773
 20
701.982361
 30
0.0
  0
SEQEND
  8
0
  6
CONTINUOUS
  0
POLYLINE
  8
0
  6
CONTINUOUS
 66
     1
 10
0.0
 20
0.0
 30
0.0
  0
VERTEX
  8
0
  6
CONTINUOUS
 10
174.87931
 20
742.833408
 30
0.0
  0
VERTEX
  8
0
  6
CONTINUOUS
 10
174.952528
 20
742.730089
 30
0.0
  0
VERTEX
  8
0
  6
CONTINUOUS
 10
174.879303
 20
742.627506
 30
0.0
  0
SEQEND
  8
0
  6
CONTINUOUS
  0
POLYLINE
  8
0
  6
CONTINUOUS
 66
     1
 10
0.0
 20
0.0
 30
0.0
  0
VERTEX
  8
0
  6
CONTINUOUS
 10
173.146957
 20
743.645133
 30
0.0
  0
VERTEX
  8
0
  6
CONTINUOUS
 10
173.323732
 20
743.686888
 30
0.0
  0
VERTEX
  8
0
  6
CONTINUOUS
 10
173.500504
 20
743.643356
 30
0.0
  0
SEQEND
  8
0
  6
CONTINUOUS
  0
POLYLINE
  8
0
  6
CONTINUOUS
 66
     1
 10
0.0
 20
0.0
 30
0.0
  0
VERTEX
  8
0
  6
CONTINUOUS
 10
172.970163
 20
743.007727
 30
0.0
  0
VERTEX
  8
0
  6
CONTINUOUS
 10
172.824471
 20
742.959472
 30
0.0
  0
VERTEX
  8
0
  6
CONTINUOUS
 10
172.656242
 20
742.960318
 30
0.0
  0
VERTEX
  8
0
  6
CONTINUOUS
 10
172.510552
 20
743.010038
 30
0.0
  0
VERTEX
  8
0
  6
CONTINUOUS
 10
172.426441
 20
743.095309
 30
0.0
  0
VERTEX
  8
0
  6
CONTINUOUS
 10
172.426444
 20
743.193284
 30
0.0
  0
VERTEX
  8
0
  6
CONTINUOUS
 10
172.510561
 20
743.27771
 30
0.0
  0
SEQEND
  8
0
  6
CONTINUOUS
  0
POLYLINE
  8
0
  6
CONTINUOUS
 66
     1
 10
0.0
 20
0.0
 30
0.0
  0
VERTEX
  8
0
  6
CONTINUOUS
 10
173.14694
 20
743.109789
 30
0.0
  0
VERTEX
  8
0
  6
CONTINUOUS
 10
173.323714
 20
743.151544
 30
0.0
  0
VERTEX
  8
0
  6
CONTINUOUS
 10
173.500486
 20
743.108012
 30
0.0
  0
SEQEND
  8
0
  6
CONTINUOUS
  0
POLYLINE
  8
0
  6
CONTINUOUS
 66
     1
 10
0.0
 20
0.0
 30
0.0
  0
VERTEX
  8
0
  6
CONTINUOUS
 10
173.960088
 20
742.838029
 30
0.0
  0
VERTEX
  8
0
  6
CONTINUOUS
 10
174.02479
 20
742.772436
 30
0.0
  0
VERTEX
  8
0
  6
CONTINUOUS
 10
174.024787
 20
742.69707
 30
0.0
  0
VERTEX
  8
0
  6
CONTINUOUS
 10
173.960082
 20
742.632128
 30
0.0
  0
SEQEND
  8
0
  6
CONTINUOUS
  0
POLYLINE
  8
0
  6
CONTINUOUS
 66
     1
 10
0.0
 20
0.0
 30
0.0
  0
VERTEX
  8
0
  6
CONTINUOUS
 10
164.626272
 20
737.24325
 30
0.0
  0
VERTEX
  8
0
  6
CONTINUOUS
 10
164.514201
 20
737.206131
 30
0.0
  0
VERTEX
  8
0
  6
CONTINUOUS
 10
164.384794
 20
737.206782
 30
0.0
  0
VERTEX
  8
0
  6
CONTINUOUS
 10
164.272725
 20
737.245028
 30
0.0
  0
SEQEND
  8
0
  6
CONTINUOUS
  0
POLYLINE
  8
0
  6
CONTINUOUS
 66
     1
 10
0.0
 20
0.0
 30
0.0
  0
VERTEX
  8
0
  6
CONTINUOUS
 10
163.724739
 20
737.56693
 30
0.0
  0
VERTEX
  8
0
  6
CONTINUOUS
 10
163.692388
 20
737.599727
 30
0.0
  0
VERTEX
  8
0
  6
CONTINUOUS
 10
163.692389
 20
737.637409
 30
0.0
  0
VERTEX
  8
0
  6
CONTINUOUS
 10
163.724742
 20
737.669881
 30
0.0
  0
SEQEND
  8
0
  6
CONTINUOUS
  0
POLYLINE
  8
0
  6
CONTINUOUS
 66
     1
 10
0.0
 20
0.0
 30
0.0
  0
VERTEX
  8
0
  6
CONTINUOUS
 10
163.654049
 20
738.1644
 30
0.0
  0
VERTEX
  8
0
  6
CONTINUOUS
 10
163.833016
 20
738.216607
 30
0.0
  0
VERTEX
  8
0
  6
CONTINUOUS
 10
164.031399
 20
738.19731
 30
0.0
  0
VERTEX
  8
0
  6
CONTINUOUS
 10
164.173424
 20
738.113881
 30
0.0
  0
VERTEX
  8
0
  6
CONTINUOUS
 10
164.204841
 20
737.998186
 30
0.0
  0
VERTEX
  8
0
  6
CONTINUOUS
 10
164.113651
 20
737.894417
 30
0.0
  0
SEQEND
  8
0
  6
CONTINUOUS
  0
POLYLINE
  8
0
  6
CONTINUOUS
 66
     1
 10
0.0
 20
0.0
 30
0.0
  0
VERTEX
  8
0
  6
CONTINUOUS
 10
162.893902
 20
737.519631
 30
0.0
  0
VERTEX
  8
0
  6
CONTINUOUS
 10
162.829201
 20
737.585225
 30
0.0
  0
VERTEX
  8
0
  6
CONTINUOUS
 10
162.829203
 20
737.66059
 30
0.0
  0
VERTEX
  8
0
  6
CONTINUOUS
 10
162.893909
 20
737.725533
 30
0.0
  0
SEQEND
  8
0
  6
CONTINUOUS
  0
POLYLINE
  8
0
  6
CONTINUOUS
 66
     1
 10
0.0
 20
0.0
 30
0.0
  0
VERTEX
  8
0
  6
CONTINUOUS
 10
164.626255
 20
736.707906
 30
0.0
  0
VERTEX
  8
0
  6
CONTINUOUS
 10
164.514184
 20
736.670787
 30
0.0
  0
VERTEX
  8
0
  6
CONTINUOUS
 10
164.384776
 20
736.671437
 30
0.0
  0
VERTEX
  8
0
  6
CONTINUOUS
 10
164.272708
 20
736.709683
 30
0.0
  0
SEQEND
  8
0
  6
CONTINUOUS
  0
POLYLINE
  8
0
  6
CONTINUOUS
 66
     1
 10
0.0
 20
0.0
 30
0.0
  0
VERTEX
  8
0
  6
CONTINUOUS
 10
169.96493
 20
740.366705
 30
0.0
  0
VERTEX
  8
0
  6
CONTINUOUS
 10
169.617355
 20
740.253687
 30
0.0
  0
VERTEX
  8
0
  6
CONTINUOUS
 10
169.217919
 20
740.261157
 30
0.0
  0
VERTEX
  8
0
  6
CONTINUOUS
 10
168.879984
 20
740.386996
 30
0.0
  0
SEQEND
  8
0
  6
CONTINUOUS
  0
POLYLINE
  8
0
  6
CONTINUOUS
 66
     1
 10
0.0
 20
0.0
 30
0.0
  0
VERTEX
  8
0
  6
CONTINUOUS
 10
169.813029
 20
740.814339
 30
0.0
  0
VERTEX
  8
0
  6
CONTINUOUS
 10
169.991996
 20
740.866546
 30
0.0
  0
VERTEX
  8
0
  6
CONTINUOUS
 10
170.19038
 20
740.847249
 30
0.0
  0
VERTEX
  8
0
  6
CONTINUOUS
 10
170.332405
 20
740.76382
 30
0.0
  0
VERTEX
  8
0
  6
CONTINUOUS
 10
170.363822
 20
740.648125
 30
0.0
  0
VERTEX
  8
0
  6
CONTINUOUS
 10
170.272631
 20
740.544357
 30
0.0
  0
SEQEND
  8
0
  6
CONTINUOUS
  0
POLYLINE
  8
0
  6
CONTINUOUS
 66
     1
 10
0.0
 20
0.0
 30
0.0
  0
VERTEX
  8
0
  6
CONTINUOUS
 10
169.616494
 20
740.70087
 30
0.0
  0
VERTEX
  8
0
  6
CONTINUOUS
 10
169.500636
 20
740.663197
 30
0.0
  0
VERTEX
  8
0
  6
CONTINUOUS
 10
169.367491
 20
740.665687
 30
0.0
  0
VERTEX
  8
0
  6
CONTINUOUS
 10
169.254846
 20
740.707633
 30
0.0
  0
SEQEND
  8
0
  6
CONTINUOUS
  0
POLYLINE
  8
0
  6
CONTINUOUS
 66
     1
 10
0.0
 20
0.0
 30
0.0
  0
VERTEX
  8
0
  6
CONTINUOUS
 10
165.582335
 20
743.075877
 30
0.0
  0
VERTEX
  8
0
  6
CONTINUOUS
 10
165.517287
 20
743.177628
 30
0.0
  0
VERTEX
  8
0
  6
CONTINUOUS
 10
165.590444
 20
743.276793
 30
0.0
  0
SEQEND
  8
0
  6
CONTINUOUS
  0
POLYLINE
  8
0
  6
CONTINUOUS
 66
     1
 10
0.0
 20
0.0
 30
0.0
  0
VERTEX
  8
0
  6
CONTINUOUS
 10
169.081224
 20
745.292196
 30
0.0
  0
VERTEX
  8
0
  6
CONTINUOUS
 10
169.305366
 20
745.366434
 30
0.0
  0
VERTEX
  8
0
  6
CONTINUOUS
 10
169.56418
 20
745.365133
 30
0.0
  0
VERTEX
  8
0
  6
CONTINUOUS
 10
169.788317
 20
745.288641
 30
0.0
  0
SEQEND
  8
0
  6
CONTINUOUS
  0
POLYLINE
  8
0
  6
CONTINUOUS
 66
     1
 10
0.0
 20
0.0
 30
0.0
  0
VERTEX
  8
0
  6
CONTINUOUS
 10
172.050973
 20
743.959496
 30
0.0
  0
VERTEX
  8
0
  6
CONTINUOUS
 10
172.180375
 20
743.828309
 30
0.0
  0
VERTEX
  8
0
  6
CONTINUOUS
 10
172.180371
 20
743.677578
 30
0.0
  0
VERTEX
  8
0
  6
CONTINUOUS
 10
172.050959
 20
743.547692
 30
0.0
  0
SEQEND
  8
0
  6
CONTINUOUS
  0
POLYLINE
  8
0
  6
CONTINUOUS
 66
     1
 10
0.0
 20
0.0
 30
0.0
  0
VERTEX
  8
0
  6
CONTINUOUS
 10
171.591326
 20
742.870528
 30
0.0
  0
VERTEX
  8
0
  6
CONTINUOUS
 10
171.444889
 20
743.077166
 30
0.0
  0
VERTEX
  8
0
  6
CONTINUOUS
 10
171.59134
 20
743.282331
 30
0.0
  0
SEQEND
  8
0
  6
CONTINUOUS
  0
POLYLINE
  8
0
  6
CONTINUOUS
 66
     1
 10
0.0
 20
0.0
 30
0.0
  0
VERTEX
  8
0
  6
CONTINUOUS
 10
173.519805
 20
742.478947
 30
0.0
  0
VERTEX
  8
0
  6
CONTINUOUS
 10
173.364511
 20
742.323084
 30
0.0
  0
VERTEX
  8
0
  6
CONTINUOUS
 10
173.095541
 20
742.233998
 30
0.0
  0
VERTEX
  8
0
  6
CONTINUOUS
 10
172.784964
 20
742.235559
 30
0.0
  0
VERTEX
  8
0
  6
CONTINUOUS
 10
172.515999
 20
742.32735
 30
0.0
  0
SEQEND
  8
0
  6
CONTINUOUS
  0
POLYLINE
  8
0
  6
CONTINUOUS
 66
     1
 10
0.0
 20
0.0
 30
0.0
  0
VERTEX
  8
0
  6
CONTINUOUS
 10
173.288356
 20
743.026718
 30
0.0
  0
VERTEX
  8
0
  6
CONTINUOUS
 10
173.400427
 20
743.063837
 30
0.0
  0
VERTEX
  8
0
  6
CONTINUOUS
 10
173.529834
 20
743.063186
 30
0.0
  0
VERTEX
  8
0
  6
CONTINUOUS
 10
173.641902
 20
743.02494
 30
0.0
  0
VERTEX
  8
0
  6
CONTINUOUS
 10
173.706604
 20
742.959347
 30
0.0
  0
VERTEX
  8
0
  6
CONTINUOUS
 10
173.706601
 20
742.883982
 30
0.0
  0
SEQEND
  8
0
  6
CONTINUOUS
  0
POLYLINE
  8
0
  6
CONTINUOUS
 66
     1
 10
0.0
 20
0.0
 30
0.0
  0
VERTEX
  8
0
  6
CONTINUOUS
 10
172.828736
 20
742.761356
 30
0.0
  0
VERTEX
  8
0
  6
CONTINUOUS
 10
172.783908
 20
742.746509
 30
0.0
  0
VERTEX
  8
0
  6
CONTINUOUS
 10
172.732145
 20
742.746769
 30
0.0
  0
VERTEX
  8
0
  6
CONTINUOUS
 10
172.687318
 20
742.762067
 30
0.0
  0
SEQEND
  8
0
  6
CONTINUOUS
  0
POLYLINE
  8
0
  6
CONTINUOUS
 66
     1
 10
0.0
 20
0.0
 30
0.0
  0
VERTEX
  8
0
  6
CONTINUOUS
 10
172.227716
 20
743.03205
 30
0.0
  0
VERTEX
  8
0
  6
CONTINUOUS
 10
172.198428
 20
743.073377
 30
0.0
  0
VERTEX
  8
0
  6
CONTINUOUS
 10
172.227718
 20
743.11441
 30
0.0
  0
SEQEND
  8
0
  6
CONTINUOUS
  0
POLYLINE
  8
0
  6
CONTINUOUS
 66
     1
 10
0.0
 20
0.0
 30
0.0
  0
VERTEX
  8
0
  6
CONTINUOUS
 10
173.146964
 20
743.851035
 30
0.0
  0
VERTEX
  8
0
  6
CONTINUOUS
 10
173.211665
 20
743.785441
 30
0.0
  0
VERTEX
  8
0
  6
CONTINUOUS
 10
173.211663
 20
743.710076
 30
0.0
  0
VERTEX
  8
0
  6
CONTINUOUS
 10
173.146957
 20
743.645133
 30
0.0
  0
SEQEND
  8
0
  6
CONTINUOUS
  0
POLYLINE
  8
0
  6
CONTINUOUS
 66
     1
 10
0.0
 20
0.0
 30
0.0
  0
VERTEX
  8
0
  6
CONTINUOUS
 10
169.258018
 20
745.929602
 30
0.0
  0
VERTEX
  8
0
  6
CONTINUOUS
 10
169.434793
 20
745.971357
 30
0.0
  0
VERTEX
  8
0
  6
CONTINUOUS
 10
169.611565
 20
745.927824
 30
0.0
  0
SEQEND
  8
0
  6
CONTINUOUS
  0
POLYLINE
  8
0
  6
CONTINUOUS
 66
     1
 10
0.0
 20
0.0
 30
0.0
  0
VERTEX
  8
0
  6
CONTINUOUS
 10
159.004963
 20
739.8041
 30
0.0
  0
VERTEX
  8
0
  6
CONTINUOUS
 10
158.940262
 20
739.869694
 30
0.0
  0
VERTEX
  8
0
  6
CONTINUOUS
 10
158.940264
 20
739.945059
 30
0.0
  0
VERTEX
  8
0
  6
CONTINUOUS
 10
159.00497
 20
740.010002
 30
0.0
  0
SEQEND
  8
0
  6
CONTINUOUS
  0
POLYLINE
  8
0
  6
CONTINUOUS
 66
     1
 10
0.0
 20
0.0
 30
0.0
  0
VERTEX
  8
0
  6
CONTINUOUS
 10
162.893909
 20
737.725533
 30
0.0
  0
VERTEX
  8
0
  6
CONTINUOUS
 10
162.781838
 20
737.688414
 30
0.0
  0
VERTEX
  8
0
  6
CONTINUOUS
 10
162.652431
 20
737.689064
 30
0.0
  0
VERTEX
  8
0
  6
CONTINUOUS
 10
162.540362
 20
737.72731
 30
0.0
  0
SEQEND
  8
0
  6
CONTINUOUS
  0
POLYLINE
  8
0
  6
CONTINUOUS
 66
     1
 10
0.0
 20
0.0
 30
0.0
  0
VERTEX
  8
0
  6
CONTINUOUS
 10
163.813148
 20
738.256256
 30
0.0
  0
VERTEX
  8
0
  6
CONTINUOUS
 10
163.857976
 20
738.271103
 30
0.0
  0
VERTEX
  8
0
  6
CONTINUOUS
 10
163.909739
 20
738.270843
 30
0.0
  0
VERTEX
  8
0
  6
CONTINUOUS
 10
163.954566
 20
738.255545
 30
0.0
  0
SEQEND
  8
0
  6
CONTINUOUS
  0
POLYLINE
  8
0
  6
CONTINUOUS
 66
     1
 10
0.0
 20
0.0
 30
0.0
  0
VERTEX
  8
0
  6
CONTINUOUS
 10
164.414168
 20
737.985562
 30
0.0
  0
VERTEX
  8
0
  6
CONTINUOUS
 10
164.443456
 20
737.944235
 30
0.0
  0
VERTEX
  8
0
  6
CONTINUOUS
 10
164.414166
 20
737.903202
 30
0.0
  0
SEQEND
  8
0
  6
CONTINUOUS
  0
POLYLINE
  8
0
  6
CONTINUOUS
 66
     1
 10
0.0
 20
0.0
 30
0.0
  0
VERTEX
  8
0
  6
CONTINUOUS
 10
164.196015
 20
737.393042
 30
0.0
  0
VERTEX
  8
0
  6
CONTINUOUS
 10
164.066608
 20
737.393693
 30
0.0
  0
VERTEX
  8
0
  6
CONTINUOUS
 10
163.954539
 20
737.431939
 30
0.0
  0
VERTEX
  8
0
  6
CONTINUOUS
 10
163.889838
 20
737.497532
 30
0.0
  0
VERTEX
  8
0
  6
CONTINUOUS
 10
163.889841
 20
737.572897
 30
0.0
  0
VERTEX
  8
0
  6
CONTINUOUS
 10
163.954546
 20
737.63784
 30
0.0
  0
SEQEND
  8
0
  6
CONTINUOUS
  0
POLYLINE
  8
0
  6
CONTINUOUS
 66
     1
 10
0.0
 20
0.0
 30
0.0
  0
VERTEX
  8
0
  6
CONTINUOUS
 10
165.162089
 20
738.081568
 30
0.0
  0
VERTEX
  8
0
  6
CONTINUOUS
 10
165.317372
 20
737.924143
 30
0.0
  0
VERTEX
  8
0
  6
CONTINUOUS
 10
165.317366
 20
737.743267
 30
0.0
  0
VERTEX
  8
0
  6
CONTINUOUS
 10
165.162073
 20
737.587404
 30
0.0
  0
VERTEX
  8
0
  6
CONTINUOUS
 10
164.893102
 20
737.498318
 30
0.0
  0
SEQEND
  8
0
  6
CONTINUOUS
  0
POLYLINE
  8
0
  6
CONTINUOUS
 66
     1
 10
0.0
 20
0.0
 30
0.0
  0
VERTEX
  8
0
  6
CONTINUOUS
 10
163.530323
 20
738.628301
 30
0.0
  0
VERTEX
  8
0
  6
CONTINUOUS
 10
163.883872
 20
738.71181
 30
0.0
  0
VERTEX
  8
0
  6
CONTINUOUS
 10
164.237416
 20
738.624746
 30
0.0
  0
SEQEND
  8
0
  6
CONTINUOUS
  0
POLYLINE
  8
0
  6
CONTINUOUS
 66
     1
 10
0.0
 20
0.0
 30
0.0
  0
VERTEX
  8
0
  6
CONTINUOUS
 10
163.070703
 20
738.362939
 30
0.0
  0
VERTEX
  8
0
  6
CONTINUOUS
 10
162.717154
 20
738.279429
 30
0.0
  0
VERTEX
  8
0
  6
CONTINUOUS
 10
162.36361
 20
738.366494
 30
0.0
  0
SEQEND
  8
0
  6
CONTINUOUS
  0
POLYLINE
  8
0
  6
CONTINUOUS
 66
     1
 10
0.0
 20
0.0
 30
0.0
  0
VERTEX
  8
0
  6
CONTINUOUS
 10
160.100954
 20
739.695639
 30
0.0
  0
VERTEX
  8
0
  6
CONTINUOUS
 10
159.971551
 20
739.826826
 30
0.0
  0
VERTEX
  8
0
  6
CONTINUOUS
 10
159.971556
 20
739.977557
 30
0.0
  0
VERTEX
  8
0
  6
CONTINUOUS
 10
160.100968
 20
740.107442
 30
0.0
  0
SEQEND
  8
0
  6
CONTINUOUS
  0
POLYLINE
  8
0
  6
CONTINUOUS
 66
     1
 10
0.0
 20
0.0
 30
0.0
  0
VERTEX
  8
0
  6
CONTINUOUS
 10
163.591748
 20
742.122845
 30
0.0
  0
VERTEX
  8
0
  6
CONTINUOUS
 10
163.762654
 20
742.16459
 30
0.0
  0
VERTEX
  8
0
  6
CONTINUOUS
 10
163.936803
 20
742.125829
 30
0.0
  0
SEQEND
  8
0
  6
CONTINUOUS
  0
POLYLINE
  8
0
  6
CONTINUOUS
 66
     1
 10
0.0
 20
0.0
 30
0.0
  0
VERTEX
  8
0
  6
CONTINUOUS
 10
167.971463
 20
739.966672
 30
0.0
  0
VERTEX
  8
0
  6
CONTINUOUS
 10
168.042512
 20
739.900711
 30
0.0
  0
VERTEX
  8
0
  6
CONTINUOUS
 10
168.045636
 20
739.823152
 30
0.0
  0
VERTEX
  8
0
  6
CONTINUOUS
 10
167.979947
 20
739.756009
 30
0.0
  0
SEQEND
  8
0
  6
CONTINUOUS
  0
POLYLINE
  8
0
  6
CONTINUOUS
 66
     1
 10
0.0
 20
0.0
 30
0.0
  0
VERTEX
  8
0
  6
CONTINUOUS
 10
168.24955
 20
739.37633
 30
0.0
  0
VERTEX
  8
0
  6
CONTINUOUS
 10
168.103858
 20
739.328075
 30
0.0
  0
VERTEX
  8
0
  6
CONTINUOUS
 10
167.935629
 20
739.328921
 30
0.0
  0
VERTEX
  8
0
  6
CONTINUOUS
 10
167.78994
 20
739.378641
 30
0.0
  0
VERTEX
  8
0
  6
CONTINUOUS
 10
167.705828
 20
739.463912
 30
0.0
  0
VERTEX
  8
0
  6
CONTINUOUS
 10
167.705831
 20
739.561887
 30
0.0
  0
VERTEX
  8
0
  6
CONTINUOUS
 10
167.789948
 20
739.646313
 30
0.0
  0
SEQEND
  8
0
  6
CONTINUOUS
  0
POLYLINE
  8
0
  6
CONTINUOUS
 66
     1
 10
0.0
 20
0.0
 30
0.0
  0
VERTEX
  8
0
  6
CONTINUOUS
 10
168.525262
 20
740.182197
 30
0.0
  0
VERTEX
  8
0
  6
CONTINUOUS
 10
168.738411
 20
739.984314
 30
0.0
  0
VERTEX
  8
0
  6
CONTINUOUS
 10
168.747782
 20
739.751639
 30
0.0
  0
VERTEX
  8
0
  6
CONTINUOUS
 10
168.550716
 20
739.550208
 30
0.0
  0
SEQEND
  8
0
  6
CONTINUOUS
  0
POLYLINE
  8
0
  6
CONTINUOUS
 66
     1
 10
0.0
 20
0.0
 30
0.0
  0
VERTEX
  8
0
  6
CONTINUOUS
 10
164.608065
 20
742.278494
 30
0.0
  0
VERTEX
  8
0
  6
CONTINUOUS
 10
164.465966
 20
742.410416
 30
0.0
  0
VERTEX
  8
0
  6
CONTINUOUS
 10
164.459718
 20
742.565532
 30
0.0
  0
VERTEX
  8
0
  6
CONTINUOUS
 10
164.591096
 20
742.699819
 30
0.0
  0
VERTEX
  8
0
  6
CONTINUOUS
 10
164.822812
 20
742.775164
 30
0.0
  0
VERTEX
  8
0
  6
CONTINUOUS
 10
165.089103
 20
742.770184
 30
0.0
  0
VERTEX
  8
0
  6
CONTINUOUS
 10
165.314393
 20
742.686292
 30
0.0
  0
SEQEND
  8
0
  6
CONTINUOUS
  0
POLYLINE
  8
0
  6
CONTINUOUS
 66
     1
 10
0.0
 20
0.0
 30
0.0
  0
VERTEX
  8
0
  6
CONTINUOUS
 10
177.524514
 20
678.040467
 30
0.0
  0
VERTEX
  8
0
  6
CONTINUOUS
 10
177.349887
 20
678.000298
 30
0.0
  0
SEQEND
  8
0
  6
CONTINUOUS
  0
POLYLINE
  8
0
  6
CONTINUOUS
 66
     1
 10
0.0
 20
0.0
 30
0.0
  0
VERTEX
  8
0
  6
CONTINUOUS
 10
177.524514
 20
682.559795
 30
0.0
  0
VERTEX
  8
0
  6
CONTINUOUS
 10
177.457538
 20
682.464101
 30
0.0
  0
VERTEX
  8
0
  6
CONTINUOUS
 10
177.37184
 20
682.388042
 30
0.0
  0
VERTEX
  8
0
  6
CONTINUOUS
 10
177.351409
 20
682.375299
 30
0.0
  0
SEQEND
  8
0
  6
CONTINUOUS
  0
POLYLINE
  8
0
  6
CONTINUOUS
 66
     1
 10
0.0
 20
0.0
 30
0.0
  0
VERTEX
  8
0
  6
CONTINUOUS
 10
177.417174
 20
677.694254
 30
0.0
  0
VERTEX
  8
0
  6
CONTINUOUS
 10
177.284087
 20
677.771866
 30
0.0
  0
SEQEND
  8
0
  6
CONTINUOUS
  0
POLYLINE
  8
0
  6
CONTINUOUS
 66
     1
 10
0.0
 20
0.0
 30
0.0
  0
VERTEX
  8
0
  6
CONTINUOUS
 10
177.118488
 20
677.599503
 30
0.0
  0
VERTEX
  8
0
  6
CONTINUOUS
 10
177.284087
 20
677.771866
 30
0.0
  0
SEQEND
  8
0
  6
CONTINUOUS
  0
POLYLINE
  8
0
  6
CONTINUOUS
 66
     1
 10
0.0
 20
0.0
 30
0.0
  0
VERTEX
  8
0
  6
CONTINUOUS
 10
177.119174
 20
677.866304
 30
0.0
  0
VERTEX
  8
0
  6
CONTINUOUS
 10
176.997323
 20
677.732562
 30
0.0
  0
SEQEND
  8
0
  6
CONTINUOUS
  0
POLYLINE
  8
0
  6
CONTINUOUS
 66
     1
 10
0.0
 20
0.0
 30
0.0
  0
VERTEX
  8
0
  6
CONTINUOUS
 10
174.098158
 20
677.097164
 30
0.0
  0
VERTEX
  8
0
  6
CONTINUOUS
 10
174.274004
 20
676.995639
 30
0.0
  0
VERTEX
  8
0
  6
CONTINUOUS
 10
174.448599
 20
676.894836
 30
0.0
  0
SEQEND
  8
0
  6
CONTINUOUS
  0
POLYLINE
  8
0
  6
CONTINUOUS
 66
     1
 10
0.0
 20
0.0
 30
0.0
  0
VERTEX
  8
0
  6
CONTINUOUS
 10
176.997323
 20
677.732562
 30
0.0
  0
VERTEX
  8
0
  6
CONTINUOUS
 10
176.367803
 20
678.096015
 30
0.0
  0
VERTEX
  8
0
  6
CONTINUOUS
 10
175.555285
 20
678.565122
 30
0.0
  0
SEQEND
  8
0
  6
CONTINUOUS
  0
POLYLINE
  8
0
  6
CONTINUOUS
 66
     1
 10
0.0
 20
0.0
 30
0.0
  0
VERTEX
  8
0
  6
CONTINUOUS
 10
176.997323
 20
677.732562
 30
0.0
  0
VERTEX
  8
0
  6
CONTINUOUS
 10
177.118488
 20
677.599503
 30
0.0
  0
SEQEND
  8
0
  6
CONTINUOUS
  0
POLYLINE
  8
0
  6
CONTINUOUS
 66
     1
 10
0.0
 20
0.0
 30
0.0
  0
VERTEX
  8
0
  6
CONTINUOUS
 10
177.118488
 20
677.599503
 30
0.0
  0
VERTEX
  8
0
  6
CONTINUOUS
 10
177.171014
 20
677.428188
 30
0.0
  0
SEQEND
  8
0
  6
CONTINUOUS
  0
POLYLINE
  8
0
  6
CONTINUOUS
 66
     1
 10
0.0
 20
0.0
 30
0.0
  0
VERTEX
  8
0
  6
CONTINUOUS
 10
176.997323
 20
677.732562
 30
0.0
  0
VERTEX
  8
0
  6
CONTINUOUS
 10
176.399287
 20
677.387285
 30
0.0
  0
VERTEX
  8
0
  6
CONTINUOUS
 10
175.618438
 20
676.936462
 30
0.0
  0
SEQEND
  8
0
  6
CONTINUOUS
  0
POLYLINE
  8
0
  6
CONTINUOUS
 66
     1
 10
0.0
 20
0.0
 30
0.0
  0
VERTEX
  8
0
  6
CONTINUOUS
 10
177.171014
 20
677.428188
 30
0.0
  0
VERTEX
  8
0
  6
CONTINUOUS
 10
177.417174
 20
677.694254
 30
0.0
  0
SEQEND
  8
0
  6
CONTINUOUS
  0
POLYLINE
  8
0
  6
CONTINUOUS
 66
     1
 10
0.0
 20
0.0
 30
0.0
  0
VERTEX
  8
0
  6
CONTINUOUS
 10
177.417174
 20
677.694254
 30
0.0
  0
VERTEX
  8
0
  6
CONTINUOUS
 10
177.524514
 20
678.040467
 30
0.0
  0
SEQEND
  8
0
  6
CONTINUOUS
  0
POLYLINE
  8
0
  6
CONTINUOUS
 66
     1
 10
0.0
 20
0.0
 30
0.0
  0
VERTEX
  8
0
  6
CONTINUOUS
 10
177.524514
 20
682.559795
 30
0.0
  0
VERTEX
  8
0
  6
CONTINUOUS
 10
177.524514
 20
680.094272
 30
0.0
  0
VERTEX
  8
0
  6
CONTINUOUS
 10
177.524514
 20
678.040467
 30
0.0
  0
SEQEND
  8
0
  6
CONTINUOUS
  0
POLYLINE
  8
0
  6
CONTINUOUS
 66
     1
 10
0.0
 20
0.0
 30
0.0
  0
VERTEX
  8
0
  6
CONTINUOUS
 10
177.171014
 20
677.428188
 30
0.0
  0
VERTEX
  8
0
  6
CONTINUOUS
 10
176.572979
 20
677.082911
 30
0.0
  0
VERTEX
  8
0
  6
CONTINUOUS
 10
175.968879
 20
676.734134
 30
0.0
  0
SEQEND
  8
0
  6
CONTINUOUS
  0
POLYLINE
  8
0
  6
CONTINUOUS
 66
     1
 10
0.0
 20
0.0
 30
0.0
  0
VERTEX
  8
0
  6
CONTINUOUS
 10
176.113359
 20
681.745065
 30
0.0
  0
VERTEX
  8
0
  6
CONTINUOUS
 10
175.863359
 20
681.7203
 30
0.0
  0
VERTEX
  8
0
  6
CONTINUOUS
 10
175.759806
 20
681.949189
 30
0.0
  0
SEQEND
  8
0
  6
CONTINUOUS
  0
POLYLINE
  8
0
  6
CONTINUOUS
 66
     1
 10
0.0
 20
0.0
 30
0.0
  0
VERTEX
  8
0
  6
CONTINUOUS
 10
176.113359
 20
681.745065
 30
0.0
  0
VERTEX
  8
0
  6
CONTINUOUS
 10
176.099903
 20
681.674719
 30
0.0
  0
VERTEX
  8
0
  6
CONTINUOUS
 10
176.061582
 20
681.63062
 30
0.0
  0
SEQEND
  8
0
  6
CONTINUOUS
  0
POLYLINE
  8
0
  6
CONTINUOUS
 66
     1
 10
0.0
 20
0.0
 30
0.0
  0
VERTEX
  8
0
  6
CONTINUOUS
 10
175.561582
 20
681.605856
 30
0.0
  0
VERTEX
  8
0
  6
CONTINUOUS
 10
175.446621
 20
681.738151
 30
0.0
  0
VERTEX
  8
0
  6
CONTINUOUS
 10
175.406252
 20
681.949189
 30
0.0
  0
SEQEND
  8
0
  6
CONTINUOUS
  0
POLYLINE
  8
0
  6
CONTINUOUS
 66
     1
 10
0.0
 20
0.0
 30
0.0
  0
VERTEX
  8
0
  6
CONTINUOUS
 10
173.585528
 20
682.006009
 30
0.0
  0
VERTEX
  8
0
  6
CONTINUOUS
 10
173.24137
 20
681.984129
 30
0.0
  0
VERTEX
  8
0
  6
CONTINUOUS
 10
173.060426
 20
682.306579
 30
0.0
  0
SEQEND
  8
0
  6
CONTINUOUS
  0
POLYLINE
  8
0
  6
CONTINUOUS
 66
     1
 10
0.0
 20
0.0
 30
0.0
  0
VERTEX
  8
0
  6
CONTINUOUS
 10
175.706699
 20
678.88589
 30
0.0
  0
VERTEX
  8
0
  6
CONTINUOUS
 10
175.701735
 20
678.795372
 30
0.0
  0
VERTEX
  8
0
  6
CONTINUOUS
 10
175.671008
 20
678.703301
 30
0.0
  0
VERTEX
  8
0
  6
CONTINUOUS
 10
175.620252
 20
678.622158
 30
0.0
  0
VERTEX
  8
0
  6
CONTINUOUS
 10
175.555285
 20
678.565122
 30
0.0
  0
SEQEND
  8
0
  6
CONTINUOUS
  0
POLYLINE
  8
0
  6
CONTINUOUS
 66
     1
 10
0.0
 20
0.0
 30
0.0
  0
VERTEX
  8
0
  6
CONTINUOUS
 10
177.174073
 20
678.038701
 30
0.0
  0
VERTEX
  8
0
  6
CONTINUOUS
 10
176.544553
 20
678.402155
 30
0.0
  0
VERTEX
  8
0
  6
CONTINUOUS
 10
175.706699
 20
678.88589
 30
0.0
  0
SEQEND
  8
0
  6
CONTINUOUS
  0
POLYLINE
  8
0
  6
CONTINUOUS
 66
     1
 10
0.0
 20
0.0
 30
0.0
  0
VERTEX
  8
0
  6
CONTINUOUS
 10
177.174073
 20
682.272903
 30
0.0
  0
VERTEX
  8
0
  6
CONTINUOUS
 10
177.174073
 20
680.092506
 30
0.0
  0
VERTEX
  8
0
  6
CONTINUOUS
 10
177.174073
 20
678.038701
 30
0.0
  0
SEQEND
  8
0
  6
CONTINUOUS
  0
POLYLINE
  8
0
  6
CONTINUOUS
 66
     1
 10
0.0
 20
0.0
 30
0.0
  0
VERTEX
  8
0
  6
CONTINUOUS
 10
175.031252
 20
681.912042
 30
0.0
  0
VERTEX
  8
0
  6
CONTINUOUS
 10
174.916291
 20
682.044337
 30
0.0
  0
VERTEX
  8
0
  6
CONTINUOUS
 10
174.875922
 20
682.255375
 30
0.0
  0
SEQEND
  8
0
  6
CONTINUOUS
  0
POLYLINE
  8
0
  6
CONTINUOUS
 66
     1
 10
0.0
 20
0.0
 30
0.0
  0
VERTEX
  8
0
  6
CONTINUOUS
 10
175.759806
 20
681.949189
 30
0.0
  0
VERTEX
  8
0
  6
CONTINUOUS
 10
175.647734
 20
681.911831
 30
0.0
  0
VERTEX
  8
0
  6
CONTINUOUS
 10
175.518324
 20
681.911831
 30
0.0
  0
VERTEX
  8
0
  6
CONTINUOUS
 10
175.406252
 20
681.949189
 30
0.0
  0
SEQEND
  8
0
  6
CONTINUOUS
  0
POLYLINE
  8
0
  6
CONTINUOUS
 66
     1
 10
0.0
 20
0.0
 30
0.0
  0
VERTEX
  8
0
  6
CONTINUOUS
 10
175.406252
 20
686.8517
 30
0.0
  0
VERTEX
  8
0
  6
CONTINUOUS
 10
175.460211
 20
687.02465
 30
0.0
  0
VERTEX
  8
0
  6
CONTINUOUS
 10
175.586114
 20
687.156074
 30
0.0
  0
SEQEND
  8
0
  6
CONTINUOUS
  0
POLYLINE
  8
0
  6
CONTINUOUS
 66
     1
 10
0.0
 20
0.0
 30
0.0
  0
VERTEX
  8
0
  6
CONTINUOUS
 10
175.759806
 20
686.8517
 30
0.0
  0
VERTEX
  8
0
  6
CONTINUOUS
 10
175.647734
 20
686.814343
 30
0.0
  0
VERTEX
  8
0
  6
CONTINUOUS
 10
175.518324
 20
686.814343
 30
0.0
  0
VERTEX
  8
0
  6
CONTINUOUS
 10
175.406252
 20
686.8517
 30
0.0
  0
SEQEND
  8
0
  6
CONTINUOUS
  0
POLYLINE
  8
0
  6
CONTINUOUS
 66
     1
 10
0.0
 20
0.0
 30
0.0
  0
VERTEX
  8
0
  6
CONTINUOUS
 10
174.168816
 20
688.002918
 30
0.0
  0
VERTEX
  8
0
  6
CONTINUOUS
 10
174.043816
 20
687.870954
 30
0.0
  0
VERTEX
  8
0
  6
CONTINUOUS
 10
173.992039
 20
687.696701
 30
0.0
  0
SEQEND
  8
0
  6
CONTINUOUS
  0
POLYLINE
  8
0
  6
CONTINUOUS
 66
     1
 10
0.0
 20
0.0
 30
0.0
  0
VERTEX
  8
0
  6
CONTINUOUS
 10
181.189909
 20
680.726674
 30
0.0
  0
VERTEX
  8
0
  6
CONTINUOUS
 10
181.189909
 20
681.143033
 30
0.0
  0
VERTEX
  8
0
  6
CONTINUOUS
 10
181.189909
 20
681.695467
 30
0.0
  0
SEQEND
  8
0
  6
CONTINUOUS
  0
POLYLINE
  8
0
  6
CONTINUOUS
 66
     1
 10
0.0
 20
0.0
 30
0.0
  0
VERTEX
  8
0
  6
CONTINUOUS
 10
181.189909
 20
674.466147
 30
0.0
  0
VERTEX
  8
0
  6
CONTINUOUS
 10
181.189909
 20
672.377737
 30
0.0
  0
SEQEND
  8
0
  6
CONTINUOUS
  0
POLYLINE
  8
0
  6
CONTINUOUS
 66
     1
 10
0.0
 20
0.0
 30
0.0
  0
VERTEX
  8
0
  6
CONTINUOUS
 10
180.229297
 20
692.163417
 30
0.0
  0
VERTEX
  8
0
  6
CONTINUOUS
 10
180.744994
 20
691.86568
 30
0.0
  0
VERTEX
  8
0
  6
CONTINUOUS
 10
180.762666
 20
691.855476
 30
0.0
  0
SEQEND
  8
0
  6
CONTINUOUS
  0
POLYLINE
  8
0
  6
CONTINUOUS
 66
     1
 10
0.0
 20
0.0
 30
0.0
  0
VERTEX
  8
0
  6
CONTINUOUS
 10
181.113081
 20
674.510524
 30
0.0
  0
VERTEX
  8
0
  6
CONTINUOUS
 10
181.113081
 20
672.33338
 30
0.0
  0
SEQEND
  8
0
  6
CONTINUOUS
  0
POLYLINE
  8
0
  6
CONTINUOUS
 66
     1
 10
0.0
 20
0.0
 30
0.0
  0
VERTEX
  8
0
  6
CONTINUOUS
 10
180.739218
 20
691.78505
 30
0.0
  0
VERTEX
  8
0
  6
CONTINUOUS
 10
180.762666
 20
691.855476
 30
0.0
  0
SEQEND
  8
0
  6
CONTINUOUS
  0
POLYLINE
  8
0
  6
CONTINUOUS
 66
     1
 10
0.0
 20
0.0
 30
0.0
  0
VERTEX
  8
0
  6
CONTINUOUS
 10
175.586114
 20
687.156074
 30
0.0
  0
VERTEX
  8
0
  6
CONTINUOUS
 10
175.709115
 20
687.024039
 30
0.0
  0
VERTEX
  8
0
  6
CONTINUOUS
 10
175.759806
 20
686.8517
 30
0.0
  0
SEQEND
  8
0
  6
CONTINUOUS
  0
POLYLINE
  8
0
  6
CONTINUOUS
 66
     1
 10
0.0
 20
0.0
 30
0.0
  0
VERTEX
  8
0
  6
CONTINUOUS
 10
175.618438
 20
676.936462
 30
0.0
  0
VERTEX
  8
0
  6
CONTINUOUS
 10
175.714614
 20
676.878689
 30
0.0
  0
VERTEX
  8
0
  6
CONTINUOUS
 10
175.812303
 20
676.820028
 30
0.0
  0
VERTEX
  8
0
  6
CONTINUOUS
 10
175.898641
 20
676.77092
 30
0.0
  0
VERTEX
  8
0
  6
CONTINUOUS
 10
175.968879
 20
676.734134
 30
0.0
  0
SEQEND
  8
0
  6
CONTINUOUS
  0
POLYLINE
  8
0
  6
CONTINUOUS
 66
     1
 10
0.0
 20
0.0
 30
0.0
  0
VERTEX
  8
0
  6
CONTINUOUS
 10
174.895849
 20
677.153056
 30
0.0
  0
VERTEX
  8
0
  6
CONTINUOUS
 10
174.844274
 20
677.324884
 30
0.0
  0
VERTEX
  8
0
  6
CONTINUOUS
 10
174.719126
 20
677.45568
 30
0.0
  0
SEQEND
  8
0
  6
CONTINUOUS
  0
POLYLINE
  8
0
  6
CONTINUOUS
 66
     1
 10
0.0
 20
0.0
 30
0.0
  0
VERTEX
  8
0
  6
CONTINUOUS
 10
174.843158
 20
676.91374
 30
0.0
  0
VERTEX
  8
0
  6
CONTINUOUS
 10
174.882155
 20
676.958225
 30
0.0
  0
VERTEX
  8
0
  6
CONTINUOUS
 10
174.895849
 20
677.028713
 30
0.0
  0
SEQEND
  8
0
  6
CONTINUOUS
  0
POLYLINE
  8
0
  6
CONTINUOUS
 66
     1
 10
0.0
 20
0.0
 30
0.0
  0
VERTEX
  8
0
  6
CONTINUOUS
 10
174.598651
 20
676.772574
 30
0.0
  0
VERTEX
  8
0
  6
CONTINUOUS
 10
174.579625
 20
676.783559
 30
0.0
  0
VERTEX
  8
0
  6
CONTINUOUS
 10
174.525428
 20
676.81485
 30
0.0
  0
SEQEND
  8
0
  6
CONTINUOUS
  0
POLYLINE
  8
0
  6
CONTINUOUS
 66
     1
 10
0.0
 20
0.0
 30
0.0
  0
VERTEX
  8
0
  6
CONTINUOUS
 10
177.79133
 20
672.34428
 30
0.0
  0
VERTEX
  8
0
  6
CONTINUOUS
 10
177.249048
 20
672.635882
 30
0.0
  0
VERTEX
  8
0
  6
CONTINUOUS
 10
173.565007
 20
674.616905
 30
0.0
  0
SEQEND
  8
0
  6
CONTINUOUS
  0
POLYLINE
  8
0
  6
CONTINUOUS
 66
     1
 10
0.0
 20
0.0
 30
0.0
  0
VERTEX
  8
0
  6
CONTINUOUS
 10
180.458796
 20
691.62273
 30
0.0
  0
VERTEX
  8
0
  6
CONTINUOUS
 10
179.913358
 20
691.937639
 30
0.0
  0
SEQEND
  8
0
  6
CONTINUOUS
  0
POLYLINE
  8
0
  6
CONTINUOUS
 66
     1
 10
0.0
 20
0.0
 30
0.0
  0
VERTEX
  8
0
  6
CONTINUOUS
 10
180.76264
 20
674.366146
 30
0.0
  0
VERTEX
  8
0
  6
CONTINUOUS
 10
180.76264
 20
672.202337
 30
0.0
  0
SEQEND
  8
0
  6
CONTINUOUS
  0
POLYLINE
  8
0
  6
CONTINUOUS
 66
     1
 10
0.0
 20
0.0
 30
0.0
  0
VERTEX
  8
0
  6
CONTINUOUS
 10
173.565007
 20
674.616905
 30
0.0
  0
VERTEX
  8
0
  6
CONTINUOUS
 10
173.579657
 20
674.54826
 30
0.0
  0
VERTEX
  8
0
  6
CONTINUOUS
 10
173.618705
 20
674.505747
 30
0.0
  0
VERTEX
  8
0
  6
CONTINUOUS
 10
173.62108
 20
674.504423
 30
0.0
  0
SEQEND
  8
0
  6
CONTINUOUS
  0
POLYLINE
  8
0
  6
CONTINUOUS
 66
     1
 10
0.0
 20
0.0
 30
0.0
  0
VERTEX
  8
0
  6
CONTINUOUS
 10
174.098158
 20
675.485673
 30
0.0
  0
VERTEX
  8
0
  6
CONTINUOUS
 10
174.274004
 20
675.506189
 30
0.0
  0
VERTEX
  8
0
  6
CONTINUOUS
 10
174.448599
 20
675.691532
 30
0.0
  0
SEQEND
  8
0
  6
CONTINUOUS
  0
POLYLINE
  8
0
  6
CONTINUOUS
 66
     1
 10
0.0
 20
0.0
 30
0.0
  0
VERTEX
  8
0
  6
CONTINUOUS
 10
174.598651
 20
675.693613
 30
0.0
  0
VERTEX
  8
0
  6
CONTINUOUS
 10
174.579625
 20
675.704597
 30
0.0
  0
VERTEX
  8
0
  6
CONTINUOUS
 10
174.525428
 20
675.735888
 30
0.0
  0
SEQEND
  8
0
  6
CONTINUOUS
  0
POLYLINE
  8
0
  6
CONTINUOUS
 66
     1
 10
0.0
 20
0.0
 30
0.0
  0
VERTEX
  8
0
  6
CONTINUOUS
 10
178.241428
 20
677.957478
 30
0.0
  0
VERTEX
  8
0
  6
CONTINUOUS
 10
178.227734
 20
677.886989
 30
0.0
  0
VERTEX
  8
0
  6
CONTINUOUS
 10
178.188736
 20
677.842505
 30
0.0
  0
SEQEND
  8
0
  6
CONTINUOUS
  0
POLYLINE
  8
0
  6
CONTINUOUS
 66
     1
 10
0.0
 20
0.0
 30
0.0
  0
VERTEX
  8
0
  6
CONTINUOUS
 10
175.618438
 20
676.439562
 30
0.0
  0
VERTEX
  8
0
  6
CONTINUOUS
 10
175.794284
 20
676.460078
 30
0.0
  0
VERTEX
  8
0
  6
CONTINUOUS
 10
175.968879
 20
676.645421
 30
0.0
  0
SEQEND
  8
0
  6
CONTINUOUS
  0
POLYLINE
  8
0
  6
CONTINUOUS
 66
     1
 10
0.0
 20
0.0
 30
0.0
  0
VERTEX
  8
0
  6
CONTINUOUS
 10
180.762666
 20
691.855476
 30
0.0
  0
VERTEX
  8
0
  6
CONTINUOUS
 10
180.808375
 20
691.824523
 30
0.0
  0
SEQEND
  8
0
  6
CONTINUOUS
  0
POLYLINE
  8
0
  6
CONTINUOUS
 66
     1
 10
0.0
 20
0.0
 30
0.0
  0
VERTEX
  8
0
  6
CONTINUOUS
 10
180.845558
 20
691.903334
 30
0.0
  0
VERTEX
  8
0
  6
CONTINUOUS
 10
180.842223
 20
691.901409
 30
0.0
  0
VERTEX
  8
0
  6
CONTINUOUS
 10
180.804112
 20
691.879405
 30
0.0
  0
VERTEX
  8
0
  6
CONTINUOUS
 10
180.766001
 20
691.857402
 30
0.0
  0
VERTEX
  8
0
  6
CONTINUOUS
 10
180.762666
 20
691.855476
 30
0.0
  0
SEQEND
  8
0
  6
CONTINUOUS
  0
POLYLINE
  8
0
  6
CONTINUOUS
 66
     1
 10
0.0
 20
0.0
 30
0.0
  0
VERTEX
  8
0
  6
CONTINUOUS
 10
180.890839
 20
691.872135
 30
0.0
  0
VERTEX
  8
0
  6
CONTINUOUS
 10
180.845558
 20
691.903334
 30
0.0
  0
SEQEND
  8
0
  6
CONTINUOUS
  0
POLYLINE
  8
0
  6
CONTINUOUS
 66
     1
 10
0.0
 20
0.0
 30
0.0
  0
VERTEX
  8
0
  6
CONTINUOUS
 10
180.330489
 20
692.221841
 30
0.0
  0
VERTEX
  8
0
  6
CONTINUOUS
 10
180.828492
 20
691.913887
 30
0.0
  0
VERTEX
  8
0
  6
CONTINUOUS
 10
180.845558
 20
691.903334
 30
0.0
  0
SEQEND
  8
0
  6
CONTINUOUS
  0
POLYLINE
  8
0
  6
CONTINUOUS
 66
     1
 10
0.0
 20
0.0
 30
0.0
  0
VERTEX
  8
0
  6
CONTINUOUS
 10
180.845558
 20
691.903334
 30
0.0
  0
VERTEX
  8
0
  6
CONTINUOUS
 10
180.942611
 20
691.902133
 30
0.0
  0
SEQEND
  8
0
  6
CONTINUOUS
  0
POLYLINE
  8
0
  6
CONTINUOUS
 66
     1
 10
0.0
 20
0.0
 30
0.0
  0
VERTEX
  8
0
  6
CONTINUOUS
 10
172.903608
 20
687.024144
 30
0.0
  0
VERTEX
  8
0
  6
CONTINUOUS
 10
172.955025
 20
687.281599
 30
0.0
  0
VERTEX
  8
0
  6
CONTINUOUS
 10
173.09619
 20
687.532905
 30
0.0
  0
SEQEND
  8
0
  6
CONTINUOUS
  0
POLYLINE
  8
0
  6
CONTINUOUS
 66
     1
 10
0.0
 20
0.0
 30
0.0
  0
VERTEX
  8
0
  6
CONTINUOUS
 10
177.174073
 20
678.038701
 30
0.0
  0
VERTEX
  8
0
  6
CONTINUOUS
 10
177.119174
 20
677.866304
 30
0.0
  0
SEQEND
  8
0
  6
CONTINUOUS
  0
POLYLINE
  8
0
  6
CONTINUOUS
 66
     1
 10
0.0
 20
0.0
 30
0.0
  0
VERTEX
  8
0
  6
CONTINUOUS
 10
177.349887
 20
678.000298
 30
0.0
  0
VERTEX
  8
0
  6
CONTINUOUS
 10
177.174073
 20
678.038701
 30
0.0
  0
SEQEND
  8
0
  6
CONTINUOUS
  0
POLYLINE
  8
0
  6
CONTINUOUS
 66
     1
 10
0.0
 20
0.0
 30
0.0
  0
VERTEX
  8
0
  6
CONTINUOUS
 10
177.284087
 20
677.771866
 30
0.0
  0
VERTEX
  8
0
  6
CONTINUOUS
 10
177.349887
 20
678.000298
 30
0.0
  0
SEQEND
  8
0
  6
CONTINUOUS
  0
POLYLINE
  8
0
  6
CONTINUOUS
 66
     1
 10
0.0
 20
0.0
 30
0.0
  0
VERTEX
  8
0
  6
CONTINUOUS
 10
177.119174
 20
677.866304
 30
0.0
  0
VERTEX
  8
0
  6
CONTINUOUS
 10
177.284087
 20
677.771866
 30
0.0
  0
SEQEND
  8
0
  6
CONTINUOUS
  0
POLYLINE
  8
0
  6
CONTINUOUS
 66
     1
 10
0.0
 20
0.0
 30
0.0
  0
VERTEX
  8
0
  6
CONTINUOUS
 10
165.80044
 20
685.737927
 30
0.0
  0
VERTEX
  8
0
  6
CONTINUOUS
 10
166.312067
 20
686.449141
 30
0.0
  0
VERTEX
  8
0
  6
CONTINUOUS
 10
166.827727
 20
686.877582
 30
0.0
  0
SEQEND
  8
0
  6
CONTINUOUS
  0
POLYLINE
  8
0
  6
CONTINUOUS
 66
     1
 10
0.0
 20
0.0
 30
0.0
  0
VERTEX
  8
0
  6
CONTINUOUS
 10
165.309982
 20
686.022805
 30
0.0
  0
VERTEX
  8
0
  6
CONTINUOUS
 10
165.80044
 20
685.737927
 30
0.0
  0
SEQEND
  8
0
  6
CONTINUOUS
  0
POLYLINE
  8
0
  6
CONTINUOUS
 66
     1
 10
0.0
 20
0.0
 30
0.0
  0
VERTEX
  8
0
  6
CONTINUOUS
 10
165.80044
 20
685.737927
 30
0.0
  0
VERTEX
  8
0
  6
CONTINUOUS
 10
165.441667
 20
684.939535
 30
0.0
  0
VERTEX
  8
0
  6
CONTINUOUS
 10
165.328597
 20
684.281011
 30
0.0
  0
SEQEND
  8
0
  6
CONTINUOUS
  0
POLYLINE
  8
0
  6
CONTINUOUS
 66
     1
 10
0.0
 20
0.0
 30
0.0
  0
VERTEX
  8
0
  6
CONTINUOUS
 10
165.80044
 20
685.737927
 30
0.0
  0
VERTEX
  8
0
  6
CONTINUOUS
 10
166.199231
 20
685.509397
 30
0.0
  0
SEQEND
  8
0
  6
CONTINUOUS
  0
POLYLINE
  8
0
  6
CONTINUOUS
 66
     1
 10
0.0
 20
0.0
 30
0.0
  0
VERTEX
  8
0
  6
CONTINUOUS
 10
183.991755
 20
696.2424
 30
0.0
  0
VERTEX
  8
0
  6
CONTINUOUS
 10
184.34462
 20
695.855351
 30
0.0
  0
VERTEX
  8
0
  6
CONTINUOUS
 10
184.458194
 20
695.325491
 30
0.0
  0
SEQEND
  8
0
  6
CONTINUOUS
  0
POLYLINE
  8
0
  6
CONTINUOUS
 66
     1
 10
0.0
 20
0.0
 30
0.0
  0
VERTEX
  8
0
  6
CONTINUOUS
 10
183.755399
 20
696.672272
 30
0.0
  0
VERTEX
  8
0
  6
CONTINUOUS
 10
183.991755
 20
696.2424
 30
0.0
  0
SEQEND
  8
0
  6
CONTINUOUS
  0
POLYLINE
  8
0
  6
CONTINUOUS
 66
     1
 10
0.0
 20
0.0
 30
0.0
  0
VERTEX
  8
0
  6
CONTINUOUS
 10
183.991755
 20
696.2424
 30
0.0
  0
VERTEX
  8
0
  6
CONTINUOUS
 10
183.472914
 20
696.357123
 30
0.0
  0
VERTEX
  8
0
  6
CONTINUOUS
 10
182.959064
 20
696.191014
 30
0.0
  0
SEQEND
  8
0
  6
CONTINUOUS
  0
POLYLINE
  8
0
  6
CONTINUOUS
 66
     1
 10
0.0
 20
0.0
 30
0.0
  0
VERTEX
  8
0
  6
CONTINUOUS
 10
183.991755
 20
696.2424
 30
0.0
  0
VERTEX
  8
0
  6
CONTINUOUS
 10
183.906167
 20
695.732502
 30
0.0
  0
SEQEND
  8
0
  6
CONTINUOUS
  0
POLYLINE
  8
0
  6
CONTINUOUS
 66
     1
 10
0.0
 20
0.0
 30
0.0
  0
VERTEX
  8
0
  6
CONTINUOUS
 10
166.199231
 20
658.531216
 30
0.0
  0
VERTEX
  8
0
  6
CONTINUOUS
 10
165.801923
 20
658.201289
 30
0.0
  0
SEQEND
  8
0
  6
CONTINUOUS
  0
POLYLINE
  8
0
  6
CONTINUOUS
 66
     1
 10
0.0
 20
0.0
 30
0.0
  0
VERTEX
  8
0
  6
CONTINUOUS
 10
165.328597
 20
659.122176
 30
0.0
  0
VERTEX
  8
0
  6
CONTINUOUS
 10
165.441807
 20
658.592525
 30
0.0
  0
VERTEX
  8
0
  6
CONTINUOUS
 10
165.801923
 20
658.201289
 30
0.0
  0
SEQEND
  8
0
  6
CONTINUOUS
  0
POLYLINE
  8
0
  6
CONTINUOUS
 66
     1
 10
0.0
 20
0.0
 30
0.0
  0
VERTEX
  8
0
  6
CONTINUOUS
 10
165.309982
 20
658.1919
 30
0.0
  0
VERTEX
  8
0
  6
CONTINUOUS
 10
165.801923
 20
658.201289
 30
0.0
  0
SEQEND
  8
0
  6
CONTINUOUS
  0
POLYLINE
  8
0
  6
CONTINUOUS
 66
     1
 10
0.0
 20
0.0
 30
0.0
  0
VERTEX
  8
0
  6
CONTINUOUS
 10
165.801923
 20
658.201289
 30
0.0
  0
VERTEX
  8
0
  6
CONTINUOUS
 10
166.313964
 20
658.090493
 30
0.0
  0
VERTEX
  8
0
  6
CONTINUOUS
 10
166.827727
 20
658.256652
 30
0.0
  0
SEQEND
  8
0
  6
CONTINUOUS
  0
POLYLINE
  8
0
  6
CONTINUOUS
 66
     1
 10
0.0
 20
0.0
 30
0.0
  0
VERTEX
  8
0
  6
CONTINUOUS
 10
182.959064
 20
667.570084
 30
0.0
  0
VERTEX
  8
0
  6
CONTINUOUS
 10
182.960445
 20
667.570889
 30
0.0
  0
SEQEND
  8
0
  6
CONTINUOUS
  0
POLYLINE
  8
0
  6
CONTINUOUS
 66
     1
 10
0.0
 20
0.0
 30
0.0
  0
VERTEX
  8
0
  6
CONTINUOUS
 10
184.458194
 20
670.166655
 30
0.0
  0
VERTEX
  8
0
  6
CONTINUOUS
 10
184.458188
 20
670.165052
 30
0.0
  0
SEQEND
  8
0
  6
CONTINUOUS
  0
POLYLINE
  8
0
  6
CONTINUOUS
 66
     1
 10
0.0
 20
0.0
 30
0.0
  0
VERTEX
  8
0
  6
CONTINUOUS
 10
184.001693
 20
668.701093
 30
0.0
  0
VERTEX
  8
0
  6
CONTINUOUS
 10
183.906167
 20
668.754321
 30
0.0
  0
SEQEND
  8
0
  6
CONTINUOUS
  0
POLYLINE
  8
0
  6
CONTINUOUS
 66
     1
 10
0.0
 20
0.0
 30
0.0
  0
VERTEX
  8
0
  6
CONTINUOUS
 10
166.461329
 20
687.276769
 30
0.0
  0
VERTEX
  8
0
  6
CONTINUOUS
 10
165.838951
 20
686.753949
 30
0.0
  0
VERTEX
  8
0
  6
CONTINUOUS
 10
165.309982
 20
686.022805
 30
0.0
  0
SEQEND
  8
0
  6
CONTINUOUS
  0
POLYLINE
  8
0
  6
CONTINUOUS
 66
     1
 10
0.0
 20
0.0
 30
0.0
  0
VERTEX
  8
0
  6
CONTINUOUS
 10
165.309982
 20
686.022805
 30
0.0
  0
VERTEX
  8
0
  6
CONTINUOUS
 10
164.941278
 20
685.199134
 30
0.0
  0
VERTEX
  8
0
  6
CONTINUOUS
 10
164.799691
 20
684.398728
 30
0.0
  0
SEQEND
  8
0
  6
CONTINUOUS
  0
POLYLINE
  8
0
  6
CONTINUOUS
 66
     1
 10
0.0
 20
0.0
 30
0.0
  0
VERTEX
  8
0
  6
CONTINUOUS
 10
183.755399
 20
696.672272
 30
0.0
  0
VERTEX
  8
0
  6
CONTINUOUS
 10
183.766633
 20
696.665673
 30
0.0
  0
SEQEND
  8
0
  6
CONTINUOUS
  0
POLYLINE
  8
0
  6
CONTINUOUS
 66
     1
 10
0.0
 20
0.0
 30
0.0
  0
VERTEX
  8
0
  6
CONTINUOUS
 10
183.755399
 20
696.672272
 30
0.0
  0
VERTEX
  8
0
  6
CONTINUOUS
 10
183.223584
 20
696.790972
 30
0.0
  0
VERTEX
  8
0
  6
CONTINUOUS
 10
182.592665
 20
696.590201
 30
0.0
  0
SEQEND
  8
0
  6
CONTINUOUS
  0
POLYLINE
  8
0
  6
CONTINUOUS
 66
     1
 10
0.0
 20
0.0
 30
0.0
  0
VERTEX
  8
0
  6
CONTINUOUS
 10
164.799691
 20
659.239893
 30
0.0
  0
VERTEX
  8
0
  6
CONTINUOUS
 10
164.941278
 20
658.593116
 30
0.0
  0
VERTEX
  8
0
  6
CONTINUOUS
 10
165.309982
 20
658.1919
 30
0.0
  0
SEQEND
  8
0
  6
CONTINUOUS
  0
POLYLINE
  8
0
  6
CONTINUOUS
 66
     1
 10
0.0
 20
0.0
 30
0.0
  0
VERTEX
  8
0
  6
CONTINUOUS
 10
165.321314
 20
658.185471
 30
0.0
  0
VERTEX
  8
0
  6
CONTINUOUS
 10
165.309982
 20
658.1919
 30
0.0
  0
SEQEND
  8
0
  6
CONTINUOUS
  0
POLYLINE
  8
0
  6
CONTINUOUS
 66
     1
 10
0.0
 20
0.0
 30
0.0
  0
VERTEX
  8
0
  6
CONTINUOUS
 10
165.328597
 20
659.122176
 30
0.0
  0
VERTEX
  8
0
  6
CONTINUOUS
 10
165.855703
 20
659.242553
 30
0.0
  0
SEQEND
  8
0
  6
CONTINUOUS
  0
POLYLINE
  8
0
  6
CONTINUOUS
 66
     1
 10
0.0
 20
0.0
 30
0.0
  0
VERTEX
  8
0
  6
CONTINUOUS
 10
164.799691
 20
659.239893
 30
0.0
  0
VERTEX
  8
0
  6
CONTINUOUS
 10
165.328597
 20
659.122176
 30
0.0
  0
SEQEND
  8
0
  6
CONTINUOUS
  0
POLYLINE
  8
0
  6
CONTINUOUS
 66
     1
 10
0.0
 20
0.0
 30
0.0
  0
VERTEX
  8
0
  6
CONTINUOUS
 10
165.328597
 20
684.281011
 30
0.0
  0
VERTEX
  8
0
  6
CONTINUOUS
 10
164.799691
 20
684.398728
 30
0.0
  0
SEQEND
  8
0
  6
CONTINUOUS
  0
POLYLINE
  8
0
  6
CONTINUOUS
 66
     1
 10
0.0
 20
0.0
 30
0.0
  0
VERTEX
  8
0
  6
CONTINUOUS
 10
165.855703
 20
684.401389
 30
0.0
  0
VERTEX
  8
0
  6
CONTINUOUS
 10
165.328597
 20
684.281011
 30
0.0
  0
SEQEND
  8
0
  6
CONTINUOUS
  0
POLYLINE
  8
0
  6
CONTINUOUS
 66
     1
 10
0.0
 20
0.0
 30
0.0
  0
VERTEX
  8
0
  6
CONTINUOUS
 10
182.959064
 20
696.191014
 30
0.0
  0
VERTEX
  8
0
  6
CONTINUOUS
 10
182.592665
 20
696.590201
 30
0.0
  0
SEQEND
  8
0
  6
CONTINUOUS
  0
POLYLINE
  8
0
  6
CONTINUOUS
 66
     1
 10
0.0
 20
0.0
 30
0.0
  0
VERTEX
  8
0
  6
CONTINUOUS
 10
183.118367
 20
695.674338
 30
0.0
  0
VERTEX
  8
0
  6
CONTINUOUS
 10
182.959064
 20
696.191014
 30
0.0
  0
SEQEND
  8
0
  6
CONTINUOUS
  0
POLYLINE
  8
0
  6
CONTINUOUS
 66
     1
 10
0.0
 20
0.0
 30
0.0
  0
VERTEX
  8
0
  6
CONTINUOUS
 10
166.827727
 20
686.877582
 30
0.0
  0
VERTEX
  8
0
  6
CONTINUOUS
 10
166.987031
 20
686.360906
 30
0.0
  0
SEQEND
  8
0
  6
CONTINUOUS
  0
POLYLINE
  8
0
  6
CONTINUOUS
 66
     1
 10
0.0
 20
0.0
 30
0.0
  0
VERTEX
  8
0
  6
CONTINUOUS
 10
166.461329
 20
687.276769
 30
0.0
  0
VERTEX
  8
0
  6
CONTINUOUS
 10
166.827727
 20
686.877582
 30
0.0
  0
SEQEND
  8
0
  6
CONTINUOUS
  0
POLYLINE
  8
0
  6
CONTINUOUS
 66
     1
 10
0.0
 20
0.0
 30
0.0
  0
VERTEX
  8
0
  6
CONTINUOUS
 10
184.458194
 20
670.166655
 30
0.0
  0
VERTEX
  8
0
  6
CONTINUOUS
 10
184.458202
 20
670.168733
 30
0.0
  0
SEQEND
  8
0
  6
CONTINUOUS
  0
POLYLINE
  8
0
  6
CONTINUOUS
 66
     1
 10
0.0
 20
0.0
 30
0.0
  0
VERTEX
  8
0
  6
CONTINUOUS
 10
184.249695
 20
669.86233
 30
0.0
  0
VERTEX
  8
0
  6
CONTINUOUS
 10
184.458194
 20
670.166655
 30
0.0
  0
SEQEND
  8
0
  6
CONTINUOUS
  0
POLYLINE
  8
0
  6
CONTINUOUS
 66
     1
 10
0.0
 20
0.0
 30
0.0
  0
VERTEX
  8
0
  6
CONTINUOUS
 10
184.458194
 20
695.325491
 30
0.0
  0
VERTEX
  8
0
  6
CONTINUOUS
 10
184.249695
 20
695.021166
 30
0.0
  0
SEQEND
  8
0
  6
CONTINUOUS
  0
POLYLINE
  8
0
  6
CONTINUOUS
 66
     1
 10
0.0
 20
0.0
 30
0.0
  0
VERTEX
  8
0
  6
CONTINUOUS
 10
184.458202
 20
695.327569
 30
0.0
  0
VERTEX
  8
0
  6
CONTINUOUS
 10
184.458194
 20
695.325491
 30
0.0
  0
SEQEND
  8
0
  6
CONTINUOUS
  0
POLYLINE
  8
0
  6
CONTINUOUS
 66
     1
 10
0.0
 20
0.0
 30
0.0
  0
VERTEX
  8
0
  6
CONTINUOUS
 10
182.959064
 20
667.570084
 30
0.0
  0
VERTEX
  8
0
  6
CONTINUOUS
 10
183.118367
 20
667.902813
 30
0.0
  0
SEQEND
  8
0
  6
CONTINUOUS
  0
POLYLINE
  8
0
  6
CONTINUOUS
 66
     1
 10
0.0
 20
0.0
 30
0.0
  0
VERTEX
  8
0
  6
CONTINUOUS
 10
182.957268
 20
667.569039
 30
0.0
  0
VERTEX
  8
0
  6
CONTINUOUS
 10
182.959064
 20
667.570084
 30
0.0
  0
SEQEND
  8
0
  6
CONTINUOUS
  0
POLYLINE
  8
0
  6
CONTINUOUS
 66
     1
 10
0.0
 20
0.0
 30
0.0
  0
VERTEX
  8
0
  6
CONTINUOUS
 10
166.827727
 20
658.256652
 30
0.0
  0
VERTEX
  8
0
  6
CONTINUOUS
 10
166.825932
 20
658.255606
 30
0.0
  0
SEQEND
  8
0
  6
CONTINUOUS
  0
POLYLINE
  8
0
  6
CONTINUOUS
 66
     1
 10
0.0
 20
0.0
 30
0.0
  0
VERTEX
  8
0
  6
CONTINUOUS
 10
166.987031
 20
658.589381
 30
0.0
  0
VERTEX
  8
0
  6
CONTINUOUS
 10
166.827727
 20
658.256652
 30
0.0
  0
SEQEND
  8
0
  6
CONTINUOUS
  0
POLYLINE
  8
0
  6
CONTINUOUS
 66
     1
 10
0.0
 20
0.0
 30
0.0
  0
VERTEX
  8
0
  6
CONTINUOUS
 10
166.213046
 20
671.342915
 30
0.0
  0
VERTEX
  8
0
  6
CONTINUOUS
 10
166.262826
 20
671.41154
 30
0.0
  0
VERTEX
  8
0
  6
CONTINUOUS
 10
166.309846
 20
671.483473
 30
0.0
  0
SEQEND
  8
0
  6
CONTINUOUS
  0
POLYLINE
  8
0
  6
CONTINUOUS
 66
     1
 10
0.0
 20
0.0
 30
0.0
  0
VERTEX
  8
0
  6
CONTINUOUS
 10
166.213234
 20
674.948014
 30
0.0
  0
VERTEX
  8
0
  6
CONTINUOUS
 10
166.262915
 20
674.824107
 30
0.0
  0
VERTEX
  8
0
  6
CONTINUOUS
 10
166.309846
 20
674.699972
 30
0.0
  0
SEQEND
  8
0
  6
CONTINUOUS
  0
POLYLINE
  8
0
  6
CONTINUOUS
 66
     1
 10
0.0
 20
0.0
 30
0.0
  0
VERTEX
  8
0
  6
CONTINUOUS
 10
166.309846
 20
674.699972
 30
0.0
  0
VERTEX
  8
0
  6
CONTINUOUS
 10
166.322235
 20
674.670189
 30
0.0
  0
VERTEX
  8
0
  6
CONTINUOUS
 10
166.336901
 20
674.642267
 30
0.0
  0
VERTEX
  8
0
  6
CONTINUOUS
 10
166.353729
 20
674.616585
 30
0.0
  0
VERTEX
  8
0
  6
CONTINUOUS
 10
166.372671
 20
674.593445
 30
0.0
  0
SEQEND
  8
0
  6
CONTINUOUS
  0
POLYLINE
  8
0
  6
CONTINUOUS
 66
     1
 10
0.0
 20
0.0
 30
0.0
  0
VERTEX
  8
0
  6
CONTINUOUS
 10
179.995815
 20
684.635816
 30
0.0
  0
VERTEX
  8
0
  6
CONTINUOUS
 10
179.955884
 20
684.679835
 30
0.0
  0
VERTEX
  8
0
  6
CONTINUOUS
 10
179.941829
 20
684.751486
 30
0.0
  0
SEQEND
  8
0
  6
CONTINUOUS
  0
POLYLINE
  8
0
  6
CONTINUOUS
 66
     1
 10
0.0
 20
0.0
 30
0.0
  0
VERTEX
  8
0
  6
CONTINUOUS
 10
179.941829
 20
682.199996
 30
0.0
  0
VERTEX
  8
0
  6
CONTINUOUS
 10
179.993594
 20
682.374202
 30
0.0
  0
VERTEX
  8
0
  6
CONTINUOUS
 10
180.118579
 20
682.506136
 30
0.0
  0
SEQEND
  8
0
  6
CONTINUOUS
  0
POLYLINE
  8
0
  6
CONTINUOUS
 66
     1
 10
0.0
 20
0.0
 30
0.0
  0
VERTEX
  8
0
  6
CONTINUOUS
 10
178.499818
 20
686.164337
 30
0.0
  0
VERTEX
  8
0
  6
CONTINUOUS
 10
178.374833
 20
686.032403
 30
0.0
  0
VERTEX
  8
0
  6
CONTINUOUS
 10
178.323068
 20
685.858197
 30
0.0
  0
SEQEND
  8
0
  6
CONTINUOUS
  0
POLYLINE
  8
0
  6
CONTINUOUS
 66
     1
 10
0.0
 20
0.0
 30
0.0
  0
VERTEX
  8
0
  6
CONTINUOUS
 10
179.533357
 20
686.698713
 30
0.0
  0
VERTEX
  8
0
  6
CONTINUOUS
 10
179.475269
 20
686.711285
 30
0.0
  0
VERTEX
  8
0
  6
CONTINUOUS
 10
179.406191
 20
686.687632
 30
0.0
  0
SEQEND
  8
0
  6
CONTINUOUS
  0
POLYLINE
  8
0
  6
CONTINUOUS
 66
     1
 10
0.0
 20
0.0
 30
0.0
  0
VERTEX
  8
0
  6
CONTINUOUS
 10
155.579177
 20
693.559583
 30
0.0
  0
VERTEX
  8
0
  6
CONTINUOUS
 10
154.951448
 20
693.038108
 30
0.0
  0
VERTEX
  8
0
  6
CONTINUOUS
 10
154.42179
 20
692.308421
 30
0.0
  0
VERTEX
  8
0
  6
CONTINUOUS
 10
154.055169
 20
691.485542
 30
0.0
  0
VERTEX
  8
0
  6
CONTINUOUS
 10
153.917539
 20
690.681542
 30
0.0
  0
SEQEND
  8
0
  6
CONTINUOUS
  0
POLYLINE
  8
0
  6
CONTINUOUS
 66
     1
 10
0.0
 20
0.0
 30
0.0
  0
VERTEX
  8
0
  6
CONTINUOUS
 10
166.461329
 20
687.276769
 30
0.0
  0
VERTEX
  8
0
  6
CONTINUOUS
 10
161.270772
 20
690.273538
 30
0.0
  0
VERTEX
  8
0
  6
CONTINUOUS
 10
155.579177
 20
693.559583
 30
0.0
  0
SEQEND
  8
0
  6
CONTINUOUS
  0
POLYLINE
  8
0
  6
CONTINUOUS
 66
     1
 10
0.0
 20
0.0
 30
0.0
  0
VERTEX
  8
0
  6
CONTINUOUS
 10
164.799691
 20
684.398728
 30
0.0
  0
VERTEX
  8
0
  6
CONTINUOUS
 10
159.609135
 20
687.395497
 30
0.0
  0
VERTEX
  8
0
  6
CONTINUOUS
 10
153.917539
 20
690.681542
 30
0.0
  0
SEQEND
  8
0
  6
CONTINUOUS
  0
POLYLINE
  8
0
  6
CONTINUOUS
 66
     1
 10
0.0
 20
0.0
 30
0.0
  0
VERTEX
  8
0
  6
CONTINUOUS
 10
164.799691
 20
659.239893
 30
0.0
  0
VERTEX
  8
0
  6
CONTINUOUS
 10
164.799691
 20
671.81931
 30
0.0
  0
VERTEX
  8
0
  6
CONTINUOUS
 10
164.799691
 20
684.398728
 30
0.0
  0
SEQEND
  8
0
  6
CONTINUOUS
  0
POLYLINE
  8
0
  6
CONTINUOUS
 66
     1
 10
0.0
 20
0.0
 30
0.0
  0
VERTEX
  8
0
  6
CONTINUOUS
 10
153.917539
 20
665.305286
 30
0.0
  0
VERTEX
  8
0
  6
CONTINUOUS
 10
159.609135
 20
662.132957
 30
0.0
  0
VERTEX
  8
0
  6
CONTINUOUS
 10
164.799691
 20
659.239893
 30
0.0
  0
SEQEND
  8
0
  6
CONTINUOUS
  0
POLYLINE
  8
0
  6
CONTINUOUS
 66
     1
 10
0.0
 20
0.0
 30
0.0
  0
VERTEX
  8
0
  6
CONTINUOUS
 10
154.433359
 20
664.2541
 30
0.0
  0
VERTEX
  8
0
  6
CONTINUOUS
 10
154.422384
 20
664.260324
 30
0.0
  0
VERTEX
  8
0
  6
CONTINUOUS
 10
154.055285
 20
664.659975
 30
0.0
  0
VERTEX
  8
0
  6
CONTINUOUS
 10
153.917539
 20
665.305286
 30
0.0
  0
SEQEND
  8
0
  6
CONTINUOUS
  0
POLYLINE
  8
0
  6
CONTINUOUS
 66
     1
 10
0.0
 20
0.0
 30
0.0
  0
VERTEX
  8
0
  6
CONTINUOUS
 10
178.146291
 20
671.977724
 30
0.0
  0
VERTEX
  8
0
  6
CONTINUOUS
 10
177.909455
 20
670.820366
 30
0.0
  0
VERTEX
  8
0
  6
CONTINUOUS
 10
177.262408
 20
669.699647
 30
0.0
  0
VERTEX
  8
0
  6
CONTINUOUS
 10
176.378524
 20
668.915862
 30
0.0
  0
SEQEND
  8
0
  6
CONTINUOUS
  0
POLYLINE
  8
0
  6
CONTINUOUS
 66
     1
 10
0.0
 20
0.0
 30
0.0
  0
VERTEX
  8
0
  6
CONTINUOUS
 10
181.063107
 20
671.008135
 30
0.0
  0
VERTEX
  8
0
  6
CONTINUOUS
 10
180.856
 20
670.311211
 30
0.0
  0
VERTEX
  8
0
  6
CONTINUOUS
 10
180.356
 20
669.78339
 30
0.0
  0
SEQEND
  8
0
  6
CONTINUOUS
  0
POLYLINE
  8
0
  6
CONTINUOUS
 66
     1
 10
0.0
 20
0.0
 30
0.0
  0
VERTEX
  8
0
  6
CONTINUOUS
 10
177.792738
 20
672.181848
 30
0.0
  0
VERTEX
  8
0
  6
CONTINUOUS
 10
177.274971
 20
670.43954
 30
0.0
  0
VERTEX
  8
0
  6
CONTINUOUS
 10
176.024971
 20
669.119986
 30
0.0
  0
SEQEND
  8
0
  6
CONTINUOUS
  0
POLYLINE
  8
0
  6
CONTINUOUS
 66
     1
 10
0.0
 20
0.0
 30
0.0
  0
VERTEX
  8
0
  6
CONTINUOUS
 10
179.914058
 20
670.957104
 30
0.0
  0
VERTEX
  8
0
  6
CONTINUOUS
 10
179.890375
 20
670.841368
 30
0.0
  0
VERTEX
  8
0
  6
CONTINUOUS
 10
179.82567
 20
670.729296
 30
0.0
  0
VERTEX
  8
0
  6
CONTINUOUS
 10
179.737281
 20
670.650917
 30
0.0
  0
SEQEND
  8
0
  6
CONTINUOUS
  0
POLYLINE
  8
0
  6
CONTINUOUS
 66
     1
 10
0.0
 20
0.0
 30
0.0
  0
VERTEX
  8
0
  6
CONTINUOUS
 10
181.664174
 20
685.291346
 30
0.0
  0
VERTEX
  8
0
  6
CONTINUOUS
 10
181.789159
 20
685.303732
 30
0.0
  0
VERTEX
  8
0
  6
CONTINUOUS
 10
181.840924
 20
685.1893
 30
0.0
  0
SEQEND
  8
0
  6
CONTINUOUS
  0
POLYLINE
  8
0
  6
CONTINUOUS
 66
     1
 10
0.0
 20
0.0
 30
0.0
  0
VERTEX
  8
0
  6
CONTINUOUS
 10
181.840924
 20
676.096289
 30
0.0
  0
VERTEX
  8
0
  6
CONTINUOUS
 10
181.789159
 20
675.922083
 30
0.0
  0
VERTEX
  8
0
  6
CONTINUOUS
 10
181.664174
 20
675.790149
 30
0.0
  0
SEQEND
  8
0
  6
CONTINUOUS
  0
POLYLINE
  8
0
  6
CONTINUOUS
 66
     1
 10
0.0
 20
0.0
 30
0.0
  0
VERTEX
  8
0
  6
CONTINUOUS
 10
180.661278
 20
675.558835
 30
0.0
  0
VERTEX
  8
0
  6
CONTINUOUS
 10
180.713044
 20
675.733042
 30
0.0
  0
VERTEX
  8
0
  6
CONTINUOUS
 10
180.838028
 20
675.864975
 30
0.0
  0
SEQEND
  8
0
  6
CONTINUOUS
  0
POLYLINE
  8
0
  6
CONTINUOUS
 66
     1
 10
0.0
 20
0.0
 30
0.0
  0
VERTEX
  8
0
  6
CONTINUOUS
 10
180.838028
 20
678.036783
 30
0.0
  0
VERTEX
  8
0
  6
CONTINUOUS
 10
180.713044
 20
678.024397
 30
0.0
  0
VERTEX
  8
0
  6
CONTINUOUS
 10
180.661278
 20
678.138829
 30
0.0
  0
SEQEND
  8
0
  6
CONTINUOUS
  0
POLYLINE
  8
0
  6
CONTINUOUS
 66
     1
 10
0.0
 20
0.0
 30
0.0
  0
VERTEX
  8
0
  6
CONTINUOUS
 10
180.661278
 20
681.784622
 30
0.0
  0
VERTEX
  8
0
  6
CONTINUOUS
 10
180.713044
 20
681.958828
 30
0.0
  0
VERTEX
  8
0
  6
CONTINUOUS
 10
180.838028
 20
682.090761
 30
0.0
  0
SEQEND
  8
0
  6
CONTINUOUS
  0
POLYLINE
  8
0
  6
CONTINUOUS
 66
     1
 10
0.0
 20
0.0
 30
0.0
  0
VERTEX
  8
0
  6
CONTINUOUS
 10
180.838028
 20
684.262569
 30
0.0
  0
VERTEX
  8
0
  6
CONTINUOUS
 10
180.713044
 20
684.250183
 30
0.0
  0
VERTEX
  8
0
  6
CONTINUOUS
 10
180.661278
 20
684.364615
 30
0.0
  0
SEQEND
  8
0
  6
CONTINUOUS
  0
POLYLINE
  8
0
  6
CONTINUOUS
 66
     1
 10
0.0
 20
0.0
 30
0.0
  0
VERTEX
  8
0
  6
CONTINUOUS
 10
180.661278
 20
684.508231
 30
0.0
  0
VERTEX
  8
0
  6
CONTINUOUS
 10
180.713044
 20
684.682437
 30
0.0
  0
VERTEX
  8
0
  6
CONTINUOUS
 10
180.838028
 20
684.81437
 30
0.0
  0
SEQEND
  8
0
  6
CONTINUOUS
  0
POLYLINE
  8
0
  6
CONTINUOUS
 66
     1
 10
0.0
 20
0.0
 30
0.0
  0
VERTEX
  8
0
  6
CONTINUOUS
 10
181.664174
 20
679.111879
 30
0.0
  0
VERTEX
  8
0
  6
CONTINUOUS
 10
181.789159
 20
679.124265
 30
0.0
  0
VERTEX
  8
0
  6
CONTINUOUS
 10
181.840924
 20
679.009832
 30
0.0
  0
SEQEND
  8
0
  6
CONTINUOUS
  0
POLYLINE
  8
0
  6
CONTINUOUS
 66
     1
 10
0.0
 20
0.0
 30
0.0
  0
VERTEX
  8
0
  6
CONTINUOUS
 10
181.840924
 20
682.275756
 30
0.0
  0
VERTEX
  8
0
  6
CONTINUOUS
 10
181.789159
 20
682.10155
 30
0.0
  0
VERTEX
  8
0
  6
CONTINUOUS
 10
181.664174
 20
681.969617
 30
0.0
  0
SEQEND
  8
0
  6
CONTINUOUS
  0
POLYLINE
  8
0
  6
CONTINUOUS
 66
     1
 10
0.0
 20
0.0
 30
0.0
  0
VERTEX
  8
0
  6
CONTINUOUS
 10
180.838028
 20
675.313174
 30
0.0
  0
VERTEX
  8
0
  6
CONTINUOUS
 10
180.713044
 20
675.300788
 30
0.0
  0
VERTEX
  8
0
  6
CONTINUOUS
 10
180.661278
 20
675.41522
 30
0.0
  0
SEQEND
  8
0
  6
CONTINUOUS
  0
POLYLINE
  8
0
  6
CONTINUOUS
 66
     1
 10
0.0
 20
0.0
 30
0.0
  0
VERTEX
  8
0
  6
CONTINUOUS
 10
178.377054
 20
676.556879
 30
0.0
  0
VERTEX
  8
0
  6
CONTINUOUS
 10
178.337123
 20
676.600898
 30
0.0
  0
VERTEX
  8
0
  6
CONTINUOUS
 10
178.323068
 20
676.672549
 30
0.0
  0
SEQEND
  8
0
  6
CONTINUOUS
  0
POLYLINE
  8
0
  6
CONTINUOUS
 66
     1
 10
0.0
 20
0.0
 30
0.0
  0
VERTEX
  8
0
  6
CONTINUOUS
 10
167.716466
 20
664.323069
 30
0.0
  0
VERTEX
  8
0
  6
CONTINUOUS
 10
167.158325
 20
664.105239
 30
0.0
  0
VERTEX
  8
0
  6
CONTINUOUS
 10
166.657284
 20
664.118519
 30
0.0
  0
SEQEND
  8
0
  6
CONTINUOUS
  0
POLYLINE
  8
0
  6
CONTINUOUS
 66
     1
 10
0.0
 20
0.0
 30
0.0
  0
VERTEX
  8
0
  6
CONTINUOUS
 10
168.07002
 20
664.118945
 30
0.0
  0
VERTEX
  8
0
  6
CONTINUOUS
 10
167.130809
 20
663.888623
 30
0.0
  0
VERTEX
  8
0
  6
CONTINUOUS
 10
166.478649
 20
664.352558
 30
0.0
  0
SEQEND
  8
0
  6
CONTINUOUS
  0
POLYLINE
  8
0
  6
CONTINUOUS
 66
     1
 10
0.0
 20
0.0
 30
0.0
  0
VERTEX
  8
0
  6
CONTINUOUS
 10
180.118579
 20
676.280349
 30
0.0
  0
VERTEX
  8
0
  6
CONTINUOUS
 10
179.993594
 20
676.148416
 30
0.0
  0
VERTEX
  8
0
  6
CONTINUOUS
 10
179.941829
 20
675.97421
 30
0.0
  0
SEQEND
  8
0
  6
CONTINUOUS
  0
POLYLINE
  8
0
  6
CONTINUOUS
 66
     1
 10
0.0
 20
0.0
 30
0.0
  0
VERTEX
  8
0
  6
CONTINUOUS
 10
179.941829
 20
678.525699
 30
0.0
  0
VERTEX
  8
0
  6
CONTINUOUS
 10
179.955884
 20
678.454049
 30
0.0
  0
VERTEX
  8
0
  6
CONTINUOUS
 10
179.995815
 20
678.41003
 30
0.0
  0
SEQEND
  8
0
  6
CONTINUOUS
  0
POLYLINE
  8
0
  6
CONTINUOUS
 66
     1
 10
0.0
 20
0.0
 30
0.0
  0
VERTEX
  8
0
  6
CONTINUOUS
 10
183.891534
 20
669.375142
 30
0.0
  0
VERTEX
  8
0
  6
CONTINUOUS
 10
183.796799
 20
668.912199
 30
0.0
  0
VERTEX
  8
0
  6
CONTINUOUS
 10
183.53798
 20
668.463911
 30
0.0
  0
VERTEX
  8
0
  6
CONTINUOUS
 10
183.184427
 20
668.150397
 30
0.0
  0
SEQEND
  8
0
  6
CONTINUOUS
  0
POLYLINE
  8
0
  6
CONTINUOUS
 66
     1
 10
0.0
 20
0.0
 30
0.0
  0
VERTEX
  8
0
  6
CONTINUOUS
 10
183.118367
 20
695.674338
 30
0.0
  0
VERTEX
  8
0
  6
CONTINUOUS
 10
183.54504
 20
695.812749
 30
0.0
  0
VERTEX
  8
0
  6
CONTINUOUS
 10
183.906167
 20
695.732502
 30
0.0
  0
SEQEND
  8
0
  6
CONTINUOUS
  0
POLYLINE
  8
0
  6
CONTINUOUS
 66
     1
 10
0.0
 20
0.0
 30
0.0
  0
VERTEX
  8
0
  6
CONTINUOUS
 10
183.906167
 20
695.732502
 30
0.0
  0
VERTEX
  8
0
  6
CONTINUOUS
 10
184.156226
 20
695.45988
 30
0.0
  0
VERTEX
  8
0
  6
CONTINUOUS
 10
184.249695
 20
695.021166
 30
0.0
  0
SEQEND
  8
0
  6
CONTINUOUS
  0
POLYLINE
  8
0
  6
CONTINUOUS
 66
     1
 10
0.0
 20
0.0
 30
0.0
  0
VERTEX
  8
0
  6
CONTINUOUS
 10
184.249695
 20
669.86233
 30
0.0
  0
VERTEX
  8
0
  6
CONTINUOUS
 10
184.249695
 20
682.441748
 30
0.0
  0
VERTEX
  8
0
  6
CONTINUOUS
 10
184.249695
 20
695.021166
 30
0.0
  0
SEQEND
  8
0
  6
CONTINUOUS
  0
POLYLINE
  8
0
  6
CONTINUOUS
 66
     1
 10
0.0
 20
0.0
 30
0.0
  0
VERTEX
  8
0
  6
CONTINUOUS
 10
184.249695
 20
669.86233
 30
0.0
  0
VERTEX
  8
0
  6
CONTINUOUS
 10
184.156226
 20
669.315686
 30
0.0
  0
VERTEX
  8
0
  6
CONTINUOUS
 10
183.906167
 20
668.754321
 30
0.0
  0
SEQEND
  8
0
  6
CONTINUOUS
  0
POLYLINE
  8
0
  6
CONTINUOUS
 66
     1
 10
0.0
 20
0.0
 30
0.0
  0
VERTEX
  8
0
  6
CONTINUOUS
 10
183.906167
 20
668.754321
 30
0.0
  0
VERTEX
  8
0
  6
CONTINUOUS
 10
183.54504
 20
668.257081
 30
0.0
  0
VERTEX
  8
0
  6
CONTINUOUS
 10
183.118367
 20
667.902813
 30
0.0
  0
SEQEND
  8
0
  6
CONTINUOUS
  0
POLYLINE
  8
0
  6
CONTINUOUS
 66
     1
 10
0.0
 20
0.0
 30
0.0
  0
VERTEX
  8
0
  6
CONTINUOUS
 10
166.987031
 20
658.589381
 30
0.0
  0
VERTEX
  8
0
  6
CONTINUOUS
 10
166.560358
 20
658.45097
 30
0.0
  0
VERTEX
  8
0
  6
CONTINUOUS
 10
166.199231
 20
658.531216
 30
0.0
  0
SEQEND
  8
0
  6
CONTINUOUS
  0
POLYLINE
  8
0
  6
CONTINUOUS
 66
     1
 10
0.0
 20
0.0
 30
0.0
  0
VERTEX
  8
0
  6
CONTINUOUS
 10
166.199231
 20
658.531216
 30
0.0
  0
VERTEX
  8
0
  6
CONTINUOUS
 10
165.949172
 20
658.803838
 30
0.0
  0
VERTEX
  8
0
  6
CONTINUOUS
 10
165.855703
 20
659.242553
 30
0.0
  0
SEQEND
  8
0
  6
CONTINUOUS
  0
POLYLINE
  8
0
  6
CONTINUOUS
 66
     1
 10
0.0
 20
0.0
 30
0.0
  0
VERTEX
  8
0
  6
CONTINUOUS
 10
165.855703
 20
659.242553
 30
0.0
  0
VERTEX
  8
0
  6
CONTINUOUS
 10
165.855703
 20
671.821971
 30
0.0
  0
VERTEX
  8
0
  6
CONTINUOUS
 10
165.855703
 20
684.401389
 30
0.0
  0
SEQEND
  8
0
  6
CONTINUOUS
  0
POLYLINE
  8
0
  6
CONTINUOUS
 66
     1
 10
0.0
 20
0.0
 30
0.0
  0
VERTEX
  8
0
  6
CONTINUOUS
 10
165.855703
 20
684.401389
 30
0.0
  0
VERTEX
  8
0
  6
CONTINUOUS
 10
165.949172
 20
684.948032
 30
0.0
  0
VERTEX
  8
0
  6
CONTINUOUS
 10
166.199231
 20
685.509397
 30
0.0
  0
SEQEND
  8
0
  6
CONTINUOUS
  0
POLYLINE
  8
0
  6
CONTINUOUS
 66
     1
 10
0.0
 20
0.0
 30
0.0
  0
VERTEX
  8
0
  6
CONTINUOUS
 10
166.199231
 20
685.509397
 30
0.0
  0
VERTEX
  8
0
  6
CONTINUOUS
 10
166.560358
 20
686.006637
 30
0.0
  0
VERTEX
  8
0
  6
CONTINUOUS
 10
166.987031
 20
686.360906
 30
0.0
  0
SEQEND
  8
0
  6
CONTINUOUS
  0
POLYLINE
  8
0
  6
CONTINUOUS
 66
     1
 10
0.0
 20
0.0
 30
0.0
  0
VERTEX
  8
0
  6
CONTINUOUS
 10
166.213864
 20
683.255583
 30
0.0
  0
VERTEX
  8
0
  6
CONTINUOUS
 10
166.420971
 20
683.952507
 30
0.0
  0
VERTEX
  8
0
  6
CONTINUOUS
 10
166.920971
 20
684.480328
 30
0.0
  0
SEQEND
  8
0
  6
CONTINUOUS
  0
POLYLINE
  8
0
  6
CONTINUOUS
 66
     1
 10
0.0
 20
0.0
 30
0.0
  0
VERTEX
  8
0
  6
CONTINUOUS
 10
166.920971
 20
658.760686
 30
0.0
  0
VERTEX
  8
0
  6
CONTINUOUS
 10
166.567418
 20
658.665952
 30
0.0
  0
VERTEX
  8
0
  6
CONTINUOUS
 10
166.308599
 20
658.815381
 30
0.0
  0
VERTEX
  8
0
  6
CONTINUOUS
 10
166.213864
 20
659.168934
 30
0.0
  0
SEQEND
  8
0
  6
CONTINUOUS
  0
POLYLINE
  8
0
  6
CONTINUOUS
 66
     1
 10
0.0
 20
0.0
 30
0.0
  0
VERTEX
  8
0
  6
CONTINUOUS
 10
183.891534
 20
669.375141
 30
0.0
  0
VERTEX
  8
0
  6
CONTINUOUS
 10
183.684427
 20
668.678218
 30
0.0
  0
VERTEX
  8
0
  6
CONTINUOUS
 10
183.184427
 20
668.150397
 30
0.0
  0
SEQEND
  8
0
  6
CONTINUOUS
  0
POLYLINE
  8
0
  6
CONTINUOUS
 66
     1
 10
0.0
 20
0.0
 30
0.0
  0
VERTEX
  8
0
  6
CONTINUOUS
 10
183.184427
 20
693.870039
 30
0.0
  0
VERTEX
  8
0
  6
CONTINUOUS
 10
183.53798
 20
693.964773
 30
0.0
  0
VERTEX
  8
0
  6
CONTINUOUS
 10
183.796799
 20
693.815344
 30
0.0
  0
VERTEX
  8
0
  6
CONTINUOUS
 10
183.891534
 20
693.461791
 30
0.0
  0
SEQEND
  8
0
  6
CONTINUOUS
  0
POLYLINE
  8
0
  6
CONTINUOUS
 66
     1
 10
0.0
 20
0.0
 30
0.0
  0
VERTEX
  8
0
  6
CONTINUOUS
 10
166.372671
 20
674.593445
 30
0.0
  0
VERTEX
  8
0
  6
CONTINUOUS
 10
166.417458
 20
674.55586
 30
0.0
  0
VERTEX
  8
0
  6
CONTINUOUS
 10
166.427079
 20
674.550292
 30
0.0
  0
SEQEND
  8
0
  6
CONTINUOUS
  0
POLYLINE
  8
0
  6
CONTINUOUS
 66
     1
 10
0.0
 20
0.0
 30
0.0
  0
VERTEX
  8
0
  6
CONTINUOUS
 10
166.372671
 20
674.593445
 30
0.0
  0
VERTEX
  8
0
  6
CONTINUOUS
 10
166.394637
 20
674.527265
 30
0.0
  0
VERTEX
  8
0
  6
CONTINUOUS
 10
166.415809
 20
674.461118
 30
0.0
  0
SEQEND
  8
0
  6
CONTINUOUS
  0
POLYLINE
  8
0
  6
CONTINUOUS
 66
     1
 10
0.0
 20
0.0
 30
0.0
  0
VERTEX
  8
0
  6
CONTINUOUS
 10
166.372671
 20
671.566881
 30
0.0
  0
VERTEX
  8
0
  6
CONTINUOUS
 10
166.353754
 20
671.544285
 30
0.0
  0
VERTEX
  8
0
  6
CONTINUOUS
 10
166.336914
 20
671.522708
 30
0.0
  0
VERTEX
  8
0
  6
CONTINUOUS
 10
166.322241
 20
671.502363
 30
0.0
  0
VERTEX
  8
0
  6
CONTINUOUS
 10
166.309846
 20
671.483473
 30
0.0
  0
SEQEND
  8
0
  6
CONTINUOUS
  0
POLYLINE
  8
0
  6
CONTINUOUS
 66
     1
 10
0.0
 20
0.0
 30
0.0
  0
VERTEX
  8
0
  6
CONTINUOUS
 10
166.572633
 20
671.739939
 30
0.0
  0
VERTEX
  8
0
  6
CONTINUOUS
 10
166.520973
 20
671.705778
 30
0.0
  0
VERTEX
  8
0
  6
CONTINUOUS
 10
166.467927
 20
671.662874
 30
0.0
  0
VERTEX
  8
0
  6
CONTINUOUS
 10
166.417474
 20
671.615269
 30
0.0
  0
VERTEX
  8
0
  6
CONTINUOUS
 10
166.372671
 20
671.566881
 30
0.0
  0
SEQEND
  8
0
  6
CONTINUOUS
  0
POLYLINE
  8
0
  6
CONTINUOUS
 66
     1
 10
0.0
 20
0.0
 30
0.0
  0
VERTEX
  8
0
  6
CONTINUOUS
 10
166.415809
 20
671.649397
 30
0.0
  0
VERTEX
  8
0
  6
CONTINUOUS
 10
166.394637
 20
671.607698
 30
0.0
  0
VERTEX
  8
0
  6
CONTINUOUS
 10
166.372671
 20
671.566881
 30
0.0
  0
SEQEND
  8
0
  6
CONTINUOUS
  0
POLYLINE
  8
0
  6
CONTINUOUS
 66
     1
 10
0.0
 20
0.0
 30
0.0
  0
VERTEX
  8
0
  6
CONTINUOUS
 10
181.593437
 20
681.928906
 30
0.0
  0
VERTEX
  8
0
  6
CONTINUOUS
 10
181.480455
 20
681.109766
 30
0.0
  0
VERTEX
  8
0
  6
CONTINUOUS
 10
181.151076
 20
680.490936
 30
0.0
  0
SEQEND
  8
0
  6
CONTINUOUS
  0
POLYLINE
  8
0
  6
CONTINUOUS
 66
     1
 10
0.0
 20
0.0
 30
0.0
  0
VERTEX
  8
0
  6
CONTINUOUS
 10
181.840083
 20
682.703708
 30
0.0
  0
VERTEX
  8
0
  6
CONTINUOUS
 10
181.861541
 20
680.952378
 30
0.0
  0
VERTEX
  8
0
  6
CONTINUOUS
 10
181.149639
 20
679.830819
 30
0.0
  0
SEQEND
  8
0
  6
CONTINUOUS
  0
POLYLINE
  8
0
  6
CONTINUOUS
 66
     1
 10
0.0
 20
0.0
 30
0.0
  0
VERTEX
  8
0
  6
CONTINUOUS
 10
181.063107
 20
686.113321
 30
0.0
  0
VERTEX
  8
0
  6
CONTINUOUS
 10
181.318101
 20
685.789833
 30
0.0
  0
VERTEX
  8
0
  6
CONTINUOUS
 10
181.556771
 20
685.44755
 30
0.0
  0
SEQEND
  8
0
  6
CONTINUOUS
  0
POLYLINE
  8
0
  6
CONTINUOUS
 66
     1
 10
0.0
 20
0.0
 30
0.0
  0
VERTEX
  8
0
  6
CONTINUOUS
 10
181.840782
 20
684.976459
 30
0.0
  0
VERTEX
  8
0
  6
CONTINUOUS
 10
182.653718
 20
682.078005
 30
0.0
  0
VERTEX
  8
0
  6
CONTINUOUS
 10
181.774377
 20
680.187627
 30
0.0
  0
SEQEND
  8
0
  6
CONTINUOUS
  0
POLYLINE
  8
0
  6
CONTINUOUS
 66
     1
 10
0.0
 20
0.0
 30
0.0
  0
VERTEX
  8
0
  6
CONTINUOUS
 10
178.137362
 20
690.956893
 30
0.0
  0
VERTEX
  8
0
  6
CONTINUOUS
 10
178.144058
 20
690.858437
 30
0.0
  0
VERTEX
  8
0
  6
CONTINUOUS
 10
178.146291
 20
690.757146
 30
0.0
  0
SEQEND
  8
0
  6
CONTINUOUS
  0
POLYLINE
  8
0
  6
CONTINUOUS
 66
     1
 10
0.0
 20
0.0
 30
0.0
  0
VERTEX
  8
0
  6
CONTINUOUS
 10
168.560263
 20
677.173998
 30
0.0
  0
VERTEX
  8
0
  6
CONTINUOUS
 10
168.685247
 20
677.305931
 30
0.0
  0
VERTEX
  8
0
  6
CONTINUOUS
 10
168.737013
 20
677.480138
 30
0.0
  0
SEQEND
  8
0
  6
CONTINUOUS
  0
POLYLINE
  8
0
  6
CONTINUOUS
 66
     1
 10
0.0
 20
0.0
 30
0.0
  0
VERTEX
  8
0
  6
CONTINUOUS
 10
168.737013
 20
674.900144
 30
0.0
  0
VERTEX
  8
0
  6
CONTINUOUS
 10
168.685247
 20
675.014576
 30
0.0
  0
VERTEX
  8
0
  6
CONTINUOUS
 10
168.560263
 20
675.00219
 30
0.0
  0
SEQEND
  8
0
  6
CONTINUOUS
  0
POLYLINE
  8
0
  6
CONTINUOUS
 66
     1
 10
0.0
 20
0.0
 30
0.0
  0
VERTEX
  8
0
  6
CONTINUOUS
 10
168.560263
 20
670.948212
 30
0.0
  0
VERTEX
  8
0
  6
CONTINUOUS
 10
168.685247
 20
671.080145
 30
0.0
  0
VERTEX
  8
0
  6
CONTINUOUS
 10
168.737013
 20
671.254351
 30
0.0
  0
SEQEND
  8
0
  6
CONTINUOUS
  0
POLYLINE
  8
0
  6
CONTINUOUS
 66
     1
 10
0.0
 20
0.0
 30
0.0
  0
VERTEX
  8
0
  6
CONTINUOUS
 10
168.737013
 20
668.674358
 30
0.0
  0
VERTEX
  8
0
  6
CONTINUOUS
 10
168.685247
 20
668.78879
 30
0.0
  0
VERTEX
  8
0
  6
CONTINUOUS
 10
168.560263
 20
668.776404
 30
0.0
  0
SEQEND
  8
0
  6
CONTINUOUS
  0
POLYLINE
  8
0
  6
CONTINUOUS
 66
     1
 10
0.0
 20
0.0
 30
0.0
  0
VERTEX
  8
0
  6
CONTINUOUS
 10
168.560263
 20
668.224603
 30
0.0
  0
VERTEX
  8
0
  6
CONTINUOUS
 10
168.685247
 20
668.356536
 30
0.0
  0
VERTEX
  8
0
  6
CONTINUOUS
 10
168.737013
 20
668.530742
 30
0.0
  0
SEQEND
  8
0
  6
CONTINUOUS
  0
POLYLINE
  8
0
  6
CONTINUOUS
 66
     1
 10
0.0
 20
0.0
 30
0.0
  0
VERTEX
  8
0
  6
CONTINUOUS
 10
167.557367
 20
667.849673
 30
0.0
  0
VERTEX
  8
0
  6
CONTINUOUS
 10
167.609133
 20
667.735241
 30
0.0
  0
VERTEX
  8
0
  6
CONTINUOUS
 10
167.734117
 20
667.747627
 30
0.0
  0
SEQEND
  8
0
  6
CONTINUOUS
  0
POLYLINE
  8
0
  6
CONTINUOUS
 66
     1
 10
0.0
 20
0.0
 30
0.0
  0
VERTEX
  8
0
  6
CONTINUOUS
 10
167.734117
 20
671.069356
 30
0.0
  0
VERTEX
  8
0
  6
CONTINUOUS
 10
167.609133
 20
670.937423
 30
0.0
  0
VERTEX
  8
0
  6
CONTINUOUS
 10
167.557367
 20
670.763217
 30
0.0
  0
SEQEND
  8
0
  6
CONTINUOUS
  0
POLYLINE
  8
0
  6
CONTINUOUS
 66
     1
 10
0.0
 20
0.0
 30
0.0
  0
VERTEX
  8
0
  6
CONTINUOUS
 10
167.557367
 20
674.029141
 30
0.0
  0
VERTEX
  8
0
  6
CONTINUOUS
 10
167.609133
 20
673.914708
 30
0.0
  0
VERTEX
  8
0
  6
CONTINUOUS
 10
167.734117
 20
673.927094
 30
0.0
  0
SEQEND
  8
0
  6
CONTINUOUS
  0
POLYLINE
  8
0
  6
CONTINUOUS
 66
     1
 10
0.0
 20
0.0
 30
0.0
  0
VERTEX
  8
0
  6
CONTINUOUS
 10
168.737013
 20
677.623753
 30
0.0
  0
VERTEX
  8
0
  6
CONTINUOUS
 10
168.685247
 20
677.738185
 30
0.0
  0
VERTEX
  8
0
  6
CONTINUOUS
 10
168.560263
 20
677.725799
 30
0.0
  0
SEQEND
  8
0
  6
CONTINUOUS
  0
POLYLINE
  8
0
  6
CONTINUOUS
 66
     1
 10
0.0
 20
0.0
 30
0.0
  0
VERTEX
  8
0
  6
CONTINUOUS
 10
166.302279
 20
679.122085
 30
0.0
  0
VERTEX
  8
0
  6
CONTINUOUS
 10
166.371358
 20
679.145738
 30
0.0
  0
VERTEX
  8
0
  6
CONTINUOUS
 10
166.429445
 20
679.133166
 30
0.0
  0
SEQEND
  8
0
  6
CONTINUOUS
  0
POLYLINE
  8
0
  6
CONTINUOUS
 66
     1
 10
0.0
 20
0.0
 30
0.0
  0
VERTEX
  8
0
  6
CONTINUOUS
 10
167.734117
 20
677.248824
 30
0.0
  0
VERTEX
  8
0
  6
CONTINUOUS
 10
167.609133
 20
677.11689
 30
0.0
  0
VERTEX
  8
0
  6
CONTINUOUS
 10
167.557367
 20
676.942684
 30
0.0
  0
SEQEND
  8
0
  6
CONTINUOUS
  0
LINE
  8
0
  6
CONTINUOUS
 10
183.766689
 20
696.665639
 30
0.0
 11
175.720477
 21
701.297094
 31
0.0
  0
LINE
  8
0
  6
CONTINUOUS
 10
182.959064
 20
696.191014
 30
0.0
 11
166.827727
 21
686.877582
 31
0.0
  0
LINE
  8
0
  6
CONTINUOUS
 10
166.987031
 20
686.360906
 30
0.0
 11
183.118367
 21
695.674338
 31
0.0
  0
LINE
  8
0
  6
CONTINUOUS
 10
182.592665
 20
696.590201
 30
0.0
 11
166.461329
 21
687.276769
 31
0.0
  0
LINE
  8
0
  6
CONTINUOUS
 10
183.118367
 20
667.902813
 30
0.0
 11
166.987031
 21
658.589381
 31
0.0
  0
LINE
  8
0
  6
CONTINUOUS
 10
166.827727
 20
658.256652
 30
0.0
 11
182.957263
 21
667.569036
 31
0.0
  0
LINE
  8
0
  6
CONTINUOUS
 10
182.305893
 20
697.307772
 30
0.0
 11
175.752277
 21
701.157544
 31
0.0
  0
LINE
  8
0
  6
CONTINUOUS
 10
182.499699
 20
696.620549
 30
0.0
 11
182.502476
 21
696.986355
 31
0.0
  0
LINE
  8
0
  6
CONTINUOUS
 10
174.643996
 20
702.084303
 30
0.0
 11
174.952526
 21
742.729448
 31
0.0
  0
LINE
  8
0
  6
CONTINUOUS
 10
172.415371
 20
743.145185
 30
0.0
 11
172.413682
 21
742.922684
 31
0.0
  0
LINE
  8
0
  6
CONTINUOUS
 10
164.206993
 20
737.783566
 30
0.0
 11
164.20884
 21
738.026942
 31
0.0
  0
LINE
  8
0
  6
CONTINUOUS
 10
162.820686
 20
737.623591
 30
0.0
 11
162.515754
 21
696.915382
 31
0.0
  0
LINE
  8
0
  6
CONTINUOUS
 10
170.366916
 20
740.5576
 30
0.0
 11
170.367821
 21
740.676881
 31
0.0
  0
LINE
  8
0
  6
CONTINUOUS
 10
171.444894
 20
743.078447
 30
0.0
 11
171.430418
 21
741.171432
 31
0.0
  0
LINE
  8
0
  6
CONTINUOUS
 10
173.711838
 20
742.48876
 30
0.0
 11
173.715118
 21
742.92098
 31
0.0
  0
LINE
  8
0
  6
CONTINUOUS
 10
173.219626
 20
743.674063
 30
0.0
 11
173.22018
 21
743.747075
 31
0.0
  0
LINE
  8
0
  6
CONTINUOUS
 10
158.931747
 20
739.90806
 30
0.0
 11
158.622353
 21
699.202472
 31
0.0
  0
LINE
  8
0
  6
CONTINUOUS
 10
163.881323
 20
737.535898
 30
0.0
 11
163.880863
 21
737.475185
 31
0.0
  0
LINE
  8
0
  6
CONTINUOUS
 10
165.33645
 20
737.653254
 30
0.0
 11
165.337808
 21
737.832064
 31
0.0
  0
LINE
  8
0
  6
CONTINUOUS
 10
167.694759
 20
739.513789
 30
0.0
 11
167.690954
 21
739.012594
 31
0.0
  0
LINE
  8
0
  6
CONTINUOUS
 10
168.768706
 20
739.634863
 30
0.0
 11
168.770385
 21
739.856034
 31
0.0
  0
LINE
  8
0
  6
CONTINUOUS
 10
175.031252
 20
681.912042
 30
0.0
 11
175.561582
 21
681.605856
 31
0.0
  0
LINE
  8
0
  6
CONTINUOUS
 10
176.061582
 20
681.63062
 30
0.0
 11
177.351404
 21
682.375299
 31
0.0
  0
LINE
  8
0
  6
CONTINUOUS
 10
174.598651
 20
676.772574
 30
0.0
 11
174.843169
 21
676.913747
 31
0.0
  0
LINE
  8
0
  6
CONTINUOUS
 10
174.598651
 20
675.693613
 30
0.0
 11
174.598651
 21
676.772574
 31
0.0
  0
LINE
  8
0
  6
CONTINUOUS
 10
174.271823
 20
675.504919
 30
0.0
 11
174.598651
 21
675.693613
 31
0.0
  0
LINE
  8
0
  6
CONTINUOUS
 10
175.792102
 20
676.458808
 30
0.0
 11
178.188747
 21
677.842511
 31
0.0
  0
LINE
  8
0
  6
CONTINUOUS
 10
166.213078
 20
668.4859
 30
0.0
 11
167.611333
 21
667.734015
 31
0.0
  0
LINE
  8
0
  6
CONTINUOUS
 10
181.79132
 20
685.30244
 30
0.0
 11
179.533337
 21
686.698725
 31
0.0
  0
LINE
  8
0
  6
CONTINUOUS
 10
166.427119
 20
674.550271
 30
0.0
 11
167.611333
 21
673.913482
 31
0.0
  0
LINE
  8
0
  6
CONTINUOUS
 10
179.995794
 20
684.635827
 30
0.0
 11
180.715244
 21
684.248957
 31
0.0
  0
LINE
  8
0
  6
CONTINUOUS
 10
179.995794
 20
678.410041
 30
0.0
 11
180.715244
 21
678.02317
 31
0.0
  0
LINE
  8
0
  6
CONTINUOUS
 10
181.79132
 20
679.122973
 30
0.0
 11
181.151199
 21
679.518809
 31
0.0
  0
LINE
  8
0
  6
CONTINUOUS
 10
178.377033
 20
676.55689
 30
0.0
 11
180.715244
 21
675.299561
 31
0.0
  0
LINE
  8
0
  6
CONTINUOUS
 10
181.150692
 20
679.827543
 30
0.0
 11
181.773893
 21
680.187348
 31
0.0
  0
LINE
  8
0
  6
CONTINUOUS
 10
168.687409
 20
668.787498
 30
0.0
 11
168.075071
 21
669.166154
 31
0.0
  0
LINE
  8
0
  6
CONTINUOUS
 10
168.687409
 20
675.013284
 30
0.0
 11
168.075071
 21
675.39194
 31
0.0
  0
LINE
  8
0
  6
CONTINUOUS
 10
168.687409
 20
677.736893
 30
0.0
 11
166.429426
 21
679.133179
 31
0.0
  0
LINE
  8
0
  6
CONTINUOUS
 10
157.943905
 20
698.623209
 30
0.0
 11
157.558193
 21
695.442881
 31
0.0
  0
LINE
  8
0
  6
CONTINUOUS
 10
157.381809
 20
695.16687
 30
0.0
 11
155.806125
 21
694.257149
 31
0.0
  0
LINE
  8
0
  6
CONTINUOUS
 10
158.484309
 20
699.283563
 30
0.0
 11
158.296674
 21
699.175231
 31
0.0
  0
LINE
  8
0
  6
CONTINUOUS
 10
164.140948
 20
695.960699
 30
0.0
 11
163.964178
 21
696.064539
 31
0.0
  0
LINE
  8
0
  6
CONTINUOUS
 10
162.585373
 20
696.874487
 30
0.0
 11
158.484309
 21
699.283563
 31
0.0
  0
LINE
  8
0
  6
CONTINUOUS
 10
164.140948
 20
695.960699
 30
0.0
 11
174.74755
 21
702.084423
 31
0.0
  0
LINE
  8
0
  6
CONTINUOUS
 10
175.775946
 20
701.057829
 30
0.0
 11
182.18081
 21
697.295438
 31
0.0
  0
LINE
  8
0
  6
CONTINUOUS
 10
155.806125
 20
694.257149
 30
0.0
 11
166.270907
 21
688.109852
 31
0.0
  0
LINE
  8
0
  6
CONTINUOUS
 10
155.627806
 20
693.951861
 30
0.0
 11
166.092588
 21
687.804564
 31
0.0
  0
LINE
  8
0
  6
CONTINUOUS
 10
155.625029
 20
693.586055
 30
0.0
 11
155.627806
 21
693.951861
 31
0.0
  0
LINE
  8
0
  6
CONTINUOUS
 10
166.796905
 20
687.435203
 30
0.0
 11
166.799681
 21
687.801009
 31
0.0
  0
LINE
  8
0
  6
CONTINUOUS
 10
166.089811
 20
687.438758
 30
0.0
 11
166.092588
 21
687.804564
 31
0.0
  0
LINE
  8
0
  6
CONTINUOUS
 10
182.35603
 20
696.782471
 30
0.0
 11
166.799681
 21
687.801009
 31
0.0
  0
LINE
  8
0
  6
CONTINUOUS
 10
182.180803
 20
697.089537
 30
0.0
 11
166.624454
 21
688.108074
 31
0.0
  0
LINE
  8
0
  6
CONTINUOUS
 10
174.74755
 20
702.084423
 30
0.0
 11
174.644433
 21
702.144997
 31
0.0
  0
LINE
  8
0
  6
CONTINUOUS
 10
182.353254
 20
696.416665
 30
0.0
 11
182.35603
 21
696.782471
 31
0.0
  0
LINE
  8
0
  6
CONTINUOUS
 10
155.625029
 20
693.586055
 30
0.0
 11
166.089811
 21
687.438758
 31
0.0
  0
LINE
  8
0
  6
CONTINUOUS
 10
182.353254
 20
696.416665
 30
0.0
 11
166.796905
 21
687.435203
 31
0.0
  0
LINE
  8
0
  6
CONTINUOUS
 10
173.500504
 20
743.643356
 30
0.0
 11
174.87931
 21
742.833408
 31
0.0
  0
LINE
  8
0
  6
CONTINUOUS
 10
172.510561
 20
743.27771
 30
0.0
 11
173.146957
 21
743.645133
 31
0.0
  0
LINE
  8
0
  6
CONTINUOUS
 10
172.968907
 20
742.842267
 30
0.0
 11
172.970163
 21
743.007727
 31
0.0
  0
LINE
  8
0
  6
CONTINUOUS
 10
173.14694
 20
743.109789
 30
0.0
 11
172.970163
 21
743.007727
 31
0.0
  0
LINE
  8
0
  6
CONTINUOUS
 10
173.145684
 20
742.944329
 30
0.0
 11
173.14694
 21
743.109789
 31
0.0
  0
LINE
  8
0
  6
CONTINUOUS
 10
173.500174
 20
743.066842
 30
0.0
 11
173.500486
 21
743.108012
 31
0.0
  0
LINE
  8
0
  6
CONTINUOUS
 10
173.960088
 20
742.838029
 30
0.0
 11
173.500486
 21
743.108012
 31
0.0
  0
LINE
  8
0
  6
CONTINUOUS
 10
173.958518
 20
742.631204
 30
0.0
 11
173.960088
 21
742.838029
 31
0.0
  0
LINE
  8
0
  6
CONTINUOUS
 10
164.626272
 20
737.24325
 30
0.0
 11
173.960082
 21
742.632128
 31
0.0
  0
LINE
  8
0
  6
CONTINUOUS
 10
163.724739
 20
737.56693
 30
0.0
 11
164.272725
 21
737.245028
 31
0.0
  0
LINE
  8
0
  6
CONTINUOUS
 10
163.723963
 20
737.567324
 30
0.0
 11
163.724742
 21
737.669881
 31
0.0
  0
LINE
  8
0
  6
CONTINUOUS
 10
164.113651
 20
737.894417
 30
0.0
 11
163.724742
 21
737.669881
 31
0.0
  0
LINE
  8
0
  6
CONTINUOUS
 10
164.112395
 20
737.728957
 30
0.0
 11
164.113651
 21
737.894417
 31
0.0
  0
LINE
  8
0
  6
CONTINUOUS
 10
162.893909
 20
737.725533
 30
0.0
 11
163.654049
 21
738.1644
 31
0.0
  0
LINE
  8
0
  6
CONTINUOUS
 10
162.585373
 20
696.874487
 30
0.0
 11
163.964178
 21
696.064539
 31
0.0
  0
LINE
  8
0
  6
CONTINUOUS
 10
162.585373
 20
696.874487
 30
0.0
 11
162.893902
 21
737.519631
 31
0.0
  0
LINE
  8
0
  6
CONTINUOUS
 10
164.272708
 20
736.709683
 30
0.0
 11
162.893902
 21
737.519631
 31
0.0
  0
LINE
  8
0
  6
CONTINUOUS
 10
163.964178
 20
696.064539
 30
0.0
 11
164.272708
 21
736.709683
 31
0.0
  0
LINE
  8
0
  6
CONTINUOUS
 10
174.570773
 20
701.982361
 30
0.0
 11
174.879303
 21
742.627506
 31
0.0
  0
LINE
  8
0
  6
CONTINUOUS
 10
164.317725
 20
696.062761
 30
0.0
 11
174.570773
 21
701.982361
 31
0.0
  0
LINE
  8
0
  6
CONTINUOUS
 10
164.317725
 20
696.062761
 30
0.0
 11
164.626255
 21
736.707906
 31
0.0
  0
LINE
  8
0
  6
CONTINUOUS
 10
174.879303
 20
742.627506
 30
0.0
 11
164.626255
 21
736.707906
 31
0.0
  0
LINE
  8
0
  6
CONTINUOUS
 10
168.879984
 20
740.386996
 30
0.0
 11
165.314393
 21
742.686292
 31
0.0
  0
LINE
  8
0
  6
CONTINUOUS
 10
168.874739
 20
739.696034
 30
0.0
 11
168.879984
 21
740.386996
 31
0.0
  0
LINE
  8
0
  6
CONTINUOUS
 10
169.964616
 20
740.32534
 30
0.0
 11
169.96493
 21
740.366705
 31
0.0
  0
LINE
  8
0
  6
CONTINUOUS
 10
170.272631
 20
740.544357
 30
0.0
 11
169.96493
 21
740.366705
 31
0.0
  0
LINE
  8
0
  6
CONTINUOUS
 10
170.272317
 20
740.502992
 30
0.0
 11
170.272631
 21
740.544357
 31
0.0
  0
LINE
  8
0
  6
CONTINUOUS
 10
169.616494
 20
740.70087
 30
0.0
 11
169.813029
 21
740.814339
 31
0.0
  0
LINE
  8
0
  6
CONTINUOUS
 10
165.582335
 20
743.075877
 30
0.0
 11
169.254846
 21
740.707633
 31
0.0
  0
LINE
  8
0
  6
CONTINUOUS
 10
165.588886
 20
743.071534
 30
0.0
 11
165.590444
 21
743.276793
 31
0.0
  0
LINE
  8
0
  6
CONTINUOUS
 10
169.081224
 20
745.292196
 30
0.0
 11
165.590444
 21
743.276793
 31
0.0
  0
LINE
  8
0
  6
CONTINUOUS
 10
169.047419
 20
740.838807
 30
0.0
 11
169.081224
 21
745.292196
 31
0.0
  0
LINE
  8
0
  6
CONTINUOUS
 10
169.754092
 20
740.779855
 30
0.0
 11
169.788317
 21
745.288641
 31
0.0
  0
LINE
  8
0
  6
CONTINUOUS
 10
172.050973
 20
743.959496
 30
0.0
 11
169.788317
 21
745.288641
 31
0.0
  0
LINE
  8
0
  6
CONTINUOUS
 10
172.047833
 20
743.545845
 30
0.0
 11
172.050973
 21
743.959496
 31
0.0
  0
LINE
  8
0
  6
CONTINUOUS
 10
171.59134
 20
743.282331
 30
0.0
 11
172.050959
 21
743.547692
 31
0.0
  0
LINE
  8
0
  6
CONTINUOUS
 10
171.579081
 20
741.257292
 30
0.0
 11
171.591326
 21
742.870528
 31
0.0
  0
LINE
  8
0
  6
CONTINUOUS
 10
172.515999
 20
742.32735
 30
0.0
 11
171.591326
 21
742.870528
 31
0.0
  0
LINE
  8
0
  6
CONTINUOUS
 10
172.511966
 20
741.796004
 30
0.0
 11
172.515999
 21
742.32735
 31
0.0
  0
LINE
  8
0
  6
CONTINUOUS
 10
173.519035
 20
742.377479
 30
0.0
 11
173.519805
 21
742.478947
 31
0.0
  0
LINE
  8
0
  6
CONTINUOUS
 10
173.706601
 20
742.883982
 30
0.0
 11
173.519805
 21
742.478947
 31
0.0
  0
LINE
  8
0
  6
CONTINUOUS
 10
173.703565
 20
742.483987
 30
0.0
 11
173.706601
 21
742.883982
 31
0.0
  0
LINE
  8
0
  6
CONTINUOUS
 10
172.828736
 20
742.761356
 30
0.0
 11
173.288356
 21
743.026718
 31
0.0
  0
LINE
  8
0
  6
CONTINUOUS
 10
172.227716
 20
743.03205
 30
0.0
 11
172.687318
 21
742.762067
 31
0.0
  0
LINE
  8
0
  6
CONTINUOUS
 10
172.227096
 20
743.032365
 30
0.0
 11
172.227718
 21
743.11441
 31
0.0
  0
LINE
  8
0
  6
CONTINUOUS
 10
173.146957
 20
743.645133
 30
0.0
 11
172.227718
 21
743.11441
 31
0.0
  0
LINE
  8
0
  6
CONTINUOUS
 10
169.611565
 20
745.927824
 30
0.0
 11
173.146964
 21
743.851035
 31
0.0
  0
LINE
  8
0
  6
CONTINUOUS
 10
159.00497
 20
740.010002
 30
0.0
 11
169.258018
 21
745.929602
 31
0.0
  0
LINE
  8
0
  6
CONTINUOUS
 10
158.696433
 20
699.158955
 30
0.0
 11
162.231833
 21
697.082166
 31
0.0
  0
LINE
  8
0
  6
CONTINUOUS
 10
158.696433
 20
699.158955
 30
0.0
 11
159.004963
 21
739.8041
 31
0.0
  0
LINE
  8
0
  6
CONTINUOUS
 10
162.540362
 20
737.72731
 30
0.0
 11
159.004963
 21
739.8041
 31
0.0
  0
LINE
  8
0
  6
CONTINUOUS
 10
162.231833
 20
697.082166
 30
0.0
 11
162.540362
 21
737.72731
 31
0.0
  0
LINE
  8
0
  6
CONTINUOUS
 10
163.813148
 20
738.256256
 30
0.0
 11
162.893909
 21
737.725533
 31
0.0
  0
LINE
  8
0
  6
CONTINUOUS
 10
163.81283
 20
738.214445
 30
0.0
 11
163.813148
 21
738.256256
 31
0.0
  0
LINE
  8
0
  6
CONTINUOUS
 10
163.95425
 20
738.213811
 30
0.0
 11
163.954566
 21
738.255545
 31
0.0
  0
LINE
  8
0
  6
CONTINUOUS
 10
164.414168
 20
737.985562
 30
0.0
 11
163.954566
 21
738.255545
 31
0.0
  0
LINE
  8
0
  6
CONTINUOUS
 10
164.41354
 20
737.902832
 30
0.0
 11
164.414168
 21
737.985562
 31
0.0
  0
LINE
  8
0
  6
CONTINUOUS
 10
163.954546
 20
737.63784
 30
0.0
 11
164.414166
 21
737.903202
 31
0.0
  0
LINE
  8
0
  6
CONTINUOUS
 10
164.195237
 20
737.290489
 30
0.0
 11
164.196015
 21
737.393042
 31
0.0
  0
LINE
  8
0
  6
CONTINUOUS
 10
164.893102
 20
737.498318
 30
0.0
 11
164.196015
 21
737.393042
 31
0.0
  0
LINE
  8
0
  6
CONTINUOUS
 10
164.892332
 20
737.39685
 30
0.0
 11
164.893102
 21
737.498318
 31
0.0
  0
LINE
  8
0
  6
CONTINUOUS
 10
164.237416
 20
738.624746
 30
0.0
 11
165.162089
 21
738.081568
 31
0.0
  0
LINE
  8
0
  6
CONTINUOUS
 10
163.070703
 20
738.362939
 30
0.0
 11
163.530323
 21
738.628301
 31
0.0
  0
LINE
  8
0
  6
CONTINUOUS
 10
160.100954
 20
739.695639
 30
0.0
 11
162.36361
 21
738.366494
 31
0.0
  0
LINE
  8
0
  6
CONTINUOUS
 10
160.097854
 20
739.697214
 30
0.0
 11
160.100968
 21
740.107442
 31
0.0
  0
LINE
  8
0
  6
CONTINUOUS
 10
163.591748
 20
742.122845
 30
0.0
 11
160.100968
 21
740.107442
 31
0.0
  0
LINE
  8
0
  6
CONTINUOUS
 10
163.565357
 20
738.646146
 30
0.0
 11
163.591748
 21
742.122845
 31
0.0
  0
LINE
  8
0
  6
CONTINUOUS
 10
163.910875
 20
738.710089
 30
0.0
 11
163.936803
 21
742.125829
 31
0.0
  0
LINE
  8
0
  6
CONTINUOUS
 10
167.971463
 20
739.966672
 30
0.0
 11
163.936803
 21
742.125829
 31
0.0
  0
LINE
  8
0
  6
CONTINUOUS
 10
167.969819
 20
739.750139
 30
0.0
 11
167.971463
 21
739.966672
 31
0.0
  0
LINE
  8
0
  6
CONTINUOUS
 10
167.789948
 20
739.646313
 30
0.0
 11
167.979947
 21
739.756009
 31
0.0
  0
LINE
  8
0
  6
CONTINUOUS
 10
168.249236
 20
739.334965
 30
0.0
 11
168.24955
 21
739.37633
 31
0.0
  0
LINE
  8
0
  6
CONTINUOUS
 10
168.550716
 20
739.550208
 30
0.0
 11
168.24955
 21
739.37633
 31
0.0
  0
LINE
  8
0
  6
CONTINUOUS
 10
168.550402
 20
739.508843
 30
0.0
 11
168.550716
 21
739.550208
 31
0.0
  0
LINE
  8
0
  6
CONTINUOUS
 10
164.608065
 20
742.278494
 30
0.0
 11
168.525262
 21
740.182197
 31
0.0
  0
LINE
  8
0
  6
CONTINUOUS
 10
165.308449
 20
741.90326
 30
0.0
 11
165.314393
 21
742.686292
 31
0.0
  0
LINE
  8
0
  6
CONTINUOUS
 10
173.555432
 20
675.777514
 30
0.0
 11
173.555432
 21
677.410507
 31
0.0
  0
LINE
  8
0
  6
CONTINUOUS
 10
174.098158
 20
675.485673
 30
0.0
 11
174.098158
 21
677.097164
 31
0.0
  0
LINE
  8
0
  6
CONTINUOUS
 10
174.098158
 20
677.097164
 30
0.0
 11
174.719126
 21
677.45568
 31
0.0
  0
LINE
  8
0
  6
CONTINUOUS
 10
173.555432
 20
677.410507
 30
0.0
 11
174.098158
 21
677.097164
 31
0.0
  0
LINE
  8
0
  6
CONTINUOUS
 10
177.524514
 20
682.559795
 30
0.0
 11
176.113359
 21
681.745065
 31
0.0
  0
LINE
  8
0
  6
CONTINUOUS
 10
172.903608
 20
683.660347
 30
0.0
 11
173.060426
 21
682.306579
 31
0.0
  0
LINE
  8
0
  6
CONTINUOUS
 10
175.555285
 20
678.565122
 30
0.0
 11
173.555432
 21
677.410507
 31
0.0
  0
LINE
  8
0
  6
CONTINUOUS
 10
173.555432
 20
677.410507
 30
0.0
 11
168.733796
 21
674.626734
 31
0.0
  0
LINE
  8
0
  6
CONTINUOUS
 10
167.524452
 20
673.928519
 30
0.0
 11
166.210487
 21
673.1699
 31
0.0
  0
LINE
  8
0
  6
CONTINUOUS
 10
163.985176
 20
696.050307
 30
0.0
 11
163.983788
 21
696.049506
 31
0.0
  0
LINE
  8
0
  6
CONTINUOUS
 10
175.379566
 20
681.709928
 30
0.0
 11
175.706699
 21
678.88589
 31
0.0
  0
LINE
  8
0
  6
CONTINUOUS
 10
175.759806
 20
681.949189
 30
0.0
 11
175.759806
 21
686.8517
 31
0.0
  0
LINE
  8
0
  6
CONTINUOUS
 10
174.875922
 20
682.255375
 30
0.0
 11
175.406252
 21
681.949189
 31
0.0
  0
LINE
  8
0
  6
CONTINUOUS
 10
174.875922
 20
682.255375
 30
0.0
 11
174.875922
 21
686.760265
 31
0.0
  0
LINE
  8
0
  6
CONTINUOUS
 10
175.406252
 20
686.8517
 30
0.0
 11
173.992039
 21
687.696701
 31
0.0
  0
LINE
  8
0
  6
CONTINUOUS
 10
175.406252
 20
681.949189
 30
0.0
 11
175.406252
 21
686.8517
 31
0.0
  0
LINE
  8
0
  6
CONTINUOUS
 10
173.992039
 20
687.28839
 30
0.0
 11
173.992039
 21
687.696701
 31
0.0
  0
LINE
  8
0
  6
CONTINUOUS
 10
173.744551
 20
688.419051
 30
0.0
 11
173.744551
 21
687.145503
 31
0.0
  0
LINE
  8
0
  6
CONTINUOUS
 10
173.744551
 20
687.145503
 30
0.0
 11
173.037445
 21
687.568004
 31
0.0
  0
LINE
  8
0
  6
CONTINUOUS
 10
173.992039
 20
687.28839
 30
0.0
 11
173.744551
 21
687.145503
 31
0.0
  0
LINE
  8
0
  6
CONTINUOUS
 10
174.875922
 20
686.760265
 30
0.0
 11
173.992039
 21
687.28839
 31
0.0
  0
LINE
  8
0
  6
CONTINUOUS
 10
174.875298
 20
682.750658
 30
0.0
 11
173.585528
 21
682.006009
 31
0.0
  0
LINE
  8
0
  6
CONTINUOUS
 10
173.585528
 20
682.006009
 30
0.0
 11
173.06265
 21
682.287176
 31
0.0
  0
LINE
  8
0
  6
CONTINUOUS
 10
172.90216
 20
685.469528
 30
0.0
 11
174.873751
 21
686.607827
 31
0.0
  0
LINE
  8
0
  6
CONTINUOUS
 10
175.586114
 20
687.156074
 30
0.0
 11
174.168816
 21
688.002918
 31
0.0
  0
LINE
  8
0
  6
CONTINUOUS
 10
176.622667
 20
689.41965
 30
0.0
 11
174.168816
 21
688.002918
 31
0.0
  0
LINE
  8
0
  6
CONTINUOUS
 10
175.586114
 20
687.156074
 30
0.0
 11
177.791452
 21
688.429327
 31
0.0
  0
LINE
  8
0
  6
CONTINUOUS
 10
175.759806
 20
686.8517
 30
0.0
 11
177.791531
 21
688.024718
 31
0.0
  0
LINE
  8
0
  6
CONTINUOUS
 10
175.968879
 20
676.645421
 30
0.0
 11
175.968879
 21
676.734134
 31
0.0
  0
LINE
  8
0
  6
CONTINUOUS
 10
175.618438
 20
676.439562
 30
0.0
 11
175.618438
 21
676.936462
 31
0.0
  0
LINE
  8
0
  6
CONTINUOUS
 10
174.719126
 20
677.45568
 30
0.0
 11
175.618438
 21
676.936462
 31
0.0
  0
LINE
  8
0
  6
CONTINUOUS
 10
174.448599
 20
676.894836
 30
0.0
 11
174.895849
 21
677.153056
 31
0.0
  0
LINE
  8
0
  6
CONTINUOUS
 10
174.895849
 20
677.028713
 30
0.0
 11
174.895849
 21
677.153056
 31
0.0
  0
LINE
  8
0
  6
CONTINUOUS
 10
174.448599
 20
675.691532
 30
0.0
 11
174.448599
 21
676.894836
 31
0.0
  0
LINE
  8
0
  6
CONTINUOUS
 10
174.525428
 20
676.81485
 30
0.0
 11
174.895849
 21
677.028713
 31
0.0
  0
LINE
  8
0
  6
CONTINUOUS
 10
174.525428
 20
676.81485
 30
0.0
 11
174.525428
 21
675.735888
 31
0.0
  0
LINE
  8
0
  6
CONTINUOUS
 10
174.791789
 20
676.884077
 30
0.0
 11
175.618438
 21
676.439562
 31
0.0
  0
LINE
  8
0
  6
CONTINUOUS
 10
178.241428
 20
685.476909
 30
0.0
 11
178.241428
 21
677.957478
 31
0.0
  0
LINE
  8
0
  6
CONTINUOUS
 10
176.622667
 20
689.41965
 30
0.0
 11
177.79133
 21
688.744921
 31
0.0
  0
LINE
  8
0
  6
CONTINUOUS
 10
176.622667
 20
690.080732
 30
0.0
 11
176.622667
 21
689.41965
 31
0.0
  0
LINE
  8
0
  6
CONTINUOUS
 10
173.565007
 20
674.616905
 30
0.0
 11
173.565007
 21
675.77048
 31
0.0
  0
LINE
  8
0
  6
CONTINUOUS
 10
173.674174
 20
674.47584
 30
0.0
 11
168.732429
 21
671.622722
 31
0.0
  0
LINE
  8
0
  6
CONTINUOUS
 10
174.525428
 20
675.735888
 30
0.0
 11
174.448599
 21
675.691532
 31
0.0
  0
LINE
  8
0
  6
CONTINUOUS
 10
175.968879
 20
676.645421
 30
0.0
 11
178.241428
 21
677.957478
 31
0.0
  0
LINE
  8
0
  6
CONTINUOUS
 10
172.903608
 20
687.024144
 30
0.0
 11
172.903608
 21
683.660347
 31
0.0
  0
LINE
  8
0
  6
CONTINUOUS
 10
166.476536
 20
679.949676
 30
0.0
 11
172.903608
 21
683.660347
 31
0.0
  0
LINE
  8
0
  6
CONTINUOUS
 10
173.037445
 20
687.568004
 30
0.0
 11
173.037445
 21
688.01072
 31
0.0
  0
LINE
  8
0
  6
CONTINUOUS
 10
168.733796
 20
672.993741
 30
0.0
 11
173.555432
 21
675.777514
 31
0.0
  0
LINE
  8
0
  6
CONTINUOUS
 10
174.098158
 20
675.485673
 30
0.0
 11
173.555432
 21
675.777514
 31
0.0
  0
LINE
  8
0
  6
CONTINUOUS
 10
175.143475
 20
676.69437
 30
0.0
 11
174.598353
 21
676.379644
 31
0.0
  0
LINE
  8
0
  6
CONTINUOUS
 10
179.941829
 20
682.199996
 30
0.0
 11
179.941829
 21
684.751486
 31
0.0
  0
LINE
  8
0
  6
CONTINUOUS
 10
178.146291
 20
686.164352
 30
0.0
 11
177.792738
 21
686.368477
 31
0.0
  0
LINE
  8
0
  6
CONTINUOUS
 10
178.146291
 20
687.593221
 30
0.0
 11
178.146291
 21
686.164352
 31
0.0
  0
LINE
  8
0
  6
CONTINUOUS
 10
178.146291
 20
687.593221
 30
0.0
 11
177.792738
 21
687.797346
 31
0.0
  0
LINE
  8
0
  6
CONTINUOUS
 10
178.323068
 20
685.428533
 30
0.0
 11
178.323068
 21
685.858197
 31
0.0
  0
LINE
  8
0
  6
CONTINUOUS
 10
180.661278
 20
684.508231
 30
0.0
 11
178.323068
 21
685.858197
 31
0.0
  0
LINE
  8
0
  6
CONTINUOUS
 10
180.838028
 20
684.81437
 30
0.0
 11
178.499818
 21
686.164337
 31
0.0
  0
LINE
  8
0
  6
CONTINUOUS
 10
179.406191
 20
686.687632
 30
0.0
 11
181.664174
 21
685.291346
 31
0.0
  0
LINE
  8
0
  6
CONTINUOUS
 10
178.862655
 20
682.047355
 30
0.0
 11
178.862655
 21
683.005773
 31
0.0
  0
LINE
  8
0
  6
CONTINUOUS
 10
178.862655
 20
683.005773
 30
0.0
 11
179.550962
 21
682.635649
 31
0.0
  0
LINE
  8
0
  6
CONTINUOUS
 10
178.862655
 20
683.005773
 30
0.0
 11
179.348153
 21
683.286075
 31
0.0
  0
LINE
  8
0
  6
CONTINUOUS
 10
178.323068
 20
685.428533
 30
0.0
 11
179.550962
 21
684.69527
 31
0.0
  0
LINE
  8
0
  6
CONTINUOUS
 10
178.323068
 20
685.428533
 30
0.0
 11
177.792738
 21
685.756104
 31
0.0
  0
LINE
  8
0
  6
CONTINUOUS
 10
179.047296
 20
684.995272
 30
0.0
 11
179.348153
 21
683.286075
 31
0.0
  0
LINE
  8
0
  6
CONTINUOUS
 10
179.550962
 20
682.635649
 30
0.0
 11
179.550962
 21
684.69527
 31
0.0
  0
LINE
  8
0
  6
CONTINUOUS
 10
179.550962
 20
682.635649
 30
0.0
 11
179.348153
 21
683.286075
 31
0.0
  0
LINE
  8
0
  6
CONTINUOUS
 10
166.213102
 20
668.572526
 30
0.0
 11
167.557367
 21
667.849673
 31
0.0
  0
LINE
  8
0
  6
CONTINUOUS
 10
166.309846
 20
674.699972
 30
0.0
 11
167.557367
 21
674.029141
 31
0.0
  0
LINE
  8
0
  6
CONTINUOUS
 10
166.212658
 20
679.070342
 30
0.0
 11
166.302279
 21
679.122085
 31
0.0
  0
LINE
  8
0
  6
CONTINUOUS
 10
166.479029
 20
684.046868
 30
0.0
 11
166.479029
 21
679.102472
 31
0.0
  0
LINE
  8
0
  6
CONTINUOUS
 10
180.661278
 20
684.364615
 30
0.0
 11
179.941829
 21
684.751486
 31
0.0
  0
LINE
  8
0
  6
CONTINUOUS
 10
180.603487
 20
684.308678
 30
0.0
 11
180.603487
 21
682.786098
 31
0.0
  0
LINE
  8
0
  6
CONTINUOUS
 10
179.941829
 20
682.199996
 30
0.0
 11
180.661278
 21
681.784622
 31
0.0
  0
LINE
  8
0
  6
CONTINUOUS
 10
179.941829
 20
679.301402
 30
0.0
 11
179.941829
 21
681.424293
 31
0.0
  0
LINE
  8
0
  6
CONTINUOUS
 10
180.118579
 20
682.506136
 30
0.0
 11
180.838028
 21
682.090761
 31
0.0
  0
LINE
  8
0
  6
CONTINUOUS
 10
180.603487
 20
682.786098
 30
0.0
 11
180.118579
 21
682.506136
 31
0.0
  0
LINE
  8
0
  6
CONTINUOUS
 10
181.322937
 20
682.370723
 30
0.0
 11
180.603487
 21
682.786098
 31
0.0
  0
LINE
  8
0
  6
CONTINUOUS
 10
181.063107
 20
674.539482
 30
0.0
 11
179.913978
 21
673.876032
 31
0.0
  0
LINE
  8
0
  6
CONTINUOUS
 10
181.239883
 20
674.43742
 30
0.0
 11
181.239883
 21
671.865456
 31
0.0
  0
LINE
  8
0
  6
CONTINUOUS
 10
181.239883
 20
674.43742
 30
0.0
 11
181.063107
 21
674.539482
 31
0.0
  0
LINE
  8
0
  6
CONTINUOUS
 10
181.063107
 20
674.539482
 30
0.0
 11
181.063107
 21
675.442832
 31
0.0
  0
LINE
  8
0
  6
CONTINUOUS
 10
183.891534
 20
693.461791
 30
0.0
 11
183.184495
 21
693.87
 31
0.0
  0
LINE
  8
0
  6
CONTINUOUS
 10
181.063107
 20
691.563436
 30
0.0
 11
181.063107
 21
686.113321
 31
0.0
  0
LINE
  8
0
  6
CONTINUOUS
 10
179.406191
 20
686.687632
 30
0.0
 11
178.499818
 21
686.164337
 31
0.0
  0
LINE
  8
0
  6
CONTINUOUS
 10
178.323068
 20
691.06302
 30
0.0
 11
178.323068
 21
685.858197
 31
0.0
  0
LINE
  8
0
  6
CONTINUOUS
 10
179.914058
 20
686.46304
 30
0.0
 11
179.914058
 21
691.981579
 31
0.0
  0
LINE
  8
0
  6
CONTINUOUS
 10
178.146291
 20
690.757146
 30
0.0
 11
178.146291
 21
690.960937
 31
0.0
  0
LINE
  8
0
  6
CONTINUOUS
 10
183.891534
 20
669.375141
 30
0.0
 11
181.063107
 21
671.008135
 31
0.0
  0
LINE
  8
0
  6
CONTINUOUS
 10
176.820466
 20
667.742148
 30
0.0
 11
176.466949
 21
667.946252
 31
0.0
  0
LINE
  8
0
  6
CONTINUOUS
 10
183.184427
 20
668.150397
 30
0.0
 11
180.356
 21
669.78339
 31
0.0
  0
LINE
  8
0
  6
CONTINUOUS
 10
166.920971
 20
658.760686
 30
0.0
 11
166.213864
 21
659.168934
 31
0.0
  0
LINE
  8
0
  6
CONTINUOUS
 10
179.941829
 20
678.525699
 30
0.0
 11
180.661278
 21
678.138829
 31
0.0
  0
LINE
  8
0
  6
CONTINUOUS
 10
178.323068
 20
677.102212
 30
0.0
 11
179.550962
 21
676.466275
 31
0.0
  0
LINE
  8
0
  6
CONTINUOUS
 10
180.661278
 20
675.558835
 30
0.0
 11
179.941829
 21
675.97421
 31
0.0
  0
LINE
  8
0
  6
CONTINUOUS
 10
180.838028
 20
675.864975
 30
0.0
 11
180.118579
 21
676.280349
 31
0.0
  0
LINE
  8
0
  6
CONTINUOUS
 10
166.261824
 20
687.33073
 30
0.0
 11
166.315733
 21
687.361854
 31
0.0
  0
LINE
  8
0
  6
CONTINUOUS
 10
153.917539
 20
675.952172
 30
0.0
 11
154.274178
 21
675.74983
 31
0.0
  0
LINE
  8
0
  6
CONTINUOUS
 10
154.274178
 20
675.74983
 30
0.0
 11
154.274178
 21
678.199319
 31
0.0
  0
LINE
  8
0
  6
CONTINUOUS
 10
154.274178
 20
678.199319
 30
0.0
 11
153.917539
 21
678.401662
 31
0.0
  0
LINE
  8
0
  6
CONTINUOUS
 10
153.917539
 20
690.681542
 30
0.0
 11
153.917539
 21
678.401662
 31
0.0
  0
LINE
  8
0
  6
CONTINUOUS
 10
154.274017
 20
676.157985
 30
0.0
 11
153.917539
 21
675.952172
 31
0.0
  0
LINE
  8
0
  6
CONTINUOUS
 10
153.917539
 20
675.952172
 30
0.0
 11
153.917539
 21
665.305286
 31
0.0
  0
LINE
  8
0
  6
CONTINUOUS
 10
181.322937
 20
676.144937
 30
0.0
 11
180.603487
 21
676.560311
 31
0.0
  0
LINE
  8
0
  6
CONTINUOUS
 10
181.063107
 20
671.967518
 30
0.0
 11
181.239883
 21
671.865456
 31
0.0
  0
LINE
  8
0
  6
CONTINUOUS
 10
181.239883
 20
691.461374
 30
0.0
 11
181.063107
 21
691.563436
 31
0.0
  0
LINE
  8
0
  6
CONTINUOUS
 10
181.063107
 20
691.563436
 30
0.0
 11
179.913978
 21
690.899986
 31
0.0
  0
LINE
  8
0
  6
CONTINUOUS
 10
181.239883
 20
691.461374
 30
0.0
 11
181.239883
 21
692.747044
 31
0.0
  0
LINE
  8
0
  6
CONTINUOUS
 10
178.323068
 20
677.102212
 30
0.0
 11
178.323068
 21
676.672549
 31
0.0
  0
LINE
  8
0
  6
CONTINUOUS
 10
178.146291
 20
669.936483
 30
0.0
 11
178.323068
 21
669.834421
 31
0.0
  0
LINE
  8
0
  6
CONTINUOUS
 10
177.792738
 20
672.181848
 30
0.0
 11
178.146291
 21
671.977724
 31
0.0
  0
LINE
  8
0
  6
CONTINUOUS
 10
178.146291
 20
675.141649
 30
0.0
 11
177.792738
 21
675.345773
 31
0.0
  0
LINE
  8
0
  6
CONTINUOUS
 10
178.146291
 20
675.141649
 30
0.0
 11
178.146291
 21
676.570518
 31
0.0
  0
LINE
  8
0
  6
CONTINUOUS
 10
178.146291
 20
676.570518
 30
0.0
 11
177.792738
 21
676.774642
 31
0.0
  0
LINE
  8
0
  6
CONTINUOUS
 10
178.323068
 20
677.102212
 30
0.0
 11
177.792738
 21
677.387014
 31
0.0
  0
LINE
  8
0
  6
CONTINUOUS
 10
178.146291
 20
671.977724
 30
0.0
 11
178.146291
 21
669.936483
 31
0.0
  0
LINE
  8
0
  6
CONTINUOUS
 10
179.913978
 20
671.304068
 30
0.0
 11
181.063107
 21
671.967518
 31
0.0
  0
LINE
  8
0
  6
CONTINUOUS
 10
181.063107
 20
671.008135
 30
0.0
 11
181.063107
 21
671.967518
 31
0.0
  0
LINE
  8
0
  6
CONTINUOUS
 10
176.820466
 20
667.742148
 30
0.0
 11
180.356
 21
669.78339
 31
0.0
  0
LINE
  8
0
  6
CONTINUOUS
 10
176.820466
 20
667.742148
 30
0.0
 11
176.820466
 21
668.150397
 31
0.0
  0
LINE
  8
0
  6
CONTINUOUS
 10
176.820466
 20
668.150397
 30
0.0
 11
173.522266
 21
666.24618
 31
0.0
  0
LINE
  8
0
  6
CONTINUOUS
 10
173.522266
 20
666.24618
 30
0.0
 11
173.522266
 21
667.266801
 31
0.0
  0
LINE
  8
0
  6
CONTINUOUS
 10
173.522266
 20
666.24618
 30
0.0
 11
173.315211
 21
665.800038
 31
0.0
  0
LINE
  8
0
  6
CONTINUOUS
 10
176.024971
 20
669.119986
 30
0.0
 11
176.378524
 21
668.915862
 31
0.0
  0
LINE
  8
0
  6
CONTINUOUS
 10
173.522266
 20
667.266801
 30
0.0
 11
176.378524
 21
668.915862
 31
0.0
  0
LINE
  8
0
  6
CONTINUOUS
 10
173.522266
 20
667.266801
 30
0.0
 11
173.315211
 21
666.820659
 31
0.0
  0
LINE
  8
0
  6
CONTINUOUS
 10
172.54247
 20
665.680494
 30
0.0
 11
172.188917
 21
665.884619
 31
0.0
  0
LINE
  8
0
  6
CONTINUOUS
 10
172.188917
 20
666.905239
 30
0.0
 11
172.54247
 21
666.701115
 31
0.0
  0
LINE
  8
0
  6
CONTINUOUS
 10
173.315211
 20
666.820659
 30
0.0
 11
173.315211
 21
665.800038
 31
0.0
  0
LINE
  8
0
  6
CONTINUOUS
 10
173.315211
 20
665.800038
 30
0.0
 11
172.54247
 21
665.680494
 31
0.0
  0
LINE
  8
0
  6
CONTINUOUS
 10
172.54247
 20
666.701115
 30
0.0
 11
172.54247
 21
665.680494
 31
0.0
  0
LINE
  8
0
  6
CONTINUOUS
 10
173.315211
 20
666.820659
 30
0.0
 11
172.54247
 21
666.701115
 31
0.0
  0
LINE
  8
0
  6
CONTINUOUS
 10
179.913817
 20
671.712224
 30
0.0
 11
181.239642
 21
672.477689
 31
0.0
  0
LINE
  8
0
  6
CONTINUOUS
 10
179.030175
 20
678.101449
 30
0.0
 11
177.792738
 21
677.387014
 31
0.0
  0
LINE
  8
0
  6
CONTINUOUS
 10
177.792738
 20
677.387014
 30
0.0
 11
177.792738
 21
676.774642
 31
0.0
  0
LINE
  8
0
  6
CONTINUOUS
 10
177.792738
 20
675.345773
 30
0.0
 11
178.14613
 21
675.549804
 31
0.0
  0
LINE
  8
0
  6
CONTINUOUS
 10
177.792738
 20
675.345773
 30
0.0
 11
177.792738
 21
672.181848
 31
0.0
  0
LINE
  8
0
  6
CONTINUOUS
 10
176.024971
 20
669.119986
 30
0.0
 11
172.188917
 21
666.905239
 31
0.0
  0
LINE
  8
0
  6
CONTINUOUS
 10
172.188917
 20
665.884619
 30
0.0
 11
172.188917
 21
666.905239
 31
0.0
  0
LINE
  8
0
  6
CONTINUOUS
 10
171.905913
 20
665.312978
 30
0.0
 11
172.542273
 21
665.680381
 31
0.0
  0
LINE
  8
0
  6
CONTINUOUS
 10
179.914058
 20
675.729439
 30
0.0
 11
179.914058
 21
670.957104
 31
0.0
  0
LINE
  8
0
  6
CONTINUOUS
 10
179.737281
 20
670.650917
 30
0.0
 11
178.323068
 21
669.834421
 31
0.0
  0
LINE
  8
0
  6
CONTINUOUS
 10
178.323068
 20
669.834421
 30
0.0
 11
178.323068
 21
676.672549
 31
0.0
  0
LINE
  8
0
  6
CONTINUOUS
 10
180.838028
 20
684.81437
 30
0.0
 11
181.664174
 21
685.291346
 31
0.0
  0
LINE
  8
0
  6
CONTINUOUS
 10
181.840924
 20
682.275756
 30
0.0
 11
181.840924
 21
685.1893
 31
0.0
  0
LINE
  8
0
  6
CONTINUOUS
 10
181.840924
 20
679.009832
 30
0.0
 11
181.840924
 21
676.096289
 31
0.0
  0
LINE
  8
0
  6
CONTINUOUS
 10
180.838028
 20
675.313174
 30
0.0
 11
181.664174
 21
675.790149
 31
0.0
  0
LINE
  8
0
  6
CONTINUOUS
 10
180.661278
 20
675.558835
 30
0.0
 11
180.661278
 21
675.41522
 31
0.0
  0
LINE
  8
0
  6
CONTINUOUS
 10
180.838028
 20
675.864975
 30
0.0
 11
181.322937
 21
676.144937
 31
0.0
  0
LINE
  8
0
  6
CONTINUOUS
 10
181.322937
 20
676.144937
 30
0.0
 11
181.322937
 21
678.316745
 31
0.0
  0
LINE
  8
0
  6
CONTINUOUS
 10
181.322937
 20
678.316745
 30
0.0
 11
180.838028
 21
678.036783
 31
0.0
  0
LINE
  8
0
  6
CONTINUOUS
 10
180.661278
 20
678.138829
 30
0.0
 11
180.661278
 21
681.784622
 31
0.0
  0
LINE
  8
0
  6
CONTINUOUS
 10
181.322937
 20
682.370723
 30
0.0
 11
180.838028
 21
682.090761
 31
0.0
  0
LINE
  8
0
  6
CONTINUOUS
 10
181.322937
 20
684.542531
 30
0.0
 11
181.322937
 21
682.370723
 31
0.0
  0
LINE
  8
0
  6
CONTINUOUS
 10
180.838028
 20
684.262569
 30
0.0
 11
181.322937
 21
684.542531
 31
0.0
  0
LINE
  8
0
  6
CONTINUOUS
 10
180.661278
 20
684.364615
 30
0.0
 11
180.661278
 21
684.508231
 31
0.0
  0
LINE
  8
0
  6
CONTINUOUS
 10
181.664174
 20
679.111879
 30
0.0
 11
181.151495
 21
678.815883
 31
0.0
  0
LINE
  8
0
  6
CONTINUOUS
 10
181.151257
 20
679.429055
 30
0.0
 11
181.664174
 21
679.111879
 31
0.0
  0
LINE
  8
0
  6
CONTINUOUS
 10
179.941829
 20
679.301402
 30
0.0
 11
178.862655
 21
679.881708
 31
0.0
  0
LINE
  8
0
  6
CONTINUOUS
 10
179.550962
 20
678.525896
 30
0.0
 11
179.550962
 21
676.466275
 31
0.0
  0
LINE
  8
0
  6
CONTINUOUS
 10
179.550962
 20
676.466275
 30
0.0
 11
179.030175
 21
678.101449
 31
0.0
  0
LINE
  8
0
  6
CONTINUOUS
 10
179.030175
 20
678.101449
 30
0.0
 11
179.030175
 21
678.825784
 31
0.0
  0
LINE
  8
0
  6
CONTINUOUS
 10
178.862655
 20
678.92329
 30
0.0
 11
179.550962
 21
678.525896
 31
0.0
  0
LINE
  8
0
  6
CONTINUOUS
 10
179.68326
 20
680.045069
 30
0.0
 11
179.941346
 21
680.194075
 31
0.0
  0
LINE
  8
0
  6
CONTINUOUS
 10
178.862655
 20
679.881708
 30
0.0
 11
179.414585
 21
680.200364
 31
0.0
  0
LINE
  8
0
  6
CONTINUOUS
 10
178.862655
 20
679.881708
 30
0.0
 11
178.862655
 21
678.92329
 31
0.0
  0
LINE
  8
0
  6
CONTINUOUS
 10
179.941829
 20
681.424293
 30
0.0
 11
178.862655
 21
682.047355
 31
0.0
  0
LINE
  8
0
  6
CONTINUOUS
 10
179.414585
 20
680.200364
 30
0.0
 11
179.94159
 21
679.896097
 31
0.0
  0
LINE
  8
0
  6
CONTINUOUS
 10
181.151495
 20
678.815883
 30
0.0
 11
181.151495
 21
681.673621
 31
0.0
  0
LINE
  8
0
  6
CONTINUOUS
 10
181.664174
 20
681.969617
 30
0.0
 11
181.151495
 21
681.673621
 31
0.0
  0
LINE
  8
0
  6
CONTINUOUS
 10
180.661278
 20
675.41522
 30
0.0
 11
178.323068
 21
676.672549
 31
0.0
  0
LINE
  8
0
  6
CONTINUOUS
 10
167.716466
 20
664.323069
 30
0.0
 11
168.07002
 21
664.118945
 31
0.0
  0
LINE
  8
0
  6
CONTINUOUS
 10
167.716466
 20
664.323069
 30
0.0
 11
171.55252
 21
666.537816
 31
0.0
  0
LINE
  8
0
  6
CONTINUOUS
 10
170.926278
 20
665.768006
 30
0.0
 11
171.699019
 21
665.88755
 31
0.0
  0
LINE
  8
0
  6
CONTINUOUS
 10
171.699019
 20
665.88755
 30
0.0
 11
171.906074
 21
666.333692
 31
0.0
  0
LINE
  8
0
  6
CONTINUOUS
 10
171.699019
 20
665.88755
 30
0.0
 11
171.699019
 21
664.866929
 31
0.0
  0
LINE
  8
0
  6
CONTINUOUS
 10
170.926278
 20
664.747385
 30
0.0
 11
171.699019
 21
664.866929
 31
0.0
  0
LINE
  8
0
  6
CONTINUOUS
 10
171.699019
 20
664.866929
 30
0.0
 11
171.906074
 21
665.313071
 31
0.0
  0
LINE
  8
0
  6
CONTINUOUS
 10
171.906074
 20
666.333692
 30
0.0
 11
171.906074
 21
665.313071
 31
0.0
  0
LINE
  8
0
  6
CONTINUOUS
 10
171.55252
 20
666.537816
 30
0.0
 11
171.906074
 21
666.333692
 31
0.0
  0
LINE
  8
0
  6
CONTINUOUS
 10
170.926278
 20
665.768006
 30
0.0
 11
168.07002
 21
664.118945
 31
0.0
  0
LINE
  8
0
  6
CONTINUOUS
 10
170.926278
 20
664.747385
 30
0.0
 11
170.926278
 21
665.768006
 31
0.0
  0
LINE
  8
0
  6
CONTINUOUS
 10
167.628078
 20
662.843169
 30
0.0
 11
170.926278
 21
664.747385
 31
0.0
  0
LINE
  8
0
  6
CONTINUOUS
 10
167.628078
 20
662.43492
 30
0.0
 11
167.628078
 21
662.843169
 31
0.0
  0
LINE
  8
0
  6
CONTINUOUS
 10
167.628078
 20
662.43492
 30
0.0
 11
166.212577
 21
661.617681
 31
0.0
  0
LINE
  8
0
  6
CONTINUOUS
 10
166.479029
 20
662.996262
 30
0.0
 11
166.479029
 21
668.342148
 31
0.0
  0
LINE
  8
0
  6
CONTINUOUS
 10
166.212658
 20
662.842472
 30
0.0
 11
166.479029
 21
662.996262
 31
0.0
  0
LINE
  8
0
  6
CONTINUOUS
 10
180.603487
 20
676.560311
 30
0.0
 11
180.603487
 21
678.082892
 31
0.0
  0
LINE
  8
0
  6
CONTINUOUS
 10
180.118579
 20
676.280349
 30
0.0
 11
180.603487
 21
676.560311
 31
0.0
  0
LINE
  8
0
  6
CONTINUOUS
 10
179.941829
 20
678.525699
 30
0.0
 11
179.941829
 21
675.97421
 31
0.0
  0
LINE
  8
0
  6
CONTINUOUS
 10
166.920971
 20
684.480328
 30
0.0
 11
183.184427
 21
693.870039
 31
0.0
  0
LINE
  8
0
  6
CONTINUOUS
 10
166.213864
 20
683.255583
 30
0.0
 11
166.213864
 21
659.168934
 31
0.0
  0
LINE
  8
0
  6
CONTINUOUS
 10
166.920971
 20
658.760686
 30
0.0
 11
183.184427
 21
668.150397
 31
0.0
  0
LINE
  8
0
  6
CONTINUOUS
 10
183.891534
 20
693.461791
 30
0.0
 11
183.891534
 21
669.375141
 31
0.0
  0
LINE
  8
0
  6
CONTINUOUS
 10
166.448173
 20
672.403788
 30
0.0
 11
166.448173
 21
672.714203
 31
0.0
  0
LINE
  8
0
  6
CONTINUOUS
 10
167.527347
 20
673.958253
 30
0.0
 11
167.527347
 21
672.133898
 31
0.0
  0
LINE
  8
0
  6
CONTINUOUS
 10
167.000102
 20
673.03286
 30
0.0
 11
166.448173
 21
672.714203
 31
0.0
  0
LINE
  8
0
  6
CONTINUOUS
 10
167.527108
 20
672.728593
 30
0.0
 11
167.000102
 21
673.03286
 31
0.0
  0
LINE
  8
0
  6
CONTINUOUS
 10
166.448173
 20
672.714203
 30
0.0
 11
167.527347
 21
672.133898
 31
0.0
  0
LINE
  8
0
  6
CONTINUOUS
 10
166.213092
 20
674.574071
 30
0.0
 11
166.415809
 21
674.461118
 31
0.0
  0
LINE
  8
0
  6
CONTINUOUS
 10
166.415809
 20
674.461118
 30
0.0
 11
166.501186
 21
674.510411
 31
0.0
  0
LINE
  8
0
  6
CONTINUOUS
 10
166.309846
 20
671.483473
 30
0.0
 11
167.557367
 21
670.763217
 31
0.0
  0
LINE
  8
0
  6
CONTINUOUS
 10
166.415809
 20
671.649397
 30
0.0
 11
166.572633
 21
671.739939
 31
0.0
  0
LINE
  8
0
  6
CONTINUOUS
 10
166.448173
 20
672.403788
 30
0.0
 11
166.212899
 21
672.267952
 31
0.0
  0
LINE
  8
0
  6
CONTINUOUS
 10
168.246796
 20
671.365352
 30
0.0
 11
166.448173
 21
672.403788
 31
0.0
  0
LINE
  8
0
  6
CONTINUOUS
 10
166.572633
 20
671.739939
 30
0.0
 11
167.734117
 21
671.069356
 31
0.0
  0
LINE
  8
0
  6
CONTINUOUS
 10
166.213092
 20
671.770522
 30
0.0
 11
166.415809
 21
671.649397
 31
0.0
  0
LINE
  8
0
  6
CONTINUOUS
 10
181.239642
 20
692.073607
 30
0.0
 11
179.913817
 21
691.308142
 31
0.0
  0
LINE
  8
0
  6
CONTINUOUS
 10
177.792738
 20
687.797346
 30
0.0
 11
177.792738
 21
690.756771
 31
0.0
  0
LINE
  8
0
  6
CONTINUOUS
 10
178.14613
 20
686.572508
 30
0.0
 11
177.792738
 21
686.368477
 31
0.0
  0
LINE
  8
0
  6
CONTINUOUS
 10
177.792738
 20
685.756104
 30
0.0
 11
177.792738
 21
686.368477
 31
0.0
  0
LINE
  8
0
  6
CONTINUOUS
 10
181.150208
 20
680.703753
 30
0.0
 11
181.366996
 21
680.828915
 31
0.0
  0
LINE
  8
0
  6
CONTINUOUS
 10
181.063107
 20
686.113321
 30
0.0
 11
180.760768
 21
685.938766
 31
0.0
  0
LINE
  8
0
  6
CONTINUOUS
 10
177.96982
 20
690.859031
 30
0.0
 11
178.146291
 21
690.757146
 31
0.0
  0
LINE
  8
0
  6
CONTINUOUS
 10
168.560263
 20
668.776404
 30
0.0
 11
168.07513
 21
669.076399
 31
0.0
  0
LINE
  8
0
  6
CONTINUOUS
 10
168.07513
 20
675.302186
 30
0.0
 11
168.560263
 21
675.00219
 31
0.0
  0
LINE
  8
0
  6
CONTINUOUS
 10
168.737013
 20
677.480138
 30
0.0
 11
168.737013
 21
677.623753
 31
0.0
  0
LINE
  8
0
  6
CONTINUOUS
 10
168.560263
 20
677.173998
 30
0.0
 11
168.075355
 21
676.894036
 31
0.0
  0
LINE
  8
0
  6
CONTINUOUS
 10
168.075355
 20
676.894036
 30
0.0
 11
168.075355
 21
674.722228
 31
0.0
  0
LINE
  8
0
  6
CONTINUOUS
 10
168.075355
 20
674.722228
 30
0.0
 11
168.560263
 21
675.00219
 31
0.0
  0
LINE
  8
0
  6
CONTINUOUS
 10
168.737013
 20
671.254351
 30
0.0
 11
168.737013
 21
674.900144
 31
0.0
  0
LINE
  8
0
  6
CONTINUOUS
 10
168.075355
 20
670.66825
 30
0.0
 11
168.560263
 21
670.948212
 31
0.0
  0
LINE
  8
0
  6
CONTINUOUS
 10
168.075355
 20
668.496442
 30
0.0
 11
168.075355
 21
670.66825
 31
0.0
  0
LINE
  8
0
  6
CONTINUOUS
 10
168.560263
 20
668.776404
 30
0.0
 11
168.075355
 21
668.496442
 31
0.0
  0
LINE
  8
0
  6
CONTINUOUS
 10
168.737013
 20
668.674358
 30
0.0
 11
168.737013
 21
668.530742
 31
0.0
  0
LINE
  8
0
  6
CONTINUOUS
 10
168.560263
 20
668.224603
 30
0.0
 11
167.734117
 21
667.747627
 31
0.0
  0
LINE
  8
0
  6
CONTINUOUS
 10
167.557367
 20
670.763217
 30
0.0
 11
167.557367
 21
667.849673
 31
0.0
  0
LINE
  8
0
  6
CONTINUOUS
 10
167.734117
 20
671.069356
 30
0.0
 11
168.246796
 21
671.365352
 31
0.0
  0
LINE
  8
0
  6
CONTINUOUS
 10
168.246796
 20
671.365352
 30
0.0
 11
168.246796
 21
674.22309
 31
0.0
  0
LINE
  8
0
  6
CONTINUOUS
 10
167.734117
 20
673.927094
 30
0.0
 11
168.246796
 21
674.22309
 31
0.0
  0
LINE
  8
0
  6
CONTINUOUS
 10
167.557367
 20
674.029141
 30
0.0
 11
167.557367
 21
676.942684
 31
0.0
  0
LINE
  8
0
  6
CONTINUOUS
 10
168.560263
 20
677.725799
 30
0.0
 11
167.734117
 21
677.248824
 31
0.0
  0
LINE
  8
0
  6
CONTINUOUS
 10
168.560263
 20
677.725799
 30
0.0
 11
166.302279
 21
679.122085
 31
0.0
  0
LINE
  8
0
  6
CONTINUOUS
 10
166.213023
 20
678.127028
 30
0.0
 11
167.734117
 21
677.248824
 31
0.0
  0
LINE
  8
0
  6
CONTINUOUS
 10
166.213102
 20
677.718796
 30
0.0
 11
167.557367
 21
676.942684
 31
0.0
  0
ENDSEC
  0
EOF
