  0
SECTION
  2
HEADER
  9
$ACADVER
  1
AC1009
  9
$INSBASE
 10
0.0
 20
0.0
 30
0.0
  9
$EXTMIN
 10
47.058701
 20
84.591503
 30
0.0
  9
$EXTMAX
 10
103.869779
 20
155.953467
 30
0.0
  9
$LIMMIN
 10
47.058701
 20
84.591503
  9
$LIMMAX
 10
103.869779
 20
155.953467
  9
$ORTHOMODE
 70
     0
  9
$REGENMODE
 70
     1
  9
$FILLMODE
 70
     1
  9
$QTEXTMODE
 70
     0
  9
$MIRRTEXT
 70
     1
  9
$DRAGMODE
 70
     2
  9
$LTSCALE
 40
1.0
  9
$OSMODE
 70
     0
  9
$ATTMODE
 70
     1
  9
$TEXTSIZE
 40
3.5
  9
$TRACEWID
 40
0.5
  9
$TEXTSTYLE
  7
STANDARD
  9
$CLAYER
  8
0
  9
$CELTYPE
  6
BYLAYER
  9
$CECOLOR
 62
   256
  9
$DIMSCALE
 40
1.0
  9
$DIMASZ
 40
0.18
  9
$DIMEXO
 40
0.0625
  9
$DIMDLI
 40
0.38
  9
$DIMRND
 40
0.0
  9
$DIMDLE
 40
0.0
  9
$DIMEXE
 40
0.18
  9
$DIMTP
 40
0.0
  9
$DIMTM
 40
0.0
  9
$DIMTXT
 40
0.18
  9
$DIMCEN
 40
0.09
  9
$DIMTSZ
 40
0.0
  9
$DIMTOL
 70
     0
  9
$DIMLIM
 70
     0
  9
$DIMTIH
 70
     1
  9
$DIMTOH
 70
     1
  9
$DIMSE1
 70
     0
  9
$DIMSE2
 70
     0
  9
$DIMTAD
 70
     0
  9
$DIMZIN
 70
     0
  9
$DIMBLK
  1

  9
$DIMASO
 70
     1
  9
$DIMSHO
 70
     1
  9
$DIMPOST
  1

  9
$DIMAPOST
  1

  9
$DIMALT
 70
     0
  9
$DIMALTD
 70
     2
  9
$DIMALTF
 40
25.4
  9
$DIMLFAC
 40
1.0
  9
$DIMTOFL
 70
     0
  9
$DIMTVP
 40
0.0
  9
$DIMTIX
 70
     0
  9
$DIMSOXD
 70
     0
  9
$DIMSAH
 70
     0
  9
$DIMBLK1
  1

  9
$DIMBLK2
  1

  9
$DIMSTYLE
  2
*UNNAMED
  9
$DIMCLRD
 70
     0
  9
$DIMCLRE
 70
     0
  9
$DIMCLRT
 70
     0
  9
$DIMTFAC
 40
1.0
  9
$DIMGAP
 40
0.09
  9
$LUNITS
 70
     2
  9
$LUPREC
 70
     4
  9
$SKETCHINC
 40
0.1
  9
$FILLETRAD
 40
2.0
  9
$AUNITS
 70
     0
  9
$AUPREC
 70
     0
  9
$MENU
  1
ACAD
  9
$ELEVATION
 40
0.0
  9
$PELEVATION
 40
0.0
  9
$THICKNESS
 40
0.0
  9
$LIMCHECK
 70
     0
  9
$BLIPMODE
 70
     1
  9
$CHAMFERA
 40
0.0
  9
$CHAMFERB
 40
0.0
  9
$SKPOLY
 70
     0
  9
$TDCREATE
 40
2450955.368474305
  9
$TDUPDATE
 40
2450955.369800463
  9
$TDINDWG
 40
0.0011545139
  9
$TDUSRTIMER
 40
0.0011545139
  9
$USRTIMER
 70
     1
  9
$ANGBASE
 50
0.0
  9
$ANGDIR
 70
     0
  9
$PDMODE
 70
     0
  9
$PDSIZE
 40
0.0
  9
$PLINEWID
 40
0.0
  9
$COORDS
 70
     2
  9
$SPLFRAME
 70
     0
  9
$SPLINETYPE
 70
     6
  9
$SPLINESEGS
 70
     8
  9
$ATTDIA
 70
     0
  9
$ATTREQ
 70
     1
  9
$HANDLING
 70
     0
  9
$HANDSEED
  5
0
  9
$SURFTAB1
 70
     6
  9
$SURFTAB2
 70
     6
  9
$SURFTYPE
 70
     6
  9
$SURFU
 70
     6
  9
$SURFV
 70
     6
  9
$UCSNAME
  2

  9
$UCSORG
 10
0.0
 20
0.0
 30
0.0
  9
$UCSXDIR
 10
1.0
 20
0.0
 30
0.0
  9
$UCSYDIR
 10
0.0
 20
1.0
 30
0.0
  9
$PUCSNAME
  2

  9
$PUCSORG
 10
0.0
 20
0.0
 30
0.0
  9
$PUCSXDIR
 10
1.0
 20
0.0
 30
0.0
  9
$PUCSYDIR
 10
0.0
 20
1.0
 30
0.0
  9
$USERI1
 70
     0
  9
$USERI2
 70
     0
  9
$USERI3
 70
     0
  9
$USERI4
 70
     0
  9
$USERI5
 70
     0
  9
$USERR1
 40
0.0
  9
$USERR2
 40
0.0
  9
$USERR3
 40
0.0
  9
$USERR4
 40
0.0
  9
$USERR5
 40
0.0
  9
$WORLDVIEW
 70
     1
  9
$SHADEDGE
 70
     3
  9
$SHADEDIF
 70
    70
  9
$TILEMODE
 70
     1
  9
$MAXACTVP
 70
    16
  9
$PINSBASE
 10
0.0
 20
0.0
 30
0.0
  9
$PLIMCHECK
 70
     0
  9
$PEXTMIN
 10
1.000000E+20
 20
1.000000E+20
 30
1.000000E+20
  9
$PEXTMAX
 10
-1.000000E+20
 20
-1.000000E+20
 30
-1.000000E+20
  9
$PLIMMIN
 10
0.0
 20
0.0
  9
$PLIMMAX
 10
420.0
 20
297.0
  9
$UNITMODE
 70
     0
  9
$VISRETAIN
 70
     0
  9
$PLINEGEN
 70
     0
  9
$PSLTSCALE
 70
     1
  9
$TREEDEPTH
 70
  3020
  9
$DWGCODEPAGE
  3
iso8859-1
  0
ENDSEC
  0
SECTION
  2
TABLES
  0
TABLE
  2
VPORT
 70
     2
  0
VPORT
  2
*ACTIVE
 70
     0
 10
0.0
 20
0.0
 11
1.0
 21
1.0
 12
117.675079
 22
115.876437
 13
0.0
 23
0.0
 14
1.0
 24
1.0
 15
0.0
 25
0.0
 16
0.0
 26
0.0
 36
1.0
 17
0.0
 27
0.0
 37
0.0
 40
107.671806
 41
1.748359
 42
50.0
 43
0.0
 44
0.0
 50
0.0
 51
0.0
 71
     0
 72
   100
 73
     1
 74
     0
 75
     0
 76
     0
 77
     0
 78
     0
  0
ENDTAB
  0
TABLE
  2
LTYPE
 70
     1
  0
LTYPE
  2
CONTINUOUS
 70
    64
  3
Solid line
 72
    65
 73
     0
 40
0.0
  0
ENDTAB
  0
TABLE
  2
LAYER
 70
     1
  0
LAYER
  2
0
 70
    64
 62
     7
  6
CONTINUOUS
  0
ENDTAB
  0
TABLE
  2
STYLE
 70
     1
  0
STYLE
  2
STANDARD
 70
     0
 40
0.0
 41
1.0
 50
0.0
 71
     0
 42
3.5
  3
txt
  4

  0
ENDTAB
  0
TABLE
  2
VIEW
 70
     0
  0
ENDTAB
  0
TABLE
  2
UCS
 70
     0
  0
ENDTAB
  0
TABLE
  2
APPID
 70
     1
  0
APPID
  2
ACAD
 70
    64
  0
ENDTAB
  0
TABLE
  2
DIMSTYLE
 70
     0
  0
ENDTAB
  0
ENDSEC
  0
SECTION
  2
BLOCKS
  0
ENDSEC
  0
SECTION
  2
ENTITIES
  0
POLYLINE
  8
0
  6
CONTINUOUS
 66
     1
 10
0.0
 20
0.0
 30
0.0
  0
VERTEX
  8
0
  6
CONTINUOUS
 10
79.945507
 20
121.415219
 30
0.0
  0
VERTEX
  8
0
  6
CONTINUOUS
 10
79.945472
 20
121.418837
 30
0.0
  0
VERTEX
  8
0
  6
CONTINUOUS
 10
79.945361
 20
121.422914
 30
0.0
  0
VERTEX
  8
0
  6
CONTINUOUS
 10
79.944884
 20
121.432495
 30
0.0
  0
VERTEX
  8
0
  6
CONTINUOUS
 10
79.942777
 20
121.456857
 30
0.0
  0
VERTEX
  8
0
  6
CONTINUOUS
 10
79.93319
 20
121.519305
 30
0.0
  0
VERTEX
  8
0
  6
CONTINUOUS
 10
79.927919
 20
121.543509
 30
0.0
  0
SEQEND
  8
0
  6
CONTINUOUS
  0
POLYLINE
  8
0
  6
CONTINUOUS
 66
     1
 10
0.0
 20
0.0
 30
0.0
  0
VERTEX
  8
0
  6
CONTINUOUS
 10
78.880307
 20
122.366908
 30
0.0
  0
VERTEX
  8
0
  6
CONTINUOUS
 10
76.251562
 20
123.992464
 30
0.0
  0
VERTEX
  8
0
  6
CONTINUOUS
 10
73.648919
 20
125.601879
 30
0.0
  0
SEQEND
  8
0
  6
CONTINUOUS
  0
POLYLINE
  8
0
  6
CONTINUOUS
 66
     1
 10
0.0
 20
0.0
 30
0.0
  0
VERTEX
  8
0
  6
CONTINUOUS
 10
79.945507
 20
121.415221
 30
0.0
  0
VERTEX
  8
0
  6
CONTINUOUS
 10
79.945507
 20
120.940958
 30
0.0
  0
SEQEND
  8
0
  6
CONTINUOUS
  0
POLYLINE
  8
0
  6
CONTINUOUS
 66
     1
 10
0.0
 20
0.0
 30
0.0
  0
VERTEX
  8
0
  6
CONTINUOUS
 10
78.011099
 20
120.199187
 30
0.0
  0
VERTEX
  8
0
  6
CONTINUOUS
 10
78.348135
 20
120.017952
 30
0.0
  0
SEQEND
  8
0
  6
CONTINUOUS
  0
POLYLINE
  8
0
  6
CONTINUOUS
 66
     1
 10
0.0
 20
0.0
 30
0.0
  0
VERTEX
  8
0
  6
CONTINUOUS
 10
76.418486
 20
120.945412
 30
0.0
  0
VERTEX
  8
0
  6
CONTINUOUS
 10
73.944263
 20
122.275879
 30
0.0
  0
VERTEX
  8
0
  6
CONTINUOUS
 10
73.359956
 20
122.590078
 30
0.0
  0
SEQEND
  8
0
  6
CONTINUOUS
  0
POLYLINE
  8
0
  6
CONTINUOUS
 66
     1
 10
0.0
 20
0.0
 30
0.0
  0
VERTEX
  8
0
  6
CONTINUOUS
 10
76.815196
 20
120.732088
 30
0.0
  0
VERTEX
  8
0
  6
CONTINUOUS
 10
77.097752
 20
120.580149
 30
0.0
  0
SEQEND
  8
0
  6
CONTINUOUS
  0
POLYLINE
  8
0
  6
CONTINUOUS
 66
     1
 10
0.0
 20
0.0
 30
0.0
  0
VERTEX
  8
0
  6
CONTINUOUS
 10
86.168047
 20
136.167099
 30
0.0
  0
VERTEX
  8
0
  6
CONTINUOUS
 10
86.168047
 20
135.199843
 30
0.0
  0
SEQEND
  8
0
  6
CONTINUOUS
  0
POLYLINE
  8
0
  6
CONTINUOUS
 66
     1
 10
0.0
 20
0.0
 30
0.0
  0
VERTEX
  8
0
  6
CONTINUOUS
 10
81.587315
 20
132.073013
 30
0.0
  0
VERTEX
  8
0
  6
CONTINUOUS
 10
82.702724
 20
131.473223
 30
0.0
  0
SEQEND
  8
0
  6
CONTINUOUS
  0
POLYLINE
  8
0
  6
CONTINUOUS
 66
     1
 10
0.0
 20
0.0
 30
0.0
  0
VERTEX
  8
0
  6
CONTINUOUS
 10
87.85566
 20
120.339283
 30
0.0
  0
VERTEX
  8
0
  6
CONTINUOUS
 10
87.865499
 20
120.345198
 30
0.0
  0
VERTEX
  8
0
  6
CONTINUOUS
 10
87.876689
 20
120.352195
 30
0.0
  0
VERTEX
  8
0
  6
CONTINUOUS
 10
87.903255
 20
120.369568
 30
0.0
  0
VERTEX
  8
0
  6
CONTINUOUS
 10
87.97184
 20
120.417459
 30
0.0
  0
VERTEX
  8
0
  6
CONTINUOUS
 10
88.152244
 20
120.558038
 30
0.0
  0
VERTEX
  8
0
  6
CONTINUOUS
 10
88.547964
 20
120.952044
 30
0.0
  0
VERTEX
  8
0
  6
CONTINUOUS
 10
88.896908
 20
121.469486
 30
0.0
  0
SEQEND
  8
0
  6
CONTINUOUS
  0
POLYLINE
  8
0
  6
CONTINUOUS
 66
     1
 10
0.0
 20
0.0
 30
0.0
  0
VERTEX
  8
0
  6
CONTINUOUS
 10
87.85566
 20
120.339283
 30
0.0
  0
VERTEX
  8
0
  6
CONTINUOUS
 10
87.852478
 20
120.337429
 30
0.0
  0
SEQEND
  8
0
  6
CONTINUOUS
  0
POLYLINE
  8
0
  6
CONTINUOUS
 66
     1
 10
0.0
 20
0.0
 30
0.0
  0
VERTEX
  8
0
  6
CONTINUOUS
 10
89.353417
 20
122.937132
 30
0.0
  0
VERTEX
  8
0
  6
CONTINUOUS
 10
89.353403
 20
122.933445
 30
0.0
  0
SEQEND
  8
0
  6
CONTINUOUS
  0
POLYLINE
  8
0
  6
CONTINUOUS
 66
     1
 10
0.0
 20
0.0
 30
0.0
  0
VERTEX
  8
0
  6
CONTINUOUS
 10
88.896908
 20
121.469486
 30
0.0
  0
VERTEX
  8
0
  6
CONTINUOUS
 10
89.201537
 20
122.12112
 30
0.0
  0
VERTEX
  8
0
  6
CONTINUOUS
 10
89.343024
 20
122.78632
 30
0.0
  0
VERTEX
  8
0
  6
CONTINUOUS
 10
89.351707
 20
122.888766
 30
0.0
  0
VERTEX
  8
0
  6
CONTINUOUS
 10
89.353013
 20
122.915944
 30
0.0
  0
VERTEX
  8
0
  6
CONTINUOUS
 10
89.353403
 20
122.933445
 30
0.0
  0
SEQEND
  8
0
  6
CONTINUOUS
  0
POLYLINE
  8
0
  6
CONTINUOUS
 66
     1
 10
0.0
 20
0.0
 30
0.0
  0
VERTEX
  8
0
  6
CONTINUOUS
 10
70.229925
 20
110.985478
 30
0.0
  0
VERTEX
  8
0
  6
CONTINUOUS
 10
70.326159
 20
110.939071
 30
0.0
  0
VERTEX
  8
0
  6
CONTINUOUS
 10
70.419922
 20
110.905392
 30
0.0
  0
VERTEX
  8
0
  6
CONTINUOUS
 10
70.580868
 20
110.864923
 30
0.0
  0
VERTEX
  8
0
  6
CONTINUOUS
 10
70.918654
 20
110.833123
 30
0.0
  0
VERTEX
  8
0
  6
CONTINUOUS
 10
71.385711
 20
110.912667
 30
0.0
  0
VERTEX
  8
0
  6
CONTINUOUS
 10
71.644789
 20
111.010821
 30
0.0
  0
VERTEX
  8
0
  6
CONTINUOUS
 10
71.697672
 20
111.035997
 30
0.0
  0
VERTEX
  8
0
  6
CONTINUOUS
 10
71.718634
 20
111.04685
 30
0.0
  0
VERTEX
  8
0
  6
CONTINUOUS
 10
71.734482
 20
111.055643
 30
0.0
  0
SEQEND
  8
0
  6
CONTINUOUS
  0
POLYLINE
  8
0
  6
CONTINUOUS
 66
     1
 10
0.0
 20
0.0
 30
0.0
  0
VERTEX
  8
0
  6
CONTINUOUS
 10
89.353417
 20
148.095967
 30
0.0
  0
VERTEX
  8
0
  6
CONTINUOUS
 10
89.353168
 20
148.112147
 30
0.0
  0
VERTEX
  8
0
  6
CONTINUOUS
 10
89.35236
 20
148.131632
 30
0.0
  0
VERTEX
  8
0
  6
CONTINUOUS
 10
89.348837
 20
148.180495
 30
0.0
  0
VERTEX
  8
0
  6
CONTINUOUS
 10
89.333017
 20
148.310085
 30
0.0
  0
VERTEX
  8
0
  6
CONTINUOUS
 10
89.203087
 20
148.781726
 30
0.0
  0
VERTEX
  8
0
  6
CONTINUOUS
 10
89.092572
 20
148.990688
 30
0.0
  0
VERTEX
  8
0
  6
CONTINUOUS
 10
88.946114
 20
149.185511
 30
0.0
  0
VERTEX
  8
0
  6
CONTINUOUS
 10
88.842762
 20
149.294053
 30
0.0
  0
VERTEX
  8
0
  6
CONTINUOUS
 10
88.772949
 20
149.355892
 30
0.0
  0
VERTEX
  8
0
  6
CONTINUOUS
 10
88.661904
 20
149.434033
 30
0.0
  0
SEQEND
  8
0
  6
CONTINUOUS
  0
POLYLINE
  8
0
  6
CONTINUOUS
 66
     1
 10
0.0
 20
0.0
 30
0.0
  0
VERTEX
  8
0
  6
CONTINUOUS
 10
59.342008
 20
117.054085
 30
0.0
  0
VERTEX
  8
0
  6
CONTINUOUS
 10
64.785914
 20
114.019811
 30
0.0
  0
VERTEX
  8
0
  6
CONTINUOUS
 10
70.229903
 20
110.98549
 30
0.0
  0
SEQEND
  8
0
  6
CONTINUOUS
  0
POLYLINE
  8
0
  6
CONTINUOUS
 66
     1
 10
0.0
 20
0.0
 30
0.0
  0
VERTEX
  8
0
  6
CONTINUOUS
 10
88.661881
 20
149.434046
 30
0.0
  0
VERTEX
  8
0
  6
CONTINUOUS
 10
83.312089
 20
152.631518
 30
0.0
  0
VERTEX
  8
0
  6
CONTINUOUS
 10
77.962377
 20
155.828942
 30
0.0
  0
SEQEND
  8
0
  6
CONTINUOUS
  0
POLYLINE
  8
0
  6
CONTINUOUS
 66
     1
 10
0.0
 20
0.0
 30
0.0
  0
VERTEX
  8
0
  6
CONTINUOUS
 10
89.353417
 20
148.095968
 30
0.0
  0
VERTEX
  8
0
  6
CONTINUOUS
 10
89.353417
 20
135.51655
 30
0.0
  0
VERTEX
  8
0
  6
CONTINUOUS
 10
89.353417
 20
122.937132
 30
0.0
  0
SEQEND
  8
0
  6
CONTINUOUS
  0
POLYLINE
  8
0
  6
CONTINUOUS
 66
     1
 10
0.0
 20
0.0
 30
0.0
  0
VERTEX
  8
0
  6
CONTINUOUS
 10
71.135969
 20
90.03997
 30
0.0
  0
VERTEX
  8
0
  6
CONTINUOUS
 10
71.096818
 20
90.084548
 30
0.0
  0
VERTEX
  8
0
  6
CONTINUOUS
 10
71.082657
 20
90.155301
 30
0.0
  0
SEQEND
  8
0
  6
CONTINUOUS
  0
POLYLINE
  8
0
  6
CONTINUOUS
 66
     1
 10
0.0
 20
0.0
 30
0.0
  0
VERTEX
  8
0
  6
CONTINUOUS
 10
71.43619
 20
90.155313
 30
0.0
  0
VERTEX
  8
0
  6
CONTINUOUS
 10
71.423005
 20
90.083571
 30
0.0
  0
VERTEX
  8
0
  6
CONTINUOUS
 10
71.384328
 20
90.039031
 30
0.0
  0
SEQEND
  8
0
  6
CONTINUOUS
  0
POLYLINE
  8
0
  6
CONTINUOUS
 66
     1
 10
0.0
 20
0.0
 30
0.0
  0
VERTEX
  8
0
  6
CONTINUOUS
 10
87.48432
 20
99.261094
 30
0.0
  0
VERTEX
  8
0
  6
CONTINUOUS
 10
87.471134
 20
99.189352
 30
0.0
  0
VERTEX
  8
0
  6
CONTINUOUS
 10
87.432458
 20
99.144812
 30
0.0
  0
SEQEND
  8
0
  6
CONTINUOUS
  0
POLYLINE
  8
0
  6
CONTINUOUS
 66
     1
 10
0.0
 20
0.0
 30
0.0
  0
VERTEX
  8
0
  6
CONTINUOUS
 10
87.559092
 20
99.364149
 30
0.0
  0
VERTEX
  8
0
  6
CONTINUOUS
 10
87.539857
 20
99.308384
 30
0.0
  0
VERTEX
  8
0
  6
CONTINUOUS
 10
87.48432
 20
99.261094
 30
0.0
  0
SEQEND
  8
0
  6
CONTINUOUS
  0
POLYLINE
  8
0
  6
CONTINUOUS
 66
     1
 10
0.0
 20
0.0
 30
0.0
  0
VERTEX
  8
0
  6
CONTINUOUS
 10
71.43619
 20
90.155313
 30
0.0
  0
VERTEX
  8
0
  6
CONTINUOUS
 10
71.258783
 20
90.113401
 30
0.0
  0
VERTEX
  8
0
  6
CONTINUOUS
 10
71.082657
 20
90.155301
 30
0.0
  0
SEQEND
  8
0
  6
CONTINUOUS
  0
POLYLINE
  8
0
  6
CONTINUOUS
 66
     1
 10
0.0
 20
0.0
 30
0.0
  0
VERTEX
  8
0
  6
CONTINUOUS
 10
79.945497
 20
121.413833
 30
0.0
  0
VERTEX
  8
0
  6
CONTINUOUS
 10
79.924508
 20
121.541306
 30
0.0
  0
SEQEND
  8
0
  6
CONTINUOUS
  0
POLYLINE
  8
0
  6
CONTINUOUS
 66
     1
 10
0.0
 20
0.0
 30
0.0
  0
VERTEX
  8
0
  6
CONTINUOUS
 10
79.945497
 20
121.413833
 30
0.0
  0
VERTEX
  8
0
  6
CONTINUOUS
 10
79.875923
 20
121.313012
 30
0.0
  0
SEQEND
  8
0
  6
CONTINUOUS
  0
POLYLINE
  8
0
  6
CONTINUOUS
 66
     1
 10
0.0
 20
0.0
 30
0.0
  0
VERTEX
  8
0
  6
CONTINUOUS
 10
79.945507
 20
121.415217
 30
0.0
  0
VERTEX
  8
0
  6
CONTINUOUS
 10
79.945497
 20
121.413833
 30
0.0
  0
SEQEND
  8
0
  6
CONTINUOUS
  0
POLYLINE
  8
0
  6
CONTINUOUS
 66
     1
 10
0.0
 20
0.0
 30
0.0
  0
VERTEX
  8
0
  6
CONTINUOUS
 10
78.129911
 20
120.217628
 30
0.0
  0
VERTEX
  8
0
  6
CONTINUOUS
 10
78.421892
 20
120.06062
 30
0.0
  0
SEQEND
  8
0
  6
CONTINUOUS
  0
POLYLINE
  8
0
  6
CONTINUOUS
 66
     1
 10
0.0
 20
0.0
 30
0.0
  0
VERTEX
  8
0
  6
CONTINUOUS
 10
79.518402
 20
121.078537
 30
0.0
  0
VERTEX
  8
0
  6
CONTINUOUS
 10
79.452602
 20
121.231274
 30
0.0
  0
SEQEND
  8
0
  6
CONTINUOUS
  0
POLYLINE
  8
0
  6
CONTINUOUS
 66
     1
 10
0.0
 20
0.0
 30
0.0
  0
VERTEX
  8
0
  6
CONTINUOUS
 10
79.452602
 20
121.231274
 30
0.0
  0
VERTEX
  8
0
  6
CONTINUOUS
 10
79.585689
 20
121.340972
 30
0.0
  0
SEQEND
  8
0
  6
CONTINUOUS
  0
POLYLINE
  8
0
  6
CONTINUOUS
 66
     1
 10
0.0
 20
0.0
 30
0.0
  0
VERTEX
  8
0
  6
CONTINUOUS
 10
79.342588
 20
120.592783
 30
0.0
  0
VERTEX
  8
0
  6
CONTINUOUS
 10
79.342588
 20
121.116939
 30
0.0
  0
SEQEND
  8
0
  6
CONTINUOUS
  0
POLYLINE
  8
0
  6
CONTINUOUS
 66
     1
 10
0.0
 20
0.0
 30
0.0
  0
VERTEX
  8
0
  6
CONTINUOUS
 10
79.518402
 20
121.078537
 30
0.0
  0
VERTEX
  8
0
  6
CONTINUOUS
 10
79.342588
 20
121.116939
 30
0.0
  0
SEQEND
  8
0
  6
CONTINUOUS
  0
POLYLINE
  8
0
  6
CONTINUOUS
 66
     1
 10
0.0
 20
0.0
 30
0.0
  0
VERTEX
  8
0
  6
CONTINUOUS
 10
79.693029
 20
121.118705
 30
0.0
  0
VERTEX
  8
0
  6
CONTINUOUS
 10
79.518402
 20
121.078537
 30
0.0
  0
SEQEND
  8
0
  6
CONTINUOUS
  0
POLYLINE
  8
0
  6
CONTINUOUS
 66
     1
 10
0.0
 20
0.0
 30
0.0
  0
VERTEX
  8
0
  6
CONTINUOUS
 10
79.875923
 20
121.313012
 30
0.0
  0
VERTEX
  8
0
  6
CONTINUOUS
 10
79.825372
 20
121.484708
 30
0.0
  0
SEQEND
  8
0
  6
CONTINUOUS
  0
POLYLINE
  8
0
  6
CONTINUOUS
 66
     1
 10
0.0
 20
0.0
 30
0.0
  0
VERTEX
  8
0
  6
CONTINUOUS
 10
79.875923
 20
121.313012
 30
0.0
  0
VERTEX
  8
0
  6
CONTINUOUS
 10
79.875923
 20
120.900819
 30
0.0
  0
SEQEND
  8
0
  6
CONTINUOUS
  0
POLYLINE
  8
0
  6
CONTINUOUS
 66
     1
 10
0.0
 20
0.0
 30
0.0
  0
VERTEX
  8
0
  6
CONTINUOUS
 10
79.693029
 20
120.795225
 30
0.0
  0
VERTEX
  8
0
  6
CONTINUOUS
 10
79.693029
 20
121.118705
 30
0.0
  0
SEQEND
  8
0
  6
CONTINUOUS
  0
POLYLINE
  8
0
  6
CONTINUOUS
 66
     1
 10
0.0
 20
0.0
 30
0.0
  0
VERTEX
  8
0
  6
CONTINUOUS
 10
79.585689
 20
121.340972
 30
0.0
  0
VERTEX
  8
0
  6
CONTINUOUS
 10
79.693029
 20
121.118705
 30
0.0
  0
SEQEND
  8
0
  6
CONTINUOUS
  0
POLYLINE
  8
0
  6
CONTINUOUS
 66
     1
 10
0.0
 20
0.0
 30
0.0
  0
VERTEX
  8
0
  6
CONTINUOUS
 10
79.581533
 20
121.3433
 30
0.0
  0
VERTEX
  8
0
  6
CONTINUOUS
 10
79.585689
 20
121.340972
 30
0.0
  0
SEQEND
  8
0
  6
CONTINUOUS
  0
POLYLINE
  8
0
  6
CONTINUOUS
 66
     1
 10
0.0
 20
0.0
 30
0.0
  0
VERTEX
  8
0
  6
CONTINUOUS
 10
77.097724
 20
120.766608
 30
0.0
  0
VERTEX
  8
0
  6
CONTINUOUS
 10
73.972841
 20
122.57076
 30
0.0
  0
VERTEX
  8
0
  6
CONTINUOUS
 10
73.602505
 20
122.784574
 30
0.0
  0
SEQEND
  8
0
  6
CONTINUOUS
  0
POLYLINE
  8
0
  6
CONTINUOUS
 66
     1
 10
0.0
 20
0.0
 30
0.0
  0
VERTEX
  8
0
  6
CONTINUOUS
 10
73.433713
 20
122.632747
 30
0.0
  0
VERTEX
  8
0
  6
CONTINUOUS
 10
73.972841
 20
122.342841
 30
0.0
  0
VERTEX
  8
0
  6
CONTINUOUS
 10
77.097724
 20
120.662495
 30
0.0
  0
SEQEND
  8
0
  6
CONTINUOUS
  0
POLYLINE
  8
0
  6
CONTINUOUS
 66
     1
 10
0.0
 20
0.0
 30
0.0
  0
VERTEX
  8
0
  6
CONTINUOUS
 10
79.415327
 20
121.247217
 30
0.0
  0
VERTEX
  8
0
  6
CONTINUOUS
 10
79.452602
 20
121.231274
 30
0.0
  0
SEQEND
  8
0
  6
CONTINUOUS
  0
POLYLINE
  8
0
  6
CONTINUOUS
 66
     1
 10
0.0
 20
0.0
 30
0.0
  0
VERTEX
  8
0
  6
CONTINUOUS
 10
79.351272
 20
121.210585
 30
0.0
  0
VERTEX
  8
0
  6
CONTINUOUS
 10
79.452602
 20
121.231274
 30
0.0
  0
SEQEND
  8
0
  6
CONTINUOUS
  0
POLYLINE
  8
0
  6
CONTINUOUS
 66
     1
 10
0.0
 20
0.0
 30
0.0
  0
VERTEX
  8
0
  6
CONTINUOUS
 10
79.263417
 20
121.159512
 30
0.0
  0
VERTEX
  8
0
  6
CONTINUOUS
 10
79.342588
 20
121.116939
 30
0.0
  0
SEQEND
  8
0
  6
CONTINUOUS
  0
POLYLINE
  8
0
  6
CONTINUOUS
 66
     1
 10
0.0
 20
0.0
 30
0.0
  0
VERTEX
  8
0
  6
CONTINUOUS
 10
79.342588
 20
121.116939
 30
0.0
  0
VERTEX
  8
0
  6
CONTINUOUS
 10
79.322587
 20
121.194035
 30
0.0
  0
SEQEND
  8
0
  6
CONTINUOUS
  0
POLYLINE
  8
0
  6
CONTINUOUS
 66
     1
 10
0.0
 20
0.0
 30
0.0
  0
VERTEX
  8
0
  6
CONTINUOUS
 10
77.097803
 20
121.174749
 30
0.0
  0
VERTEX
  8
0
  6
CONTINUOUS
 10
74.149591
 20
122.8769
 30
0.0
  0
VERTEX
  8
0
  6
CONTINUOUS
 10
73.64295
 20
123.169409
 30
0.0
  0
SEQEND
  8
0
  6
CONTINUOUS
  0
POLYLINE
  8
0
  6
CONTINUOUS
 66
     1
 10
0.0
 20
0.0
 30
0.0
  0
VERTEX
  8
0
  6
CONTINUOUS
 10
78.666316
 20
122.24347
 30
0.0
  0
VERTEX
  8
0
  6
CONTINUOUS
 10
75.949637
 20
123.923402
 30
0.0
  0
VERTEX
  8
0
  6
CONTINUOUS
 10
73.537597
 20
125.414953
 30
0.0
  0
SEQEND
  8
0
  6
CONTINUOUS
  0
POLYLINE
  8
0
  6
CONTINUOUS
 66
     1
 10
0.0
 20
0.0
 30
0.0
  0
VERTEX
  8
0
  6
CONTINUOUS
 10
82.082627
 20
141.032688
 30
0.0
  0
VERTEX
  8
0
  6
CONTINUOUS
 10
82.082627
 20
143.294118
 30
0.0
  0
VERTEX
  8
0
  6
CONTINUOUS
 10
82.082627
 20
144.829017
 30
0.0
  0
SEQEND
  8
0
  6
CONTINUOUS
  0
POLYLINE
  8
0
  6
CONTINUOUS
 66
     1
 10
0.0
 20
0.0
 30
0.0
  0
VERTEX
  8
0
  6
CONTINUOUS
 10
78.494082
 20
141.638293
 30
0.0
  0
VERTEX
  8
0
  6
CONTINUOUS
 10
78.149924
 20
141.30635
 30
0.0
  0
VERTEX
  8
0
  6
CONTINUOUS
 10
77.96898
 20
140.880176
 30
0.0
  0
SEQEND
  8
0
  6
CONTINUOUS
  0
POLYLINE
  8
0
  6
CONTINUOUS
 66
     1
 10
0.0
 20
0.0
 30
0.0
  0
VERTEX
  8
0
  6
CONTINUOUS
 10
80.66836
 20
134.500746
 30
0.0
  0
VERTEX
  8
0
  6
CONTINUOUS
 10
80.556288
 20
134.463389
 30
0.0
  0
VERTEX
  8
0
  6
CONTINUOUS
 10
80.426878
 20
134.463389
 30
0.0
  0
VERTEX
  8
0
  6
CONTINUOUS
 10
80.314806
 20
134.500746
 30
0.0
  0
SEQEND
  8
0
  6
CONTINUOUS
  0
POLYLINE
  8
0
  6
CONTINUOUS
 66
     1
 10
0.0
 20
0.0
 30
0.0
  0
VERTEX
  8
0
  6
CONTINUOUS
 10
80.66836
 20
134.500746
 30
0.0
  0
VERTEX
  8
0
  6
CONTINUOUS
 10
80.654901
 20
134.430394
 30
0.0
  0
VERTEX
  8
0
  6
CONTINUOUS
 10
80.616572
 20
134.386296
 30
0.0
  0
SEQEND
  8
0
  6
CONTINUOUS
  0
POLYLINE
  8
0
  6
CONTINUOUS
 66
     1
 10
0.0
 20
0.0
 30
0.0
  0
VERTEX
  8
0
  6
CONTINUOUS
 10
80.369911
 20
134.384415
 30
0.0
  0
VERTEX
  8
0
  6
CONTINUOUS
 10
80.329761
 20
134.429054
 30
0.0
  0
VERTEX
  8
0
  6
CONTINUOUS
 10
80.314806
 20
134.500746
 30
0.0
  0
SEQEND
  8
0
  6
CONTINUOUS
  0
POLYLINE
  8
0
  6
CONTINUOUS
 66
     1
 10
0.0
 20
0.0
 30
0.0
  0
VERTEX
  8
0
  6
CONTINUOUS
 10
82.433068
 20
140.830361
 30
0.0
  0
VERTEX
  8
0
  6
CONTINUOUS
 10
82.433068
 20
143.295884
 30
0.0
  0
VERTEX
  8
0
  6
CONTINUOUS
 10
82.433068
 20
145.03146
 30
0.0
  0
SEQEND
  8
0
  6
CONTINUOUS
  0
POLYLINE
  8
0
  6
CONTINUOUS
 66
     1
 10
0.0
 20
0.0
 30
0.0
  0
VERTEX
  8
0
  6
CONTINUOUS
 10
83.09729
 20
135.818539
 30
0.0
  0
VERTEX
  8
0
  6
CONTINUOUS
 10
83.136288
 20
135.863023
 30
0.0
  0
VERTEX
  8
0
  6
CONTINUOUS
 10
83.149982
 20
135.933512
 30
0.0
  0
SEQEND
  8
0
  6
CONTINUOUS
  0
POLYLINE
  8
0
  6
CONTINUOUS
 66
     1
 10
0.0
 20
0.0
 30
0.0
  0
VERTEX
  8
0
  6
CONTINUOUS
 10
78.21624
 20
136.104182
 30
0.0
  0
VERTEX
  8
0
  6
CONTINUOUS
 10
78.014201
 20
136.050046
 30
0.0
  0
VERTEX
  8
0
  6
CONTINUOUS
 10
77.866298
 20
136.135438
 30
0.0
  0
VERTEX
  8
0
  6
CONTINUOUS
 10
77.812162
 20
136.337477
 30
0.0
  0
SEQEND
  8
0
  6
CONTINUOUS
  0
POLYLINE
  8
0
  6
CONTINUOUS
 66
     1
 10
0.0
 20
0.0
 30
0.0
  0
VERTEX
  8
0
  6
CONTINUOUS
 10
82.079488
 20
141.034469
 30
0.0
  0
VERTEX
  8
0
  6
CONTINUOUS
 10
82.081057
 20
141.033587
 30
0.0
  0
VERTEX
  8
0
  6
CONTINUOUS
 10
82.082627
 20
141.032688
 30
0.0
  0
SEQEND
  8
0
  6
CONTINUOUS
  0
POLYLINE
  8
0
  6
CONTINUOUS
 66
     1
 10
0.0
 20
0.0
 30
0.0
  0
VERTEX
  8
0
  6
CONTINUOUS
 10
82.433068
 20
140.830361
 30
0.0
  0
VERTEX
  8
0
  6
CONTINUOUS
 10
82.366092
 20
140.872796
 30
0.0
  0
VERTEX
  8
0
  6
CONTINUOUS
 10
82.280394
 20
140.923013
 30
0.0
  0
VERTEX
  8
0
  6
CONTINUOUS
 10
82.180748
 20
140.978284
 30
0.0
  0
VERTEX
  8
0
  6
CONTINUOUS
 10
82.082627
 20
141.032688
 30
0.0
  0
SEQEND
  8
0
  6
CONTINUOUS
  0
POLYLINE
  8
0
  6
CONTINUOUS
 66
     1
 10
0.0
 20
0.0
 30
0.0
  0
VERTEX
  8
0
  6
CONTINUOUS
 10
79.784476
 20
139.709444
 30
0.0
  0
VERTEX
  8
0
  6
CONTINUOUS
 10
79.855527
 20
140.056651
 30
0.0
  0
VERTEX
  8
0
  6
CONTINUOUS
 10
80.049641
 20
140.392867
 30
0.0
  0
VERTEX
  8
0
  6
CONTINUOUS
 10
80.314806
 20
140.628003
 30
0.0
  0
SEQEND
  8
0
  6
CONTINUOUS
  0
POLYLINE
  8
0
  6
CONTINUOUS
 66
     1
 10
0.0
 20
0.0
 30
0.0
  0
VERTEX
  8
0
  6
CONTINUOUS
 10
80.314806
 20
139.403258
 30
0.0
  0
VERTEX
  8
0
  6
CONTINUOUS
 10
80.385857
 20
139.750465
 30
0.0
  0
VERTEX
  8
0
  6
CONTINUOUS
 10
80.579971
 20
140.086681
 30
0.0
  0
VERTEX
  8
0
  6
CONTINUOUS
 10
80.845137
 20
140.321816
 30
0.0
  0
SEQEND
  8
0
  6
CONTINUOUS
  0
POLYLINE
  8
0
  6
CONTINUOUS
 66
     1
 10
0.0
 20
0.0
 30
0.0
  0
VERTEX
  8
0
  6
CONTINUOUS
 10
80.845137
 20
140.321816
 30
0.0
  0
VERTEX
  8
0
  6
CONTINUOUS
 10
80.933525
 20
140.243438
 30
0.0
  0
VERTEX
  8
0
  6
CONTINUOUS
 10
80.99823
 20
140.131366
 30
0.0
  0
VERTEX
  8
0
  6
CONTINUOUS
 10
81.021913
 20
140.01563
 30
0.0
  0
SEQEND
  8
0
  6
CONTINUOUS
  0
POLYLINE
  8
0
  6
CONTINUOUS
 66
     1
 10
0.0
 20
0.0
 30
0.0
  0
VERTEX
  8
0
  6
CONTINUOUS
 10
80.66836
 20
139.403258
 30
0.0
  0
VERTEX
  8
0
  6
CONTINUOUS
 10
80.771913
 20
139.751719
 30
0.0
  0
VERTEX
  8
0
  6
CONTINUOUS
 10
81.021913
 20
140.01563
 30
0.0
  0
SEQEND
  8
0
  6
CONTINUOUS
  0
POLYLINE
  8
0
  6
CONTINUOUS
 66
     1
 10
0.0
 20
0.0
 30
0.0
  0
VERTEX
  8
0
  6
CONTINUOUS
 10
80.66836
 20
139.403258
 30
0.0
  0
VERTEX
  8
0
  6
CONTINUOUS
 10
80.556288
 20
139.3659
 30
0.0
  0
VERTEX
  8
0
  6
CONTINUOUS
 10
80.426878
 20
139.3659
 30
0.0
  0
VERTEX
  8
0
  6
CONTINUOUS
 10
80.314806
 20
139.403258
 30
0.0
  0
SEQEND
  8
0
  6
CONTINUOUS
  0
POLYLINE
  8
0
  6
CONTINUOUS
 66
     1
 10
0.0
 20
0.0
 30
0.0
  0
VERTEX
  8
0
  6
CONTINUOUS
 10
79.360212
 20
132.034376
 30
0.0
  0
VERTEX
  8
0
  6
CONTINUOUS
 10
79.254146
 20
132.005956
 30
0.0
  0
VERTEX
  8
0
  6
CONTINUOUS
 10
79.176501
 20
132.050785
 30
0.0
  0
VERTEX
  8
0
  6
CONTINUOUS
 10
79.14808
 20
132.156851
 30
0.0
  0
SEQEND
  8
0
  6
CONTINUOUS
  0
POLYLINE
  8
0
  6
CONTINUOUS
 66
     1
 10
0.0
 20
0.0
 30
0.0
  0
VERTEX
  8
0
  6
CONTINUOUS
 10
79.14808
 20
132.156851
 30
0.0
  0
VERTEX
  8
0
  6
CONTINUOUS
 10
79.176501
 20
132.295734
 30
0.0
  0
VERTEX
  8
0
  6
CONTINUOUS
 10
79.254146
 20
132.43022
 30
0.0
  0
VERTEX
  8
0
  6
CONTINUOUS
 10
79.360212
 20
132.524274
 30
0.0
  0
SEQEND
  8
0
  6
CONTINUOUS
  0
POLYLINE
  8
0
  6
CONTINUOUS
 66
     1
 10
0.0
 20
0.0
 30
0.0
  0
VERTEX
  8
0
  6
CONTINUOUS
 10
76.072139
 20
128.027367
 30
0.0
  0
VERTEX
  8
0
  6
CONTINUOUS
 10
75.947155
 20
128.014981
 30
0.0
  0
VERTEX
  8
0
  6
CONTINUOUS
 10
75.895389
 20
128.129413
 30
0.0
  0
SEQEND
  8
0
  6
CONTINUOUS
  0
POLYLINE
  8
0
  6
CONTINUOUS
 66
     1
 10
0.0
 20
0.0
 30
0.0
  0
VERTEX
  8
0
  6
CONTINUOUS
 10
79.784476
 20
130.578872
 30
0.0
  0
VERTEX
  8
0
  6
CONTINUOUS
 10
79.680945
 20
130.23046
 30
0.0
  0
VERTEX
  8
0
  6
CONTINUOUS
 10
79.430977
 20
129.966593
 30
0.0
  0
SEQEND
  8
0
  6
CONTINUOUS
  0
POLYLINE
  8
0
  6
CONTINUOUS
 66
     1
 10
0.0
 20
0.0
 30
0.0
  0
VERTEX
  8
0
  6
CONTINUOUS
 10
79.430869
 20
132.565068
 30
0.0
  0
VERTEX
  8
0
  6
CONTINUOUS
 10
79.680907
 20
132.589854
 30
0.0
  0
VERTEX
  8
0
  6
CONTINUOUS
 10
79.784476
 20
132.360975
 30
0.0
  0
SEQEND
  8
0
  6
CONTINUOUS
  0
POLYLINE
  8
0
  6
CONTINUOUS
 66
     1
 10
0.0
 20
0.0
 30
0.0
  0
VERTEX
  8
0
  6
CONTINUOUS
 10
78.736105
 20
132.980442
 30
0.0
  0
VERTEX
  8
0
  6
CONTINUOUS
 10
78.872889
 20
133.027634
 30
0.0
  0
VERTEX
  8
0
  6
CONTINUOUS
 10
78.988376
 20
133.003916
 30
0.0
  0
SEQEND
  8
0
  6
CONTINUOUS
  0
POLYLINE
  8
0
  6
CONTINUOUS
 66
     1
 10
0.0
 20
0.0
 30
0.0
  0
VERTEX
  8
0
  6
CONTINUOUS
 10
78.953496
 20
135.173634
 30
0.0
  0
VERTEX
  8
0
  6
CONTINUOUS
 10
78.914354
 20
135.217712
 30
0.0
  0
VERTEX
  8
0
  6
CONTINUOUS
 10
78.900593
 20
135.288739
 30
0.0
  0
SEQEND
  8
0
  6
CONTINUOUS
  0
POLYLINE
  8
0
  6
CONTINUOUS
 66
     1
 10
0.0
 20
0.0
 30
0.0
  0
VERTEX
  8
0
  6
CONTINUOUS
 10
75.229926
 20
128.400614
 30
0.0
  0
VERTEX
  8
0
  6
CONTINUOUS
 10
75.189995
 20
128.444633
 30
0.0
  0
VERTEX
  8
0
  6
CONTINUOUS
 10
75.17594
 20
128.516284
 30
0.0
  0
SEQEND
  8
0
  6
CONTINUOUS
  0
POLYLINE
  8
0
  6
CONTINUOUS
 66
     1
 10
0.0
 20
0.0
 30
0.0
  0
VERTEX
  8
0
  6
CONTINUOUS
 10
85.671194
 20
146.231196
 30
0.0
  0
VERTEX
  8
0
  6
CONTINUOUS
 10
85.671194
 20
146.903969
 30
0.0
  0
SEQEND
  8
0
  6
CONTINUOUS
  0
POLYLINE
  8
0
  6
CONTINUOUS
 66
     1
 10
0.0
 20
0.0
 30
0.0
  0
VERTEX
  8
0
  6
CONTINUOUS
 10
86.021635
 20
146.45347
 30
0.0
  0
VERTEX
  8
0
  6
CONTINUOUS
 10
86.021635
 20
147.106342
 30
0.0
  0
SEQEND
  8
0
  6
CONTINUOUS
  0
POLYLINE
  8
0
  6
CONTINUOUS
 66
     1
 10
0.0
 20
0.0
 30
0.0
  0
VERTEX
  8
0
  6
CONTINUOUS
 10
86.098463
 20
135.158287
 30
0.0
  0
VERTEX
  8
0
  6
CONTINUOUS
 10
86.098463
 20
136.122733
 30
0.0
  0
SEQEND
  8
0
  6
CONTINUOUS
  0
POLYLINE
  8
0
  6
CONTINUOUS
 66
     1
 10
0.0
 20
0.0
 30
0.0
  0
VERTEX
  8
0
  6
CONTINUOUS
 10
86.098463
 20
146.497827
 30
0.0
  0
VERTEX
  8
0
  6
CONTINUOUS
 10
86.098463
 20
147.150699
 30
0.0
  0
SEQEND
  8
0
  6
CONTINUOUS
  0
POLYLINE
  8
0
  6
CONTINUOUS
 66
     1
 10
0.0
 20
0.0
 30
0.0
  0
VERTEX
  8
0
  6
CONTINUOUS
 10
81.587294
 20
132.073025
 30
0.0
  0
VERTEX
  8
0
  6
CONTINUOUS
 10
81.584919
 20
132.074349
 30
0.0
  0
VERTEX
  8
0
  6
CONTINUOUS
 10
81.545871
 20
132.116862
 30
0.0
  0
VERTEX
  8
0
  6
CONTINUOUS
 10
81.531221
 20
132.185507
 30
0.0
  0
SEQEND
  8
0
  6
CONTINUOUS
  0
POLYLINE
  8
0
  6
CONTINUOUS
 66
     1
 10
0.0
 20
0.0
 30
0.0
  0
VERTEX
  8
0
  6
CONTINUOUS
 10
82.702699
 20
131.555567
 30
0.0
  0
VERTEX
  8
0
  6
CONTINUOUS
 10
81.531221
 20
132.185507
 30
0.0
  0
SEQEND
  8
0
  6
CONTINUOUS
  0
POLYLINE
  8
0
  6
CONTINUOUS
 66
     1
 10
0.0
 20
0.0
 30
0.0
  0
VERTEX
  8
0
  6
CONTINUOUS
 10
75.895389
 20
128.211125
 30
0.0
  0
VERTEX
  8
0
  6
CONTINUOUS
 10
75.947155
 20
128.385332
 30
0.0
  0
VERTEX
  8
0
  6
CONTINUOUS
 10
76.072139
 20
128.517265
 30
0.0
  0
SEQEND
  8
0
  6
CONTINUOUS
  0
POLYLINE
  8
0
  6
CONTINUOUS
 66
     1
 10
0.0
 20
0.0
 30
0.0
  0
VERTEX
  8
0
  6
CONTINUOUS
 10
75.17594
 20
128.6265
 30
0.0
  0
VERTEX
  8
0
  6
CONTINUOUS
 10
75.227705
 20
128.800706
 30
0.0
  0
VERTEX
  8
0
  6
CONTINUOUS
 10
75.352689
 20
128.932639
 30
0.0
  0
SEQEND
  8
0
  6
CONTINUOUS
  0
POLYLINE
  8
0
  6
CONTINUOUS
 66
     1
 10
0.0
 20
0.0
 30
0.0
  0
VERTEX
  8
0
  6
CONTINUOUS
 10
78.209344
 20
132.69883
 30
0.0
  0
VERTEX
  8
0
  6
CONTINUOUS
 10
78.19916
 20
132.860002
 30
0.0
  0
VERTEX
  8
0
  6
CONTINUOUS
 10
78.248545
 20
133.010804
 30
0.0
  0
VERTEX
  8
0
  6
CONTINUOUS
 10
78.344267
 20
133.110831
 30
0.0
  0
SEQEND
  8
0
  6
CONTINUOUS
  0
POLYLINE
  8
0
  6
CONTINUOUS
 66
     1
 10
0.0
 20
0.0
 30
0.0
  0
VERTEX
  8
0
  6
CONTINUOUS
 10
78.326118
 20
132.529949
 30
0.0
  0
VERTEX
  8
0
  6
CONTINUOUS
 10
78.255056
 20
132.597331
 30
0.0
  0
VERTEX
  8
0
  6
CONTINUOUS
 10
78.209344
 20
132.69883
 30
0.0
  0
SEQEND
  8
0
  6
CONTINUOUS
  0
POLYLINE
  8
0
  6
CONTINUOUS
 66
     1
 10
0.0
 20
0.0
 30
0.0
  0
VERTEX
  8
0
  6
CONTINUOUS
 10
87.854279
 20
120.338478
 30
0.0
  0
VERTEX
  8
0
  6
CONTINUOUS
 10
87.85566
 20
120.339283
 30
0.0
  0
SEQEND
  8
0
  6
CONTINUOUS
  0
POLYLINE
  8
0
  6
CONTINUOUS
 66
     1
 10
0.0
 20
0.0
 30
0.0
  0
VERTEX
  8
0
  6
CONTINUOUS
 10
89.35341
 20
122.935048
 30
0.0
  0
VERTEX
  8
0
  6
CONTINUOUS
 10
89.353403
 20
122.933445
 30
0.0
  0
SEQEND
  8
0
  6
CONTINUOUS
  0
POLYLINE
  8
0
  6
CONTINUOUS
 66
     1
 10
0.0
 20
0.0
 30
0.0
  0
VERTEX
  8
0
  6
CONTINUOUS
 10
88.896908
 20
121.469487
 30
0.0
  0
VERTEX
  8
0
  6
CONTINUOUS
 10
88.801382
 20
121.522715
 30
0.0
  0
SEQEND
  8
0
  6
CONTINUOUS
  0
POLYLINE
  8
0
  6
CONTINUOUS
 66
     1
 10
0.0
 20
0.0
 30
0.0
  0
VERTEX
  8
0
  6
CONTINUOUS
 10
70.710477
 20
111.001328
 30
0.0
  0
VERTEX
  8
0
  6
CONTINUOUS
 10
70.350361
 20
111.392563
 30
0.0
  0
VERTEX
  8
0
  6
CONTINUOUS
 10
70.237151
 20
111.922214
 30
0.0
  0
SEQEND
  8
0
  6
CONTINUOUS
  0
POLYLINE
  8
0
  6
CONTINUOUS
 66
     1
 10
0.0
 20
0.0
 30
0.0
  0
VERTEX
  8
0
  6
CONTINUOUS
 10
70.218536
 20
110.991939
 30
0.0
  0
VERTEX
  8
0
  6
CONTINUOUS
 10
70.710477
 20
111.001328
 30
0.0
  0
SEQEND
  8
0
  6
CONTINUOUS
  0
POLYLINE
  8
0
  6
CONTINUOUS
 66
     1
 10
0.0
 20
0.0
 30
0.0
  0
VERTEX
  8
0
  6
CONTINUOUS
 10
70.710477
 20
111.001328
 30
0.0
  0
VERTEX
  8
0
  6
CONTINUOUS
 10
71.222518
 20
110.890532
 30
0.0
  0
VERTEX
  8
0
  6
CONTINUOUS
 10
71.736281
 20
111.056691
 30
0.0
  0
SEQEND
  8
0
  6
CONTINUOUS
  0
POLYLINE
  8
0
  6
CONTINUOUS
 66
     1
 10
0.0
 20
0.0
 30
0.0
  0
VERTEX
  8
0
  6
CONTINUOUS
 10
70.710477
 20
111.001328
 30
0.0
  0
VERTEX
  8
0
  6
CONTINUOUS
 10
71.107785
 20
111.331255
 30
0.0
  0
SEQEND
  8
0
  6
CONTINUOUS
  0
POLYLINE
  8
0
  6
CONTINUOUS
 66
     1
 10
0.0
 20
0.0
 30
0.0
  0
VERTEX
  8
0
  6
CONTINUOUS
 10
88.801382
 20
148.500896
 30
0.0
  0
VERTEX
  8
0
  6
CONTINUOUS
 10
88.88697
 20
149.010794
 30
0.0
  0
SEQEND
  8
0
  6
CONTINUOUS
  0
POLYLINE
  8
0
  6
CONTINUOUS
 66
     1
 10
0.0
 20
0.0
 30
0.0
  0
VERTEX
  8
0
  6
CONTINUOUS
 10
89.35341
 20
148.093884
 30
0.0
  0
VERTEX
  8
0
  6
CONTINUOUS
 10
89.239835
 20
148.623745
 30
0.0
  0
VERTEX
  8
0
  6
CONTINUOUS
 10
88.88697
 20
149.010794
 30
0.0
  0
SEQEND
  8
0
  6
CONTINUOUS
  0
POLYLINE
  8
0
  6
CONTINUOUS
 66
     1
 10
0.0
 20
0.0
 30
0.0
  0
VERTEX
  8
0
  6
CONTINUOUS
 10
88.650614
 20
149.440666
 30
0.0
  0
VERTEX
  8
0
  6
CONTINUOUS
 10
88.88697
 20
149.010794
 30
0.0
  0
SEQEND
  8
0
  6
CONTINUOUS
  0
POLYLINE
  8
0
  6
CONTINUOUS
 66
     1
 10
0.0
 20
0.0
 30
0.0
  0
VERTEX
  8
0
  6
CONTINUOUS
 10
88.88697
 20
149.010794
 30
0.0
  0
VERTEX
  8
0
  6
CONTINUOUS
 10
88.368129
 20
149.125517
 30
0.0
  0
VERTEX
  8
0
  6
CONTINUOUS
 10
87.854279
 20
148.959408
 30
0.0
  0
SEQEND
  8
0
  6
CONTINUOUS
  0
POLYLINE
  8
0
  6
CONTINUOUS
 66
     1
 10
0.0
 20
0.0
 30
0.0
  0
VERTEX
  8
0
  6
CONTINUOUS
 10
70.708995
 20
138.537966
 30
0.0
  0
VERTEX
  8
0
  6
CONTINUOUS
 10
71.220621
 20
139.24918
 30
0.0
  0
VERTEX
  8
0
  6
CONTINUOUS
 10
71.736281
 20
139.67762
 30
0.0
  0
SEQEND
  8
0
  6
CONTINUOUS
  0
POLYLINE
  8
0
  6
CONTINUOUS
 66
     1
 10
0.0
 20
0.0
 30
0.0
  0
VERTEX
  8
0
  6
CONTINUOUS
 10
70.218536
 20
138.822844
 30
0.0
  0
VERTEX
  8
0
  6
CONTINUOUS
 10
70.708995
 20
138.537966
 30
0.0
  0
SEQEND
  8
0
  6
CONTINUOUS
  0
POLYLINE
  8
0
  6
CONTINUOUS
 66
     1
 10
0.0
 20
0.0
 30
0.0
  0
VERTEX
  8
0
  6
CONTINUOUS
 10
70.708995
 20
138.537966
 30
0.0
  0
VERTEX
  8
0
  6
CONTINUOUS
 10
70.350221
 20
137.739574
 30
0.0
  0
VERTEX
  8
0
  6
CONTINUOUS
 10
70.237151
 20
137.08105
 30
0.0
  0
SEQEND
  8
0
  6
CONTINUOUS
  0
POLYLINE
  8
0
  6
CONTINUOUS
 66
     1
 10
0.0
 20
0.0
 30
0.0
  0
VERTEX
  8
0
  6
CONTINUOUS
 10
70.708995
 20
138.537966
 30
0.0
  0
VERTEX
  8
0
  6
CONTINUOUS
 10
71.107785
 20
138.309436
 30
0.0
  0
SEQEND
  8
0
  6
CONTINUOUS
  0
POLYLINE
  8
0
  6
CONTINUOUS
 66
     1
 10
0.0
 20
0.0
 30
0.0
  0
VERTEX
  8
0
  6
CONTINUOUS
 10
69.708245
 20
112.039931
 30
0.0
  0
VERTEX
  8
0
  6
CONTINUOUS
 10
69.849832
 20
111.393154
 30
0.0
  0
VERTEX
  8
0
  6
CONTINUOUS
 10
70.218536
 20
110.991939
 30
0.0
  0
SEQEND
  8
0
  6
CONTINUOUS
  0
POLYLINE
  8
0
  6
CONTINUOUS
 66
     1
 10
0.0
 20
0.0
 30
0.0
  0
VERTEX
  8
0
  6
CONTINUOUS
 10
70.229868
 20
110.98551
 30
0.0
  0
VERTEX
  8
0
  6
CONTINUOUS
 10
70.218536
 20
110.991939
 30
0.0
  0
SEQEND
  8
0
  6
CONTINUOUS
  0
POLYLINE
  8
0
  6
CONTINUOUS
 66
     1
 10
0.0
 20
0.0
 30
0.0
  0
VERTEX
  8
0
  6
CONTINUOUS
 10
88.650614
 20
149.440666
 30
0.0
  0
VERTEX
  8
0
  6
CONTINUOUS
 10
88.661848
 20
149.434067
 30
0.0
  0
SEQEND
  8
0
  6
CONTINUOUS
  0
POLYLINE
  8
0
  6
CONTINUOUS
 66
     1
 10
0.0
 20
0.0
 30
0.0
  0
VERTEX
  8
0
  6
CONTINUOUS
 10
88.650614
 20
149.440666
 30
0.0
  0
VERTEX
  8
0
  6
CONTINUOUS
 10
88.118799
 20
149.559365
 30
0.0
  0
VERTEX
  8
0
  6
CONTINUOUS
 10
87.48788
 20
149.358595
 30
0.0
  0
SEQEND
  8
0
  6
CONTINUOUS
  0
POLYLINE
  8
0
  6
CONTINUOUS
 66
     1
 10
0.0
 20
0.0
 30
0.0
  0
VERTEX
  8
0
  6
CONTINUOUS
 10
71.369883
 20
140.076808
 30
0.0
  0
VERTEX
  8
0
  6
CONTINUOUS
 10
70.747505
 20
139.553987
 30
0.0
  0
VERTEX
  8
0
  6
CONTINUOUS
 10
70.218536
 20
138.822844
 30
0.0
  0
SEQEND
  8
0
  6
CONTINUOUS
  0
POLYLINE
  8
0
  6
CONTINUOUS
 66
     1
 10
0.0
 20
0.0
 30
0.0
  0
VERTEX
  8
0
  6
CONTINUOUS
 10
70.218536
 20
138.822844
 30
0.0
  0
VERTEX
  8
0
  6
CONTINUOUS
 10
69.849832
 20
137.999172
 30
0.0
  0
VERTEX
  8
0
  6
CONTINUOUS
 10
69.708245
 20
137.198767
 30
0.0
  0
SEQEND
  8
0
  6
CONTINUOUS
  0
POLYLINE
  8
0
  6
CONTINUOUS
 66
     1
 10
0.0
 20
0.0
 30
0.0
  0
VERTEX
  8
0
  6
CONTINUOUS
 10
89.35341
 20
148.093884
 30
0.0
  0
VERTEX
  8
0
  6
CONTINUOUS
 10
89.14491
 20
147.789559
 30
0.0
  0
SEQEND
  8
0
  6
CONTINUOUS
  0
POLYLINE
  8
0
  6
CONTINUOUS
 66
     1
 10
0.0
 20
0.0
 30
0.0
  0
VERTEX
  8
0
  6
CONTINUOUS
 10
89.35341
 20
122.935048
 30
0.0
  0
VERTEX
  8
0
  6
CONTINUOUS
 10
89.353417
 20
122.937126
 30
0.0
  0
SEQEND
  8
0
  6
CONTINUOUS
  0
POLYLINE
  8
0
  6
CONTINUOUS
 66
     1
 10
0.0
 20
0.0
 30
0.0
  0
VERTEX
  8
0
  6
CONTINUOUS
 10
89.14491
 20
122.630723
 30
0.0
  0
VERTEX
  8
0
  6
CONTINUOUS
 10
89.35341
 20
122.935048
 30
0.0
  0
SEQEND
  8
0
  6
CONTINUOUS
  0
POLYLINE
  8
0
  6
CONTINUOUS
 66
     1
 10
0.0
 20
0.0
 30
0.0
  0
VERTEX
  8
0
  6
CONTINUOUS
 10
71.736281
 20
111.056691
 30
0.0
  0
VERTEX
  8
0
  6
CONTINUOUS
 10
71.734486
 20
111.055645
 30
0.0
  0
SEQEND
  8
0
  6
CONTINUOUS
  0
POLYLINE
  8
0
  6
CONTINUOUS
 66
     1
 10
0.0
 20
0.0
 30
0.0
  0
VERTEX
  8
0
  6
CONTINUOUS
 10
71.895585
 20
111.389419
 30
0.0
  0
VERTEX
  8
0
  6
CONTINUOUS
 10
71.736281
 20
111.056691
 30
0.0
  0
SEQEND
  8
0
  6
CONTINUOUS
  0
POLYLINE
  8
0
  6
CONTINUOUS
 66
     1
 10
0.0
 20
0.0
 30
0.0
  0
VERTEX
  8
0
  6
CONTINUOUS
 10
87.854279
 20
120.338478
 30
0.0
  0
VERTEX
  8
0
  6
CONTINUOUS
 10
88.013582
 20
120.671206
 30
0.0
  0
SEQEND
  8
0
  6
CONTINUOUS
  0
POLYLINE
  8
0
  6
CONTINUOUS
 66
     1
 10
0.0
 20
0.0
 30
0.0
  0
VERTEX
  8
0
  6
CONTINUOUS
 10
87.852483
 20
120.337432
 30
0.0
  0
VERTEX
  8
0
  6
CONTINUOUS
 10
87.854279
 20
120.338478
 30
0.0
  0
SEQEND
  8
0
  6
CONTINUOUS
  0
POLYLINE
  8
0
  6
CONTINUOUS
 66
     1
 10
0.0
 20
0.0
 30
0.0
  0
VERTEX
  8
0
  6
CONTINUOUS
 10
70.237151
 20
137.08105
 30
0.0
  0
VERTEX
  8
0
  6
CONTINUOUS
 10
69.708245
 20
137.198767
 30
0.0
  0
SEQEND
  8
0
  6
CONTINUOUS
  0
POLYLINE
  8
0
  6
CONTINUOUS
 66
     1
 10
0.0
 20
0.0
 30
0.0
  0
VERTEX
  8
0
  6
CONTINUOUS
 10
70.764257
 20
137.201427
 30
0.0
  0
VERTEX
  8
0
  6
CONTINUOUS
 10
70.237151
 20
137.08105
 30
0.0
  0
SEQEND
  8
0
  6
CONTINUOUS
  0
POLYLINE
  8
0
  6
CONTINUOUS
 66
     1
 10
0.0
 20
0.0
 30
0.0
  0
VERTEX
  8
0
  6
CONTINUOUS
 10
70.237151
 20
111.922214
 30
0.0
  0
VERTEX
  8
0
  6
CONTINUOUS
 10
70.764257
 20
112.042591
 30
0.0
  0
SEQEND
  8
0
  6
CONTINUOUS
  0
POLYLINE
  8
0
  6
CONTINUOUS
 66
     1
 10
0.0
 20
0.0
 30
0.0
  0
VERTEX
  8
0
  6
CONTINUOUS
 10
69.708245
 20
112.039931
 30
0.0
  0
VERTEX
  8
0
  6
CONTINUOUS
 10
70.237151
 20
111.922214
 30
0.0
  0
SEQEND
  8
0
  6
CONTINUOUS
  0
POLYLINE
  8
0
  6
CONTINUOUS
 66
     1
 10
0.0
 20
0.0
 30
0.0
  0
VERTEX
  8
0
  6
CONTINUOUS
 10
71.736281
 20
139.67762
 30
0.0
  0
VERTEX
  8
0
  6
CONTINUOUS
 10
71.895585
 20
139.160944
 30
0.0
  0
SEQEND
  8
0
  6
CONTINUOUS
  0
POLYLINE
  8
0
  6
CONTINUOUS
 66
     1
 10
0.0
 20
0.0
 30
0.0
  0
VERTEX
  8
0
  6
CONTINUOUS
 10
71.369883
 20
140.076808
 30
0.0
  0
VERTEX
  8
0
  6
CONTINUOUS
 10
71.736281
 20
139.67762
 30
0.0
  0
SEQEND
  8
0
  6
CONTINUOUS
  0
POLYLINE
  8
0
  6
CONTINUOUS
 66
     1
 10
0.0
 20
0.0
 30
0.0
  0
VERTEX
  8
0
  6
CONTINUOUS
 10
87.854279
 20
148.959408
 30
0.0
  0
VERTEX
  8
0
  6
CONTINUOUS
 10
87.48788
 20
149.358595
 30
0.0
  0
SEQEND
  8
0
  6
CONTINUOUS
  0
POLYLINE
  8
0
  6
CONTINUOUS
 66
     1
 10
0.0
 20
0.0
 30
0.0
  0
VERTEX
  8
0
  6
CONTINUOUS
 10
88.013582
 20
148.442731
 30
0.0
  0
VERTEX
  8
0
  6
CONTINUOUS
 10
87.854279
 20
148.959408
 30
0.0
  0
SEQEND
  8
0
  6
CONTINUOUS
  0
POLYLINE
  8
0
  6
CONTINUOUS
 66
     1
 10
0.0
 20
0.0
 30
0.0
  0
VERTEX
  8
0
  6
CONTINUOUS
 10
71.281225
 20
129.026477
 30
0.0
  0
VERTEX
  8
0
  6
CONTINUOUS
 10
71.303191
 20
128.960297
 30
0.0
  0
VERTEX
  8
0
  6
CONTINUOUS
 10
71.324363
 20
128.89415
 30
0.0
  0
SEQEND
  8
0
  6
CONTINUOUS
  0
POLYLINE
  8
0
  6
CONTINUOUS
 66
     1
 10
0.0
 20
0.0
 30
0.0
  0
VERTEX
  8
0
  6
CONTINUOUS
 10
83.054845
 20
126.410756
 30
0.0
  0
VERTEX
  8
0
  6
CONTINUOUS
 10
82.537078
 20
124.668447
 30
0.0
  0
VERTEX
  8
0
  6
CONTINUOUS
 10
81.287078
 20
123.348894
 30
0.0
  0
SEQEND
  8
0
  6
CONTINUOUS
  0
POLYLINE
  8
0
  6
CONTINUOUS
 66
     1
 10
0.0
 20
0.0
 30
0.0
  0
VERTEX
  8
0
  6
CONTINUOUS
 10
85.971661
 20
125.441166
 30
0.0
  0
VERTEX
  8
0
  6
CONTINUOUS
 10
85.876926
 20
124.978223
 30
0.0
  0
VERTEX
  8
0
  6
CONTINUOUS
 10
85.618107
 20
124.529935
 30
0.0
  0
VERTEX
  8
0
  6
CONTINUOUS
 10
85.264554
 20
124.216421
 30
0.0
  0
SEQEND
  8
0
  6
CONTINUOUS
  0
POLYLINE
  8
0
  6
CONTINUOUS
 66
     1
 10
0.0
 20
0.0
 30
0.0
  0
VERTEX
  8
0
  6
CONTINUOUS
 10
69.708245
 20
137.198767
 30
0.0
  0
VERTEX
  8
0
  6
CONTINUOUS
 10
64.517689
 20
140.195536
 30
0.0
  0
VERTEX
  8
0
  6
CONTINUOUS
 10
58.826093
 20
143.48158
 30
0.0
  0
SEQEND
  8
0
  6
CONTINUOUS
  0
POLYLINE
  8
0
  6
CONTINUOUS
 66
     1
 10
0.0
 20
0.0
 30
0.0
  0
VERTEX
  8
0
  6
CONTINUOUS
 10
69.708245
 20
137.198767
 30
0.0
  0
VERTEX
  8
0
  6
CONTINUOUS
 10
69.708245
 20
124.619349
 30
0.0
  0
VERTEX
  8
0
  6
CONTINUOUS
 10
69.708245
 20
112.039931
 30
0.0
  0
SEQEND
  8
0
  6
CONTINUOUS
  0
POLYLINE
  8
0
  6
CONTINUOUS
 66
     1
 10
0.0
 20
0.0
 30
0.0
  0
VERTEX
  8
0
  6
CONTINUOUS
 10
58.826093
 20
118.105325
 30
0.0
  0
VERTEX
  8
0
  6
CONTINUOUS
 10
64.517689
 20
114.932996
 30
0.0
  0
VERTEX
  8
0
  6
CONTINUOUS
 10
69.708245
 20
112.039931
 30
0.0
  0
SEQEND
  8
0
  6
CONTINUOUS
  0
POLYLINE
  8
0
  6
CONTINUOUS
 66
     1
 10
0.0
 20
0.0
 30
0.0
  0
VERTEX
  8
0
  6
CONTINUOUS
 10
76.794019
 20
155.750118
 30
0.0
  0
VERTEX
  8
0
  6
CONTINUOUS
 10
82.387135
 20
152.407216
 30
0.0
  0
VERTEX
  8
0
  6
CONTINUOUS
 10
87.48788
 20
149.358595
 30
0.0
  0
SEQEND
  8
0
  6
CONTINUOUS
  0
POLYLINE
  8
0
  6
CONTINUOUS
 66
     1
 10
0.0
 20
0.0
 30
0.0
  0
VERTEX
  8
0
  6
CONTINUOUS
 10
71.369883
 20
140.076808
 30
0.0
  0
VERTEX
  8
0
  6
CONTINUOUS
 10
66.179326
 20
143.073577
 30
0.0
  0
VERTEX
  8
0
  6
CONTINUOUS
 10
60.487731
 20
146.359621
 30
0.0
  0
SEQEND
  8
0
  6
CONTINUOUS
  0
POLYLINE
  8
0
  6
CONTINUOUS
 66
     1
 10
0.0
 20
0.0
 30
0.0
  0
VERTEX
  8
0
  6
CONTINUOUS
 10
83.046023
 20
145.388763
 30
0.0
  0
VERTEX
  8
0
  6
CONTINUOUS
 10
83.052638
 20
145.29087
 30
0.0
  0
VERTEX
  8
0
  6
CONTINUOUS
 10
83.054845
 20
145.190177
 30
0.0
  0
SEQEND
  8
0
  6
CONTINUOUS
  0
POLYLINE
  8
0
  6
CONTINUOUS
 66
     1
 10
0.0
 20
0.0
 30
0.0
  0
VERTEX
  8
0
  6
CONTINUOUS
 10
71.123081
 20
129.37791
 30
0.0
  0
VERTEX
  8
0
  6
CONTINUOUS
 10
71.172081
 20
129.255567
 30
0.0
  0
VERTEX
  8
0
  6
CONTINUOUS
 10
71.2184
 20
129.133003
 30
0.0
  0
SEQEND
  8
0
  6
CONTINUOUS
  0
POLYLINE
  8
0
  6
CONTINUOUS
 66
     1
 10
0.0
 20
0.0
 30
0.0
  0
VERTEX
  8
0
  6
CONTINUOUS
 10
71.335622
 20
128.983331
 30
0.0
  0
VERTEX
  8
0
  6
CONTINUOUS
 10
71.326028
 20
128.988882
 30
0.0
  0
VERTEX
  8
0
  6
CONTINUOUS
 10
71.281225
 20
129.026477
 30
0.0
  0
SEQEND
  8
0
  6
CONTINUOUS
  0
POLYLINE
  8
0
  6
CONTINUOUS
 66
     1
 10
0.0
 20
0.0
 30
0.0
  0
VERTEX
  8
0
  6
CONTINUOUS
 10
71.281225
 20
129.026477
 30
0.0
  0
VERTEX
  8
0
  6
CONTINUOUS
 10
71.262308
 20
129.049583
 30
0.0
  0
VERTEX
  8
0
  6
CONTINUOUS
 10
71.245468
 20
129.075276
 30
0.0
  0
VERTEX
  8
0
  6
CONTINUOUS
 10
71.230795
 20
129.103208
 30
0.0
  0
VERTEX
  8
0
  6
CONTINUOUS
 10
71.2184
 20
129.133003
 30
0.0
  0
SEQEND
  8
0
  6
CONTINUOUS
  0
POLYLINE
  8
0
  6
CONTINUOUS
 66
     1
 10
0.0
 20
0.0
 30
0.0
  0
VERTEX
  8
0
  6
CONTINUOUS
 10
71.210834
 20
133.555117
 30
0.0
  0
VERTEX
  8
0
  6
CONTINUOUS
 10
71.279912
 20
133.57877
 30
0.0
  0
VERTEX
  8
0
  6
CONTINUOUS
 10
71.338
 20
133.566198
 30
0.0
  0
SEQEND
  8
0
  6
CONTINUOUS
  0
POLYLINE
  8
0
  6
CONTINUOUS
 66
     1
 10
0.0
 20
0.0
 30
0.0
  0
VERTEX
  8
0
  6
CONTINUOUS
 10
58.826093
 20
118.105325
 30
0.0
  0
VERTEX
  8
0
  6
CONTINUOUS
 10
58.963839
 20
117.460014
 30
0.0
  0
VERTEX
  8
0
  6
CONTINUOUS
 10
59.330938
 20
117.060362
 30
0.0
  0
VERTEX
  8
0
  6
CONTINUOUS
 10
59.341913
 20
117.054139
 30
0.0
  0
SEQEND
  8
0
  6
CONTINUOUS
  0
POLYLINE
  8
0
  6
CONTINUOUS
 66
     1
 10
0.0
 20
0.0
 30
0.0
  0
VERTEX
  8
0
  6
CONTINUOUS
 10
72.978574
 20
118.551976
 30
0.0
  0
VERTEX
  8
0
  6
CONTINUOUS
 10
72.039367
 20
118.321654
 30
0.0
  0
VERTEX
  8
0
  6
CONTINUOUS
 10
71.387208
 20
118.785582
 30
0.0
  0
SEQEND
  8
0
  6
CONTINUOUS
  0
POLYLINE
  8
0
  6
CONTINUOUS
 66
     1
 10
0.0
 20
0.0
 30
0.0
  0
VERTEX
  8
0
  6
CONTINUOUS
 10
72.62502
 20
118.7561
 30
0.0
  0
VERTEX
  8
0
  6
CONTINUOUS
 10
72.066938
 20
118.538282
 30
0.0
  0
VERTEX
  8
0
  6
CONTINUOUS
 10
71.565938
 20
118.551522
 30
0.0
  0
SEQEND
  8
0
  6
CONTINUOUS
  0
POLYLINE
  8
0
  6
CONTINUOUS
 66
     1
 10
0.0
 20
0.0
 30
0.0
  0
VERTEX
  8
0
  6
CONTINUOUS
 10
71.122574
 20
125.777222
 30
0.0
  0
VERTEX
  8
0
  6
CONTINUOUS
 10
71.171841
 20
125.845242
 30
0.0
  0
VERTEX
  8
0
  6
CONTINUOUS
 10
71.2184
 20
125.916505
 30
0.0
  0
SEQEND
  8
0
  6
CONTINUOUS
  0
POLYLINE
  8
0
  6
CONTINUOUS
 66
     1
 10
0.0
 20
0.0
 30
0.0
  0
VERTEX
  8
0
  6
CONTINUOUS
 10
70.703263
 20
125.394794
 30
0.0
  0
VERTEX
  8
0
  6
CONTINUOUS
 10
70.658879
 20
125.370151
 30
0.0
  0
VERTEX
  8
0
  6
CONTINUOUS
 10
70.613605
 20
125.347094
 30
0.0
  0
SEQEND
  8
0
  6
CONTINUOUS
  0
POLYLINE
  8
0
  6
CONTINUOUS
 66
     1
 10
0.0
 20
0.0
 30
0.0
  0
VERTEX
  8
0
  6
CONTINUOUS
 10
71.2184
 20
125.916505
 30
0.0
  0
VERTEX
  8
0
  6
CONTINUOUS
 10
71.230789
 20
125.935385
 30
0.0
  0
VERTEX
  8
0
  6
CONTINUOUS
 10
71.245455
 20
125.955722
 30
0.0
  0
VERTEX
  8
0
  6
CONTINUOUS
 10
71.262283
 20
125.977287
 30
0.0
  0
VERTEX
  8
0
  6
CONTINUOUS
 10
71.281225
 20
125.999913
 30
0.0
  0
SEQEND
  8
0
  6
CONTINUOUS
  0
POLYLINE
  8
0
  6
CONTINUOUS
 66
     1
 10
0.0
 20
0.0
 30
0.0
  0
VERTEX
  8
0
  6
CONTINUOUS
 10
71.324363
 20
126.082429
 30
0.0
  0
VERTEX
  8
0
  6
CONTINUOUS
 10
71.303191
 20
126.040729
 30
0.0
  0
VERTEX
  8
0
  6
CONTINUOUS
 10
71.281225
 20
125.999913
 30
0.0
  0
SEQEND
  8
0
  6
CONTINUOUS
  0
POLYLINE
  8
0
  6
CONTINUOUS
 66
     1
 10
0.0
 20
0.0
 30
0.0
  0
VERTEX
  8
0
  6
CONTINUOUS
 10
71.281225
 20
125.999913
 30
0.0
  0
VERTEX
  8
0
  6
CONTINUOUS
 10
71.326012
 20
126.048284
 30
0.0
  0
VERTEX
  8
0
  6
CONTINUOUS
 10
71.376443
 20
126.095872
 30
0.0
  0
VERTEX
  8
0
  6
CONTINUOUS
 10
71.429496
 20
126.138787
 30
0.0
  0
VERTEX
  8
0
  6
CONTINUOUS
 10
71.481187
 20
126.172971
 30
0.0
  0
SEQEND
  8
0
  6
CONTINUOUS
  0
POLYLINE
  8
0
  6
CONTINUOUS
 66
     1
 10
0.0
 20
0.0
 30
0.0
  0
VERTEX
  8
0
  6
CONTINUOUS
 10
72.642671
 20
122.180659
 30
0.0
  0
VERTEX
  8
0
  6
CONTINUOUS
 10
72.517687
 20
122.168273
 30
0.0
  0
VERTEX
  8
0
  6
CONTINUOUS
 10
72.465921
 20
122.282705
 30
0.0
  0
SEQEND
  8
0
  6
CONTINUOUS
  0
POLYLINE
  8
0
  6
CONTINUOUS
 66
     1
 10
0.0
 20
0.0
 30
0.0
  0
VERTEX
  8
0
  6
CONTINUOUS
 10
72.465921
 20
125.196248
 30
0.0
  0
VERTEX
  8
0
  6
CONTINUOUS
 10
72.517687
 20
125.370455
 30
0.0
  0
VERTEX
  8
0
  6
CONTINUOUS
 10
72.642671
 20
125.502388
 30
0.0
  0
SEQEND
  8
0
  6
CONTINUOUS
  0
POLYLINE
  8
0
  6
CONTINUOUS
 66
     1
 10
0.0
 20
0.0
 30
0.0
  0
VERTEX
  8
0
  6
CONTINUOUS
 10
72.642671
 20
128.360126
 30
0.0
  0
VERTEX
  8
0
  6
CONTINUOUS
 10
72.517687
 20
128.34774
 30
0.0
  0
VERTEX
  8
0
  6
CONTINUOUS
 10
72.465921
 20
128.462173
 30
0.0
  0
SEQEND
  8
0
  6
CONTINUOUS
  0
POLYLINE
  8
0
  6
CONTINUOUS
 66
     1
 10
0.0
 20
0.0
 30
0.0
  0
VERTEX
  8
0
  6
CONTINUOUS
 10
72.465921
 20
131.375716
 30
0.0
  0
VERTEX
  8
0
  6
CONTINUOUS
 10
72.517687
 20
131.549922
 30
0.0
  0
VERTEX
  8
0
  6
CONTINUOUS
 10
72.642671
 20
131.681855
 30
0.0
  0
SEQEND
  8
0
  6
CONTINUOUS
  0
POLYLINE
  8
0
  6
CONTINUOUS
 66
     1
 10
0.0
 20
0.0
 30
0.0
  0
VERTEX
  8
0
  6
CONTINUOUS
 10
73.468817
 20
132.158831
 30
0.0
  0
VERTEX
  8
0
  6
CONTINUOUS
 10
73.593801
 20
132.171217
 30
0.0
  0
VERTEX
  8
0
  6
CONTINUOUS
 10
73.645567
 20
132.056785
 30
0.0
  0
SEQEND
  8
0
  6
CONTINUOUS
  0
POLYLINE
  8
0
  6
CONTINUOUS
 66
     1
 10
0.0
 20
0.0
 30
0.0
  0
VERTEX
  8
0
  6
CONTINUOUS
 10
73.645567
 20
131.913169
 30
0.0
  0
VERTEX
  8
0
  6
CONTINUOUS
 10
73.593801
 20
131.738963
 30
0.0
  0
VERTEX
  8
0
  6
CONTINUOUS
 10
73.468817
 20
131.60703
 30
0.0
  0
SEQEND
  8
0
  6
CONTINUOUS
  0
POLYLINE
  8
0
  6
CONTINUOUS
 66
     1
 10
0.0
 20
0.0
 30
0.0
  0
VERTEX
  8
0
  6
CONTINUOUS
 10
73.468817
 20
129.435222
 30
0.0
  0
VERTEX
  8
0
  6
CONTINUOUS
 10
73.593801
 20
129.447608
 30
0.0
  0
VERTEX
  8
0
  6
CONTINUOUS
 10
73.645567
 20
129.333176
 30
0.0
  0
SEQEND
  8
0
  6
CONTINUOUS
  0
POLYLINE
  8
0
  6
CONTINUOUS
 66
     1
 10
0.0
 20
0.0
 30
0.0
  0
VERTEX
  8
0
  6
CONTINUOUS
 10
73.645567
 20
125.687383
 30
0.0
  0
VERTEX
  8
0
  6
CONTINUOUS
 10
73.593801
 20
125.513177
 30
0.0
  0
VERTEX
  8
0
  6
CONTINUOUS
 10
73.468817
 20
125.381243
 30
0.0
  0
SEQEND
  8
0
  6
CONTINUOUS
  0
POLYLINE
  8
0
  6
CONTINUOUS
 66
     1
 10
0.0
 20
0.0
 30
0.0
  0
VERTEX
  8
0
  6
CONTINUOUS
 10
73.468817
 20
123.209436
 30
0.0
  0
VERTEX
  8
0
  6
CONTINUOUS
 10
73.593801
 20
123.221822
 30
0.0
  0
VERTEX
  8
0
  6
CONTINUOUS
 10
73.645567
 20
123.107389
 30
0.0
  0
SEQEND
  8
0
  6
CONTINUOUS
  0
POLYLINE
  8
0
  6
CONTINUOUS
 66
     1
 10
0.0
 20
0.0
 30
0.0
  0
VERTEX
  8
0
  6
CONTINUOUS
 10
73.645567
 20
122.963774
 30
0.0
  0
VERTEX
  8
0
  6
CONTINUOUS
 10
73.593801
 20
122.789568
 30
0.0
  0
VERTEX
  8
0
  6
CONTINUOUS
 10
73.468817
 20
122.657634
 30
0.0
  0
SEQEND
  8
0
  6
CONTINUOUS
  0
POLYLINE
  8
0
  6
CONTINUOUS
 66
     1
 10
0.0
 20
0.0
 30
0.0
  0
VERTEX
  8
0
  6
CONTINUOUS
 10
76.794019
 20
155.750118
 30
0.0
  0
VERTEX
  8
0
  6
CONTINUOUS
 10
77.421489
 20
155.953467
 30
0.0
  0
VERTEX
  8
0
  6
CONTINUOUS
 10
77.950812
 20
155.835733
 30
0.0
  0
VERTEX
  8
0
  6
CONTINUOUS
 10
77.962305
 20
155.828984
 30
0.0
  0
SEQEND
  8
0
  6
CONTINUOUS
  0
POLYLINE
  8
0
  6
CONTINUOUS
 66
     1
 10
0.0
 20
0.0
 30
0.0
  0
VERTEX
  8
0
  6
CONTINUOUS
 10
60.487731
 20
146.359621
 30
0.0
  0
VERTEX
  8
0
  6
CONTINUOUS
 10
59.860002
 20
145.838147
 30
0.0
  0
VERTEX
  8
0
  6
CONTINUOUS
 10
59.330344
 20
145.108459
 30
0.0
  0
VERTEX
  8
0
  6
CONTINUOUS
 10
58.963723
 20
144.285581
 30
0.0
  0
VERTEX
  8
0
  6
CONTINUOUS
 10
58.826093
 20
143.48158
 30
0.0
  0
SEQEND
  8
0
  6
CONTINUOUS
  0
POLYLINE
  8
0
  6
CONTINUOUS
 66
     1
 10
0.0
 20
0.0
 30
0.0
  0
VERTEX
  8
0
  6
CONTINUOUS
 10
84.822612
 20
125.390135
 30
0.0
  0
VERTEX
  8
0
  6
CONTINUOUS
 10
84.798929
 20
125.274399
 30
0.0
  0
VERTEX
  8
0
  6
CONTINUOUS
 10
84.734224
 20
125.162327
 30
0.0
  0
VERTEX
  8
0
  6
CONTINUOUS
 10
84.645835
 20
125.083949
 30
0.0
  0
SEQEND
  8
0
  6
CONTINUOUS
  0
POLYLINE
  8
0
  6
CONTINUOUS
 66
     1
 10
0.0
 20
0.0
 30
0.0
  0
VERTEX
  8
0
  6
CONTINUOUS
 10
88.800088
 20
123.808173
 30
0.0
  0
VERTEX
  8
0
  6
CONTINUOUS
 10
88.705353
 20
123.34523
 30
0.0
  0
VERTEX
  8
0
  6
CONTINUOUS
 10
88.446534
 20
122.896942
 30
0.0
  0
VERTEX
  8
0
  6
CONTINUOUS
 10
88.092981
 20
122.583428
 30
0.0
  0
SEQEND
  8
0
  6
CONTINUOUS
  0
POLYLINE
  8
0
  6
CONTINUOUS
 66
     1
 10
0.0
 20
0.0
 30
0.0
  0
VERTEX
  8
0
  6
CONTINUOUS
 10
88.092981
 20
148.303071
 30
0.0
  0
VERTEX
  8
0
  6
CONTINUOUS
 10
88.446534
 20
148.397805
 30
0.0
  0
VERTEX
  8
0
  6
CONTINUOUS
 10
88.705353
 20
148.248376
 30
0.0
  0
VERTEX
  8
0
  6
CONTINUOUS
 10
88.800088
 20
147.894822
 30
0.0
  0
SEQEND
  8
0
  6
CONTINUOUS
  0
POLYLINE
  8
0
  6
CONTINUOUS
 66
     1
 10
0.0
 20
0.0
 30
0.0
  0
VERTEX
  8
0
  6
CONTINUOUS
 10
71.122418
 20
137.688615
 30
0.0
  0
VERTEX
  8
0
  6
CONTINUOUS
 10
71.329525
 20
138.385538
 30
0.0
  0
VERTEX
  8
0
  6
CONTINUOUS
 10
71.829525
 20
138.91336
 30
0.0
  0
SEQEND
  8
0
  6
CONTINUOUS
  0
POLYLINE
  8
0
  6
CONTINUOUS
 66
     1
 10
0.0
 20
0.0
 30
0.0
  0
VERTEX
  8
0
  6
CONTINUOUS
 10
71.829525
 20
113.193718
 30
0.0
  0
VERTEX
  8
0
  6
CONTINUOUS
 10
71.475972
 20
113.098983
 30
0.0
  0
VERTEX
  8
0
  6
CONTINUOUS
 10
71.217153
 20
113.248412
 30
0.0
  0
VERTEX
  8
0
  6
CONTINUOUS
 10
71.122418
 20
113.601966
 30
0.0
  0
SEQEND
  8
0
  6
CONTINUOUS
  0
POLYLINE
  8
0
  6
CONTINUOUS
 66
     1
 10
0.0
 20
0.0
 30
0.0
  0
VERTEX
  8
0
  6
CONTINUOUS
 10
71.895585
 20
111.389419
 30
0.0
  0
VERTEX
  8
0
  6
CONTINUOUS
 10
71.468912
 20
111.251008
 30
0.0
  0
VERTEX
  8
0
  6
CONTINUOUS
 10
71.107785
 20
111.331255
 30
0.0
  0
SEQEND
  8
0
  6
CONTINUOUS
  0
POLYLINE
  8
0
  6
CONTINUOUS
 66
     1
 10
0.0
 20
0.0
 30
0.0
  0
VERTEX
  8
0
  6
CONTINUOUS
 10
71.107785
 20
111.331255
 30
0.0
  0
VERTEX
  8
0
  6
CONTINUOUS
 10
70.857726
 20
111.603877
 30
0.0
  0
VERTEX
  8
0
  6
CONTINUOUS
 10
70.764257
 20
112.042591
 30
0.0
  0
SEQEND
  8
0
  6
CONTINUOUS
  0
POLYLINE
  8
0
  6
CONTINUOUS
 66
     1
 10
0.0
 20
0.0
 30
0.0
  0
VERTEX
  8
0
  6
CONTINUOUS
 10
70.764257
 20
137.201427
 30
0.0
  0
VERTEX
  8
0
  6
CONTINUOUS
 10
70.764257
 20
124.622009
 30
0.0
  0
VERTEX
  8
0
  6
CONTINUOUS
 10
70.764257
 20
112.042591
 30
0.0
  0
SEQEND
  8
0
  6
CONTINUOUS
  0
POLYLINE
  8
0
  6
CONTINUOUS
 66
     1
 10
0.0
 20
0.0
 30
0.0
  0
VERTEX
  8
0
  6
CONTINUOUS
 10
70.764257
 20
137.201427
 30
0.0
  0
VERTEX
  8
0
  6
CONTINUOUS
 10
70.857726
 20
137.748071
 30
0.0
  0
VERTEX
  8
0
  6
CONTINUOUS
 10
71.107785
 20
138.309436
 30
0.0
  0
SEQEND
  8
0
  6
CONTINUOUS
  0
POLYLINE
  8
0
  6
CONTINUOUS
 66
     1
 10
0.0
 20
0.0
 30
0.0
  0
VERTEX
  8
0
  6
CONTINUOUS
 10
71.107785
 20
138.309436
 30
0.0
  0
VERTEX
  8
0
  6
CONTINUOUS
 10
71.468912
 20
138.806676
 30
0.0
  0
VERTEX
  8
0
  6
CONTINUOUS
 10
71.895585
 20
139.160944
 30
0.0
  0
SEQEND
  8
0
  6
CONTINUOUS
  0
POLYLINE
  8
0
  6
CONTINUOUS
 66
     1
 10
0.0
 20
0.0
 30
0.0
  0
VERTEX
  8
0
  6
CONTINUOUS
 10
88.013582
 20
148.442731
 30
0.0
  0
VERTEX
  8
0
  6
CONTINUOUS
 10
88.440255
 20
148.581142
 30
0.0
  0
VERTEX
  8
0
  6
CONTINUOUS
 10
88.801382
 20
148.500896
 30
0.0
  0
SEQEND
  8
0
  6
CONTINUOUS
  0
POLYLINE
  8
0
  6
CONTINUOUS
 66
     1
 10
0.0
 20
0.0
 30
0.0
  0
VERTEX
  8
0
  6
CONTINUOUS
 10
88.801382
 20
148.500896
 30
0.0
  0
VERTEX
  8
0
  6
CONTINUOUS
 10
89.051441
 20
148.228274
 30
0.0
  0
VERTEX
  8
0
  6
CONTINUOUS
 10
89.14491
 20
147.789559
 30
0.0
  0
SEQEND
  8
0
  6
CONTINUOUS
  0
POLYLINE
  8
0
  6
CONTINUOUS
 66
     1
 10
0.0
 20
0.0
 30
0.0
  0
VERTEX
  8
0
  6
CONTINUOUS
 10
89.14491
 20
147.789559
 30
0.0
  0
VERTEX
  8
0
  6
CONTINUOUS
 10
89.14491
 20
135.210141
 30
0.0
  0
VERTEX
  8
0
  6
CONTINUOUS
 10
89.14491
 20
122.630723
 30
0.0
  0
SEQEND
  8
0
  6
CONTINUOUS
  0
POLYLINE
  8
0
  6
CONTINUOUS
 66
     1
 10
0.0
 20
0.0
 30
0.0
  0
VERTEX
  8
0
  6
CONTINUOUS
 10
89.14491
 20
122.630723
 30
0.0
  0
VERTEX
  8
0
  6
CONTINUOUS
 10
89.051441
 20
122.08408
 30
0.0
  0
VERTEX
  8
0
  6
CONTINUOUS
 10
88.801382
 20
121.522715
 30
0.0
  0
SEQEND
  8
0
  6
CONTINUOUS
  0
POLYLINE
  8
0
  6
CONTINUOUS
 66
     1
 10
0.0
 20
0.0
 30
0.0
  0
VERTEX
  8
0
  6
CONTINUOUS
 10
88.801382
 20
121.522715
 30
0.0
  0
VERTEX
  8
0
  6
CONTINUOUS
 10
88.440255
 20
121.025475
 30
0.0
  0
VERTEX
  8
0
  6
CONTINUOUS
 10
88.013582
 20
120.671206
 30
0.0
  0
SEQEND
  8
0
  6
CONTINUOUS
  0
POLYLINE
  8
0
  6
CONTINUOUS
 66
     1
 10
0.0
 20
0.0
 30
0.0
  0
VERTEX
  8
0
  6
CONTINUOUS
 10
82.701292
 20
126.61488
 30
0.0
  0
VERTEX
  8
0
  6
CONTINUOUS
 10
82.464456
 20
125.457522
 30
0.0
  0
VERTEX
  8
0
  6
CONTINUOUS
 10
81.817408
 20
124.336803
 30
0.0
  0
VERTEX
  8
0
  6
CONTINUOUS
 10
80.933525
 20
123.553018
 30
0.0
  0
SEQEND
  8
0
  6
CONTINUOUS
  0
POLYLINE
  8
0
  6
CONTINUOUS
 66
     1
 10
0.0
 20
0.0
 30
0.0
  0
VERTEX
  8
0
  6
CONTINUOUS
 10
84.904369
 20
139.068848
 30
0.0
  0
VERTEX
  8
0
  6
CONTINUOUS
 10
84.864438
 20
139.112867
 30
0.0
  0
VERTEX
  8
0
  6
CONTINUOUS
 10
84.850383
 20
139.184517
 30
0.0
  0
SEQEND
  8
0
  6
CONTINUOUS
  0
POLYLINE
  8
0
  6
CONTINUOUS
 66
     1
 10
0.0
 20
0.0
 30
0.0
  0
VERTEX
  8
0
  6
CONTINUOUS
 10
84.850383
 20
136.633028
 30
0.0
  0
VERTEX
  8
0
  6
CONTINUOUS
 10
84.902149
 20
136.807234
 30
0.0
  0
VERTEX
  8
0
  6
CONTINUOUS
 10
85.027133
 20
136.939167
 30
0.0
  0
SEQEND
  8
0
  6
CONTINUOUS
  0
POLYLINE
  8
0
  6
CONTINUOUS
 66
     1
 10
0.0
 20
0.0
 30
0.0
  0
VERTEX
  8
0
  6
CONTINUOUS
 10
84.850383
 20
132.958731
 30
0.0
  0
VERTEX
  8
0
  6
CONTINUOUS
 10
84.864438
 20
132.88708
 30
0.0
  0
VERTEX
  8
0
  6
CONTINUOUS
 10
84.904369
 20
132.843061
 30
0.0
  0
SEQEND
  8
0
  6
CONTINUOUS
  0
POLYLINE
  8
0
  6
CONTINUOUS
 66
     1
 10
0.0
 20
0.0
 30
0.0
  0
VERTEX
  8
0
  6
CONTINUOUS
 10
85.027133
 20
130.713381
 30
0.0
  0
VERTEX
  8
0
  6
CONTINUOUS
 10
84.902149
 20
130.581448
 30
0.0
  0
VERTEX
  8
0
  6
CONTINUOUS
 10
84.850383
 20
130.407241
 30
0.0
  0
SEQEND
  8
0
  6
CONTINUOUS
  0
POLYLINE
  8
0
  6
CONTINUOUS
 66
     1
 10
0.0
 20
0.0
 30
0.0
  0
VERTEX
  8
0
  6
CONTINUOUS
 10
83.285608
 20
130.98991
 30
0.0
  0
VERTEX
  8
0
  6
CONTINUOUS
 10
83.245677
 20
131.03393
 30
0.0
  0
VERTEX
  8
0
  6
CONTINUOUS
 10
83.231622
 20
131.10558
 30
0.0
  0
SEQEND
  8
0
  6
CONTINUOUS
  0
POLYLINE
  8
0
  6
CONTINUOUS
 66
     1
 10
0.0
 20
0.0
 30
0.0
  0
VERTEX
  8
0
  6
CONTINUOUS
 10
84.441911
 20
141.131745
 30
0.0
  0
VERTEX
  8
0
  6
CONTINUOUS
 10
84.383824
 20
141.144316
 30
0.0
  0
VERTEX
  8
0
  6
CONTINUOUS
 10
84.314745
 20
141.120663
 30
0.0
  0
SEQEND
  8
0
  6
CONTINUOUS
  0
POLYLINE
  8
0
  6
CONTINUOUS
 66
     1
 10
0.0
 20
0.0
 30
0.0
  0
VERTEX
  8
0
  6
CONTINUOUS
 10
83.408372
 20
140.597368
 30
0.0
  0
VERTEX
  8
0
  6
CONTINUOUS
 10
83.283387
 20
140.465435
 30
0.0
  0
VERTEX
  8
0
  6
CONTINUOUS
 10
83.231622
 20
140.291229
 30
0.0
  0
SEQEND
  8
0
  6
CONTINUOUS
  0
POLYLINE
  8
0
  6
CONTINUOUS
 66
     1
 10
0.0
 20
0.0
 30
0.0
  0
VERTEX
  8
0
  6
CONTINUOUS
 10
86.501991
 20
136.361286
 30
0.0
  0
VERTEX
  8
0
  6
CONTINUOUS
 10
86.388569
 20
135.541368
 30
0.0
  0
VERTEX
  8
0
  6
CONTINUOUS
 10
86.058256
 20
134.922374
 30
0.0
  0
SEQEND
  8
0
  6
CONTINUOUS
  0
POLYLINE
  8
0
  6
CONTINUOUS
 66
     1
 10
0.0
 20
0.0
 30
0.0
  0
VERTEX
  8
0
  6
CONTINUOUS
 10
85.569832
 20
129.848252
 30
0.0
  0
VERTEX
  8
0
  6
CONTINUOUS
 10
85.621598
 20
129.733819
 30
0.0
  0
VERTEX
  8
0
  6
CONTINUOUS
 10
85.746582
 20
129.746205
 30
0.0
  0
SEQEND
  8
0
  6
CONTINUOUS
  0
POLYLINE
  8
0
  6
CONTINUOUS
 66
     1
 10
0.0
 20
0.0
 30
0.0
  0
VERTEX
  8
0
  6
CONTINUOUS
 10
85.746582
 20
130.298007
 30
0.0
  0
VERTEX
  8
0
  6
CONTINUOUS
 10
85.621598
 20
130.166073
 30
0.0
  0
VERTEX
  8
0
  6
CONTINUOUS
 10
85.569832
 20
129.991867
 30
0.0
  0
SEQEND
  8
0
  6
CONTINUOUS
  0
POLYLINE
  8
0
  6
CONTINUOUS
 66
     1
 10
0.0
 20
0.0
 30
0.0
  0
VERTEX
  8
0
  6
CONTINUOUS
 10
85.569832
 20
132.571861
 30
0.0
  0
VERTEX
  8
0
  6
CONTINUOUS
 10
85.621598
 20
132.457428
 30
0.0
  0
VERTEX
  8
0
  6
CONTINUOUS
 10
85.746582
 20
132.469814
 30
0.0
  0
SEQEND
  8
0
  6
CONTINUOUS
  0
POLYLINE
  8
0
  6
CONTINUOUS
 66
     1
 10
0.0
 20
0.0
 30
0.0
  0
VERTEX
  8
0
  6
CONTINUOUS
 10
85.746582
 20
136.523793
 30
0.0
  0
VERTEX
  8
0
  6
CONTINUOUS
 10
85.621598
 20
136.39186
 30
0.0
  0
VERTEX
  8
0
  6
CONTINUOUS
 10
85.569832
 20
136.217653
 30
0.0
  0
SEQEND
  8
0
  6
CONTINUOUS
  0
POLYLINE
  8
0
  6
CONTINUOUS
 66
     1
 10
0.0
 20
0.0
 30
0.0
  0
VERTEX
  8
0
  6
CONTINUOUS
 10
85.569832
 20
138.797647
 30
0.0
  0
VERTEX
  8
0
  6
CONTINUOUS
 10
85.621598
 20
138.683215
 30
0.0
  0
VERTEX
  8
0
  6
CONTINUOUS
 10
85.746582
 20
138.695601
 30
0.0
  0
SEQEND
  8
0
  6
CONTINUOUS
  0
POLYLINE
  8
0
  6
CONTINUOUS
 66
     1
 10
0.0
 20
0.0
 30
0.0
  0
VERTEX
  8
0
  6
CONTINUOUS
 10
85.746582
 20
139.247402
 30
0.0
  0
VERTEX
  8
0
  6
CONTINUOUS
 10
85.621598
 20
139.115469
 30
0.0
  0
VERTEX
  8
0
  6
CONTINUOUS
 10
85.569832
 20
138.941262
 30
0.0
  0
SEQEND
  8
0
  6
CONTINUOUS
  0
POLYLINE
  8
0
  6
CONTINUOUS
 66
     1
 10
0.0
 20
0.0
 30
0.0
  0
VERTEX
  8
0
  6
CONTINUOUS
 10
86.749478
 20
139.622331
 30
0.0
  0
VERTEX
  8
0
  6
CONTINUOUS
 10
86.697713
 20
139.736764
 30
0.0
  0
VERTEX
  8
0
  6
CONTINUOUS
 10
86.572728
 20
139.724378
 30
0.0
  0
SEQEND
  8
0
  6
CONTINUOUS
  0
POLYLINE
  8
0
  6
CONTINUOUS
 66
     1
 10
0.0
 20
0.0
 30
0.0
  0
VERTEX
  8
0
  6
CONTINUOUS
 10
86.572728
 20
136.402648
 30
0.0
  0
VERTEX
  8
0
  6
CONTINUOUS
 10
86.697713
 20
136.534582
 30
0.0
  0
VERTEX
  8
0
  6
CONTINUOUS
 10
86.749478
 20
136.708788
 30
0.0
  0
SEQEND
  8
0
  6
CONTINUOUS
  0
POLYLINE
  8
0
  6
CONTINUOUS
 66
     1
 10
0.0
 20
0.0
 30
0.0
  0
VERTEX
  8
0
  6
CONTINUOUS
 10
86.749478
 20
133.442864
 30
0.0
  0
VERTEX
  8
0
  6
CONTINUOUS
 10
86.697713
 20
133.557296
 30
0.0
  0
VERTEX
  8
0
  6
CONTINUOUS
 10
86.572728
 20
133.54491
 30
0.0
  0
SEQEND
  8
0
  6
CONTINUOUS
  0
POLYLINE
  8
0
  6
CONTINUOUS
 66
     1
 10
0.0
 20
0.0
 30
0.0
  0
VERTEX
  8
0
  6
CONTINUOUS
 10
86.572728
 20
130.223181
 30
0.0
  0
VERTEX
  8
0
  6
CONTINUOUS
 10
86.697713
 20
130.355114
 30
0.0
  0
VERTEX
  8
0
  6
CONTINUOUS
 10
86.749478
 20
130.529321
 30
0.0
  0
SEQEND
  8
0
  6
CONTINUOUS
  0
POLYLINE
  8
0
  6
CONTINUOUS
 66
     1
 10
0.0
 20
0.0
 30
0.0
  0
VERTEX
  8
0
  6
CONTINUOUS
 10
86.75089
 20
139.406679
 30
0.0
  0
VERTEX
  8
0
  6
CONTINUOUS
 10
87.562254
 20
136.509736
 30
0.0
  0
VERTEX
  8
0
  6
CONTINUOUS
 10
86.682931
 20
134.620659
 30
0.0
  0
SEQEND
  8
0
  6
CONTINUOUS
  0
POLYLINE
  8
0
  6
CONTINUOUS
 66
     1
 10
0.0
 20
0.0
 30
0.0
  0
VERTEX
  8
0
  6
CONTINUOUS
 10
85.971661
 20
140.546353
 30
0.0
  0
VERTEX
  8
0
  6
CONTINUOUS
 10
86.22609
 20
140.223627
 30
0.0
  0
VERTEX
  8
0
  6
CONTINUOUS
 10
86.464274
 20
139.882184
 30
0.0
  0
SEQEND
  8
0
  6
CONTINUOUS
  0
POLYLINE
  8
0
  6
CONTINUOUS
 66
     1
 10
0.0
 20
0.0
 30
0.0
  0
VERTEX
  8
0
  6
CONTINUOUS
 10
86.749485
 20
137.13267
 30
0.0
  0
VERTEX
  8
0
  6
CONTINUOUS
 10
86.769977
 20
135.384918
 30
0.0
  0
VERTEX
  8
0
  6
CONTINUOUS
 10
86.059696
 20
134.264864
 30
0.0
  0
SEQEND
  8
0
  6
CONTINUOUS
  0
POLYLINE
  8
0
  6
CONTINUOUS
 66
     1
 10
0.0
 20
0.0
 30
0.0
  0
VERTEX
  8
0
  6
CONTINUOUS
 10
53.074961
 20
95.176022
 30
0.0
  0
VERTEX
  8
0
  6
CONTINUOUS
 10
53.345909
 20
94.944775
 30
0.0
  0
VERTEX
  8
0
  6
CONTINUOUS
 10
53.547454
 20
94.603449
 30
0.0
  0
VERTEX
  8
0
  6
CONTINUOUS
 10
53.623265
 20
94.247446
 30
0.0
  0
SEQEND
  8
0
  6
CONTINUOUS
  0
POLYLINE
  8
0
  6
CONTINUOUS
 66
     1
 10
0.0
 20
0.0
 30
0.0
  0
VERTEX
  8
0
  6
CONTINUOUS
 10
53.627264
 20
93.71374
 30
0.0
  0
VERTEX
  8
0
  6
CONTINUOUS
 10
53.581678
 20
93.572086
 30
0.0
  0
VERTEX
  8
0
  6
CONTINUOUS
 10
53.459804
 20
93.538636
 30
0.0
  0
VERTEX
  8
0
  6
CONTINUOUS
 10
53.308195
 20
93.626168
 30
0.0
  0
VERTEX
  8
0
  6
CONTINUOUS
 10
53.18476
 20
93.801247
 30
0.0
  0
VERTEX
  8
0
  6
CONTINUOUS
 10
53.136646
 20
93.996999
 30
0.0
  0
SEQEND
  8
0
  6
CONTINUOUS
  0
POLYLINE
  8
0
  6
CONTINUOUS
 66
     1
 10
0.0
 20
0.0
 30
0.0
  0
VERTEX
  8
0
  6
CONTINUOUS
 10
52.951151
 20
94.670444
 30
0.0
  0
VERTEX
  8
0
  6
CONTINUOUS
 10
53.041467
 20
94.593362
 30
0.0
  0
VERTEX
  8
0
  6
CONTINUOUS
 10
53.108649
 20
94.479587
 30
0.0
  0
VERTEX
  8
0
  6
CONTINUOUS
 10
53.13392
 20
94.360919
 30
0.0
  0
SEQEND
  8
0
  6
CONTINUOUS
  0
POLYLINE
  8
0
  6
CONTINUOUS
 66
     1
 10
0.0
 20
0.0
 30
0.0
  0
VERTEX
  8
0
  6
CONTINUOUS
 10
47.633542
 20
97.330518
 30
0.0
  0
VERTEX
  8
0
  6
CONTINUOUS
 10
47.681688
 20
97.444561
 30
0.0
  0
VERTEX
  8
0
  6
CONTINUOUS
 10
47.801215
 20
97.437716
 30
0.0
  0
SEQEND
  8
0
  6
CONTINUOUS
  0
POLYLINE
  8
0
  6
CONTINUOUS
 66
     1
 10
0.0
 20
0.0
 30
0.0
  0
VERTEX
  8
0
  6
CONTINUOUS
 10
48.04751
 20
88.648447
 30
0.0
  0
VERTEX
  8
0
  6
CONTINUOUS
 10
47.798811
 20
88.911607
 30
0.0
  0
VERTEX
  8
0
  6
CONTINUOUS
 10
47.693997
 20
89.260796
 30
0.0
  0
SEQEND
  8
0
  6
CONTINUOUS
  0
POLYLINE
  8
0
  6
CONTINUOUS
 66
     1
 10
0.0
 20
0.0
 30
0.0
  0
VERTEX
  8
0
  6
CONTINUOUS
 10
51.96938
 20
86.792403
 30
0.0
  0
VERTEX
  8
0
  6
CONTINUOUS
 10
51.923966
 20
86.614498
 30
0.0
  0
VERTEX
  8
0
  6
CONTINUOUS
 10
51.79682
 20
86.538477
 30
0.0
  0
VERTEX
  8
0
  6
CONTINUOUS
 10
51.622011
 20
86.584708
 30
0.0
  0
SEQEND
  8
0
  6
CONTINUOUS
  0
POLYLINE
  8
0
  6
CONTINUOUS
 66
     1
 10
0.0
 20
0.0
 30
0.0
  0
VERTEX
  8
0
  6
CONTINUOUS
 10
51.965387
 20
87.325431
 30
0.0
  0
VERTEX
  8
0
  6
CONTINUOUS
 10
52.033509
 20
87.592287
 30
0.0
  0
VERTEX
  8
0
  6
CONTINUOUS
 10
52.224228
 20
87.706319
 30
0.0
  0
VERTEX
  8
0
  6
CONTINUOUS
 10
52.486442
 20
87.636972
 30
0.0
  0
SEQEND
  8
0
  6
CONTINUOUS
  0
POLYLINE
  8
0
  6
CONTINUOUS
 66
     1
 10
0.0
 20
0.0
 30
0.0
  0
VERTEX
  8
0
  6
CONTINUOUS
 10
53.185788
 20
87.437328
 30
0.0
  0
VERTEX
  8
0
  6
CONTINUOUS
 10
53.163081
 20
87.348376
 30
0.0
  0
VERTEX
  8
0
  6
CONTINUOUS
 10
53.099508
 20
87.310366
 30
0.0
  0
VERTEX
  8
0
  6
CONTINUOUS
 10
53.012103
 20
87.333481
 30
0.0
  0
SEQEND
  8
0
  6
CONTINUOUS
  0
POLYLINE
  8
0
  6
CONTINUOUS
 66
     1
 10
0.0
 20
0.0
 30
0.0
  0
VERTEX
  8
0
  6
CONTINUOUS
 10
53.182717
 20
87.84735
 30
0.0
  0
VERTEX
  8
0
  6
CONTINUOUS
 10
53.214507
 20
87.971883
 30
0.0
  0
VERTEX
  8
0
  6
CONTINUOUS
 10
53.303509
 20
88.025098
 30
0.0
  0
VERTEX
  8
0
  6
CONTINUOUS
 10
53.425875
 20
87.992736
 30
0.0
  0
VERTEX
  8
0
  6
CONTINUOUS
 10
53.548818
 20
87.883469
 30
0.0
  0
VERTEX
  8
0
  6
CONTINUOUS
 10
53.639394
 20
87.726574
 30
0.0
  0
VERTEX
  8
0
  6
CONTINUOUS
 10
53.673334
 20
87.564092
 30
0.0
  0
SEQEND
  8
0
  6
CONTINUOUS
  0
POLYLINE
  8
0
  6
CONTINUOUS
 66
     1
 10
0.0
 20
0.0
 30
0.0
  0
VERTEX
  8
0
  6
CONTINUOUS
 10
53.682588
 20
86.328928
 30
0.0
  0
VERTEX
  8
0
  6
CONTINUOUS
 10
53.660296
 20
86.130473
 30
0.0
  0
VERTEX
  8
0
  6
CONTINUOUS
 10
53.591759
 20
85.97312
 30
0.0
  0
SEQEND
  8
0
  6
CONTINUOUS
  0
POLYLINE
  8
0
  6
CONTINUOUS
 66
     1
 10
0.0
 20
0.0
 30
0.0
  0
VERTEX
  8
0
  6
CONTINUOUS
 10
53.385018
 20
85.668897
 30
0.0
  0
VERTEX
  8
0
  6
CONTINUOUS
 10
53.300978
 20
85.630894
 30
0.0
  0
VERTEX
  8
0
  6
CONTINUOUS
 10
53.188638
 20
85.687171
 30
0.0
  0
VERTEX
  8
0
  6
CONTINUOUS
 10
53.094428
 20
85.814469
 30
0.0
  0
VERTEX
  8
0
  6
CONTINUOUS
 10
53.057284
 20
85.960177
 30
0.0
  0
SEQEND
  8
0
  6
CONTINUOUS
  0
POLYLINE
  8
0
  6
CONTINUOUS
 66
     1
 10
0.0
 20
0.0
 30
0.0
  0
VERTEX
  8
0
  6
CONTINUOUS
 10
52.876227
 20
86.840382
 30
0.0
  0
VERTEX
  8
0
  6
CONTINUOUS
 10
53.000577
 20
86.708802
 30
0.0
  0
VERTEX
  8
0
  6
CONTINUOUS
 10
53.052984
 20
86.534207
 30
0.0
  0
SEQEND
  8
0
  6
CONTINUOUS
  0
POLYLINE
  8
0
  6
CONTINUOUS
 66
     1
 10
0.0
 20
0.0
 30
0.0
  0
VERTEX
  8
0
  6
CONTINUOUS
 10
52.457234
 20
86.878164
 30
0.0
  0
VERTEX
  8
0
  6
CONTINUOUS
 10
52.479941
 20
86.967116
 30
0.0
  0
VERTEX
  8
0
  6
CONTINUOUS
 10
52.543514
 20
87.005127
 30
0.0
  0
VERTEX
  8
0
  6
CONTINUOUS
 10
52.630918
 20
86.982011
 30
0.0
  0
SEQEND
  8
0
  6
CONTINUOUS
  0
POLYLINE
  8
0
  6
CONTINUOUS
 66
     1
 10
0.0
 20
0.0
 30
0.0
  0
VERTEX
  8
0
  6
CONTINUOUS
 10
52.465834
 20
85.730103
 30
0.0
  0
VERTEX
  8
0
  6
CONTINUOUS
 10
52.4156
 20
85.614768
 30
0.0
  0
VERTEX
  8
0
  6
CONTINUOUS
 10
52.29215
 20
85.626256
 30
0.0
  0
SEQEND
  8
0
  6
CONTINUOUS
  0
POLYLINE
  8
0
  6
CONTINUOUS
 66
     1
 10
0.0
 20
0.0
 30
0.0
  0
VERTEX
  8
0
  6
CONTINUOUS
 10
47.385972
 20
88.458839
 30
0.0
  0
VERTEX
  8
0
  6
CONTINUOUS
 10
47.298156
 20
88.536887
 30
0.0
  0
VERTEX
  8
0
  6
CONTINUOUS
 10
47.233458
 20
88.648955
 30
0.0
  0
VERTEX
  8
0
  6
CONTINUOUS
 10
47.209215
 20
88.765013
 30
0.0
  0
SEQEND
  8
0
  6
CONTINUOUS
  0
POLYLINE
  8
0
  6
CONTINUOUS
 66
     1
 10
0.0
 20
0.0
 30
0.0
  0
VERTEX
  8
0
  6
CONTINUOUS
 10
47.058701
 20
108.856079
 30
0.0
  0
VERTEX
  8
0
  6
CONTINUOUS
 10
47.081408
 20
108.945031
 30
0.0
  0
VERTEX
  8
0
  6
CONTINUOUS
 10
47.144981
 20
108.983042
 30
0.0
  0
VERTEX
  8
0
  6
CONTINUOUS
 10
47.232386
 20
108.959926
 30
0.0
  0
SEQEND
  8
0
  6
CONTINUOUS
  0
POLYLINE
  8
0
  6
CONTINUOUS
 66
     1
 10
0.0
 20
0.0
 30
0.0
  0
VERTEX
  8
0
  6
CONTINUOUS
 10
96.912815
 20
137.167962
 30
0.0
  0
VERTEX
  8
0
  6
CONTINUOUS
 10
96.968763
 20
137.178532
 30
0.0
  0
VERTEX
  8
0
  6
CONTINUOUS
 10
97.034638
 20
137.155527
 30
0.0
  0
SEQEND
  8
0
  6
CONTINUOUS
  0
POLYLINE
  8
0
  6
CONTINUOUS
 66
     1
 10
0.0
 20
0.0
 30
0.0
  0
VERTEX
  8
0
  6
CONTINUOUS
 10
52.138564
 20
106.127343
 30
0.0
  0
VERTEX
  8
0
  6
CONTINUOUS
 10
52.22638
 20
106.049295
 30
0.0
  0
VERTEX
  8
0
  6
CONTINUOUS
 10
52.291077
 20
105.937227
 30
0.0
  0
VERTEX
  8
0
  6
CONTINUOUS
 10
52.31532
 20
105.821168
 30
0.0
  0
SEQEND
  8
0
  6
CONTINUOUS
  0
POLYLINE
  8
0
  6
CONTINUOUS
 66
     1
 10
0.0
 20
0.0
 30
0.0
  0
VERTEX
  8
0
  6
CONTINUOUS
 10
101.940816
 20
134.322944
 30
0.0
  0
VERTEX
  8
0
  6
CONTINUOUS
 10
102.040403
 20
134.229491
 30
0.0
  0
VERTEX
  8
0
  6
CONTINUOUS
 10
102.105446
 20
134.096736
 30
0.0
  0
SEQEND
  8
0
  6
CONTINUOUS
  0
POLYLINE
  8
0
  6
CONTINUOUS
 66
     1
 10
0.0
 20
0.0
 30
0.0
  0
VERTEX
  8
0
  6
CONTINUOUS
 10
52.500678
 20
104.366933
 30
0.0
  0
VERTEX
  8
0
  6
CONTINUOUS
 10
52.376328
 20
104.498513
 30
0.0
  0
VERTEX
  8
0
  6
CONTINUOUS
 10
52.323921
 20
104.673108
 30
0.0
  0
SEQEND
  8
0
  6
CONTINUOUS
  0
POLYLINE
  8
0
  6
CONTINUOUS
 66
     1
 10
0.0
 20
0.0
 30
0.0
  0
VERTEX
  8
0
  6
CONTINUOUS
 10
52.919671
 20
104.329151
 30
0.0
  0
VERTEX
  8
0
  6
CONTINUOUS
 10
52.896964
 20
104.240199
 30
0.0
  0
VERTEX
  8
0
  6
CONTINUOUS
 10
52.833391
 20
104.202188
 30
0.0
  0
VERTEX
  8
0
  6
CONTINUOUS
 10
52.745987
 20
104.225304
 30
0.0
  0
SEQEND
  8
0
  6
CONTINUOUS
  0
POLYLINE
  8
0
  6
CONTINUOUS
 66
     1
 10
0.0
 20
0.0
 30
0.0
  0
VERTEX
  8
0
  6
CONTINUOUS
 10
52.915371
 20
104.903182
 30
0.0
  0
VERTEX
  8
0
  6
CONTINUOUS
 10
52.950645
 20
105.007079
 30
0.0
  0
VERTEX
  8
0
  6
CONTINUOUS
 10
53.043758
 20
105.026226
 30
0.0
  0
VERTEX
  8
0
  6
CONTINUOUS
 10
53.156227
 20
104.95271
 30
0.0
  0
VERTEX
  8
0
  6
CONTINUOUS
 10
53.241569
 20
104.816913
 30
0.0
  0
SEQEND
  8
0
  6
CONTINUOUS
  0
POLYLINE
  8
0
  6
CONTINUOUS
 66
     1
 10
0.0
 20
0.0
 30
0.0
  0
VERTEX
  8
0
  6
CONTINUOUS
 10
53.454684
 20
104.270287
 30
0.0
  0
VERTEX
  8
0
  6
CONTINUOUS
 10
53.526184
 20
104.032083
 30
0.0
  0
VERTEX
  8
0
  6
CONTINUOUS
 10
53.551656
 20
103.806052
 30
0.0
  0
SEQEND
  8
0
  6
CONTINUOUS
  0
POLYLINE
  8
0
  6
CONTINUOUS
 66
     1
 10
0.0
 20
0.0
 30
0.0
  0
VERTEX
  8
0
  6
CONTINUOUS
 10
53.560909
 20
102.570888
 30
0.0
  0
VERTEX
  8
0
  6
CONTINUOUS
 10
53.515324
 20
102.429233
 30
0.0
  0
VERTEX
  8
0
  6
CONTINUOUS
 10
53.39345
 20
102.395783
 30
0.0
  0
VERTEX
  8
0
  6
CONTINUOUS
 10
53.241841
 20
102.483315
 30
0.0
  0
VERTEX
  8
0
  6
CONTINUOUS
 10
53.118405
 20
102.658394
 30
0.0
  0
VERTEX
  8
0
  6
CONTINUOUS
 10
53.070292
 20
102.854146
 30
0.0
  0
SEQEND
  8
0
  6
CONTINUOUS
  0
POLYLINE
  8
0
  6
CONTINUOUS
 66
     1
 10
0.0
 20
0.0
 30
0.0
  0
VERTEX
  8
0
  6
CONTINUOUS
 10
52.890463
 20
103.570342
 30
0.0
  0
VERTEX
  8
0
  6
CONTINUOUS
 10
53.014813
 20
103.438763
 30
0.0
  0
VERTEX
  8
0
  6
CONTINUOUS
 10
53.06722
 20
103.264168
 30
0.0
  0
SEQEND
  8
0
  6
CONTINUOUS
  0
POLYLINE
  8
0
  6
CONTINUOUS
 66
     1
 10
0.0
 20
0.0
 30
0.0
  0
VERTEX
  8
0
  6
CONTINUOUS
 10
52.364802
 20
103.873834
 30
0.0
  0
VERTEX
  8
0
  6
CONTINUOUS
 10
52.101353
 20
104.107978
 30
0.0
  0
VERTEX
  8
0
  6
CONTINUOUS
 10
51.907261
 20
104.444181
 30
0.0
  0
VERTEX
  8
0
  6
CONTINUOUS
 10
51.834532
 20
104.792357
 30
0.0
  0
SEQEND
  8
0
  6
CONTINUOUS
  0
POLYLINE
  8
0
  6
CONTINUOUS
 66
     1
 10
0.0
 20
0.0
 30
0.0
  0
VERTEX
  8
0
  6
CONTINUOUS
 10
51.477026
 20
105.937735
 30
0.0
  0
VERTEX
  8
0
  6
CONTINUOUS
 10
51.652658
 20
105.781638
 30
0.0
  0
VERTEX
  8
0
  6
CONTINUOUS
 10
51.782053
 20
105.557503
 30
0.0
  0
VERTEX
  8
0
  6
CONTINUOUS
 10
51.830539
 20
105.325385
 30
0.0
  0
SEQEND
  8
0
  6
CONTINUOUS
  0
POLYLINE
  8
0
  6
CONTINUOUS
 66
     1
 10
0.0
 20
0.0
 30
0.0
  0
VERTEX
  8
0
  6
CONTINUOUS
 10
47.555155
 20
107.793779
 30
0.0
  0
VERTEX
  8
0
  6
CONTINUOUS
 10
47.600569
 20
107.971684
 30
0.0
  0
VERTEX
  8
0
  6
CONTINUOUS
 10
47.727716
 20
108.047705
 30
0.0
  0
VERTEX
  8
0
  6
CONTINUOUS
 10
47.902525
 20
108.001474
 30
0.0
  0
SEQEND
  8
0
  6
CONTINUOUS
  0
POLYLINE
  8
0
  6
CONTINUOUS
 66
     1
 10
0.0
 20
0.0
 30
0.0
  0
VERTEX
  8
0
  6
CONTINUOUS
 10
47.786353
 20
99.421475
 30
0.0
  0
VERTEX
  8
0
  6
CONTINUOUS
 10
47.665891
 20
99.553189
 30
0.0
  0
VERTEX
  8
0
  6
CONTINUOUS
 10
47.61561
 20
99.724058
 30
0.0
  0
SEQEND
  8
0
  6
CONTINUOUS
  0
POLYLINE
  8
0
  6
CONTINUOUS
 66
     1
 10
0.0
 20
0.0
 30
0.0
  0
VERTEX
  8
0
  6
CONTINUOUS
 10
53.119089
 20
96.340577
 30
0.0
  0
VERTEX
  8
0
  6
CONTINUOUS
 10
53.095385
 20
96.250185
 30
0.0
  0
VERTEX
  8
0
  6
CONTINUOUS
 10
53.029331
 20
96.213333
 30
0.0
  0
VERTEX
  8
0
  6
CONTINUOUS
 10
52.939391
 20
96.240322
 30
0.0
  0
SEQEND
  8
0
  6
CONTINUOUS
  0
POLYLINE
  8
0
  6
CONTINUOUS
 66
     1
 10
0.0
 20
0.0
 30
0.0
  0
VERTEX
  8
0
  6
CONTINUOUS
 10
53.116362
 20
96.704498
 30
0.0
  0
VERTEX
  8
0
  6
CONTINUOUS
 10
53.148152
 20
96.829031
 30
0.0
  0
VERTEX
  8
0
  6
CONTINUOUS
 10
53.237155
 20
96.882246
 30
0.0
  0
VERTEX
  8
0
  6
CONTINUOUS
 10
53.359521
 20
96.849884
 30
0.0
  0
VERTEX
  8
0
  6
CONTINUOUS
 10
53.482464
 20
96.740616
 30
0.0
  0
VERTEX
  8
0
  6
CONTINUOUS
 10
53.57304
 20
96.583722
 30
0.0
  0
VERTEX
  8
0
  6
CONTINUOUS
 10
53.60698
 20
96.421239
 30
0.0
  0
SEQEND
  8
0
  6
CONTINUOUS
  0
POLYLINE
  8
0
  6
CONTINUOUS
 66
     1
 10
0.0
 20
0.0
 30
0.0
  0
VERTEX
  8
0
  6
CONTINUOUS
 10
53.610978
 20
95.887533
 30
0.0
  0
VERTEX
  8
0
  6
CONTINUOUS
 10
53.539866
 20
95.616357
 30
0.0
  0
VERTEX
  8
0
  6
CONTINUOUS
 10
53.341706
 20
95.505802
 30
0.0
  0
VERTEX
  8
0
  6
CONTINUOUS
 10
53.071884
 20
95.586768
 30
0.0
  0
SEQEND
  8
0
  6
CONTINUOUS
  0
POLYLINE
  8
0
  6
CONTINUOUS
 66
     1
 10
0.0
 20
0.0
 30
0.0
  0
VERTEX
  8
0
  6
CONTINUOUS
 10
47.988075
 20
97.909414
 30
0.0
  0
VERTEX
  8
0
  6
CONTINUOUS
 10
47.807443
 20
98.063579
 30
0.0
  0
VERTEX
  8
0
  6
CONTINUOUS
 10
47.67308
 20
98.291129
 30
0.0
  0
VERTEX
  8
0
  6
CONTINUOUS
 10
47.622539
 20
98.528464
 30
0.0
  0
VERTEX
  8
0
  6
CONTINUOUS
 10
47.669947
 20
98.709248
 30
0.0
  0
VERTEX
  8
0
  6
CONTINUOUS
 10
47.802054
 20
98.782952
 30
0.0
  0
VERTEX
  8
0
  6
CONTINUOUS
 10
47.981935
 20
98.728974
 30
0.0
  0
SEQEND
  8
0
  6
CONTINUOUS
  0
POLYLINE
  8
0
  6
CONTINUOUS
 66
     1
 10
0.0
 20
0.0
 30
0.0
  0
VERTEX
  8
0
  6
CONTINUOUS
 10
54.218041
 20
84.718466
 30
0.0
  0
VERTEX
  8
0
  6
CONTINUOUS
 10
54.195334
 20
84.629514
 30
0.0
  0
VERTEX
  8
0
  6
CONTINUOUS
 10
54.131761
 20
84.591503
 30
0.0
  0
VERTEX
  8
0
  6
CONTINUOUS
 10
54.044356
 20
84.614619
 30
0.0
  0
SEQEND
  8
0
  6
CONTINUOUS
  0
POLYLINE
  8
0
  6
CONTINUOUS
 66
     1
 10
0.0
 20
0.0
 30
0.0
  0
VERTEX
  8
0
  6
CONTINUOUS
 10
103.869779
 20
112.964192
 30
0.0
  0
VERTEX
  8
0
  6
CONTINUOUS
 10
103.856593
 20
112.892451
 30
0.0
  0
VERTEX
  8
0
  6
CONTINUOUS
 10
103.817917
 20
112.84791
 30
0.0
  0
SEQEND
  8
0
  6
CONTINUOUS
  0
POLYLINE
  8
0
  6
CONTINUOUS
 66
     1
 10
0.0
 20
0.0
 30
0.0
  0
VERTEX
  8
0
  6
CONTINUOUS
 10
52.642591
 20
85.423928
 30
0.0
  0
VERTEX
  8
0
  6
CONTINUOUS
 10
52.518241
 20
85.555508
 30
0.0
  0
VERTEX
  8
0
  6
CONTINUOUS
 10
52.465834
 20
85.730103
 30
0.0
  0
SEQEND
  8
0
  6
CONTINUOUS
  0
POLYLINE
  8
0
  6
CONTINUOUS
 66
     1
 10
0.0
 20
0.0
 30
0.0
  0
VERTEX
  8
0
  6
CONTINUOUS
 10
52.457848
 20
86.796159
 30
0.0
  0
VERTEX
  8
0
  6
CONTINUOUS
 10
52.489638
 20
86.920692
 30
0.0
  0
VERTEX
  8
0
  6
CONTINUOUS
 10
52.57864
 20
86.973907
 30
0.0
  0
VERTEX
  8
0
  6
CONTINUOUS
 10
52.701007
 20
86.941545
 30
0.0
  0
VERTEX
  8
0
  6
CONTINUOUS
 10
52.823949
 20
86.832278
 30
0.0
  0
VERTEX
  8
0
  6
CONTINUOUS
 10
52.914526
 20
86.675383
 30
0.0
  0
VERTEX
  8
0
  6
CONTINUOUS
 10
52.948466
 20
86.512901
 30
0.0
  0
SEQEND
  8
0
  6
CONTINUOUS
  0
POLYLINE
  8
0
  6
CONTINUOUS
 66
     1
 10
0.0
 20
0.0
 30
0.0
  0
VERTEX
  8
0
  6
CONTINUOUS
 10
53.128908
 20
85.7147
 30
0.0
  0
VERTEX
  8
0
  6
CONTINUOUS
 10
53.004559
 20
85.84628
 30
0.0
  0
VERTEX
  8
0
  6
CONTINUOUS
 10
52.952152
 20
86.020875
 30
0.0
  0
SEQEND
  8
0
  6
CONTINUOUS
  0
POLYLINE
  8
0
  6
CONTINUOUS
 66
     1
 10
0.0
 20
0.0
 30
0.0
  0
VERTEX
  8
0
  6
CONTINUOUS
 10
53.723123
 20
85.575755
 30
0.0
  0
VERTEX
  8
0
  6
CONTINUOUS
 10
53.700416
 20
85.486803
 30
0.0
  0
VERTEX
  8
0
  6
CONTINUOUS
 10
53.636842
 20
85.448792
 30
0.0
  0
VERTEX
  8
0
  6
CONTINUOUS
 10
53.549438
 20
85.471908
 30
0.0
  0
SEQEND
  8
0
  6
CONTINUOUS
  0
POLYLINE
  8
0
  6
CONTINUOUS
 66
     1
 10
0.0
 20
0.0
 30
0.0
  0
VERTEX
  8
0
  6
CONTINUOUS
 10
53.404453
 20
104.824934
 30
0.0
  0
VERTEX
  8
0
  6
CONTINUOUS
 10
53.528802
 20
104.693354
 30
0.0
  0
VERTEX
  8
0
  6
CONTINUOUS
 10
53.581209
 20
104.518759
 30
0.0
  0
SEQEND
  8
0
  6
CONTINUOUS
  0
POLYLINE
  8
0
  6
CONTINUOUS
 66
     1
 10
0.0
 20
0.0
 30
0.0
  0
VERTEX
  8
0
  6
CONTINUOUS
 10
52.810239
 20
104.96388
 30
0.0
  0
VERTEX
  8
0
  6
CONTINUOUS
 10
52.832946
 20
105.052832
 30
0.0
  0
VERTEX
  8
0
  6
CONTINUOUS
 10
52.896519
 20
105.090843
 30
0.0
  0
VERTEX
  8
0
  6
CONTINUOUS
 10
52.983923
 20
105.067727
 30
0.0
  0
SEQEND
  8
0
  6
CONTINUOUS
  0
POLYLINE
  8
0
  6
CONTINUOUS
 66
     1
 10
0.0
 20
0.0
 30
0.0
  0
VERTEX
  8
0
  6
CONTINUOUS
 10
52.813894
 20
104.475971
 30
0.0
  0
VERTEX
  8
0
  6
CONTINUOUS
 10
52.768308
 20
104.334317
 30
0.0
  0
VERTEX
  8
0
  6
CONTINUOUS
 10
52.646434
 20
104.300867
 30
0.0
  0
VERTEX
  8
0
  6
CONTINUOUS
 10
52.494825
 20
104.388399
 30
0.0
  0
VERTEX
  8
0
  6
CONTINUOUS
 10
52.37139
 20
104.563477
 30
0.0
  0
VERTEX
  8
0
  6
CONTINUOUS
 10
52.323276
 20
104.75923
 30
0.0
  0
SEQEND
  8
0
  6
CONTINUOUS
  0
POLYLINE
  8
0
  6
CONTINUOUS
 66
     1
 10
0.0
 20
0.0
 30
0.0
  0
VERTEX
  8
0
  6
CONTINUOUS
 10
52.31532
 20
105.821168
 30
0.0
  0
VERTEX
  8
0
  6
CONTINUOUS
 10
52.338028
 20
105.910121
 30
0.0
  0
VERTEX
  8
0
  6
CONTINUOUS
 10
52.401601
 20
105.948131
 30
0.0
  0
VERTEX
  8
0
  6
CONTINUOUS
 10
52.489005
 20
105.925016
 30
0.0
  0
SEQEND
  8
0
  6
CONTINUOUS
  0
POLYLINE
  8
0
  6
CONTINUOUS
 66
     1
 10
0.0
 20
0.0
 30
0.0
  0
VERTEX
  8
0
  6
CONTINUOUS
 10
102.169434
 20
134.133052
 30
0.0
  0
VERTEX
  8
0
  6
CONTINUOUS
 10
102.225383
 20
134.143621
 30
0.0
  0
VERTEX
  8
0
  6
CONTINUOUS
 10
102.291257
 20
134.120617
 30
0.0
  0
SEQEND
  8
0
  6
CONTINUOUS
  0
POLYLINE
  8
0
  6
CONTINUOUS
 66
     1
 10
0.0
 20
0.0
 30
0.0
  0
VERTEX
  8
0
  6
CONTINUOUS
 10
53.89077
 20
105.115706
 30
0.0
  0
VERTEX
  8
0
  6
CONTINUOUS
 10
54.01512
 20
104.984126
 30
0.0
  0
VERTEX
  8
0
  6
CONTINUOUS
 10
54.067527
 20
104.809532
 30
0.0
  0
SEQEND
  8
0
  6
CONTINUOUS
  0
POLYLINE
  8
0
  6
CONTINUOUS
 66
     1
 10
0.0
 20
0.0
 30
0.0
  0
VERTEX
  8
0
  6
CONTINUOUS
 10
103.693022
 20
133.311307
 30
0.0
  0
VERTEX
  8
0
  6
CONTINUOUS
 10
103.817372
 20
133.179727
 30
0.0
  0
VERTEX
  8
0
  6
CONTINUOUS
 10
103.869779
 20
133.005133
 30
0.0
  0
SEQEND
  8
0
  6
CONTINUOUS
  0
LINE
  8
0
  6
CONTINUOUS
 10
87.852478
 20
120.337429
 30
0.0
 11
71.736281
 21
111.056691
 31
0.0
  0
LINE
  8
0
  6
CONTINUOUS
 10
71.895585
 20
111.389419
 30
0.0
 11
88.013582
 21
120.671206
 31
0.0
  0
LINE
  8
0
  6
CONTINUOUS
 10
71.895585
 20
139.160944
 30
0.0
 11
88.013582
 21
148.442731
 31
0.0
  0
LINE
  8
0
  6
CONTINUOUS
 10
71.369883
 20
140.076808
 30
0.0
 11
87.48788
 21
149.358595
 31
0.0
  0
LINE
  8
0
  6
CONTINUOUS
 10
60.487731
 20
146.359621
 30
0.0
 11
76.794019
 21
155.750118
 31
0.0
  0
LINE
  8
0
  6
CONTINUOUS
 10
67.467441
 20
92.157996
 30
0.0
 11
71.135969
 21
90.03997
 31
0.0
  0
LINE
  8
0
  6
CONTINUOUS
 10
71.384344
 20
90.03904
 30
0.0
 11
87.432474
 21
99.144821
 31
0.0
  0
LINE
  8
0
  6
CONTINUOUS
 10
87.559092
 20
99.36413
 30
0.0
 11
87.418894
 21
120.087856
 31
0.0
  0
LINE
  8
0
  6
CONTINUOUS
 10
78.326072
 20
132.529976
 30
0.0
 11
79.210212
 21
132.019517
 31
0.0
  0
LINE
  8
0
  6
CONTINUOUS
 10
78.953485
 20
135.17364
 30
0.0
 11
80.369899
 21
134.384421
 31
0.0
  0
LINE
  8
0
  6
CONTINUOUS
 10
80.616583
 20
134.386302
 30
0.0
 11
83.097301
 21
135.818545
 31
0.0
  0
LINE
  8
0
  6
CONTINUOUS
 10
75.229905
 20
128.400625
 30
0.0
 11
75.949355
 21
128.013755
 31
0.0
  0
LINE
  8
0
  6
CONTINUOUS
 10
79.683118
 20
132.588556
 30
0.0
 11
78.988354
 21
133.00393
 31
0.0
  0
LINE
  8
0
  6
CONTINUOUS
 10
86.699874
 20
133.556004
 30
0.0
 11
86.060345
 21
133.951474
 31
0.0
  0
LINE
  8
0
  6
CONTINUOUS
 10
73.595963
 20
132.169925
 30
0.0
 11
71.33798
 21
133.56621
 31
0.0
  0
LINE
  8
0
  6
CONTINUOUS
 10
73.595963
 20
129.446316
 30
0.0
 11
72.984192
 21
129.824621
 31
0.0
  0
LINE
  8
0
  6
CONTINUOUS
 10
73.595963
 20
123.22053
 30
0.0
 11
72.984192
 21
123.598835
 31
0.0
  0
LINE
  8
0
  6
CONTINUOUS
 10
71.123204
 20
122.918086
 30
0.0
 11
72.519887
 21
122.167046
 31
0.0
  0
LINE
  8
0
  6
CONTINUOUS
 10
75.561368
 20
120.4501
 30
0.0
 11
71.390586
 21
122.734174
 31
0.0
  0
LINE
  8
0
  6
CONTINUOUS
 10
71.335673
 20
128.983302
 30
0.0
 11
72.519887
 21
128.346514
 31
0.0
  0
LINE
  8
0
  6
CONTINUOUS
 10
86.699874
 20
139.735472
 30
0.0
 11
84.441891
 21
141.131757
 31
0.0
  0
LINE
  8
0
  6
CONTINUOUS
 10
84.904348
 20
139.068859
 30
0.0
 11
85.623798
 21
138.681988
 31
0.0
  0
LINE
  8
0
  6
CONTINUOUS
 10
84.904348
 20
132.843072
 30
0.0
 11
85.623798
 21
132.456202
 31
0.0
  0
LINE
  8
0
  6
CONTINUOUS
 10
83.285587
 20
130.989922
 30
0.0
 11
85.623798
 21
129.732593
 31
0.0
  0
LINE
  8
0
  6
CONTINUOUS
 10
86.060852
 20
134.261501
 30
0.0
 11
86.682447
 21
134.620379
 31
0.0
  0
LINE
  8
0
  6
CONTINUOUS
 10
53.554679
 20
93.550958
 30
0.0
 11
53.662964
 21
93.6124
 31
0.0
  0
LINE
  8
0
  6
CONTINUOUS
 10
53.701398
 20
88.571017
 30
0.0
 11
52.120925
 21
87.67425
 31
0.0
  0
LINE
  8
0
  6
CONTINUOUS
 10
53.703184
 20
88.264263
 30
0.0
 11
53.255301
 21
88.010132
 31
0.0
  0
LINE
  8
0
  6
CONTINUOUS
 10
53.355879
 20
85.641576
 30
0.0
 11
53.721242
 21
85.848885
 31
0.0
  0
LINE
  8
0
  6
CONTINUOUS
 10
52.413988
 20
85.61383
 30
0.0
 11
52.478077
 21
85.650194
 31
0.0
  0
LINE
  8
0
  6
CONTINUOUS
 10
96.912799
 20
137.167953
 30
0.0
 11
89.353472
 21
132.950026
 31
0.0
  0
LINE
  8
0
  6
CONTINUOUS
 10
82.704675
 20
129.285909
 30
0.0
 11
74.875086
 21
124.843365
 31
0.0
  0
LINE
  8
0
  6
CONTINUOUS
 10
60.421563
 20
116.452372
 30
0.0
 11
47.110547
 21
108.972352
 31
0.0
  0
LINE
  8
0
  6
CONTINUOUS
 10
53.017805
 20
105.048158
 30
0.0
 11
52.967217
 21
105.019455
 31
0.0
  0
LINE
  8
0
  6
CONTINUOUS
 10
53.488325
 20
102.408106
 30
0.0
 11
53.59661
 21
102.469547
 31
0.0
  0
LINE
  8
0
  6
CONTINUOUS
 10
53.63683
 20
97.121411
 30
0.0
 11
53.188947
 21
96.86728
 31
0.0
  0
LINE
  8
0
  6
CONTINUOUS
 10
53.45544
 20
95.538714
 30
0.0
 11
53.647754
 21
95.647834
 31
0.0
  0
LINE
  8
0
  6
CONTINUOUS
 10
54.166195
 20
84.602193
 30
0.0
 11
67.813354
 21
92.3545
 31
0.0
  0
LINE
  8
0
  6
CONTINUOUS
 10
87.529337
 20
103.541438
 30
0.0
 11
103.817933
 21
112.847919
 31
0.0
  0
LINE
  8
0
  6
CONTINUOUS
 10
52.597921
 20
86.997235
 30
0.0
 11
52.530433
 21
86.958942
 31
0.0
  0
LINE
  8
0
  6
CONTINUOUS
 10
52.741309
 20
104.313189
 30
0.0
 11
52.919115
 21
104.414077
 31
0.0
  0
LINE
  8
0
  6
CONTINUOUS
 10
102.169418
 20
134.133043
 30
0.0
 11
89.36562
 21
126.939379
 31
0.0
  0
LINE
  8
0
  6
CONTINUOUS
 10
77.298828
 20
120.201067
 30
0.0
 11
76.815802
 21
119.926996
 31
0.0
  0
LINE
  8
0
  6
CONTINUOUS
 10
65.771505
 20
113.470413
 30
0.0
 11
52.367166
 21
105.937441
 31
0.0
  0
LINE
  8
0
  6
CONTINUOUS
 10
77.011437
 20
119.923336
 30
0.0
 11
77.597125
 21
119.585189
 31
0.0
  0
LINE
  8
0
  6
CONTINUOUS
 10
67.541229
 20
92.199946
 30
0.0
 11
71.082657
 21
90.155301
 31
0.0
  0
LINE
  8
0
  6
CONTINUOUS
 10
87.48432
 20
99.261094
 30
0.0
 11
87.342608
 21
120.043813
 31
0.0
  0
LINE
  8
0
  6
CONTINUOUS
 10
87.48432
 20
99.261094
 30
0.0
 11
71.43619
 21
90.155313
 31
0.0
  0
LINE
  8
0
  6
CONTINUOUS
 10
71.43619
 20
90.155313
 30
0.0
 11
71.291262
 21
110.776568
 31
0.0
  0
LINE
  8
0
  6
CONTINUOUS
 10
71.082657
 20
90.155301
 30
0.0
 11
70.935875
 21
110.571385
 31
0.0
  0
LINE
  8
0
  6
CONTINUOUS
 10
77.172861
 20
119.34024
 30
0.0
 11
76.742197
 21
119.588884
 31
0.0
  0
LINE
  8
0
  6
CONTINUOUS
 10
67.632039
 20
112.433387
 30
0.0
 11
67.813354
 21
92.3545
 31
0.0
  0
LINE
  8
0
  6
CONTINUOUS
 10
76.815035
 20
119.811897
 30
0.0
 11
77.011437
 21
119.923336
 31
0.0
  0
LINE
  8
0
  6
CONTINUOUS
 10
76.246419
 20
118.804966
 30
0.0
 11
76.425965
 21
119.271344
 31
0.0
  0
LINE
  8
0
  6
CONTINUOUS
 10
81.72902
 20
129.646124
 30
0.0
 11
81.163658
 21
129.972535
 31
0.0
  0
LINE
  8
0
  6
CONTINUOUS
 10
82.704629
 20
129.654403
 30
0.0
 11
82.224319
 21
129.93171
 31
0.0
  0
LINE
  8
0
  6
CONTINUOUS
 10
75.17594
 20
128.516284
 30
0.0
 11
75.895389
 21
128.129413
 31
0.0
  0
LINE
  8
0
  6
CONTINUOUS
 10
78.21624
 20
136.104182
 30
0.0
 11
77.812346
 21
136.32923
 31
0.0
  0
LINE
  8
0
  6
CONTINUOUS
 10
77.81361
 20
139.481825
 30
0.0
 11
80.139558
 21
140.824711
 31
0.0
  0
LINE
  8
0
  6
CONTINUOUS
 10
81.539901
 20
141.784384
 30
0.0
 11
80.14351
 21
142.590591
 31
0.0
  0
LINE
  8
0
  6
CONTINUOUS
 10
80.14351
 20
142.590591
 30
0.0
 11
80.304559
 21
143.801293
 31
0.0
  0
LINE
  8
0
  6
CONTINUOUS
 10
80.14351
 20
142.590591
 30
0.0
 11
78.494082
 21
141.638293
 31
0.0
  0
LINE
  8
0
  6
CONTINUOUS
 10
77.812162
 20
139.701274
 30
0.0
 11
77.96898
 21
140.880176
 31
0.0
  0
LINE
  8
0
  6
CONTINUOUS
 10
80.314806
 20
134.500746
 30
0.0
 11
78.900593
 21
135.288739
 31
0.0
  0
LINE
  8
0
  6
CONTINUOUS
 10
79.784476
 20
135.204554
 30
0.0
 11
78.900593
 21
135.697049
 31
0.0
  0
LINE
  8
0
  6
CONTINUOUS
 10
79.784476
 20
139.709444
 30
0.0
 11
80.314806
 21
139.403258
 31
0.0
  0
LINE
  8
0
  6
CONTINUOUS
 10
80.314806
 20
139.403258
 30
0.0
 11
80.314806
 21
134.500746
 31
0.0
  0
LINE
  8
0
  6
CONTINUOUS
 10
80.66836
 20
134.500746
 30
0.0
 11
83.149982
 21
135.933512
 31
0.0
  0
LINE
  8
0
  6
CONTINUOUS
 10
80.66836
 20
139.403258
 30
0.0
 11
80.66836
 21
134.500746
 31
0.0
  0
LINE
  8
0
  6
CONTINUOUS
 10
83.149982
 20
135.933512
 30
0.0
 11
83.149982
 21
139.911628
 31
0.0
  0
LINE
  8
0
  6
CONTINUOUS
 10
77.945999
 20
135.948159
 30
0.0
 11
78.21624
 21
136.104182
 31
0.0
  0
LINE
  8
0
  6
CONTINUOUS
 10
71.390078
 20
135.993481
 30
0.0
 11
77.812162
 21
139.701274
 31
0.0
  0
LINE
  8
0
  6
CONTINUOUS
 10
77.812162
 20
136.337477
 30
0.0
 11
77.812162
 21
139.701274
 31
0.0
  0
LINE
  8
0
  6
CONTINUOUS
 10
81.539901
 20
141.335311
 30
0.0
 11
81.539901
 21
141.784384
 31
0.0
  0
LINE
  8
0
  6
CONTINUOUS
 10
80.138029
 20
140.489655
 30
0.0
 11
80.138029
 21
142.587399
 31
0.0
  0
LINE
  8
0
  6
CONTINUOUS
 10
82.433068
 20
140.830361
 30
0.0
 11
81.021913
 21
140.01563
 31
0.0
  0
LINE
  8
0
  6
CONTINUOUS
 10
80.314806
 20
140.628003
 30
0.0
 11
80.845137
 21
140.321816
 31
0.0
  0
LINE
  8
0
  6
CONTINUOUS
 10
81.539901
 20
141.335311
 30
0.0
 11
82.079488
 21
141.034469
 31
0.0
  0
LINE
  8
0
  6
CONTINUOUS
 10
82.079488
 20
141.034469
 30
0.0
 11
80.845137
 21
140.321816
 31
0.0
  0
LINE
  8
0
  6
CONTINUOUS
 10
80.314806
 20
140.628003
 30
0.0
 11
81.539901
 21
141.335311
 31
0.0
  0
LINE
  8
0
  6
CONTINUOUS
 10
79.784476
 20
139.709444
 30
0.0
 11
79.784476
 21
135.204554
 31
0.0
  0
LINE
  8
0
  6
CONTINUOUS
 10
77.945999
 20
135.948159
 30
0.0
 11
77.945999
 21
134.604281
 31
0.0
  0
LINE
  8
0
  6
CONTINUOUS
 10
78.653106
 20
135.554163
 30
0.0
 11
77.945999
 21
135.948159
 31
0.0
  0
LINE
  8
0
  6
CONTINUOUS
 10
78.209344
 20
132.69883
 30
0.0
 11
79.14808
 21
132.156851
 31
0.0
  0
LINE
  8
0
  6
CONTINUOUS
 10
78.344267
 20
133.110831
 30
0.0
 11
78.653106
 21
132.932522
 31
0.0
  0
LINE
  8
0
  6
CONTINUOUS
 10
78.653106
 20
132.932522
 30
0.0
 11
79.360212
 21
132.524274
 31
0.0
  0
LINE
  8
0
  6
CONTINUOUS
 10
79.430869
 20
132.565068
 30
0.0
 11
79.360212
 21
132.524274
 31
0.0
  0
LINE
  8
0
  6
CONTINUOUS
 10
75.895389
 20
128.211125
 30
0.0
 11
75.895389
 21
128.129413
 31
0.0
  0
LINE
  8
0
  6
CONTINUOUS
 10
79.784476
 20
132.360975
 30
0.0
 11
79.784476
 21
130.578872
 31
0.0
  0
LINE
  8
0
  6
CONTINUOUS
 10
78.736105
 20
132.980442
 30
0.0
 11
79.430869
 21
132.565068
 31
0.0
  0
LINE
  8
0
  6
CONTINUOUS
 10
81.531221
 20
132.185507
 30
0.0
 11
81.531221
 21
134.91335
 31
0.0
  0
LINE
  8
0
  6
CONTINUOUS
 10
78.736105
 20
132.980442
 30
0.0
 11
78.653106
 21
132.932522
 31
0.0
  0
LINE
  8
0
  6
CONTINUOUS
 10
78.653106
 20
132.932522
 30
0.0
 11
78.653106
 21
135.554163
 31
0.0
  0
LINE
  8
0
  6
CONTINUOUS
 10
78.900593
 20
135.697049
 30
0.0
 11
78.653106
 21
135.554163
 31
0.0
  0
LINE
  8
0
  6
CONTINUOUS
 10
78.900593
 20
135.697049
 30
0.0
 11
78.900593
 21
135.288739
 31
0.0
  0
LINE
  8
0
  6
CONTINUOUS
 10
79.360212
 20
130.415635
 30
0.0
 11
79.360212
 21
132.034376
 31
0.0
  0
LINE
  8
0
  6
CONTINUOUS
 10
76.072139
 20
128.027367
 30
0.0
 11
79.430977
 21
129.966593
 31
0.0
  0
LINE
  8
0
  6
CONTINUOUS
 10
79.784798
 20
130.973116
 30
0.0
 11
81.64041
 21
132.044454
 31
0.0
  0
LINE
  8
0
  6
CONTINUOUS
 10
75.17594
 20
128.6265
 30
0.0
 11
75.17594
 21
128.516284
 31
0.0
  0
LINE
  8
0
  6
CONTINUOUS
 10
75.281264
 20
128.373
 30
0.0
 11
73.648785
 21
127.430488
 31
0.0
  0
LINE
  8
0
  6
CONTINUOUS
 10
78.640763
 20
131.9456
 30
0.0
 11
78.640763
 21
130.831009
 31
0.0
  0
LINE
  8
0
  6
CONTINUOUS
 10
82.78968
 20
130.258496
 30
0.0
 11
82.78968
 21
129.825041
 31
0.0
  0
LINE
  8
0
  6
CONTINUOUS
 10
82.78968
 20
130.258496
 30
0.0
 11
81.72902
 21
129.646124
 31
0.0
  0
LINE
  8
0
  6
CONTINUOUS
 10
81.72902
 20
130.299321
 30
0.0
 11
81.72902
 21
129.646124
 31
0.0
  0
LINE
  8
0
  6
CONTINUOUS
 10
81.72902
 20
130.299321
 30
0.0
 11
75.895389
 21
126.931273
 31
0.0
  0
LINE
  8
0
  6
CONTINUOUS
 10
75.895389
 20
126.931273
 30
0.0
 11
75.895389
 21
126.278075
 31
0.0
  0
LINE
  8
0
  6
CONTINUOUS
 10
74.834729
 20
125.665703
 30
0.0
 11
75.895389
 21
126.278075
 31
0.0
  0
LINE
  8
0
  6
CONTINUOUS
 10
74.834729
 20
125.665703
 30
0.0
 11
74.834729
 21
125.012506
 31
0.0
  0
LINE
  8
0
  6
CONTINUOUS
 10
74.714187
 20
124.942911
 30
0.0
 11
74.834729
 21
125.012506
 31
0.0
  0
LINE
  8
0
  6
CONTINUOUS
 10
78.640763
 20
130.831009
 30
0.0
 11
75.352689
 21
128.932639
 31
0.0
  0
LINE
  8
0
  6
CONTINUOUS
 10
78.640763
 20
130.831009
 30
0.0
 11
79.360212
 21
130.415635
 31
0.0
  0
LINE
  8
0
  6
CONTINUOUS
 10
76.072139
 20
128.517265
 30
0.0
 11
79.360212
 21
130.415635
 31
0.0
  0
LINE
  8
0
  6
CONTINUOUS
 10
75.895389
 20
128.211125
 30
0.0
 11
75.17594
 21
128.6265
 31
0.0
  0
LINE
  8
0
  6
CONTINUOUS
 10
76.072139
 20
128.517265
 30
0.0
 11
75.352689
 21
128.932639
 31
0.0
  0
LINE
  8
0
  6
CONTINUOUS
 10
71.125798
 20
127.606833
 30
0.0
 11
72.438797
 21
128.364894
 31
0.0
  0
LINE
  8
0
  6
CONTINUOUS
 10
73.648785
 20
129.063481
 30
0.0
 11
78.640763
 21
131.9456
 31
0.0
  0
LINE
  8
0
  6
CONTINUOUS
 10
77.945999
 20
134.604281
 30
0.0
 11
73.638484
 21
132.117336
 31
0.0
  0
LINE
  8
0
  6
CONTINUOUS
 10
77.945999
 20
134.604281
 30
0.0
 11
78.344267
 21
133.110831
 31
0.0
  0
LINE
  8
0
  6
CONTINUOUS
 10
78.510797
 20
132.423307
 30
0.0
 11
78.640763
 21
131.9456
 31
0.0
  0
LINE
  8
0
  6
CONTINUOUS
 10
84.459516
 20
137.06868
 30
0.0
 11
84.256707
 21
137.719106
 31
0.0
  0
LINE
  8
0
  6
CONTINUOUS
 10
83.955728
 20
139.428999
 30
0.0
 11
84.256707
 21
137.719106
 31
0.0
  0
LINE
  8
0
  6
CONTINUOUS
 10
85.971661
 20
145.996468
 30
0.0
 11
84.822693
 21
145.333111
 31
0.0
  0
LINE
  8
0
  6
CONTINUOUS
 10
72.984133
 20
129.73494
 30
0.0
 11
73.468817
 21
129.435222
 31
0.0
  0
LINE
  8
0
  6
CONTINUOUS
 10
73.468817
 20
123.209436
 30
0.0
 11
72.984133
 21
123.509153
 31
0.0
  0
LINE
  8
0
  6
CONTINUOUS
 10
71.324363
 20
128.89415
 30
0.0
 11
71.409762
 21
128.943455
 31
0.0
  0
LINE
  8
0
  6
CONTINUOUS
 10
71.12318
 20
123.004739
 30
0.0
 11
72.465921
 21
122.282705
 31
0.0
  0
LINE
  8
0
  6
CONTINUOUS
 10
71.12319
 20
129.006242
 30
0.0
 11
71.324363
 21
128.89415
 31
0.0
  0
LINE
  8
0
  6
CONTINUOUS
 10
82.701292
 20
126.61488
 30
0.0
 11
83.054845
 21
126.410756
 31
0.0
  0
LINE
  8
0
  6
CONTINUOUS
 10
83.054845
 20
129.57468
 30
0.0
 11
82.701292
 21
129.778804
 31
0.0
  0
LINE
  8
0
  6
CONTINUOUS
 10
83.054845
 20
129.57468
 30
0.0
 11
83.054845
 21
131.003549
 31
0.0
  0
LINE
  8
0
  6
CONTINUOUS
 10
83.054845
 20
131.003549
 30
0.0
 11
82.701292
 21
131.207673
 31
0.0
  0
LINE
  8
0
  6
CONTINUOUS
 10
78.43082
 20
120.679211
 30
0.0
 11
78.223765
 21
120.233069
 31
0.0
  0
LINE
  8
0
  6
CONTINUOUS
 10
80.933525
 20
123.553018
 30
0.0
 11
81.287078
 21
123.348894
 31
0.0
  0
LINE
  8
0
  6
CONTINUOUS
 10
78.43082
 20
121.699832
 30
0.0
 11
78.223765
 21
121.25369
 31
0.0
  0
LINE
  8
0
  6
CONTINUOUS
 10
78.223765
 20
121.25369
 30
0.0
 11
78.223765
 21
120.233069
 31
0.0
  0
LINE
  8
0
  6
CONTINUOUS
 10
78.223765
 20
120.233069
 30
0.0
 11
77.451024
 21
120.113526
 31
0.0
  0
LINE
  8
0
  6
CONTINUOUS
 10
78.223765
 20
121.25369
 30
0.0
 11
77.451024
 21
121.134147
 31
0.0
  0
LINE
  8
0
  6
CONTINUOUS
 10
77.451024
 20
120.113526
 30
0.0
 11
77.097471
 21
120.31765
 31
0.0
  0
LINE
  8
0
  6
CONTINUOUS
 10
77.097471
 20
121.338271
 30
0.0
 11
77.451024
 21
121.134147
 31
0.0
  0
LINE
  8
0
  6
CONTINUOUS
 10
77.451024
 20
121.134147
 30
0.0
 11
77.451024
 21
120.113526
 31
0.0
  0
LINE
  8
0
  6
CONTINUOUS
 10
84.822693
 20
125.737193
 30
0.0
 11
85.971661
 21
126.40055
 31
0.0
  0
LINE
  8
0
  6
CONTINUOUS
 10
81.72902
 20
122.583428
 30
0.0
 11
78.43082
 21
120.679211
 31
0.0
  0
LINE
  8
0
  6
CONTINUOUS
 10
78.43082
 20
120.679211
 30
0.0
 11
78.43082
 21
121.699832
 31
0.0
  0
LINE
  8
0
  6
CONTINUOUS
 10
78.43082
 20
121.699832
 30
0.0
 11
81.287078
 21
123.348894
 31
0.0
  0
LINE
  8
0
  6
CONTINUOUS
 10
83.054845
 20
126.410756
 30
0.0
 11
83.054845
 21
124.369514
 31
0.0
  0
LINE
  8
0
  6
CONTINUOUS
 10
83.054845
 20
124.369514
 30
0.0
 11
83.231622
 21
124.267452
 31
0.0
  0
LINE
  8
0
  6
CONTINUOUS
 10
81.72902
 20
122.17518
 30
0.0
 11
81.72902
 21
122.583428
 31
0.0
  0
LINE
  8
0
  6
CONTINUOUS
 10
81.72902
 20
122.17518
 30
0.0
 11
81.905797
 21
122.073118
 31
0.0
  0
LINE
  8
0
  6
CONTINUOUS
 10
81.72902
 20
122.17518
 30
0.0
 11
85.264554
 21
124.216421
 31
0.0
  0
LINE
  8
0
  6
CONTINUOUS
 10
88.092981
 20
122.583428
 30
0.0
 11
85.264554
 21
124.216421
 31
0.0
  0
LINE
  8
0
  6
CONTINUOUS
 10
59.182732
 20
130.182861
 30
0.0
 11
58.826093
 21
130.385204
 31
0.0
  0
LINE
  8
0
  6
CONTINUOUS
 10
59.182732
 20
132.632351
 30
0.0
 11
59.182732
 21
130.182861
 31
0.0
  0
LINE
  8
0
  6
CONTINUOUS
 10
58.826093
 20
132.834694
 30
0.0
 11
59.182732
 21
132.632351
 31
0.0
  0
LINE
  8
0
  6
CONTINUOUS
 10
81.375568
 20
122.379129
 30
0.0
 11
81.640708
 21
121.919893
 31
0.0
  0
LINE
  8
0
  6
CONTINUOUS
 10
71.12318
 20
132.150948
 30
0.0
 11
72.465921
 21
131.375716
 31
0.0
  0
LINE
  8
0
  6
CONTINUOUS
 10
71.2184
 20
129.133003
 30
0.0
 11
72.465921
 21
128.462173
 31
0.0
  0
LINE
  8
0
  6
CONTINUOUS
 10
73.468817
 20
132.158831
 30
0.0
 11
71.210834
 21
133.555117
 31
0.0
  0
LINE
  8
0
  6
CONTINUOUS
 10
71.123259
 20
132.559088
 30
0.0
 11
72.642671
 21
131.681855
 31
0.0
  0
LINE
  8
0
  6
CONTINUOUS
 10
71.123625
 20
133.504767
 30
0.0
 11
71.210834
 21
133.555117
 31
0.0
  0
LINE
  8
0
  6
CONTINUOUS
 10
71.387583
 20
138.47623
 30
0.0
 11
71.387583
 21
133.535531
 31
0.0
  0
LINE
  8
0
  6
CONTINUOUS
 10
75.834832
 20
119.180417
 30
0.0
 11
76.607573
 21
119.299961
 31
0.0
  0
LINE
  8
0
  6
CONTINUOUS
 10
76.814628
 20
120.766723
 30
0.0
 11
76.814628
 21
119.746103
 31
0.0
  0
LINE
  8
0
  6
CONTINUOUS
 10
76.607573
 20
119.299961
 30
0.0
 11
76.814628
 21
119.746103
 31
0.0
  0
LINE
  8
0
  6
CONTINUOUS
 10
76.607573
 20
120.320581
 30
0.0
 11
76.607573
 21
119.299961
 31
0.0
  0
LINE
  8
0
  6
CONTINUOUS
 10
76.607573
 20
120.320581
 30
0.0
 11
76.814628
 21
120.766723
 31
0.0
  0
LINE
  8
0
  6
CONTINUOUS
 10
75.834832
 20
120.201038
 30
0.0
 11
76.607573
 21
120.320581
 31
0.0
  0
LINE
  8
0
  6
CONTINUOUS
 10
76.461074
 20
120.970847
 30
0.0
 11
76.814628
 21
120.766723
 31
0.0
  0
LINE
  8
0
  6
CONTINUOUS
 10
72.536632
 20
116.867952
 30
0.0
 11
72.713409
 21
116.76589
 31
0.0
  0
LINE
  8
0
  6
CONTINUOUS
 10
58.826093
 20
130.385204
 30
0.0
 11
59.182893
 21
130.591203
 31
0.0
  0
LINE
  8
0
  6
CONTINUOUS
 10
58.826093
 20
118.105325
 30
0.0
 11
58.826093
 21
130.385204
 31
0.0
  0
LINE
  8
0
  6
CONTINUOUS
 10
75.489452
 20
120.408613
 30
0.0
 11
71.390531
 21
122.653332
 31
0.0
  0
LINE
  8
0
  6
CONTINUOUS
 10
75.303358
 20
120.301171
 30
0.0
 11
71.39051
 21
122.600391
 31
0.0
  0
LINE
  8
0
  6
CONTINUOUS
 10
76.002444
 20
118.663786
 30
0.0
 11
75.476986
 21
118.972549
 31
0.0
  0
LINE
  8
0
  6
CONTINUOUS
 10
74.250953
 20
119.692976
 30
0.0
 11
71.390428
 21
121.373842
 31
0.0
  0
LINE
  8
0
  6
CONTINUOUS
 10
76.413482
 20
119.238816
 30
0.0
 11
76.372318
 21
119.263004
 31
0.0
  0
LINE
  8
0
  6
CONTINUOUS
 10
74.951482
 20
120.097898
 30
0.0
 11
71.390428
 21
122.190401
 31
0.0
  0
LINE
  8
0
  6
CONTINUOUS
 10
72.713409
 20
116.76589
 30
0.0
 11
81.905797
 21
122.073118
 31
0.0
  0
LINE
  8
0
  6
CONTINUOUS
 10
72.62502
 20
118.7561
 30
0.0
 11
76.461074
 21
120.970847
 31
0.0
  0
LINE
  8
0
  6
CONTINUOUS
 10
75.834832
 20
120.201038
 30
0.0
 11
72.978574
 21
118.551976
 31
0.0
  0
LINE
  8
0
  6
CONTINUOUS
 10
75.834832
 20
119.180417
 30
0.0
 11
75.834832
 21
120.201038
 31
0.0
  0
LINE
  8
0
  6
CONTINUOUS
 10
72.536632
 20
117.2762
 30
0.0
 11
75.834832
 21
119.180417
 31
0.0
  0
LINE
  8
0
  6
CONTINUOUS
 10
72.536632
 20
116.867952
 30
0.0
 11
72.536632
 21
117.2762
 31
0.0
  0
LINE
  8
0
  6
CONTINUOUS
 10
72.536632
 20
116.867952
 30
0.0
 11
71.123706
 21
116.052199
 31
0.0
  0
LINE
  8
0
  6
CONTINUOUS
 10
71.123625
 20
117.276897
 30
0.0
 11
71.387583
 21
117.429294
 31
0.0
  0
LINE
  8
0
  6
CONTINUOUS
 10
72.62502
 20
118.7561
 30
0.0
 11
72.978574
 21
118.551976
 31
0.0
  0
LINE
  8
0
  6
CONTINUOUS
 10
71.387583
 20
117.429294
 30
0.0
 11
71.387583
 21
122.775739
 31
0.0
  0
LINE
  8
0
  6
CONTINUOUS
 10
71.2184
 20
125.916505
 30
0.0
 11
72.465921
 21
125.196248
 31
0.0
  0
LINE
  8
0
  6
CONTINUOUS
 10
71.481187
 20
126.172971
 30
0.0
 11
72.642671
 21
125.502388
 31
0.0
  0
LINE
  8
0
  6
CONTINUOUS
 10
71.324363
 20
126.082429
 30
0.0
 11
71.481187
 21
126.172971
 31
0.0
  0
LINE
  8
0
  6
CONTINUOUS
 10
71.12319
 20
126.202631
 30
0.0
 11
71.324363
 21
126.082429
 31
0.0
  0
LINE
  8
0
  6
CONTINUOUS
 10
73.468817
 20
122.657634
 30
0.0
 11
72.642671
 21
122.180659
 31
0.0
  0
LINE
  8
0
  6
CONTINUOUS
 10
72.465921
 20
125.196248
 30
0.0
 11
72.465921
 21
122.282705
 31
0.0
  0
LINE
  8
0
  6
CONTINUOUS
 10
72.642671
 20
125.502388
 30
0.0
 11
73.15535
 21
125.798384
 31
0.0
  0
LINE
  8
0
  6
CONTINUOUS
 10
72.642671
 20
128.360126
 30
0.0
 11
73.15535
 21
128.656122
 31
0.0
  0
LINE
  8
0
  6
CONTINUOUS
 10
72.465921
 20
128.462173
 30
0.0
 11
72.465921
 21
131.375716
 31
0.0
  0
LINE
  8
0
  6
CONTINUOUS
 10
73.468817
 20
132.158831
 30
0.0
 11
72.642671
 21
131.681855
 31
0.0
  0
LINE
  8
0
  6
CONTINUOUS
 10
73.645567
 20
131.913169
 30
0.0
 11
73.645567
 21
132.056785
 31
0.0
  0
LINE
  8
0
  6
CONTINUOUS
 10
73.468817
 20
131.60703
 30
0.0
 11
72.983909
 21
131.327068
 31
0.0
  0
LINE
  8
0
  6
CONTINUOUS
 10
72.983909
 20
131.327068
 30
0.0
 11
72.983909
 21
129.15526
 31
0.0
  0
LINE
  8
0
  6
CONTINUOUS
 10
72.983909
 20
129.15526
 30
0.0
 11
73.468817
 21
129.435222
 31
0.0
  0
LINE
  8
0
  6
CONTINUOUS
 10
73.645567
 20
129.333176
 30
0.0
 11
73.645567
 21
125.687383
 31
0.0
  0
LINE
  8
0
  6
CONTINUOUS
 10
72.983909
 20
125.101281
 30
0.0
 11
73.468817
 21
125.381243
 31
0.0
  0
LINE
  8
0
  6
CONTINUOUS
 10
72.983909
 20
122.929474
 30
0.0
 11
72.983909
 21
125.101281
 31
0.0
  0
LINE
  8
0
  6
CONTINUOUS
 10
73.468817
 20
123.209436
 30
0.0
 11
72.983909
 21
122.929474
 31
0.0
  0
LINE
  8
0
  6
CONTINUOUS
 10
73.645567
 20
123.107389
 30
0.0
 11
73.645567
 21
122.963774
 31
0.0
  0
LINE
  8
0
  6
CONTINUOUS
 10
73.15535
 20
125.798384
 30
0.0
 11
71.356727
 21
126.836819
 31
0.0
  0
LINE
  8
0
  6
CONTINUOUS
 10
73.15535
 20
128.656122
 30
0.0
 11
73.15535
 21
125.798384
 31
0.0
  0
LINE
  8
0
  6
CONTINUOUS
 10
72.436139
 20
127.161349
 30
0.0
 11
71.908656
 21
127.465891
 31
0.0
  0
LINE
  8
0
  6
CONTINUOUS
 10
71.356727
 20
127.147235
 30
0.0
 11
72.435901
 21
126.566929
 31
0.0
  0
LINE
  8
0
  6
CONTINUOUS
 10
72.435901
 20
126.566929
 30
0.0
 11
72.435901
 21
128.391579
 31
0.0
  0
LINE
  8
0
  6
CONTINUOUS
 10
71.908656
 20
127.465891
 30
0.0
 11
71.356727
 21
127.147235
 31
0.0
  0
LINE
  8
0
  6
CONTINUOUS
 10
71.356727
 20
126.836819
 30
0.0
 11
71.356727
 21
127.147235
 31
0.0
  0
LINE
  8
0
  6
CONTINUOUS
 10
71.356727
 20
126.836819
 30
0.0
 11
71.123384
 21
126.702099
 31
0.0
  0
LINE
  8
0
  6
CONTINUOUS
 10
58.826093
 20
132.834694
 30
0.0
 11
58.826093
 21
143.48158
 31
0.0
  0
LINE
  8
0
  6
CONTINUOUS
 10
71.829525
 20
113.193718
 30
0.0
 11
71.12274
 21
113.60178
 31
0.0
  0
LINE
  8
0
  6
CONTINUOUS
 10
88.800088
 20
123.808173
 30
0.0
 11
85.971661
 21
125.441166
 31
0.0
  0
LINE
  8
0
  6
CONTINUOUS
 10
85.971661
 20
125.441166
 30
0.0
 11
85.971661
 21
126.40055
 31
0.0
  0
LINE
  8
0
  6
CONTINUOUS
 10
85.971661
 20
126.40055
 30
0.0
 11
86.148437
 21
126.298488
 31
0.0
  0
LINE
  8
0
  6
CONTINUOUS
 10
85.971661
 20
145.996468
 30
0.0
 11
85.971661
 21
140.546353
 31
0.0
  0
LINE
  8
0
  6
CONTINUOUS
 10
86.148437
 20
145.894406
 30
0.0
 11
85.971661
 21
145.996468
 31
0.0
  0
LINE
  8
0
  6
CONTINUOUS
 10
86.148437
 20
145.894406
 30
0.0
 11
86.148437
 21
147.178634
 31
0.0
  0
LINE
  8
0
  6
CONTINUOUS
 10
88.800088
 20
147.894822
 30
0.0
 11
88.093385
 21
148.302837
 31
0.0
  0
LINE
  8
0
  6
CONTINUOUS
 10
86.148437
 20
128.870452
 30
0.0
 11
85.971661
 21
128.972514
 31
0.0
  0
LINE
  8
0
  6
CONTINUOUS
 10
85.971661
 20
128.972514
 30
0.0
 11
85.971661
 21
129.874517
 31
0.0
  0
LINE
  8
0
  6
CONTINUOUS
 10
85.971661
 20
128.972514
 30
0.0
 11
84.822693
 21
128.309157
 31
0.0
  0
LINE
  8
0
  6
CONTINUOUS
 10
86.148437
 20
128.870452
 30
0.0
 11
86.148437
 21
126.298488
 31
0.0
  0
LINE
  8
0
  6
CONTINUOUS
 10
84.822612
 20
130.163183
 30
0.0
 11
84.822612
 21
125.390135
 31
0.0
  0
LINE
  8
0
  6
CONTINUOUS
 10
84.645835
 20
125.083949
 30
0.0
 11
83.231622
 21
124.267452
 31
0.0
  0
LINE
  8
0
  6
CONTINUOUS
 10
83.231622
 20
124.267452
 30
0.0
 11
83.231622
 21
131.10558
 31
0.0
  0
LINE
  8
0
  6
CONTINUOUS
 10
84.822854
 20
145.741452
 30
0.0
 11
86.148679
 21
146.506917
 31
0.0
  0
LINE
  8
0
  6
CONTINUOUS
 10
83.055006
 20
141.005725
 30
0.0
 11
82.701292
 21
140.801508
 31
0.0
  0
LINE
  8
0
  6
CONTINUOUS
 10
88.800088
 20
123.808173
 30
0.0
 11
88.800088
 21
147.894822
 31
0.0
  0
LINE
  8
0
  6
CONTINUOUS
 10
71.829525
 20
138.91336
 30
0.0
 11
88.092981
 21
148.303071
 31
0.0
  0
LINE
  8
0
  6
CONTINUOUS
 10
71.122418
 20
113.601966
 30
0.0
 11
71.122418
 21
137.688615
 31
0.0
  0
LINE
  8
0
  6
CONTINUOUS
 10
71.829525
 20
113.193718
 30
0.0
 11
88.092981
 21
122.583428
 31
0.0
  0
LINE
  8
0
  6
CONTINUOUS
 10
86.148679
 20
126.910999
 30
0.0
 11
84.822854
 21
126.145534
 31
0.0
  0
LINE
  8
0
  6
CONTINUOUS
 10
82.701292
 20
131.820046
 30
0.0
 11
82.701292
 21
131.207673
 31
0.0
  0
LINE
  8
0
  6
CONTINUOUS
 10
82.701292
 20
129.778804
 30
0.0
 11
83.055006
 21
129.983021
 31
0.0
  0
LINE
  8
0
  6
CONTINUOUS
 10
82.701292
 20
129.778804
 30
0.0
 11
82.701292
 21
126.61488
 31
0.0
  0
LINE
  8
0
  6
CONTINUOUS
 10
80.933525
 20
123.553018
 30
0.0
 11
77.097471
 21
121.338271
 31
0.0
  0
LINE
  8
0
  6
CONTINUOUS
 10
77.097471
 20
120.31765
 30
0.0
 11
77.097471
 21
121.338271
 31
0.0
  0
LINE
  8
0
  6
CONTINUOUS
 10
83.231622
 20
131.535244
 30
0.0
 11
82.701292
 21
131.820046
 31
0.0
  0
LINE
  8
0
  6
CONTINUOUS
 10
83.938729
 20
132.53448
 30
0.0
 11
82.701292
 21
131.820046
 31
0.0
  0
LINE
  8
0
  6
CONTINUOUS
 10
84.459516
 20
130.899306
 30
0.0
 11
83.938729
 21
132.53448
 31
0.0
  0
LINE
  8
0
  6
CONTINUOUS
 10
83.938729
 20
132.53448
 30
0.0
 11
83.938729
 21
133.259437
 31
0.0
  0
LINE
  8
0
  6
CONTINUOUS
 10
83.771209
 20
134.314739
 30
0.0
 11
84.323139
 21
134.633396
 31
0.0
  0
LINE
  8
0
  6
CONTINUOUS
 10
84.314745
 20
141.120663
 30
0.0
 11
86.572728
 21
139.724378
 31
0.0
  0
LINE
  8
0
  6
CONTINUOUS
 10
85.746582
 20
139.247402
 30
0.0
 11
83.408372
 21
140.597368
 31
0.0
  0
LINE
  8
0
  6
CONTINUOUS
 10
85.512041
 20
137.219129
 30
0.0
 11
85.027133
 21
136.939167
 31
0.0
  0
LINE
  8
0
  6
CONTINUOUS
 10
86.231491
 20
136.803755
 30
0.0
 11
85.512041
 21
137.219129
 31
0.0
  0
LINE
  8
0
  6
CONTINUOUS
 10
85.512041
 20
138.741992
 30
0.0
 11
85.512041
 21
137.219129
 31
0.0
  0
LINE
  8
0
  6
CONTINUOUS
 10
85.027133
 20
136.939167
 30
0.0
 11
85.746582
 21
136.523793
 31
0.0
  0
LINE
  8
0
  6
CONTINUOUS
 10
86.231491
 20
130.577969
 30
0.0
 11
85.512041
 21
130.993343
 31
0.0
  0
LINE
  8
0
  6
CONTINUOUS
 10
85.512041
 20
130.993343
 30
0.0
 11
85.512041
 21
132.516205
 31
0.0
  0
LINE
  8
0
  6
CONTINUOUS
 10
85.027133
 20
130.713381
 30
0.0
 11
85.512041
 21
130.993343
 31
0.0
  0
LINE
  8
0
  6
CONTINUOUS
 10
85.746582
 20
130.298007
 30
0.0
 11
85.027133
 21
130.713381
 31
0.0
  0
LINE
  8
0
  6
CONTINUOUS
 10
85.569832
 20
138.941262
 30
0.0
 11
83.231622
 21
140.291229
 31
0.0
  0
LINE
  8
0
  6
CONTINUOUS
 10
85.569832
 20
138.797647
 30
0.0
 11
84.850383
 21
139.184517
 31
0.0
  0
LINE
  8
0
  6
CONTINUOUS
 10
84.850383
 20
136.633028
 30
0.0
 11
84.850383
 21
139.184517
 31
0.0
  0
LINE
  8
0
  6
CONTINUOUS
 10
84.850383
 20
136.633028
 30
0.0
 11
85.569832
 21
136.217653
 31
0.0
  0
LINE
  8
0
  6
CONTINUOUS
 10
84.850383
 20
132.958731
 30
0.0
 11
85.569832
 21
132.571861
 31
0.0
  0
LINE
  8
0
  6
CONTINUOUS
 10
84.850383
 20
132.958731
 30
0.0
 11
84.850383
 21
130.407241
 31
0.0
  0
LINE
  8
0
  6
CONTINUOUS
 10
85.569832
 20
129.991867
 30
0.0
 11
84.850383
 21
130.407241
 31
0.0
  0
LINE
  8
0
  6
CONTINUOUS
 10
85.569832
 20
129.848252
 30
0.0
 11
83.231622
 21
131.10558
 31
0.0
  0
LINE
  8
0
  6
CONTINUOUS
 10
83.231622
 20
131.535244
 30
0.0
 11
83.231622
 21
131.10558
 31
0.0
  0
LINE
  8
0
  6
CONTINUOUS
 10
83.231622
 20
131.535244
 30
0.0
 11
84.459516
 21
130.899306
 31
0.0
  0
LINE
  8
0
  6
CONTINUOUS
 10
84.459516
 20
132.958927
 30
0.0
 11
84.459516
 21
130.899306
 31
0.0
  0
LINE
  8
0
  6
CONTINUOUS
 10
83.771209
 20
133.356321
 30
0.0
 11
84.459516
 21
132.958927
 31
0.0
  0
LINE
  8
0
  6
CONTINUOUS
 10
83.771209
 20
134.314739
 30
0.0
 11
83.771209
 21
133.356321
 31
0.0
  0
LINE
  8
0
  6
CONTINUOUS
 10
84.850383
 20
133.734434
 30
0.0
 11
83.771209
 21
134.314739
 31
0.0
  0
LINE
  8
0
  6
CONTINUOUS
 10
84.850383
 20
135.857325
 30
0.0
 11
84.850383
 21
133.734434
 31
0.0
  0
LINE
  8
0
  6
CONTINUOUS
 10
83.771209
 20
137.438804
 30
0.0
 11
84.459516
 21
137.06868
 31
0.0
  0
LINE
  8
0
  6
CONTINUOUS
 10
84.459516
 20
137.06868
 30
0.0
 11
84.459516
 21
139.128301
 31
0.0
  0
LINE
  8
0
  6
CONTINUOUS
 10
83.231622
 20
139.861565
 30
0.0
 11
84.459516
 21
139.128301
 31
0.0
  0
LINE
  8
0
  6
CONTINUOUS
 10
83.231622
 20
139.861565
 30
0.0
 11
82.701292
 21
140.189136
 31
0.0
  0
LINE
  8
0
  6
CONTINUOUS
 10
82.701292
 20
140.189136
 30
0.0
 11
82.701292
 21
140.801508
 31
0.0
  0
LINE
  8
0
  6
CONTINUOUS
 10
83.054845
 20
140.597384
 30
0.0
 11
82.701292
 21
140.801508
 31
0.0
  0
LINE
  8
0
  6
CONTINUOUS
 10
83.054845
 20
142.026253
 30
0.0
 11
83.054845
 21
140.597384
 31
0.0
  0
LINE
  8
0
  6
CONTINUOUS
 10
83.054845
 20
142.026253
 30
0.0
 11
82.701292
 21
142.230377
 31
0.0
  0
LINE
  8
0
  6
CONTINUOUS
 10
82.701292
 20
142.230377
 30
0.0
 11
82.701292
 21
145.188073
 31
0.0
  0
LINE
  8
0
  6
CONTINUOUS
 10
82.879789
 20
145.291246
 30
0.0
 11
83.054845
 21
145.190177
 31
0.0
  0
LINE
  8
0
  6
CONTINUOUS
 10
83.054845
 20
145.190177
 30
0.0
 11
83.054845
 21
145.392431
 31
0.0
  0
LINE
  8
0
  6
CONTINUOUS
 10
83.231622
 20
139.861565
 30
0.0
 11
83.231622
 21
140.291229
 31
0.0
  0
LINE
  8
0
  6
CONTINUOUS
 10
84.314745
 20
141.120663
 30
0.0
 11
83.408372
 21
140.597368
 31
0.0
  0
LINE
  8
0
  6
CONTINUOUS
 10
83.231622
 20
145.49461
 30
0.0
 11
83.231622
 21
140.291229
 31
0.0
  0
LINE
  8
0
  6
CONTINUOUS
 10
84.822612
 20
140.896282
 30
0.0
 11
84.822612
 21
146.413168
 31
0.0
  0
LINE
  8
0
  6
CONTINUOUS
 10
86.276125
 20
135.262279
 30
0.0
 11
86.061336
 21
135.13827
 31
0.0
  0
LINE
  8
0
  6
CONTINUOUS
 10
84.591934
 20
134.47817
 30
0.0
 11
84.850866
 21
134.627664
 31
0.0
  0
LINE
  8
0
  6
CONTINUOUS
 10
86.060286
 20
133.861793
 30
0.0
 11
86.572728
 21
133.54491
 31
0.0
  0
LINE
  8
0
  6
CONTINUOUS
 10
84.323139
 20
134.633396
 30
0.0
 11
84.850621
 21
134.328854
 31
0.0
  0
LINE
  8
0
  6
CONTINUOUS
 10
84.850383
 20
135.857325
 30
0.0
 11
83.771209
 21
136.480386
 31
0.0
  0
LINE
  8
0
  6
CONTINUOUS
 10
85.569832
 20
129.991867
 30
0.0
 11
85.569832
 21
129.848252
 31
0.0
  0
LINE
  8
0
  6
CONTINUOUS
 10
85.746582
 20
130.298007
 30
0.0
 11
86.231491
 21
130.577969
 31
0.0
  0
LINE
  8
0
  6
CONTINUOUS
 10
86.231491
 20
130.577969
 30
0.0
 11
86.231491
 21
132.749776
 31
0.0
  0
LINE
  8
0
  6
CONTINUOUS
 10
86.231491
 20
132.749776
 30
0.0
 11
85.746582
 21
132.469814
 31
0.0
  0
LINE
  8
0
  6
CONTINUOUS
 10
85.569832
 20
136.217653
 30
0.0
 11
85.569832
 21
132.571861
 31
0.0
  0
LINE
  8
0
  6
CONTINUOUS
 10
86.231491
 20
136.803755
 30
0.0
 11
85.746582
 21
136.523793
 31
0.0
  0
LINE
  8
0
  6
CONTINUOUS
 10
86.231491
 20
138.975563
 30
0.0
 11
86.231491
 21
136.803755
 31
0.0
  0
LINE
  8
0
  6
CONTINUOUS
 10
85.746582
 20
138.695601
 30
0.0
 11
86.231491
 21
138.975563
 31
0.0
  0
LINE
  8
0
  6
CONTINUOUS
 10
85.569832
 20
138.797647
 30
0.0
 11
85.569832
 21
138.941262
 31
0.0
  0
LINE
  8
0
  6
CONTINUOUS
 10
85.746582
 20
139.247402
 30
0.0
 11
86.572728
 21
139.724378
 31
0.0
  0
LINE
  8
0
  6
CONTINUOUS
 10
86.749478
 20
136.708788
 30
0.0
 11
86.749478
 21
139.622331
 31
0.0
  0
LINE
  8
0
  6
CONTINUOUS
 10
86.060049
 20
136.106653
 30
0.0
 11
86.060049
 21
133.248915
 31
0.0
  0
LINE
  8
0
  6
CONTINUOUS
 10
86.572728
 20
133.54491
 30
0.0
 11
86.060049
 21
133.248915
 31
0.0
  0
LINE
  8
0
  6
CONTINUOUS
 10
86.749478
 20
133.442864
 30
0.0
 11
86.749478
 21
130.529321
 31
0.0
  0
LINE
  8
0
  6
CONTINUOUS
 10
85.746582
 20
129.746205
 30
0.0
 11
86.572728
 21
130.223181
 31
0.0
  0
LINE
  8
0
  6
CONTINUOUS
 10
86.572728
 20
136.402648
 30
0.0
 11
86.060049
 21
136.106653
 31
0.0
  0
LINE
  8
0
  6
CONTINUOUS
 10
83.771209
 20
137.438804
 30
0.0
 11
84.256707
 21
137.719106
 31
0.0
  0
LINE
  8
0
  6
CONTINUOUS
 10
83.771209
 20
136.480386
 30
0.0
 11
83.771209
 21
137.438804
 31
0.0
  0
LINE
  8
0
  6
CONTINUOUS
 10
85.971661
 20
140.546353
 30
0.0
 11
85.669972
 21
140.372173
 31
0.0
  0
LINE
  8
0
  6
CONTINUOUS
 10
47.988075
 20
97.909414
 30
0.0
 11
53.074961
 21
95.176022
 31
0.0
  0
LINE
  8
0
  6
CONTINUOUS
 10
53.074961
 20
95.176022
 30
0.0
 11
53.649021
 21
95.501746
 31
0.0
  0
LINE
  8
0
  6
CONTINUOUS
 10
53.623265
 20
94.247446
 30
0.0
 11
53.627264
 21
93.71374
 31
0.0
  0
LINE
  8
0
  6
CONTINUOUS
 10
53.623265
 20
94.247446
 30
0.0
 11
53.658026
 21
94.26717
 31
0.0
  0
LINE
  8
0
  6
CONTINUOUS
 10
53.627264
 20
93.71374
 30
0.0
 11
53.662024
 21
93.733464
 31
0.0
  0
LINE
  8
0
  6
CONTINUOUS
 10
53.136646
 20
93.996999
 30
0.0
 11
53.13392
 21
94.360919
 31
0.0
  0
LINE
  8
0
  6
CONTINUOUS
 10
52.951151
 20
94.670444
 30
0.0
 11
47.801215
 21
97.437716
 31
0.0
  0
LINE
  8
0
  6
CONTINUOUS
 10
47.633542
 20
97.330518
 30
0.0
 11
47.693997
 21
89.260796
 31
0.0
  0
LINE
  8
0
  6
CONTINUOUS
 10
47.633542
 20
97.330518
 30
0.0
 11
47.812106
 21
97.431836
 31
0.0
  0
LINE
  8
0
  6
CONTINUOUS
 10
47.693997
 20
89.260796
 30
0.0
 11
53.672804
 21
92.653199
 31
0.0
  0
LINE
  8
0
  6
CONTINUOUS
 10
48.04751
 20
88.648447
 30
0.0
 11
51.622011
 21
86.584708
 31
0.0
  0
LINE
  8
0
  6
CONTINUOUS
 10
48.04751
 20
88.648447
 30
0.0
 11
53.678712
 21
91.843617
 31
0.0
  0
LINE
  8
0
  6
CONTINUOUS
 10
51.622011
 20
86.584708
 30
0.0
 11
51.969573
 21
86.781917
 31
0.0
  0
LINE
  8
0
  6
CONTINUOUS
 10
51.96938
 20
86.792403
 30
0.0
 11
51.965387
 21
87.325431
 31
0.0
  0
LINE
  8
0
  6
CONTINUOUS
 10
52.486442
 20
87.636972
 30
0.0
 11
53.012103
 21
87.333481
 31
0.0
  0
LINE
  8
0
  6
CONTINUOUS
 10
52.486442
 20
87.636972
 30
0.0
 11
53.703059
 21
88.327287
 31
0.0
  0
LINE
  8
0
  6
CONTINUOUS
 10
53.012103
 20
87.333481
 30
0.0
 11
53.185885
 21
87.432086
 31
0.0
  0
LINE
  8
0
  6
CONTINUOUS
 10
53.185788
 20
87.437328
 30
0.0
 11
53.182717
 21
87.84735
 31
0.0
  0
LINE
  8
0
  6
CONTINUOUS
 10
53.673334
 20
87.564092
 30
0.0
 11
53.682588
 21
86.328928
 31
0.0
  0
LINE
  8
0
  6
CONTINUOUS
 10
53.673334
 20
87.564092
 30
0.0
 11
53.708095
 21
87.583815
 31
0.0
  0
LINE
  8
0
  6
CONTINUOUS
 10
53.682588
 20
86.328928
 30
0.0
 11
53.717348
 21
86.348651
 31
0.0
  0
LINE
  8
0
  6
CONTINUOUS
 10
53.591759
 20
85.97312
 30
0.0
 11
53.385018
 21
85.668897
 31
0.0
  0
LINE
  8
0
  6
CONTINUOUS
 10
53.591759
 20
85.97312
 30
0.0
 11
53.71966
 21
86.045691
 31
0.0
  0
LINE
  8
0
  6
CONTINUOUS
 10
53.385018
 20
85.668897
 30
0.0
 11
53.721148
 21
85.859619
 31
0.0
  0
LINE
  8
0
  6
CONTINUOUS
 10
53.057284
 20
85.960177
 30
0.0
 11
53.052984
 21
86.534207
 31
0.0
  0
LINE
  8
0
  6
CONTINUOUS
 10
52.876227
 20
86.840382
 30
0.0
 11
52.630918
 21
86.982011
 31
0.0
  0
LINE
  8
0
  6
CONTINUOUS
 10
52.457234
 20
86.878164
 30
0.0
 11
52.457848
 21
86.796159
 31
0.0
  0
LINE
  8
0
  6
CONTINUOUS
 10
52.457234
 20
86.878164
 30
0.0
 11
52.47229
 21
86.886707
 31
0.0
  0
LINE
  8
0
  6
CONTINUOUS
 10
52.29215
 20
85.626256
 30
0.0
 11
47.385972
 21
88.458839
 31
0.0
  0
LINE
  8
0
  6
CONTINUOUS
 10
47.209215
 20
88.765013
 30
0.0
 11
47.058701
 21
108.856079
 31
0.0
  0
LINE
  8
0
  6
CONTINUOUS
 10
47.232386
 20
108.959926
 30
0.0
 11
52.138564
 21
106.127343
 31
0.0
  0
LINE
  8
0
  6
CONTINUOUS
 10
47.232386
 20
108.959926
 30
0.0
 11
60.494073
 21
116.411957
 31
0.0
  0
LINE
  8
0
  6
CONTINUOUS
 10
74.943871
 20
124.800836
 30
0.0
 11
82.70462
 21
129.20432
 31
0.0
  0
LINE
  8
0
  6
CONTINUOUS
 10
89.353417
 20
132.868437
 30
0.0
 11
97.034638
 21
137.155527
 31
0.0
  0
LINE
  8
0
  6
CONTINUOUS
 10
101.940816
 20
134.322944
 30
0.0
 11
97.034638
 21
137.155527
 31
0.0
  0
LINE
  8
0
  6
CONTINUOUS
 10
52.138564
 20
106.127343
 30
0.0
 11
65.487355
 21
113.628797
 31
0.0
  0
LINE
  8
0
  6
CONTINUOUS
 10
76.815906
 20
120.246667
 30
0.0
 11
77.098587
 21
120.407061
 31
0.0
  0
LINE
  8
0
  6
CONTINUOUS
 10
89.365725
 20
127.25905
 30
0.0
 11
101.940816
 21
134.322944
 31
0.0
  0
LINE
  8
0
  6
CONTINUOUS
 10
52.323276
 20
104.75923
 30
0.0
 11
52.323921
 21
104.673108
 31
0.0
  0
LINE
  8
0
  6
CONTINUOUS
 10
52.323921
 20
104.673108
 30
0.0
 11
52.332631
 21
104.67805
 31
0.0
  0
LINE
  8
0
  6
CONTINUOUS
 10
52.500678
 20
104.366933
 30
0.0
 11
52.745987
 21
104.225304
 31
0.0
  0
LINE
  8
0
  6
CONTINUOUS
 10
52.500678
 20
104.366933
 30
0.0
 11
52.511617
 21
104.37314
 31
0.0
  0
LINE
  8
0
  6
CONTINUOUS
 10
52.745987
 20
104.225304
 30
0.0
 11
52.919768
 21
104.323908
 31
0.0
  0
LINE
  8
0
  6
CONTINUOUS
 10
52.919671
 20
104.329151
 30
0.0
 11
52.915371
 21
104.903182
 31
0.0
  0
LINE
  8
0
  6
CONTINUOUS
 10
53.241569
 20
104.816913
 30
0.0
 11
53.454684
 21
104.270287
 31
0.0
  0
LINE
  8
0
  6
CONTINUOUS
 10
53.241569
 20
104.816913
 30
0.0
 11
53.330715
 21
104.867495
 31
0.0
  0
LINE
  8
0
  6
CONTINUOUS
 10
53.454684
 20
104.270287
 30
0.0
 11
53.582585
 21
104.342859
 31
0.0
  0
LINE
  8
0
  6
CONTINUOUS
 10
53.551656
 20
103.806052
 30
0.0
 11
53.560909
 21
102.570888
 31
0.0
  0
LINE
  8
0
  6
CONTINUOUS
 10
53.551656
 20
103.806052
 30
0.0
 11
53.586417
 21
103.825775
 31
0.0
  0
LINE
  8
0
  6
CONTINUOUS
 10
53.560909
 20
102.570888
 30
0.0
 11
53.59567
 21
102.590611
 31
0.0
  0
LINE
  8
0
  6
CONTINUOUS
 10
53.070292
 20
102.854146
 30
0.0
 11
53.06722
 21
103.264168
 31
0.0
  0
LINE
  8
0
  6
CONTINUOUS
 10
52.890463
 20
103.570342
 30
0.0
 11
52.364802
 21
103.873834
 31
0.0
  0
LINE
  8
0
  6
CONTINUOUS
 10
51.834532
 20
104.792357
 30
0.0
 11
51.830539
 21
105.325385
 31
0.0
  0
LINE
  8
0
  6
CONTINUOUS
 10
51.477026
 20
105.937735
 30
0.0
 11
47.902525
 21
108.001474
 31
0.0
  0
LINE
  8
0
  6
CONTINUOUS
 10
47.555155
 20
107.793779
 30
0.0
 11
47.61561
 21
99.724058
 31
0.0
  0
LINE
  8
0
  6
CONTINUOUS
 10
47.555155
 20
107.793779
 30
0.0
 11
47.911738
 21
107.996106
 31
0.0
  0
LINE
  8
0
  6
CONTINUOUS
 10
47.61561
 20
99.724058
 30
0.0
 11
53.074349
 21
102.82137
 31
0.0
  0
LINE
  8
0
  6
CONTINUOUS
 10
47.786353
 20
99.421475
 30
0.0
 11
52.939391
 21
96.240322
 31
0.0
  0
LINE
  8
0
  6
CONTINUOUS
 10
47.786353
 20
99.421475
 30
0.0
 11
53.220891
 21
102.505056
 31
0.0
  0
LINE
  8
0
  6
CONTINUOUS
 10
52.939391
 20
96.240322
 30
0.0
 11
53.119157
 21
96.342322
 31
0.0
  0
LINE
  8
0
  6
CONTINUOUS
 10
53.119089
 20
96.340577
 30
0.0
 11
53.116362
 21
96.704498
 31
0.0
  0
LINE
  8
0
  6
CONTINUOUS
 10
53.60698
 20
96.421239
 30
0.0
 11
53.610978
 21
95.887533
 31
0.0
  0
LINE
  8
0
  6
CONTINUOUS
 10
53.60698
 20
96.421239
 30
0.0
 11
53.641741
 21
96.440963
 31
0.0
  0
LINE
  8
0
  6
CONTINUOUS
 10
53.610978
 20
95.887533
 30
0.0
 11
53.645739
 21
95.907257
 31
0.0
  0
LINE
  8
0
  6
CONTINUOUS
 10
53.071884
 20
95.586768
 30
0.0
 11
47.981935
 21
98.728974
 31
0.0
  0
LINE
  8
0
  6
CONTINUOUS
 10
47.988075
 20
97.909414
 30
0.0
 11
48.676571
 21
98.30007
 31
0.0
  0
LINE
  8
0
  6
CONTINUOUS
 10
54.044356
 20
84.614619
 30
0.0
 11
52.642591
 21
85.423928
 31
0.0
  0
LINE
  8
0
  6
CONTINUOUS
 10
52.465834
 20
85.730103
 30
0.0
 11
52.457848
 21
86.796159
 31
0.0
  0
LINE
  8
0
  6
CONTINUOUS
 10
52.948466
 20
86.512901
 30
0.0
 11
52.952152
 21
86.020875
 31
0.0
  0
LINE
  8
0
  6
CONTINUOUS
 10
52.948466
 20
86.512901
 30
0.0
 11
53.049957
 21
86.570488
 31
0.0
  0
LINE
  8
0
  6
CONTINUOUS
 10
52.952152
 20
86.020875
 30
0.0
 11
53.056433
 21
86.080045
 31
0.0
  0
LINE
  8
0
  6
CONTINUOUS
 10
53.128908
 20
85.7147
 30
0.0
 11
53.549438
 21
85.471908
 31
0.0
  0
LINE
  8
0
  6
CONTINUOUS
 10
53.128908
 20
85.7147
 30
0.0
 11
53.150454
 21
85.726925
 31
0.0
  0
LINE
  8
0
  6
CONTINUOUS
 10
53.549438
 20
85.471908
 30
0.0
 11
53.723219
 21
85.570512
 31
0.0
  0
LINE
  8
0
  6
CONTINUOUS
 10
53.723123
 20
85.575755
 30
0.0
 11
53.581209
 21
104.518759
 31
0.0
  0
LINE
  8
0
  6
CONTINUOUS
 10
53.404453
 20
104.824934
 30
0.0
 11
52.983923
 21
105.067727
 31
0.0
  0
LINE
  8
0
  6
CONTINUOUS
 10
52.810239
 20
104.96388
 30
0.0
 11
52.813894
 21
104.475971
 31
0.0
  0
LINE
  8
0
  6
CONTINUOUS
 10
52.810239
 20
104.96388
 30
0.0
 11
52.98853
 21
105.065043
 31
0.0
  0
LINE
  8
0
  6
CONTINUOUS
 10
52.813894
 20
104.475971
 30
0.0
 11
52.918175
 21
104.535141
 31
0.0
  0
LINE
  8
0
  6
CONTINUOUS
 10
52.323276
 20
104.75923
 30
0.0
 11
52.31532
 21
105.821168
 31
0.0
  0
LINE
  8
0
  6
CONTINUOUS
 10
52.489005
 20
105.925016
 30
0.0
 11
53.89077
 21
105.115706
 31
0.0
  0
LINE
  8
0
  6
CONTINUOUS
 10
52.489005
 20
105.925016
 30
0.0
 11
65.844021
 21
113.430002
 31
0.0
  0
LINE
  8
0
  6
CONTINUOUS
 10
76.815747
 20
119.845407
 30
0.0
 11
77.370079
 21
120.159937
 31
0.0
  0
LINE
  8
0
  6
CONTINUOUS
 10
89.365565
 20
126.85779
 30
0.0
 11
102.291257
 21
134.120617
 31
0.0
  0
LINE
  8
0
  6
CONTINUOUS
 10
103.693022
 20
133.311307
 30
0.0
 11
102.291257
 21
134.120617
 31
0.0
  0
LINE
  8
0
  6
CONTINUOUS
 10
53.89077
 20
105.115706
 30
0.0
 11
67.270686
 21
112.634821
 31
0.0
  0
LINE
  8
0
  6
CONTINUOUS
 10
89.364927
 20
125.25275
 30
0.0
 11
103.693022
 21
133.311307
 31
0.0
  0
LINE
  8
0
  6
CONTINUOUS
 10
54.218041
 20
84.718466
 30
0.0
 11
67.812747
 21
92.441011
 31
0.0
  0
LINE
  8
0
  6
CONTINUOUS
 10
87.528666
 20
103.627912
 30
0.0
 11
103.869779
 21
112.964192
 31
0.0
  0
LINE
  8
0
  6
CONTINUOUS
 10
54.067527
 20
104.809532
 30
0.0
 11
54.218041
 21
84.718466
 31
0.0
  0
LINE
  8
0
  6
CONTINUOUS
 10
54.067527
 20
104.809532
 30
0.0
 11
67.632039
 21
112.433387
 31
0.0
  0
LINE
  8
0
  6
CONTINUOUS
 10
89.364846
 20
124.846238
 30
0.0
 11
103.869779
 21
133.005133
 31
0.0
  0
LINE
  8
0
  6
CONTINUOUS
 10
103.869779
 20
112.964192
 30
0.0
 11
103.869779
 21
133.005133
 31
0.0
  0
ARC
  8
0
  6
CONTINUOUS
 10
87.309099
 20
99.362258
 30
0.0
 40
0.25
 50
299.570771
 51
0.429229
  0
ARC
  8
0
  6
CONTINUOUS
 10
71.260969
 20
90.256477
 30
0.0
 40
0.25
 50
240.0
 51
299.570771
  0
ARC
  8
0
  6
CONTINUOUS
 10
80.491583
 20
134.602808
 30
0.0
 40
0.25
 50
240.873671
 51
300.0
  0
ENDSEC
  0
EOF
