  0
SECTION
  2
HEADER
  9
$ACADVER
  1
AC1009
  9
$INSBASE
 10
0.0
 20
0.0
 30
0.0
  9
$EXTMIN
 10
137.405936
 20
135.924369
 30
0.0
  9
$EXTMAX
 10
344.210164
 20
241.366844
 30
0.0
  9
$LIMMIN
 10
137.405936
 20
135.924369
  9
$LIMMAX
 10
344.210164
 20
241.366844
  9
$ORTHOMODE
 70
     0
  9
$REGENMODE
 70
     1
  9
$FILLMODE
 70
     1
  9
$QTEXTMODE
 70
     0
  9
$MIRRTEXT
 70
     1
  9
$DRAGMODE
 70
     2
  9
$LTSCALE
 40
1.0
  9
$OSMODE
 70
     0
  9
$ATTMODE
 70
     1
  9
$TEXTSIZE
 40
3.5
  9
$TRACEWID
 40
0.5
  9
$TEXTSTYLE
  7
STANDARD
  9
$CLAYER
  8
0
  9
$CELTYPE
  6
BYLAYER
  9
$CECOLOR
 62
   256
  9
$DIMSCALE
 40
1.0
  9
$DIMASZ
 40
0.18
  9
$DIMEXO
 40
0.0625
  9
$DIMDLI
 40
0.38
  9
$DIMRND
 40
0.0
  9
$DIMDLE
 40
0.0
  9
$DIMEXE
 40
0.18
  9
$DIMTP
 40
0.0
  9
$DIMTM
 40
0.0
  9
$DIMTXT
 40
0.18
  9
$DIMCEN
 40
0.09
  9
$DIMTSZ
 40
0.0
  9
$DIMTOL
 70
     0
  9
$DIMLIM
 70
     0
  9
$DIMTIH
 70
     1
  9
$DIMTOH
 70
     1
  9
$DIMSE1
 70
     0
  9
$DIMSE2
 70
     0
  9
$DIMTAD
 70
     0
  9
$DIMZIN
 70
     0
  9
$DIMBLK
  1

  9
$DIMASO
 70
     1
  9
$DIMSHO
 70
     1
  9
$DIMPOST
  1

  9
$DIMAPOST
  1

  9
$DIMALT
 70
     0
  9
$DIMALTD
 70
     2
  9
$DIMALTF
 40
25.4
  9
$DIMLFAC
 40
1.0
  9
$DIMTOFL
 70
     0
  9
$DIMTVP
 40
0.0
  9
$DIMTIX
 70
     0
  9
$DIMSOXD
 70
     0
  9
$DIMSAH
 70
     0
  9
$DIMBLK1
  1

  9
$DIMBLK2
  1

  9
$DIMSTYLE
  2
*UNNAMED
  9
$DIMCLRD
 70
     0
  9
$DIMCLRE
 70
     0
  9
$DIMCLRT
 70
     0
  9
$DIMTFAC
 40
1.0
  9
$DIMGAP
 40
0.09
  9
$LUNITS
 70
     2
  9
$LUPREC
 70
     4
  9
$SKETCHINC
 40
0.1
  9
$FILLETRAD
 40
2.0
  9
$AUNITS
 70
     0
  9
$AUPREC
 70
     0
  9
$MENU
  1
ACAD
  9
$ELEVATION
 40
0.0
  9
$PELEVATION
 40
0.0
  9
$THICKNESS
 40
0.0
  9
$LIMCHECK
 70
     0
  9
$BLIPMODE
 70
     1
  9
$CHAMFERA
 40
0.0
  9
$CHAMFERB
 40
0.0
  9
$SKPOLY
 70
     0
  9
$TDCREATE
 40
2450773.679976273
  9
$TDUPDATE
 40
2450773.687564120
  9
$TDINDWG
 40
0.0075878472
  9
$TDUSRTIMER
 40
0.0075878472
  9
$USRTIMER
 70
     1
  9
$ANGBASE
 50
0.0
  9
$ANGDIR
 70
     0
  9
$PDMODE
 70
     0
  9
$PDSIZE
 40
0.0
  9
$PLINEWID
 40
0.0
  9
$COORDS
 70
     2
  9
$SPLFRAME
 70
     0
  9
$SPLINETYPE
 70
     6
  9
$SPLINESEGS
 70
     8
  9
$ATTDIA
 70
     0
  9
$ATTREQ
 70
     1
  9
$HANDLING
 70
     0
  9
$HANDSEED
  5
0
  9
$SURFTAB1
 70
     6
  9
$SURFTAB2
 70
     6
  9
$SURFTYPE
 70
     6
  9
$SURFU
 70
     6
  9
$SURFV
 70
     6
  9
$UCSNAME
  2

  9
$UCSORG
 10
0.0
 20
0.0
 30
0.0
  9
$UCSXDIR
 10
1.0
 20
0.0
 30
0.0
  9
$UCSYDIR
 10
0.0
 20
1.0
 30
0.0
  9
$PUCSNAME
  2

  9
$PUCSORG
 10
0.0
 20
0.0
 30
0.0
  9
$PUCSXDIR
 10
1.0
 20
0.0
 30
0.0
  9
$PUCSYDIR
 10
0.0
 20
1.0
 30
0.0
  9
$USERI1
 70
     0
  9
$USERI2
 70
     0
  9
$USERI3
 70
     0
  9
$USERI4
 70
     0
  9
$USERI5
 70
     0
  9
$USERR1
 40
0.0
  9
$USERR2
 40
0.0
  9
$USERR3
 40
0.0
  9
$USERR4
 40
0.0
  9
$USERR5
 40
0.0
  9
$WORLDVIEW
 70
     1
  9
$SHADEDGE
 70
     3
  9
$SHADEDIF
 70
    70
  9
$TILEMODE
 70
     1
  9
$MAXACTVP
 70
    16
  9
$PINSBASE
 10
0.0
 20
0.0
 30
0.0
  9
$PLIMCHECK
 70
     0
  9
$PEXTMIN
 10
1.000000E+20
 20
1.000000E+20
 30
1.000000E+20
  9
$PEXTMAX
 10
-1.000000E+20
 20
-1.000000E+20
 30
-1.000000E+20
  9
$PLIMMIN
 10
0.0
 20
0.0
  9
$PLIMMAX
 10
420.0
 20
297.0
  9
$UNITMODE
 70
     0
  9
$VISRETAIN
 70
     0
  9
$PLINEGEN
 70
     0
  9
$PSLTSCALE
 70
     1
  9
$TREEDEPTH
 70
  3020
  9
$DWGCODEPAGE
  3
iso8859-1
  0
ENDSEC
  0
SECTION
  2
TABLES
  0
TABLE
  2
VPORT
 70
     2
  0
VPORT
  2
*ACTIVE
 70
     0
 10
0.0
 20
0.0
 11
1.0
 21
1.0
 12
225.60428
 22
188.532324
 13
0.0
 23
0.0
 14
1.0
 24
1.0
 15
0.0
 25
0.0
 16
0.0
 26
0.0
 36
1.0
 17
0.0
 27
0.0
 37
0.0
 40
122.167364
 41
1.748359
 42
50.0
 43
0.0
 44
0.0
 50
0.0
 51
0.0
 71
     0
 72
   100
 73
     1
 74
     0
 75
     0
 76
     0
 77
     0
 78
     0
  0
ENDTAB
  0
TABLE
  2
LTYPE
 70
     9
  0
LTYPE
  2
CONTINUOUS
 70
    64
  3
Solid line
 72
    65
 73
     0
 40
0.0
  0
LTYPE
  2
BORDER
 70
     0
  3
__ __ . __ __ .
 72
    65
 73
     6
 40
9.523879
 49
2.721108
 49
-1.360554
 49
2.721108
 49
-1.360554
 49
0.0
 49
-1.360554
  0
LTYPE
  2
CENTER
 70
     0
  3
____ _ ____ _
 72
    65
 73
     4
 40
10.884433
 49
6.802771
 49
-1.360554
 49
1.360554
 49
-1.360554
  0
LTYPE
  2
DASHDOT
 70
     0
  3
__ . __ . __ .
 72
    65
 73
     4
 40
5.442217
 49
2.721108
 49
-1.360554
 49
0.0
 49
-1.360554
  0
LTYPE
  2
DASHED
 70
     0
  3
__ __ __ __ __
 72
    65
 73
     2
 40
4.081662
 49
2.721108
 49
-1.360554
  0
LTYPE
  2
DIVIDE
 70
     0
  3
__ . . __ . . 
 72
    65
 73
     6
 40
6.802771
 49
2.721108
 49
-1.360554
 49
0.0
 49
-1.360554
 49
0.0
 49
-1.360554
  0
LTYPE
  2
DOT
 70
     0
  3
..............
 72
    65
 73
     4
 40
2.721108
 49
0.0
 49
-1.360554
 49
0.0
 49
-1.360554
  0
LTYPE
  2
HIDDEN
 70
     0
  3
_ _ _ _ _ _ _
 72
    65
 73
     2
 40
2.040831
 49
1.360554
 49
-0.680277
  0
LTYPE
  2
PHANTOM
 70
     0
  3
_____ _ _ _____ _ _ 
 72
    65
 73
     6
 40
13.605541
 49
6.802771
 49
-1.360554
 49
1.360554
 49
-1.360554
 49
1.360554
 49
-1.360554
  0
ENDTAB
  0
TABLE
  2
LAYER
 70
     1
  0
LAYER
  2
0
 70
    64
 62
     7
  6
CONTINUOUS
  0
ENDTAB
  0
TABLE
  2
STYLE
 70
     1
  0
STYLE
  2
STANDARD
 70
     0
 40
0.0
 41
1.0
 50
0.0
 71
     0
 42
3.5
  3
txt
  4

  0
ENDTAB
  0
TABLE
  2
VIEW
 70
     0
  0
ENDTAB
  0
TABLE
  2
UCS
 70
     0
  0
ENDTAB
  0
TABLE
  2
APPID
 70
     1
  0
APPID
  2
ACAD
 70
    64
  0
ENDTAB
  0
TABLE
  2
DIMSTYLE
 70
     0
  0
ENDTAB
  0
ENDSEC
  0
SECTION
  2
BLOCKS
  0
ENDSEC
  0
SECTION
  2
ENTITIES
  0
POLYLINE
  8
0
  6
CONTINUOUS
 66
     1
 10
0.0
 20
0.0
 30
0.0
  0
VERTEX
  8
0
  6
CONTINUOUS
 10
171.928055
 20
194.518507
 30
0.0
  0
VERTEX
  8
0
  6
CONTINUOUS
 10
171.928939
 20
194.514288
 30
0.0
  0
VERTEX
  8
0
  6
CONTINUOUS
 10
171.929168
 20
194.513144
 30
0.0
  0
VERTEX
  8
0
  6
CONTINUOUS
 10
171.929314
 20
194.512404
 30
0.0
  0
VERTEX
  8
0
  6
CONTINUOUS
 10
171.929426
 20
194.511835
 30
0.0
  0
VERTEX
  8
0
  6
CONTINUOUS
 10
171.92953
 20
194.511308
 30
0.0
  0
VERTEX
  8
0
  6
CONTINUOUS
 10
171.929641
 20
194.510746
 30
0.0
  0
VERTEX
  8
0
  6
CONTINUOUS
 10
171.929733
 20
194.510289
 30
0.0
  0
VERTEX
  8
0
  6
CONTINUOUS
 10
171.928727
 20
194.51401
 30
0.0
  0
VERTEX
  8
0
  6
CONTINUOUS
 10
171.924773
 20
194.521842
 30
0.0
  0
VERTEX
  8
0
  6
CONTINUOUS
 10
171.90111
 20
194.543933
 30
0.0
  0
VERTEX
  8
0
  6
CONTINUOUS
 10
171.873439
 20
194.563467
 30
0.0
  0
VERTEX
  8
0
  6
CONTINUOUS
 10
171.848423
 20
194.578787
 30
0.0
  0
SEQEND
  8
0
  6
CONTINUOUS
  0
POLYLINE
  8
0
  6
CONTINUOUS
 66
     1
 10
0.0
 20
0.0
 30
0.0
  0
VERTEX
  8
0
  6
CONTINUOUS
 10
170.996952
 20
197.803802
 30
0.0
  0
VERTEX
  8
0
  6
CONTINUOUS
 10
170.267115
 20
198.232528
 30
0.0
  0
SEQEND
  8
0
  6
CONTINUOUS
  0
POLYLINE
  8
0
  6
CONTINUOUS
 66
     1
 10
0.0
 20
0.0
 30
0.0
  0
VERTEX
  8
0
  6
CONTINUOUS
 10
171.927366
 20
194.521538
 30
0.0
  0
VERTEX
  8
0
  6
CONTINUOUS
 10
171.575485
 20
196.008692
 30
0.0
  0
VERTEX
  8
0
  6
CONTINUOUS
 10
171.223604
 20
197.495845
 30
0.0
  0
SEQEND
  8
0
  6
CONTINUOUS
  0
POLYLINE
  8
0
  6
CONTINUOUS
 66
     1
 10
0.0
 20
0.0
 30
0.0
  0
VERTEX
  8
0
  6
CONTINUOUS
 10
177.925869
 20
193.012686
 30
0.0
  0
VERTEX
  8
0
  6
CONTINUOUS
 10
177.942964
 20
193.002158
 30
0.0
  0
VERTEX
  8
0
  6
CONTINUOUS
 10
178.065381
 20
192.882453
 30
0.0
  0
VERTEX
  8
0
  6
CONTINUOUS
 10
178.118335
 20
192.746248
 30
0.0
  0
VERTEX
  8
0
  6
CONTINUOUS
 10
178.122453
 20
192.691268
 30
0.0
  0
SEQEND
  8
0
  6
CONTINUOUS
  0
POLYLINE
  8
0
  6
CONTINUOUS
 66
     1
 10
0.0
 20
0.0
 30
0.0
  0
VERTEX
  8
0
  6
CONTINUOUS
 10
170.976367
 20
197.546845
 30
0.0
  0
VERTEX
  8
0
  6
CONTINUOUS
 10
171.117034
 20
197.645129
 30
0.0
  0
SEQEND
  8
0
  6
CONTINUOUS
  0
POLYLINE
  8
0
  6
CONTINUOUS
 66
     1
 10
0.0
 20
0.0
 30
0.0
  0
VERTEX
  8
0
  6
CONTINUOUS
 10
171.228453
 20
197.453798
 30
0.0
  0
VERTEX
  8
0
  6
CONTINUOUS
 10
171.117034
 20
197.645129
 30
0.0
  0
SEQEND
  8
0
  6
CONTINUOUS
  0
POLYLINE
  8
0
  6
CONTINUOUS
 66
     1
 10
0.0
 20
0.0
 30
0.0
  0
VERTEX
  8
0
  6
CONTINUOUS
 10
171.117034
 20
197.645129
 30
0.0
  0
VERTEX
  8
0
  6
CONTINUOUS
 10
170.976376
 20
197.81416
 30
0.0
  0
SEQEND
  8
0
  6
CONTINUOUS
  0
POLYLINE
  8
0
  6
CONTINUOUS
 66
     1
 10
0.0
 20
0.0
 30
0.0
  0
VERTEX
  8
0
  6
CONTINUOUS
 10
172.17882
 20
194.281783
 30
0.0
  0
VERTEX
  8
0
  6
CONTINUOUS
 10
172.023174
 20
194.342576
 30
0.0
  0
SEQEND
  8
0
  6
CONTINUOUS
  0
POLYLINE
  8
0
  6
CONTINUOUS
 66
     1
 10
0.0
 20
0.0
 30
0.0
  0
VERTEX
  8
0
  6
CONTINUOUS
 10
172.023174
 20
194.342576
 30
0.0
  0
VERTEX
  8
0
  6
CONTINUOUS
 10
171.925607
 20
194.527691
 30
0.0
  0
SEQEND
  8
0
  6
CONTINUOUS
  0
POLYLINE
  8
0
  6
CONTINUOUS
 66
     1
 10
0.0
 20
0.0
 30
0.0
  0
VERTEX
  8
0
  6
CONTINUOUS
 10
171.932215
 20
194.479491
 30
0.0
  0
VERTEX
  8
0
  6
CONTINUOUS
 10
172.023174
 20
194.342576
 30
0.0
  0
SEQEND
  8
0
  6
CONTINUOUS
  0
POLYLINE
  8
0
  6
CONTINUOUS
 66
     1
 10
0.0
 20
0.0
 30
0.0
  0
VERTEX
  8
0
  6
CONTINUOUS
 10
171.858224
 20
194.095847
 30
0.0
  0
VERTEX
  8
0
  6
CONTINUOUS
 10
172.023174
 20
194.342576
 30
0.0
  0
SEQEND
  8
0
  6
CONTINUOUS
  0
POLYLINE
  8
0
  6
CONTINUOUS
 66
     1
 10
0.0
 20
0.0
 30
0.0
  0
VERTEX
  8
0
  6
CONTINUOUS
 10
159.73922
 20
187.099776
 30
0.0
  0
VERTEX
  8
0
  6
CONTINUOUS
 10
159.738846
 20
187.251191
 30
0.0
  0
SEQEND
  8
0
  6
CONTINUOUS
  0
POLYLINE
  8
0
  6
CONTINUOUS
 66
     1
 10
0.0
 20
0.0
 30
0.0
  0
VERTEX
  8
0
  6
CONTINUOUS
 10
159.738846
 20
187.251191
 30
0.0
  0
VERTEX
  8
0
  6
CONTINUOUS
 10
160.150026
 20
187.336116
 30
0.0
  0
SEQEND
  8
0
  6
CONTINUOUS
  0
POLYLINE
  8
0
  6
CONTINUOUS
 66
     1
 10
0.0
 20
0.0
 30
0.0
  0
VERTEX
  8
0
  6
CONTINUOUS
 10
159.740716
 20
187.440726
 30
0.0
  0
VERTEX
  8
0
  6
CONTINUOUS
 10
159.738846
 20
187.251191
 30
0.0
  0
SEQEND
  8
0
  6
CONTINUOUS
  0
POLYLINE
  8
0
  6
CONTINUOUS
 66
     1
 10
0.0
 20
0.0
 30
0.0
  0
VERTEX
  8
0
  6
CONTINUOUS
 10
159.329207
 20
187.340242
 30
0.0
  0
VERTEX
  8
0
  6
CONTINUOUS
 10
159.738846
 20
187.251191
 30
0.0
  0
SEQEND
  8
0
  6
CONTINUOUS
  0
POLYLINE
  8
0
  6
CONTINUOUS
 66
     1
 10
0.0
 20
0.0
 30
0.0
  0
VERTEX
  8
0
  6
CONTINUOUS
 10
159.765108
 20
191.090649
 30
0.0
  0
VERTEX
  8
0
  6
CONTINUOUS
 10
159.76328
 20
190.834377
 30
0.0
  0
SEQEND
  8
0
  6
CONTINUOUS
  0
POLYLINE
  8
0
  6
CONTINUOUS
 66
     1
 10
0.0
 20
0.0
 30
0.0
  0
VERTEX
  8
0
  6
CONTINUOUS
 10
159.994494
 20
191.206458
 30
0.0
  0
VERTEX
  8
0
  6
CONTINUOUS
 10
159.765108
 20
191.090649
 30
0.0
  0
SEQEND
  8
0
  6
CONTINUOUS
  0
POLYLINE
  8
0
  6
CONTINUOUS
 66
     1
 10
0.0
 20
0.0
 30
0.0
  0
VERTEX
  8
0
  6
CONTINUOUS
 10
159.535497
 20
191.208766
 30
0.0
  0
VERTEX
  8
0
  6
CONTINUOUS
 10
159.765108
 20
191.090649
 30
0.0
  0
SEQEND
  8
0
  6
CONTINUOUS
  0
POLYLINE
  8
0
  6
CONTINUOUS
 66
     1
 10
0.0
 20
0.0
 30
0.0
  0
VERTEX
  8
0
  6
CONTINUOUS
 10
159.76328
 20
190.834377
 30
0.0
  0
VERTEX
  8
0
  6
CONTINUOUS
 10
159.413013
 20
190.892184
 30
0.0
  0
SEQEND
  8
0
  6
CONTINUOUS
  0
POLYLINE
  8
0
  6
CONTINUOUS
 66
     1
 10
0.0
 20
0.0
 30
0.0
  0
VERTEX
  8
0
  6
CONTINUOUS
 10
160.113225
 20
190.888664
 30
0.0
  0
VERTEX
  8
0
  6
CONTINUOUS
 10
159.76328
 20
190.834377
 30
0.0
  0
SEQEND
  8
0
  6
CONTINUOUS
  0
POLYLINE
  8
0
  6
CONTINUOUS
 66
     1
 10
0.0
 20
0.0
 30
0.0
  0
VERTEX
  8
0
  6
CONTINUOUS
 10
159.740716
 20
187.440726
 30
0.0
  0
VERTEX
  8
0
  6
CONTINUOUS
 10
160.090661
 20
187.495013
 30
0.0
  0
SEQEND
  8
0
  6
CONTINUOUS
  0
POLYLINE
  8
0
  6
CONTINUOUS
 66
     1
 10
0.0
 20
0.0
 30
0.0
  0
VERTEX
  8
0
  6
CONTINUOUS
 10
159.390449
 20
187.498533
 30
0.0
  0
VERTEX
  8
0
  6
CONTINUOUS
 10
159.740716
 20
187.440726
 30
0.0
  0
SEQEND
  8
0
  6
CONTINUOUS
  0
POLYLINE
  8
0
  6
CONTINUOUS
 66
     1
 10
0.0
 20
0.0
 30
0.0
  0
VERTEX
  8
0
  6
CONTINUOUS
 10
159.994494
 20
191.206458
 30
0.0
  0
VERTEX
  8
0
  6
CONTINUOUS
 10
160.113225
 20
190.888664
 30
0.0
  0
SEQEND
  8
0
  6
CONTINUOUS
  0
POLYLINE
  8
0
  6
CONTINUOUS
 66
     1
 10
0.0
 20
0.0
 30
0.0
  0
VERTEX
  8
0
  6
CONTINUOUS
 10
159.765781
 20
191.444206
 30
0.0
  0
VERTEX
  8
0
  6
CONTINUOUS
 10
159.994494
 20
191.206458
 30
0.0
  0
SEQEND
  8
0
  6
CONTINUOUS
  0
POLYLINE
  8
0
  6
CONTINUOUS
 66
     1
 10
0.0
 20
0.0
 30
0.0
  0
VERTEX
  8
0
  6
CONTINUOUS
 10
170.976367
 20
197.546845
 30
0.0
  0
VERTEX
  8
0
  6
CONTINUOUS
 10
170.747654
 20
197.784593
 30
0.0
  0
SEQEND
  8
0
  6
CONTINUOUS
  0
POLYLINE
  8
0
  6
CONTINUOUS
 66
     1
 10
0.0
 20
0.0
 30
0.0
  0
VERTEX
  8
0
  6
CONTINUOUS
 10
171.095097
 20
197.229051
 30
0.0
  0
VERTEX
  8
0
  6
CONTINUOUS
 10
170.976367
 20
197.546845
 30
0.0
  0
SEQEND
  8
0
  6
CONTINUOUS
  0
POLYLINE
  8
0
  6
CONTINUOUS
 66
     1
 10
0.0
 20
0.0
 30
0.0
  0
VERTEX
  8
0
  6
CONTINUOUS
 10
170.976376
 20
197.81416
 30
0.0
  0
VERTEX
  8
0
  6
CONTINUOUS
 10
170.99686
 20
197.803856
 30
0.0
  0
SEQEND
  8
0
  6
CONTINUOUS
  0
POLYLINE
  8
0
  6
CONTINUOUS
 66
     1
 10
0.0
 20
0.0
 30
0.0
  0
VERTEX
  8
0
  6
CONTINUOUS
 10
170.747654
 20
197.784593
 30
0.0
  0
VERTEX
  8
0
  6
CONTINUOUS
 10
170.976376
 20
197.81416
 30
0.0
  0
SEQEND
  8
0
  6
CONTINUOUS
  0
POLYLINE
  8
0
  6
CONTINUOUS
 66
     1
 10
0.0
 20
0.0
 30
0.0
  0
VERTEX
  8
0
  6
CONTINUOUS
 10
171.9161
 20
194.567769
 30
0.0
  0
VERTEX
  8
0
  6
CONTINUOUS
 10
171.972601
 20
194.588666
 30
0.0
  0
SEQEND
  8
0
  6
CONTINUOUS
  0
POLYLINE
  8
0
  6
CONTINUOUS
 66
     1
 10
0.0
 20
0.0
 30
0.0
  0
VERTEX
  8
0
  6
CONTINUOUS
 10
171.932215
 20
194.479491
 30
0.0
  0
VERTEX
  8
0
  6
CONTINUOUS
 10
171.927402
 20
194.521385
 30
0.0
  0
SEQEND
  8
0
  6
CONTINUOUS
  0
POLYLINE
  8
0
  6
CONTINUOUS
 66
     1
 10
0.0
 20
0.0
 30
0.0
  0
VERTEX
  8
0
  6
CONTINUOUS
 10
171.798859
 20
194.254744
 30
0.0
  0
VERTEX
  8
0
  6
CONTINUOUS
 10
171.932215
 20
194.479491
 30
0.0
  0
SEQEND
  8
0
  6
CONTINUOUS
  0
POLYLINE
  8
0
  6
CONTINUOUS
 66
     1
 10
0.0
 20
0.0
 30
0.0
  0
VERTEX
  8
0
  6
CONTINUOUS
 10
171.228453
 20
197.453798
 30
0.0
  0
VERTEX
  8
0
  6
CONTINUOUS
 10
171.095097
 20
197.229051
 30
0.0
  0
SEQEND
  8
0
  6
CONTINUOUS
  0
POLYLINE
  8
0
  6
CONTINUOUS
 66
     1
 10
0.0
 20
0.0
 30
0.0
  0
VERTEX
  8
0
  6
CONTINUOUS
 10
171.22364
 20
197.495693
 30
0.0
  0
VERTEX
  8
0
  6
CONTINUOUS
 10
171.228453
 20
197.453798
 30
0.0
  0
SEQEND
  8
0
  6
CONTINUOUS
  0
POLYLINE
  8
0
  6
CONTINUOUS
 66
     1
 10
0.0
 20
0.0
 30
0.0
  0
VERTEX
  8
0
  6
CONTINUOUS
 10
160.150026
 20
187.336116
 30
0.0
  0
VERTEX
  8
0
  6
CONTINUOUS
 10
160.264383
 20
187.217242
 30
0.0
  0
SEQEND
  8
0
  6
CONTINUOUS
  0
POLYLINE
  8
0
  6
CONTINUOUS
 66
     1
 10
0.0
 20
0.0
 30
0.0
  0
VERTEX
  8
0
  6
CONTINUOUS
 10
160.090661
 20
187.495013
 30
0.0
  0
VERTEX
  8
0
  6
CONTINUOUS
 10
160.150026
 20
187.336116
 30
0.0
  0
SEQEND
  8
0
  6
CONTINUOUS
  0
POLYLINE
  8
0
  6
CONTINUOUS
 66
     1
 10
0.0
 20
0.0
 30
0.0
  0
VERTEX
  8
0
  6
CONTINUOUS
 10
171.858224
 20
194.095847
 30
0.0
  0
VERTEX
  8
0
  6
CONTINUOUS
 10
171.798859
 20
194.254744
 30
0.0
  0
SEQEND
  8
0
  6
CONTINUOUS
  0
POLYLINE
  8
0
  6
CONTINUOUS
 66
     1
 10
0.0
 20
0.0
 30
0.0
  0
VERTEX
  8
0
  6
CONTINUOUS
 10
171.972581
 20
193.976973
 30
0.0
  0
VERTEX
  8
0
  6
CONTINUOUS
 10
171.858224
 20
194.095847
 30
0.0
  0
SEQEND
  8
0
  6
CONTINUOUS
  0
POLYLINE
  8
0
  6
CONTINUOUS
 66
     1
 10
0.0
 20
0.0
 30
0.0
  0
VERTEX
  8
0
  6
CONTINUOUS
 10
159.329207
 20
187.340242
 30
0.0
  0
VERTEX
  8
0
  6
CONTINUOUS
 10
159.390449
 20
187.498533
 30
0.0
  0
SEQEND
  8
0
  6
CONTINUOUS
  0
POLYLINE
  8
0
  6
CONTINUOUS
 66
     1
 10
0.0
 20
0.0
 30
0.0
  0
VERTEX
  8
0
  6
CONTINUOUS
 10
159.214065
 20
187.222522
 30
0.0
  0
VERTEX
  8
0
  6
CONTINUOUS
 10
159.329207
 20
187.340242
 30
0.0
  0
SEQEND
  8
0
  6
CONTINUOUS
  0
POLYLINE
  8
0
  6
CONTINUOUS
 66
     1
 10
0.0
 20
0.0
 30
0.0
  0
VERTEX
  8
0
  6
CONTINUOUS
 10
159.535497
 20
191.208766
 30
0.0
  0
VERTEX
  8
0
  6
CONTINUOUS
 10
159.765781
 20
191.444206
 30
0.0
  0
SEQEND
  8
0
  6
CONTINUOUS
  0
POLYLINE
  8
0
  6
CONTINUOUS
 66
     1
 10
0.0
 20
0.0
 30
0.0
  0
VERTEX
  8
0
  6
CONTINUOUS
 10
159.413013
 20
190.892184
 30
0.0
  0
VERTEX
  8
0
  6
CONTINUOUS
 10
159.535497
 20
191.208766
 30
0.0
  0
SEQEND
  8
0
  6
CONTINUOUS
  0
POLYLINE
  8
0
  6
CONTINUOUS
 66
     1
 10
0.0
 20
0.0
 30
0.0
  0
VERTEX
  8
0
  6
CONTINUOUS
 10
153.91665
 20
194.880145
 30
0.0
  0
VERTEX
  8
0
  6
CONTINUOUS
 10
153.79399
 20
194.781831
 30
0.0
  0
VERTEX
  8
0
  6
CONTINUOUS
 10
153.686487
 20
194.644894
 30
0.0
  0
VERTEX
  8
0
  6
CONTINUOUS
 10
153.605902
 20
194.487664
 30
0.0
  0
VERTEX
  8
0
  6
CONTINUOUS
 10
153.563881
 20
194.328123
 30
0.0
  0
SEQEND
  8
0
  6
CONTINUOUS
  0
POLYLINE
  8
0
  6
CONTINUOUS
 66
     1
 10
0.0
 20
0.0
 30
0.0
  0
VERTEX
  8
0
  6
CONTINUOUS
 10
153.178169
 20
191.147795
 30
0.0
  0
VERTEX
  8
0
  6
CONTINUOUS
 10
153.157239
 20
191.068229
 30
0.0
  0
VERTEX
  8
0
  6
CONTINUOUS
 10
153.116987
 20
190.989599
 30
0.0
  0
VERTEX
  8
0
  6
CONTINUOUS
 10
153.063263
 20
190.921095
 30
0.0
  0
VERTEX
  8
0
  6
CONTINUOUS
 10
153.001785
 20
190.871784
 30
0.0
  0
SEQEND
  8
0
  6
CONTINUOUS
  0
POLYLINE
  8
0
  6
CONTINUOUS
 66
     1
 10
0.0
 20
0.0
 30
0.0
  0
VERTEX
  8
0
  6
CONTINUOUS
 10
159.390449
 20
187.498533
 30
0.0
  0
VERTEX
  8
0
  6
CONTINUOUS
 10
159.401982
 20
189.233119
 30
0.0
  0
VERTEX
  8
0
  6
CONTINUOUS
 10
159.413013
 20
190.892184
 30
0.0
  0
SEQEND
  8
0
  6
CONTINUOUS
  0
POLYLINE
  8
0
  6
CONTINUOUS
 66
     1
 10
0.0
 20
0.0
 30
0.0
  0
VERTEX
  8
0
  6
CONTINUOUS
 10
159.390449
 20
187.498533
 30
0.0
  0
VERTEX
  8
0
  6
CONTINUOUS
 10
156.470052
 20
189.214054
 30
0.0
  0
VERTEX
  8
0
  6
CONTINUOUS
 10
153.178169
 20
191.147795
 30
0.0
  0
SEQEND
  8
0
  6
CONTINUOUS
  0
POLYLINE
  8
0
  6
CONTINUOUS
 66
     1
 10
0.0
 20
0.0
 30
0.0
  0
VERTEX
  8
0
  6
CONTINUOUS
 10
159.413013
 20
190.892184
 30
0.0
  0
VERTEX
  8
0
  6
CONTINUOUS
 10
156.642111
 20
192.519888
 30
0.0
  0
VERTEX
  8
0
  6
CONTINUOUS
 10
153.563881
 20
194.328123
 30
0.0
  0
SEQEND
  8
0
  6
CONTINUOUS
  0
POLYLINE
  8
0
  6
CONTINUOUS
 66
     1
 10
0.0
 20
0.0
 30
0.0
  0
VERTEX
  8
0
  6
CONTINUOUS
 10
160.113225
 20
190.888664
 30
0.0
  0
VERTEX
  8
0
  6
CONTINUOUS
 10
165.604161
 20
194.058858
 30
0.0
  0
VERTEX
  8
0
  6
CONTINUOUS
 10
171.095097
 20
197.229051
 30
0.0
  0
SEQEND
  8
0
  6
CONTINUOUS
  0
POLYLINE
  8
0
  6
CONTINUOUS
 66
     1
 10
0.0
 20
0.0
 30
0.0
  0
VERTEX
  8
0
  6
CONTINUOUS
 10
171.095097
 20
197.229051
 30
0.0
  0
VERTEX
  8
0
  6
CONTINUOUS
 10
171.439148
 20
195.774992
 30
0.0
  0
VERTEX
  8
0
  6
CONTINUOUS
 10
171.798859
 20
194.254744
 30
0.0
  0
SEQEND
  8
0
  6
CONTINUOUS
  0
POLYLINE
  8
0
  6
CONTINUOUS
 66
     1
 10
0.0
 20
0.0
 30
0.0
  0
VERTEX
  8
0
  6
CONTINUOUS
 10
160.090661
 20
187.495013
 30
0.0
  0
VERTEX
  8
0
  6
CONTINUOUS
 10
165.94476
 20
190.874878
 30
0.0
  0
VERTEX
  8
0
  6
CONTINUOUS
 10
171.798859
 20
194.254744
 30
0.0
  0
SEQEND
  8
0
  6
CONTINUOUS
  0
POLYLINE
  8
0
  6
CONTINUOUS
 66
     1
 10
0.0
 20
0.0
 30
0.0
  0
VERTEX
  8
0
  6
CONTINUOUS
 10
160.090661
 20
187.495013
 30
0.0
  0
VERTEX
  8
0
  6
CONTINUOUS
 10
160.102194
 20
189.229599
 30
0.0
  0
VERTEX
  8
0
  6
CONTINUOUS
 10
160.113225
 20
190.888664
 30
0.0
  0
SEQEND
  8
0
  6
CONTINUOUS
  0
POLYLINE
  8
0
  6
CONTINUOUS
 66
     1
 10
0.0
 20
0.0
 30
0.0
  0
VERTEX
  8
0
  6
CONTINUOUS
 10
171.972601
 20
194.588666
 30
0.0
  0
VERTEX
  8
0
  6
CONTINUOUS
 10
171.90145
 20
194.630462
 30
0.0
  0
SEQEND
  8
0
  6
CONTINUOUS
  0
POLYLINE
  8
0
  6
CONTINUOUS
 66
     1
 10
0.0
 20
0.0
 30
0.0
  0
VERTEX
  8
0
  6
CONTINUOUS
 10
159.214065
 20
187.222522
 30
0.0
  0
VERTEX
  8
0
  6
CONTINUOUS
 10
156.293667
 20
188.938043
 30
0.0
  0
VERTEX
  8
0
  6
CONTINUOUS
 10
153.001785
 20
190.871784
 30
0.0
  0
SEQEND
  8
0
  6
CONTINUOUS
  0
POLYLINE
  8
0
  6
CONTINUOUS
 66
     1
 10
0.0
 20
0.0
 30
0.0
  0
VERTEX
  8
0
  6
CONTINUOUS
 10
159.73922
 20
187.099776
 30
0.0
  0
VERTEX
  8
0
  6
CONTINUOUS
 10
159.214065
 20
187.222522
 30
0.0
  0
SEQEND
  8
0
  6
CONTINUOUS
  0
POLYLINE
  8
0
  6
CONTINUOUS
 66
     1
 10
0.0
 20
0.0
 30
0.0
  0
VERTEX
  8
0
  6
CONTINUOUS
 10
160.264383
 20
187.217242
 30
0.0
  0
VERTEX
  8
0
  6
CONTINUOUS
 10
159.73922
 20
187.099776
 30
0.0
  0
SEQEND
  8
0
  6
CONTINUOUS
  0
POLYLINE
  8
0
  6
CONTINUOUS
 66
     1
 10
0.0
 20
0.0
 30
0.0
  0
VERTEX
  8
0
  6
CONTINUOUS
 10
160.264383
 20
187.217242
 30
0.0
  0
VERTEX
  8
0
  6
CONTINUOUS
 10
166.118482
 20
190.597107
 30
0.0
  0
VERTEX
  8
0
  6
CONTINUOUS
 10
171.972581
 20
193.976973
 30
0.0
  0
SEQEND
  8
0
  6
CONTINUOUS
  0
POLYLINE
  8
0
  6
CONTINUOUS
 66
     1
 10
0.0
 20
0.0
 30
0.0
  0
VERTEX
  8
0
  6
CONTINUOUS
 10
172.17882
 20
194.281783
 30
0.0
  0
VERTEX
  8
0
  6
CONTINUOUS
 10
171.972581
 20
193.976973
 30
0.0
  0
SEQEND
  8
0
  6
CONTINUOUS
  0
POLYLINE
  8
0
  6
CONTINUOUS
 66
     1
 10
0.0
 20
0.0
 30
0.0
  0
VERTEX
  8
0
  6
CONTINUOUS
 10
171.972601
 20
194.588666
 30
0.0
  0
VERTEX
  8
0
  6
CONTINUOUS
 10
172.17882
 20
194.281783
 30
0.0
  0
SEQEND
  8
0
  6
CONTINUOUS
  0
POLYLINE
  8
0
  6
CONTINUOUS
 66
     1
 10
0.0
 20
0.0
 30
0.0
  0
VERTEX
  8
0
  6
CONTINUOUS
 10
161.890883
 20
183.814766
 30
0.0
  0
VERTEX
  8
0
  6
CONTINUOUS
 10
162.002952
 20
183.77652
 30
0.0
  0
VERTEX
  8
0
  6
CONTINUOUS
 10
162.132359
 20
183.775869
 30
0.0
  0
VERTEX
  8
0
  6
CONTINUOUS
 10
162.24443
 20
183.812988
 30
0.0
  0
SEQEND
  8
0
  6
CONTINUOUS
  0
POLYLINE
  8
0
  6
CONTINUOUS
 66
     1
 10
0.0
 20
0.0
 30
0.0
  0
VERTEX
  8
0
  6
CONTINUOUS
 10
159.765781
 20
191.444206
 30
0.0
  0
VERTEX
  8
0
  6
CONTINUOUS
 10
165.256718
 20
194.6144
 30
0.0
  0
VERTEX
  8
0
  6
CONTINUOUS
 10
170.747654
 20
197.784593
 30
0.0
  0
SEQEND
  8
0
  6
CONTINUOUS
  0
POLYLINE
  8
0
  6
CONTINUOUS
 66
     1
 10
0.0
 20
0.0
 30
0.0
  0
VERTEX
  8
0
  6
CONTINUOUS
 10
159.765781
 20
191.444206
 30
0.0
  0
VERTEX
  8
0
  6
CONTINUOUS
 10
156.994879
 20
193.071909
 30
0.0
  0
VERTEX
  8
0
  6
CONTINUOUS
 10
153.91665
 20
194.880145
 30
0.0
  0
SEQEND
  8
0
  6
CONTINUOUS
  0
POLYLINE
  8
0
  6
CONTINUOUS
 66
     1
 10
0.0
 20
0.0
 30
0.0
  0
VERTEX
  8
0
  6
CONTINUOUS
 10
170.747654
 20
197.784593
 30
0.0
  0
VERTEX
  8
0
  6
CONTINUOUS
 10
170.265976
 20
198.067544
 30
0.0
  0
SEQEND
  8
0
  6
CONTINUOUS
  0
POLYLINE
  8
0
  6
CONTINUOUS
 66
     1
 10
0.0
 20
0.0
 30
0.0
  0
VERTEX
  8
0
  6
CONTINUOUS
 10
151.426101
 20
189.962063
 30
0.0
  0
VERTEX
  8
0
  6
CONTINUOUS
 10
151.337506
 20
189.883805
 30
0.0
  0
VERTEX
  8
0
  6
CONTINUOUS
 10
151.272237
 20
189.772062
 30
0.0
  0
VERTEX
  8
0
  6
CONTINUOUS
 10
151.247782
 20
189.656775
 30
0.0
  0
SEQEND
  8
0
  6
CONTINUOUS
  0
POLYLINE
  8
0
  6
CONTINUOUS
 66
     1
 10
0.0
 20
0.0
 30
0.0
  0
VERTEX
  8
0
  6
CONTINUOUS
 10
161.890883
 20
183.814766
 30
0.0
  0
VERTEX
  8
0
  6
CONTINUOUS
 10
161.765431
 20
183.683073
 30
0.0
  0
VERTEX
  8
0
  6
CONTINUOUS
 10
161.712564
 20
183.509478
 30
0.0
  0
SEQEND
  8
0
  6
CONTINUOUS
  0
POLYLINE
  8
0
  6
CONTINUOUS
 66
     1
 10
0.0
 20
0.0
 30
0.0
  0
VERTEX
  8
0
  6
CONTINUOUS
 10
161.712564
 20
183.509478
 30
0.0
  0
VERTEX
  8
0
  6
CONTINUOUS
 10
161.936701
 20
183.432986
 30
0.0
  0
VERTEX
  8
0
  6
CONTINUOUS
 10
162.195515
 20
183.431685
 30
0.0
  0
VERTEX
  8
0
  6
CONTINUOUS
 10
162.419657
 20
183.505923
 30
0.0
  0
SEQEND
  8
0
  6
CONTINUOUS
  0
POLYLINE
  8
0
  6
CONTINUOUS
 66
     1
 10
0.0
 20
0.0
 30
0.0
  0
VERTEX
  8
0
  6
CONTINUOUS
 10
162.419657
 20
183.505923
 30
0.0
  0
VERTEX
  8
0
  6
CONTINUOUS
 10
162.368973
 20
183.680039
 30
0.0
  0
VERTEX
  8
0
  6
CONTINUOUS
 10
162.24443
 20
183.812988
 30
0.0
  0
SEQEND
  8
0
  6
CONTINUOUS
  0
POLYLINE
  8
0
  6
CONTINUOUS
 66
     1
 10
0.0
 20
0.0
 30
0.0
  0
VERTEX
  8
0
  6
CONTINUOUS
 10
177.976006
 20
192.487385
 30
0.0
  0
VERTEX
  8
0
  6
CONTINUOUS
 10
177.953095
 20
192.60291
 30
0.0
  0
VERTEX
  8
0
  6
CONTINUOUS
 10
177.888957
 20
192.715304
 30
0.0
  0
VERTEX
  8
0
  6
CONTINUOUS
 10
177.800779
 20
192.794451
 30
0.0
  0
SEQEND
  8
0
  6
CONTINUOUS
  0
POLYLINE
  8
0
  6
CONTINUOUS
 66
     1
 10
0.0
 20
0.0
 30
0.0
  0
VERTEX
  8
0
  6
CONTINUOUS
 10
177.800779
 20
192.794451
 30
0.0
  0
VERTEX
  8
0
  6
CONTINUOUS
 10
177.865485
 20
192.859393
 30
0.0
  0
VERTEX
  8
0
  6
CONTINUOUS
 10
177.865487
 20
192.934759
 30
0.0
  0
VERTEX
  8
0
  6
CONTINUOUS
 10
177.800786
 20
193.000352
 30
0.0
  0
SEQEND
  8
0
  6
CONTINUOUS
  0
POLYLINE
  8
0
  6
CONTINUOUS
 66
     1
 10
0.0
 20
0.0
 30
0.0
  0
VERTEX
  8
0
  6
CONTINUOUS
 10
177.925875
 20
193.012683
 30
0.0
  0
VERTEX
  8
0
  6
CONTINUOUS
 10
177.868674
 20
193.023976
 30
0.0
  0
VERTEX
  8
0
  6
CONTINUOUS
 10
177.800786
 20
193.000352
 30
0.0
  0
SEQEND
  8
0
  6
CONTINUOUS
  0
POLYLINE
  8
0
  6
CONTINUOUS
 66
     1
 10
0.0
 20
0.0
 30
0.0
  0
VERTEX
  8
0
  6
CONTINUOUS
 10
177.976006
 20
192.487385
 30
0.0
  0
VERTEX
  8
0
  6
CONTINUOUS
 10
178.083967
 20
192.580713
 30
0.0
  0
VERTEX
  8
0
  6
CONTINUOUS
 10
178.122452
 20
192.691255
 30
0.0
  0
SEQEND
  8
0
  6
CONTINUOUS
  0
POLYLINE
  8
0
  6
CONTINUOUS
 66
     1
 10
0.0
 20
0.0
 30
0.0
  0
VERTEX
  8
0
  6
CONTINUOUS
 10
161.709787
 20
183.143672
 30
0.0
  0
VERTEX
  8
0
  6
CONTINUOUS
 10
162.063331
 20
183.056607
 30
0.0
  0
VERTEX
  8
0
  6
CONTINUOUS
 10
162.416881
 20
183.140117
 30
0.0
  0
SEQEND
  8
0
  6
CONTINUOUS
  0
POLYLINE
  8
0
  6
CONTINUOUS
 66
     1
 10
0.0
 20
0.0
 30
0.0
  0
VERTEX
  8
0
  6
CONTINUOUS
 10
177.97323
 20
192.121579
 30
0.0
  0
VERTEX
  8
0
  6
CONTINUOUS
 10
178.08119
 20
192.214907
 30
0.0
  0
VERTEX
  8
0
  6
CONTINUOUS
 10
178.119675
 20
192.325449
 30
0.0
  0
SEQEND
  8
0
  6
CONTINUOUS
  0
POLYLINE
  8
0
  6
CONTINUOUS
 66
     1
 10
0.0
 20
0.0
 30
0.0
  0
VERTEX
  8
0
  6
CONTINUOUS
 10
170.190749
 20
197.687275
 30
0.0
  0
VERTEX
  8
0
  6
CONTINUOUS
 10
170.24473
 20
197.733939
 30
0.0
  0
VERTEX
  8
0
  6
CONTINUOUS
 10
170.263972
 20
197.78921
 30
0.0
  0
SEQEND
  8
0
  6
CONTINUOUS
  0
POLYLINE
  8
0
  6
CONTINUOUS
 66
     1
 10
0.0
 20
0.0
 30
0.0
  0
VERTEX
  8
0
  6
CONTINUOUS
 10
170.190749
 20
238.022993
 30
0.0
  0
VERTEX
  8
0
  6
CONTINUOUS
 10
170.263974
 20
238.125576
 30
0.0
  0
VERTEX
  8
0
  6
CONTINUOUS
 10
170.190756
 20
238.228895
 30
0.0
  0
SEQEND
  8
0
  6
CONTINUOUS
  0
POLYLINE
  8
0
  6
CONTINUOUS
 66
     1
 10
0.0
 20
0.0
 30
0.0
  0
VERTEX
  8
0
  6
CONTINUOUS
 10
168.81195
 20
239.038843
 30
0.0
  0
VERTEX
  8
0
  6
CONTINUOUS
 10
168.635178
 20
239.082375
 30
0.0
  0
VERTEX
  8
0
  6
CONTINUOUS
 10
168.458403
 20
239.04062
 30
0.0
  0
SEQEND
  8
0
  6
CONTINUOUS
  0
POLYLINE
  8
0
  6
CONTINUOUS
 66
     1
 10
0.0
 20
0.0
 30
0.0
  0
VERTEX
  8
0
  6
CONTINUOUS
 10
167.822007
 20
238.673197
 30
0.0
  0
VERTEX
  8
0
  6
CONTINUOUS
 10
167.73789
 20
238.588771
 30
0.0
  0
VERTEX
  8
0
  6
CONTINUOUS
 10
167.737887
 20
238.490796
 30
0.0
  0
VERTEX
  8
0
  6
CONTINUOUS
 10
167.821998
 20
238.405525
 30
0.0
  0
VERTEX
  8
0
  6
CONTINUOUS
 10
167.967688
 20
238.355805
 30
0.0
  0
VERTEX
  8
0
  6
CONTINUOUS
 10
168.135917
 20
238.354959
 30
0.0
  0
VERTEX
  8
0
  6
CONTINUOUS
 10
168.281609
 20
238.403214
 30
0.0
  0
SEQEND
  8
0
  6
CONTINUOUS
  0
POLYLINE
  8
0
  6
CONTINUOUS
 66
     1
 10
0.0
 20
0.0
 30
0.0
  0
VERTEX
  8
0
  6
CONTINUOUS
 10
168.811932
 20
238.503499
 30
0.0
  0
VERTEX
  8
0
  6
CONTINUOUS
 10
168.63516
 20
238.547031
 30
0.0
  0
VERTEX
  8
0
  6
CONTINUOUS
 10
168.458386
 20
238.505276
 30
0.0
  0
SEQEND
  8
0
  6
CONTINUOUS
  0
POLYLINE
  8
0
  6
CONTINUOUS
 66
     1
 10
0.0
 20
0.0
 30
0.0
  0
VERTEX
  8
0
  6
CONTINUOUS
 10
169.271528
 20
238.027615
 30
0.0
  0
VERTEX
  8
0
  6
CONTINUOUS
 10
169.336233
 20
238.092557
 30
0.0
  0
VERTEX
  8
0
  6
CONTINUOUS
 10
169.336236
 20
238.167923
 30
0.0
  0
VERTEX
  8
0
  6
CONTINUOUS
 10
169.271534
 20
238.233516
 30
0.0
  0
SEQEND
  8
0
  6
CONTINUOUS
  0
POLYLINE
  8
0
  6
CONTINUOUS
 66
     1
 10
0.0
 20
0.0
 30
0.0
  0
VERTEX
  8
0
  6
CONTINUOUS
 10
159.584171
 20
232.640515
 30
0.0
  0
VERTEX
  8
0
  6
CONTINUOUS
 10
159.69624
 20
232.602269
 30
0.0
  0
VERTEX
  8
0
  6
CONTINUOUS
 10
159.825647
 20
232.601618
 30
0.0
  0
VERTEX
  8
0
  6
CONTINUOUS
 10
159.937718
 20
232.638737
 30
0.0
  0
SEQEND
  8
0
  6
CONTINUOUS
  0
POLYLINE
  8
0
  6
CONTINUOUS
 66
     1
 10
0.0
 20
0.0
 30
0.0
  0
VERTEX
  8
0
  6
CONTINUOUS
 10
159.036188
 20
233.065368
 30
0.0
  0
VERTEX
  8
0
  6
CONTINUOUS
 10
159.003835
 20
233.032896
 30
0.0
  0
VERTEX
  8
0
  6
CONTINUOUS
 10
159.003834
 20
232.995214
 30
0.0
  0
VERTEX
  8
0
  6
CONTINUOUS
 10
159.036185
 20
232.962417
 30
0.0
  0
SEQEND
  8
0
  6
CONTINUOUS
  0
POLYLINE
  8
0
  6
CONTINUOUS
 66
     1
 10
0.0
 20
0.0
 30
0.0
  0
VERTEX
  8
0
  6
CONTINUOUS
 10
159.425097
 20
233.289904
 30
0.0
  0
VERTEX
  8
0
  6
CONTINUOUS
 10
159.516287
 20
233.393673
 30
0.0
  0
VERTEX
  8
0
  6
CONTINUOUS
 10
159.48487
 20
233.509368
 30
0.0
  0
VERTEX
  8
0
  6
CONTINUOUS
 10
159.342845
 20
233.592797
 30
0.0
  0
VERTEX
  8
0
  6
CONTINUOUS
 10
159.144462
 20
233.612094
 30
0.0
  0
VERTEX
  8
0
  6
CONTINUOUS
 10
158.965495
 20
233.559887
 30
0.0
  0
SEQEND
  8
0
  6
CONTINUOUS
  0
POLYLINE
  8
0
  6
CONTINUOUS
 66
     1
 10
0.0
 20
0.0
 30
0.0
  0
VERTEX
  8
0
  6
CONTINUOUS
 10
158.205355
 20
233.12102
 30
0.0
  0
VERTEX
  8
0
  6
CONTINUOUS
 10
158.140649
 20
233.056077
 30
0.0
  0
VERTEX
  8
0
  6
CONTINUOUS
 10
158.140647
 20
232.980712
 30
0.0
  0
VERTEX
  8
0
  6
CONTINUOUS
 10
158.205348
 20
232.915118
 30
0.0
  0
SEQEND
  8
0
  6
CONTINUOUS
  0
POLYLINE
  8
0
  6
CONTINUOUS
 66
     1
 10
0.0
 20
0.0
 30
0.0
  0
VERTEX
  8
0
  6
CONTINUOUS
 10
159.584154
 20
232.10517
 30
0.0
  0
VERTEX
  8
0
  6
CONTINUOUS
 10
159.696222
 20
232.066924
 30
0.0
  0
VERTEX
  8
0
  6
CONTINUOUS
 10
159.82563
 20
232.066274
 30
0.0
  0
VERTEX
  8
0
  6
CONTINUOUS
 10
159.937701
 20
232.103393
 30
0.0
  0
SEQEND
  8
0
  6
CONTINUOUS
  0
POLYLINE
  8
0
  6
CONTINUOUS
 66
     1
 10
0.0
 20
0.0
 30
0.0
  0
VERTEX
  8
0
  6
CONTINUOUS
 10
164.19143
 20
235.782483
 30
0.0
  0
VERTEX
  8
0
  6
CONTINUOUS
 10
164.529365
 20
235.656644
 30
0.0
  0
VERTEX
  8
0
  6
CONTINUOUS
 10
164.928801
 20
235.649174
 30
0.0
  0
VERTEX
  8
0
  6
CONTINUOUS
 10
165.276376
 20
235.762192
 30
0.0
  0
SEQEND
  8
0
  6
CONTINUOUS
  0
POLYLINE
  8
0
  6
CONTINUOUS
 66
     1
 10
0.0
 20
0.0
 30
0.0
  0
VERTEX
  8
0
  6
CONTINUOUS
 10
165.584077
 20
235.939844
 30
0.0
  0
VERTEX
  8
0
  6
CONTINUOUS
 10
165.675268
 20
236.043612
 30
0.0
  0
VERTEX
  8
0
  6
CONTINUOUS
 10
165.643851
 20
236.159307
 30
0.0
  0
VERTEX
  8
0
  6
CONTINUOUS
 10
165.501826
 20
236.242736
 30
0.0
  0
VERTEX
  8
0
  6
CONTINUOUS
 10
165.303442
 20
236.262033
 30
0.0
  0
VERTEX
  8
0
  6
CONTINUOUS
 10
165.124475
 20
236.209826
 30
0.0
  0
SEQEND
  8
0
  6
CONTINUOUS
  0
POLYLINE
  8
0
  6
CONTINUOUS
 66
     1
 10
0.0
 20
0.0
 30
0.0
  0
VERTEX
  8
0
  6
CONTINUOUS
 10
164.566292
 20
236.10312
 30
0.0
  0
VERTEX
  8
0
  6
CONTINUOUS
 10
164.678937
 20
236.061174
 30
0.0
  0
VERTEX
  8
0
  6
CONTINUOUS
 10
164.812082
 20
236.058684
 30
0.0
  0
VERTEX
  8
0
  6
CONTINUOUS
 10
164.92794
 20
236.096357
 30
0.0
  0
SEQEND
  8
0
  6
CONTINUOUS
  0
POLYLINE
  8
0
  6
CONTINUOUS
 66
     1
 10
0.0
 20
0.0
 30
0.0
  0
VERTEX
  8
0
  6
CONTINUOUS
 10
160.90189
 20
238.67228
 30
0.0
  0
VERTEX
  8
0
  6
CONTINUOUS
 10
160.828733
 20
238.573115
 30
0.0
  0
VERTEX
  8
0
  6
CONTINUOUS
 10
160.893781
 20
238.471364
 30
0.0
  0
SEQEND
  8
0
  6
CONTINUOUS
  0
POLYLINE
  8
0
  6
CONTINUOUS
 66
     1
 10
0.0
 20
0.0
 30
0.0
  0
VERTEX
  8
0
  6
CONTINUOUS
 10
165.099763
 20
240.684128
 30
0.0
  0
VERTEX
  8
0
  6
CONTINUOUS
 10
164.875626
 20
240.76062
 30
0.0
  0
VERTEX
  8
0
  6
CONTINUOUS
 10
164.616812
 20
240.761921
 30
0.0
  0
VERTEX
  8
0
  6
CONTINUOUS
 10
164.39267
 20
240.687683
 30
0.0
  0
SEQEND
  8
0
  6
CONTINUOUS
  0
POLYLINE
  8
0
  6
CONTINUOUS
 66
     1
 10
0.0
 20
0.0
 30
0.0
  0
VERTEX
  8
0
  6
CONTINUOUS
 10
167.362405
 20
238.943179
 30
0.0
  0
VERTEX
  8
0
  6
CONTINUOUS
 10
167.491817
 20
239.073065
 30
0.0
  0
VERTEX
  8
0
  6
CONTINUOUS
 10
167.491821
 20
239.223796
 30
0.0
  0
VERTEX
  8
0
  6
CONTINUOUS
 10
167.362419
 20
239.354983
 30
0.0
  0
SEQEND
  8
0
  6
CONTINUOUS
  0
POLYLINE
  8
0
  6
CONTINUOUS
 66
     1
 10
0.0
 20
0.0
 30
0.0
  0
VERTEX
  8
0
  6
CONTINUOUS
 10
166.902786
 20
238.677818
 30
0.0
  0
VERTEX
  8
0
  6
CONTINUOUS
 10
166.756335
 20
238.472653
 30
0.0
  0
VERTEX
  8
0
  6
CONTINUOUS
 10
166.902772
 20
238.266015
 30
0.0
  0
SEQEND
  8
0
  6
CONTINUOUS
  0
POLYLINE
  8
0
  6
CONTINUOUS
 66
     1
 10
0.0
 20
0.0
 30
0.0
  0
VERTEX
  8
0
  6
CONTINUOUS
 10
167.827445
 20
237.722837
 30
0.0
  0
VERTEX
  8
0
  6
CONTINUOUS
 10
168.09641
 20
237.631046
 30
0.0
  0
VERTEX
  8
0
  6
CONTINUOUS
 10
168.406987
 20
237.629485
 30
0.0
  0
VERTEX
  8
0
  6
CONTINUOUS
 10
168.675957
 20
237.718571
 30
0.0
  0
VERTEX
  8
0
  6
CONTINUOUS
 10
168.831251
 20
237.874434
 30
0.0
  0
SEQEND
  8
0
  6
CONTINUOUS
  0
POLYLINE
  8
0
  6
CONTINUOUS
 66
     1
 10
0.0
 20
0.0
 30
0.0
  0
VERTEX
  8
0
  6
CONTINUOUS
 10
169.018047
 20
238.279469
 30
0.0
  0
VERTEX
  8
0
  6
CONTINUOUS
 10
169.01805
 20
238.354834
 30
0.0
  0
VERTEX
  8
0
  6
CONTINUOUS
 10
168.953348
 20
238.420427
 30
0.0
  0
VERTEX
  8
0
  6
CONTINUOUS
 10
168.84128
 20
238.458673
 30
0.0
  0
VERTEX
  8
0
  6
CONTINUOUS
 10
168.711873
 20
238.459324
 30
0.0
  0
VERTEX
  8
0
  6
CONTINUOUS
 10
168.599802
 20
238.422205
 30
0.0
  0
SEQEND
  8
0
  6
CONTINUOUS
  0
POLYLINE
  8
0
  6
CONTINUOUS
 66
     1
 10
0.0
 20
0.0
 30
0.0
  0
VERTEX
  8
0
  6
CONTINUOUS
 10
167.998764
 20
238.157554
 30
0.0
  0
VERTEX
  8
0
  6
CONTINUOUS
 10
168.043591
 20
238.142256
 30
0.0
  0
VERTEX
  8
0
  6
CONTINUOUS
 10
168.095354
 20
238.141996
 30
0.0
  0
VERTEX
  8
0
  6
CONTINUOUS
 10
168.140182
 20
238.156843
 30
0.0
  0
SEQEND
  8
0
  6
CONTINUOUS
  0
POLYLINE
  8
0
  6
CONTINUOUS
 66
     1
 10
0.0
 20
0.0
 30
0.0
  0
VERTEX
  8
0
  6
CONTINUOUS
 10
167.539164
 20
238.509897
 30
0.0
  0
VERTEX
  8
0
  6
CONTINUOUS
 10
167.509874
 20
238.468864
 30
0.0
  0
VERTEX
  8
0
  6
CONTINUOUS
 10
167.539162
 20
238.427537
 30
0.0
  0
SEQEND
  8
0
  6
CONTINUOUS
  0
POLYLINE
  8
0
  6
CONTINUOUS
 66
     1
 10
0.0
 20
0.0
 30
0.0
  0
VERTEX
  8
0
  6
CONTINUOUS
 10
168.458403
 20
239.04062
 30
0.0
  0
VERTEX
  8
0
  6
CONTINUOUS
 10
168.523109
 20
239.105563
 30
0.0
  0
VERTEX
  8
0
  6
CONTINUOUS
 10
168.523111
 20
239.180928
 30
0.0
  0
VERTEX
  8
0
  6
CONTINUOUS
 10
168.45841
 20
239.246522
 30
0.0
  0
SEQEND
  8
0
  6
CONTINUOUS
  0
POLYLINE
  8
0
  6
CONTINUOUS
 66
     1
 10
0.0
 20
0.0
 30
0.0
  0
VERTEX
  8
0
  6
CONTINUOUS
 10
164.923011
 20
241.323311
 30
0.0
  0
VERTEX
  8
0
  6
CONTINUOUS
 10
164.746239
 20
241.366844
 30
0.0
  0
VERTEX
  8
0
  6
CONTINUOUS
 10
164.569464
 20
241.325089
 30
0.0
  0
SEQEND
  8
0
  6
CONTINUOUS
  0
POLYLINE
  8
0
  6
CONTINUOUS
 66
     1
 10
0.0
 20
0.0
 30
0.0
  0
VERTEX
  8
0
  6
CONTINUOUS
 10
154.316416
 20
235.405489
 30
0.0
  0
VERTEX
  8
0
  6
CONTINUOUS
 10
154.25171
 20
235.340546
 30
0.0
  0
VERTEX
  8
0
  6
CONTINUOUS
 10
154.251708
 20
235.265181
 30
0.0
  0
VERTEX
  8
0
  6
CONTINUOUS
 10
154.316409
 20
235.199587
 30
0.0
  0
SEQEND
  8
0
  6
CONTINUOUS
  0
POLYLINE
  8
0
  6
CONTINUOUS
 66
     1
 10
0.0
 20
0.0
 30
0.0
  0
VERTEX
  8
0
  6
CONTINUOUS
 10
157.851808
 20
233.122797
 30
0.0
  0
VERTEX
  8
0
  6
CONTINUOUS
 10
157.963877
 20
233.084551
 30
0.0
  0
VERTEX
  8
0
  6
CONTINUOUS
 10
158.093284
 20
233.083901
 30
0.0
  0
VERTEX
  8
0
  6
CONTINUOUS
 10
158.205355
 20
233.12102
 30
0.0
  0
SEQEND
  8
0
  6
CONTINUOUS
  0
POLYLINE
  8
0
  6
CONTINUOUS
 66
     1
 10
0.0
 20
0.0
 30
0.0
  0
VERTEX
  8
0
  6
CONTINUOUS
 10
159.266012
 20
233.651032
 30
0.0
  0
VERTEX
  8
0
  6
CONTINUOUS
 10
159.221185
 20
233.66633
 30
0.0
  0
VERTEX
  8
0
  6
CONTINUOUS
 10
159.169422
 20
233.66659
 30
0.0
  0
VERTEX
  8
0
  6
CONTINUOUS
 10
159.124594
 20
233.651743
 30
0.0
  0
SEQEND
  8
0
  6
CONTINUOUS
  0
POLYLINE
  8
0
  6
CONTINUOUS
 66
     1
 10
0.0
 20
0.0
 30
0.0
  0
VERTEX
  8
0
  6
CONTINUOUS
 10
159.725612
 20
233.298689
 30
0.0
  0
VERTEX
  8
0
  6
CONTINUOUS
 10
159.754902
 20
233.339722
 30
0.0
  0
VERTEX
  8
0
  6
CONTINUOUS
 10
159.725614
 20
233.381049
 30
0.0
  0
SEQEND
  8
0
  6
CONTINUOUS
  0
POLYLINE
  8
0
  6
CONTINUOUS
 66
     1
 10
0.0
 20
0.0
 30
0.0
  0
VERTEX
  8
0
  6
CONTINUOUS
 10
159.265992
 20
233.033327
 30
0.0
  0
VERTEX
  8
0
  6
CONTINUOUS
 10
159.201287
 20
232.968384
 30
0.0
  0
VERTEX
  8
0
  6
CONTINUOUS
 10
159.201284
 20
232.893019
 30
0.0
  0
VERTEX
  8
0
  6
CONTINUOUS
 10
159.265985
 20
232.827426
 30
0.0
  0
VERTEX
  8
0
  6
CONTINUOUS
 10
159.378054
 20
232.78918
 30
0.0
  0
VERTEX
  8
0
  6
CONTINUOUS
 10
159.507461
 20
232.788529
 30
0.0
  0
SEQEND
  8
0
  6
CONTINUOUS
  0
POLYLINE
  8
0
  6
CONTINUOUS
 66
     1
 10
0.0
 20
0.0
 30
0.0
  0
VERTEX
  8
0
  6
CONTINUOUS
 10
160.204548
 20
232.893805
 30
0.0
  0
VERTEX
  8
0
  6
CONTINUOUS
 10
160.473519
 20
232.982891
 30
0.0
  0
VERTEX
  8
0
  6
CONTINUOUS
 10
160.628812
 20
233.138754
 30
0.0
  0
VERTEX
  8
0
  6
CONTINUOUS
 10
160.628818
 20
233.31963
 30
0.0
  0
VERTEX
  8
0
  6
CONTINUOUS
 10
160.473535
 20
233.477055
 30
0.0
  0
SEQEND
  8
0
  6
CONTINUOUS
  0
POLYLINE
  8
0
  6
CONTINUOUS
 66
     1
 10
0.0
 20
0.0
 30
0.0
  0
VERTEX
  8
0
  6
CONTINUOUS
 10
159.548862
 20
234.020233
 30
0.0
  0
VERTEX
  8
0
  6
CONTINUOUS
 10
159.195318
 20
234.107297
 30
0.0
  0
VERTEX
  8
0
  6
CONTINUOUS
 10
158.841769
 20
234.023788
 30
0.0
  0
SEQEND
  8
0
  6
CONTINUOUS
  0
POLYLINE
  8
0
  6
CONTINUOUS
 66
     1
 10
0.0
 20
0.0
 30
0.0
  0
VERTEX
  8
0
  6
CONTINUOUS
 10
157.675056
 20
233.761981
 30
0.0
  0
VERTEX
  8
0
  6
CONTINUOUS
 10
158.0286
 20
233.674916
 30
0.0
  0
VERTEX
  8
0
  6
CONTINUOUS
 10
158.382149
 20
233.758426
 30
0.0
  0
SEQEND
  8
0
  6
CONTINUOUS
  0
POLYLINE
  8
0
  6
CONTINUOUS
 66
     1
 10
0.0
 20
0.0
 30
0.0
  0
VERTEX
  8
0
  6
CONTINUOUS
 10
155.412414
 20
235.502929
 30
0.0
  0
VERTEX
  8
0
  6
CONTINUOUS
 10
155.283002
 20
235.373044
 30
0.0
  0
VERTEX
  8
0
  6
CONTINUOUS
 10
155.282997
 20
235.222313
 30
0.0
  0
VERTEX
  8
0
  6
CONTINUOUS
 10
155.4124
 20
235.091126
 30
0.0
  0
SEQEND
  8
0
  6
CONTINUOUS
  0
POLYLINE
  8
0
  6
CONTINUOUS
 66
     1
 10
0.0
 20
0.0
 30
0.0
  0
VERTEX
  8
0
  6
CONTINUOUS
 10
159.248249
 20
237.521316
 30
0.0
  0
VERTEX
  8
0
  6
CONTINUOUS
 10
159.0741
 20
237.560077
 30
0.0
  0
VERTEX
  8
0
  6
CONTINUOUS
 10
158.903194
 20
237.518332
 30
0.0
  0
SEQEND
  8
0
  6
CONTINUOUS
  0
POLYLINE
  8
0
  6
CONTINUOUS
 66
     1
 10
0.0
 20
0.0
 30
0.0
  0
VERTEX
  8
0
  6
CONTINUOUS
 10
163.291393
 20
235.151496
 30
0.0
  0
VERTEX
  8
0
  6
CONTINUOUS
 10
163.357082
 20
235.218639
 30
0.0
  0
VERTEX
  8
0
  6
CONTINUOUS
 10
163.353958
 20
235.296198
 30
0.0
  0
VERTEX
  8
0
  6
CONTINUOUS
 10
163.282909
 20
235.362159
 30
0.0
  0
SEQEND
  8
0
  6
CONTINUOUS
  0
POLYLINE
  8
0
  6
CONTINUOUS
 66
     1
 10
0.0
 20
0.0
 30
0.0
  0
VERTEX
  8
0
  6
CONTINUOUS
 10
163.101394
 20
235.0418
 30
0.0
  0
VERTEX
  8
0
  6
CONTINUOUS
 10
163.017277
 20
234.957374
 30
0.0
  0
VERTEX
  8
0
  6
CONTINUOUS
 10
163.017274
 20
234.859399
 30
0.0
  0
VERTEX
  8
0
  6
CONTINUOUS
 10
163.101386
 20
234.774128
 30
0.0
  0
VERTEX
  8
0
  6
CONTINUOUS
 10
163.247075
 20
234.724408
 30
0.0
  0
VERTEX
  8
0
  6
CONTINUOUS
 10
163.415304
 20
234.723562
 30
0.0
  0
VERTEX
  8
0
  6
CONTINUOUS
 10
163.560996
 20
234.771817
 30
0.0
  0
SEQEND
  8
0
  6
CONTINUOUS
  0
POLYLINE
  8
0
  6
CONTINUOUS
 66
     1
 10
0.0
 20
0.0
 30
0.0
  0
VERTEX
  8
0
  6
CONTINUOUS
 10
163.862162
 20
234.945695
 30
0.0
  0
VERTEX
  8
0
  6
CONTINUOUS
 10
164.059228
 20
235.147126
 30
0.0
  0
VERTEX
  8
0
  6
CONTINUOUS
 10
164.049857
 20
235.379801
 30
0.0
  0
VERTEX
  8
0
  6
CONTINUOUS
 10
163.836708
 20
235.577684
 30
0.0
  0
SEQEND
  8
0
  6
CONTINUOUS
  0
POLYLINE
  8
0
  6
CONTINUOUS
 66
     1
 10
0.0
 20
0.0
 30
0.0
  0
VERTEX
  8
0
  6
CONTINUOUS
 10
160.625839
 20
238.081779
 30
0.0
  0
VERTEX
  8
0
  6
CONTINUOUS
 10
160.400549
 20
238.165671
 30
0.0
  0
VERTEX
  8
0
  6
CONTINUOUS
 10
160.134258
 20
238.170651
 30
0.0
  0
VERTEX
  8
0
  6
CONTINUOUS
 10
159.902542
 20
238.095306
 30
0.0
  0
VERTEX
  8
0
  6
CONTINUOUS
 10
159.771164
 20
237.961019
 30
0.0
  0
VERTEX
  8
0
  6
CONTINUOUS
 10
159.777412
 20
237.805903
 30
0.0
  0
VERTEX
  8
0
  6
CONTINUOUS
 10
159.919511
 20
237.673981
 30
0.0
  0
SEQEND
  8
0
  6
CONTINUOUS
  0
POLYLINE
  8
0
  6
CONTINUOUS
 66
     1
 10
0.0
 20
0.0
 30
0.0
  0
VERTEX
  8
0
  6
CONTINUOUS
 10
194.648979
 20
198.849841
 30
0.0
  0
VERTEX
  8
0
  6
CONTINUOUS
 10
194.6223
 20
198.834537
 30
0.0
  0
VERTEX
  8
0
  6
CONTINUOUS
 10
172.875928
 20
186.359645
 30
0.0
  0
VERTEX
  8
0
  6
CONTINUOUS
 10
151.129557
 20
173.884753
 30
0.0
  0
VERTEX
  8
0
  6
CONTINUOUS
 10
151.102878
 20
173.869449
 30
0.0
  0
SEQEND
  8
0
  6
CONTINUOUS
  0
POLYLINE
  8
0
  6
CONTINUOUS
 66
     1
 10
0.0
 20
0.0
 30
0.0
  0
VERTEX
  8
0
  6
CONTINUOUS
 10
194.648979
 20
198.849841
 30
0.0
  0
VERTEX
  8
0
  6
CONTINUOUS
 10
189.054266
 20
202.287913
 30
0.0
  0
VERTEX
  8
0
  6
CONTINUOUS
 10
181.765004
 20
206.767321
 30
0.0
  0
SEQEND
  8
0
  6
CONTINUOUS
  0
POLYLINE
  8
0
  6
CONTINUOUS
 66
     1
 10
0.0
 20
0.0
 30
0.0
  0
VERTEX
  8
0
  6
CONTINUOUS
 10
182.014608
 20
206.782126
 30
0.0
  0
VERTEX
  8
0
  6
CONTINUOUS
 10
182.011098
 20
206.78423
 30
0.0
  0
VERTEX
  8
0
  6
CONTINUOUS
 10
181.898491
 20
206.809982
 30
0.0
  0
VERTEX
  8
0
  6
CONTINUOUS
 10
181.765004
 20
206.767321
 30
0.0
  0
SEQEND
  8
0
  6
CONTINUOUS
  0
POLYLINE
  8
0
  6
CONTINUOUS
 66
     1
 10
0.0
 20
0.0
 30
0.0
  0
VERTEX
  8
0
  6
CONTINUOUS
 10
196.361709
 20
195.792146
 30
0.0
  0
VERTEX
  8
0
  6
CONTINUOUS
 10
196.361709
 20
193.439316
 30
0.0
  0
SEQEND
  8
0
  6
CONTINUOUS
  0
POLYLINE
  8
0
  6
CONTINUOUS
 66
     1
 10
0.0
 20
0.0
 30
0.0
  0
VERTEX
  8
0
  6
CONTINUOUS
 10
196.361709
 20
195.792146
 30
0.0
  0
VERTEX
  8
0
  6
CONTINUOUS
 10
196.359283
 20
195.790755
 30
0.0
  0
VERTEX
  8
0
  6
CONTINUOUS
 10
174.612912
 20
183.315863
 30
0.0
  0
VERTEX
  8
0
  6
CONTINUOUS
 10
152.86654
 20
170.840971
 30
0.0
  0
VERTEX
  8
0
  6
CONTINUOUS
 10
152.864115
 20
170.839579
 30
0.0
  0
SEQEND
  8
0
  6
CONTINUOUS
  0
POLYLINE
  8
0
  6
CONTINUOUS
 66
     1
 10
0.0
 20
0.0
 30
0.0
  0
VERTEX
  8
0
  6
CONTINUOUS
 10
152.864115
 20
170.839579
 30
0.0
  0
VERTEX
  8
0
  6
CONTINUOUS
 10
152.864115
 20
154.011996
 30
0.0
  0
VERTEX
  8
0
  6
CONTINUOUS
 10
152.864115
 20
137.184412
 30
0.0
  0
SEQEND
  8
0
  6
CONTINUOUS
  0
POLYLINE
  8
0
  6
CONTINUOUS
 66
     1
 10
0.0
 20
0.0
 30
0.0
  0
VERTEX
  8
0
  6
CONTINUOUS
 10
152.163232
 20
170.836055
 30
0.0
  0
VERTEX
  8
0
  6
CONTINUOUS
 10
152.163232
 20
154.008471
 30
0.0
  0
VERTEX
  8
0
  6
CONTINUOUS
 10
152.163232
 20
137.180888
 30
0.0
  0
SEQEND
  8
0
  6
CONTINUOUS
  0
POLYLINE
  8
0
  6
CONTINUOUS
 66
     1
 10
0.0
 20
0.0
 30
0.0
  0
VERTEX
  8
0
  6
CONTINUOUS
 10
150.749392
 20
173.257168
 30
0.0
  0
VERTEX
  8
0
  6
CONTINUOUS
 10
151.735647
 20
172.204463
 30
0.0
  0
VERTEX
  8
0
  6
CONTINUOUS
 10
152.163232
 20
170.836055
 30
0.0
  0
SEQEND
  8
0
  6
CONTINUOUS
  0
POLYLINE
  8
0
  6
CONTINUOUS
 66
     1
 10
0.0
 20
0.0
 30
0.0
  0
VERTEX
  8
0
  6
CONTINUOUS
 10
150.749392
 20
136.325982
 30
0.0
  0
VERTEX
  8
0
  6
CONTINUOUS
 10
151.735647
 20
136.286146
 30
0.0
  0
VERTEX
  8
0
  6
CONTINUOUS
 10
152.163232
 20
137.180888
 30
0.0
  0
SEQEND
  8
0
  6
CONTINUOUS
  0
POLYLINE
  8
0
  6
CONTINUOUS
 66
     1
 10
0.0
 20
0.0
 30
0.0
  0
VERTEX
  8
0
  6
CONTINUOUS
 10
194.648979
 20
198.849841
 30
0.0
  0
VERTEX
  8
0
  6
CONTINUOUS
 10
194.900973
 20
198.863179
 30
0.0
  0
SEQEND
  8
0
  6
CONTINUOUS
  0
POLYLINE
  8
0
  6
CONTINUOUS
 66
     1
 10
0.0
 20
0.0
 30
0.0
  0
VERTEX
  8
0
  6
CONTINUOUS
 10
150.749392
 20
136.325982
 30
0.0
  0
VERTEX
  8
0
  6
CONTINUOUS
 10
150.865409
 20
136.097589
 30
0.0
  0
SEQEND
  8
0
  6
CONTINUOUS
  0
POLYLINE
  8
0
  6
CONTINUOUS
 66
     1
 10
0.0
 20
0.0
 30
0.0
  0
VERTEX
  8
0
  6
CONTINUOUS
 10
151.102878
 20
173.869449
 30
0.0
  0
VERTEX
  8
0
  6
CONTINUOUS
 10
150.749392
 20
173.257168
 30
0.0
  0
SEQEND
  8
0
  6
CONTINUOUS
  0
POLYLINE
  8
0
  6
CONTINUOUS
 66
     1
 10
0.0
 20
0.0
 30
0.0
  0
VERTEX
  8
0
  6
CONTINUOUS
 10
152.163232
 20
137.180888
 30
0.0
  0
VERTEX
  8
0
  6
CONTINUOUS
 10
152.864115
 20
137.184412
 30
0.0
  0
SEQEND
  8
0
  6
CONTINUOUS
  0
POLYLINE
  8
0
  6
CONTINUOUS
 66
     1
 10
0.0
 20
0.0
 30
0.0
  0
VERTEX
  8
0
  6
CONTINUOUS
 10
152.864115
 20
170.839579
 30
0.0
  0
VERTEX
  8
0
  6
CONTINUOUS
 10
152.163232
 20
170.836055
 30
0.0
  0
SEQEND
  8
0
  6
CONTINUOUS
  0
POLYLINE
  8
0
  6
CONTINUOUS
 66
     1
 10
0.0
 20
0.0
 30
0.0
  0
VERTEX
  8
0
  6
CONTINUOUS
 10
196.361709
 20
195.792146
 30
0.0
  0
VERTEX
  8
0
  6
CONTINUOUS
 10
196.500863
 20
195.995221
 30
0.0
  0
SEQEND
  8
0
  6
CONTINUOUS
  0
POLYLINE
  8
0
  6
CONTINUOUS
 66
     1
 10
0.0
 20
0.0
 30
0.0
  0
VERTEX
  8
0
  6
CONTINUOUS
 10
152.302013
 20
136.049875
 30
0.0
  0
VERTEX
  8
0
  6
CONTINUOUS
 10
152.708701
 20
136.484227
 30
0.0
  0
VERTEX
  8
0
  6
CONTINUOUS
 10
152.864115
 20
137.184412
 30
0.0
  0
SEQEND
  8
0
  6
CONTINUOUS
  0
POLYLINE
  8
0
  6
CONTINUOUS
 66
     1
 10
0.0
 20
0.0
 30
0.0
  0
VERTEX
  8
0
  6
CONTINUOUS
 10
151.102878
 20
173.869449
 30
0.0
  0
VERTEX
  8
0
  6
CONTINUOUS
 10
151.765973
 20
173.316907
 30
0.0
  0
VERTEX
  8
0
  6
CONTINUOUS
 10
152.326701
 20
172.548346
 30
0.0
  0
VERTEX
  8
0
  6
CONTINUOUS
 10
152.715826
 20
171.682869
 30
0.0
  0
VERTEX
  8
0
  6
CONTINUOUS
 10
152.864115
 20
170.839579
 30
0.0
  0
SEQEND
  8
0
  6
CONTINUOUS
  0
POLYLINE
  8
0
  6
CONTINUOUS
 66
     1
 10
0.0
 20
0.0
 30
0.0
  0
VERTEX
  8
0
  6
CONTINUOUS
 10
196.361709
 20
195.792146
 30
0.0
  0
VERTEX
  8
0
  6
CONTINUOUS
 10
196.224593
 20
196.641845
 30
0.0
  0
VERTEX
  8
0
  6
CONTINUOUS
 10
195.848548
 20
197.514826
 30
0.0
  0
VERTEX
  8
0
  6
CONTINUOUS
 10
195.300901
 20
198.290891
 30
0.0
  0
VERTEX
  8
0
  6
CONTINUOUS
 10
194.648979
 20
198.849841
 30
0.0
  0
SEQEND
  8
0
  6
CONTINUOUS
  0
POLYLINE
  8
0
  6
CONTINUOUS
 66
     1
 10
0.0
 20
0.0
 30
0.0
  0
VERTEX
  8
0
  6
CONTINUOUS
 10
182.014631
 20
206.782113
 30
0.0
  0
VERTEX
  8
0
  6
CONTINUOUS
 10
188.45779
 20
202.822653
 30
0.0
  0
VERTEX
  8
0
  6
CONTINUOUS
 10
194.900985
 20
198.863172
 30
0.0
  0
SEQEND
  8
0
  6
CONTINUOUS
  0
POLYLINE
  8
0
  6
CONTINUOUS
 66
     1
 10
0.0
 20
0.0
 30
0.0
  0
VERTEX
  8
0
  6
CONTINUOUS
 10
194.900985
 20
198.863172
 30
0.0
  0
VERTEX
  8
0
  6
CONTINUOUS
 10
195.591637
 20
198.24735
 30
0.0
  0
VERTEX
  8
0
  6
CONTINUOUS
 10
196.147859
 20
197.377758
 30
0.0
  0
VERTEX
  8
0
  6
CONTINUOUS
 10
196.410253
 20
196.666829
 30
0.0
  0
VERTEX
  8
0
  6
CONTINUOUS
 10
196.500863
 20
195.994956
 30
0.0
  0
SEQEND
  8
0
  6
CONTINUOUS
  0
POLYLINE
  8
0
  6
CONTINUOUS
 66
     1
 10
0.0
 20
0.0
 30
0.0
  0
VERTEX
  8
0
  6
CONTINUOUS
 10
152.302013
 20
136.049875
 30
0.0
  0
VERTEX
  8
0
  6
CONTINUOUS
 10
151.985012
 20
135.924369
 30
0.0
  0
VERTEX
  8
0
  6
CONTINUOUS
 10
151.308232
 20
135.927546
 30
0.0
  0
VERTEX
  8
0
  6
CONTINUOUS
 10
150.865434
 20
136.097576
 30
0.0
  0
SEQEND
  8
0
  6
CONTINUOUS
  0
POLYLINE
  8
0
  6
CONTINUOUS
 66
     1
 10
0.0
 20
0.0
 30
0.0
  0
VERTEX
  8
0
  6
CONTINUOUS
 10
152.349936
 20
136.102258
 30
0.0
  0
VERTEX
  8
0
  6
CONTINUOUS
 10
152.357212
 20
136.106432
 30
0.0
  0
VERTEX
  8
0
  6
CONTINUOUS
 10
155.890563
 20
138.133352
 30
0.0
  0
SEQEND
  8
0
  6
CONTINUOUS
  0
POLYLINE
  8
0
  6
CONTINUOUS
 66
     1
 10
0.0
 20
0.0
 30
0.0
  0
VERTEX
  8
0
  6
CONTINUOUS
 10
182.774836
 20
177.518641
 30
0.0
  0
VERTEX
  8
0
  6
CONTINUOUS
 10
182.860068
 20
177.071346
 30
0.0
  0
VERTEX
  8
0
  6
CONTINUOUS
 10
183.102721
 20
176.789893
 30
0.0
  0
SEQEND
  8
0
  6
CONTINUOUS
  0
POLYLINE
  8
0
  6
CONTINUOUS
 66
     1
 10
0.0
 20
0.0
 30
0.0
  0
VERTEX
  8
0
  6
CONTINUOUS
 10
183.893987
 20
179.457256
 30
0.0
  0
VERTEX
  8
0
  6
CONTINUOUS
 10
183.102589
 20
178.623498
 30
0.0
  0
VERTEX
  8
0
  6
CONTINUOUS
 10
182.774836
 20
177.518641
 30
0.0
  0
SEQEND
  8
0
  6
CONTINUOUS
  0
POLYLINE
  8
0
  6
CONTINUOUS
 66
     1
 10
0.0
 20
0.0
 30
0.0
  0
VERTEX
  8
0
  6
CONTINUOUS
 10
173.8181
 20
173.814053
 30
0.0
  0
VERTEX
  8
0
  6
CONTINUOUS
 10
174.025238
 20
173.353669
 30
0.0
  0
VERTEX
  8
0
  6
CONTINUOUS
 10
174.525236
 20
173.400576
 30
0.0
  0
SEQEND
  8
0
  6
CONTINUOUS
  0
POLYLINE
  8
0
  6
CONTINUOUS
 66
     1
 10
0.0
 20
0.0
 30
0.0
  0
VERTEX
  8
0
  6
CONTINUOUS
 10
171.520061
 20
172.905343
 30
0.0
  0
VERTEX
  8
0
  6
CONTINUOUS
 10
171.425303
 20
173.260547
 30
0.0
  0
VERTEX
  8
0
  6
CONTINUOUS
 10
171.166472
 20
173.411889
 30
0.0
  0
VERTEX
  8
0
  6
CONTINUOUS
 10
170.812926
 20
173.31882
 30
0.0
  0
SEQEND
  8
0
  6
CONTINUOUS
  0
POLYLINE
  8
0
  6
CONTINUOUS
 66
     1
 10
0.0
 20
0.0
 30
0.0
  0
VERTEX
  8
0
  6
CONTINUOUS
 10
170.813044
 20
171.680626
 30
0.0
  0
VERTEX
  8
0
  6
CONTINUOUS
 10
171.166574
 20
171.993175
 30
0.0
  0
VERTEX
  8
0
  6
CONTINUOUS
 10
171.425362
 20
172.441452
 30
0.0
  0
VERTEX
  8
0
  6
CONTINUOUS
 10
171.520061
 20
172.905343
 30
0.0
  0
SEQEND
  8
0
  6
CONTINUOUS
  0
POLYLINE
  8
0
  6
CONTINUOUS
 66
     1
 10
0.0
 20
0.0
 30
0.0
  0
VERTEX
  8
0
  6
CONTINUOUS
 10
169.222055
 20
171.587082
 30
0.0
  0
VERTEX
  8
0
  6
CONTINUOUS
 10
169.429197
 20
171.126698
 30
0.0
  0
VERTEX
  8
0
  6
CONTINUOUS
 10
169.929195
 20
171.173605
 30
0.0
  0
SEQEND
  8
0
  6
CONTINUOUS
  0
POLYLINE
  8
0
  6
CONTINUOUS
 66
     1
 10
0.0
 20
0.0
 30
0.0
  0
VERTEX
  8
0
  6
CONTINUOUS
 10
169.929077
 20
172.811795
 30
0.0
  0
VERTEX
  8
0
  6
CONTINUOUS
 10
169.575542
 20
172.49925
 30
0.0
  0
VERTEX
  8
0
  6
CONTINUOUS
 10
169.316758
 20
172.050973
 30
0.0
  0
VERTEX
  8
0
  6
CONTINUOUS
 10
169.222055
 20
171.587082
 30
0.0
  0
SEQEND
  8
0
  6
CONTINUOUS
  0
POLYLINE
  8
0
  6
CONTINUOUS
 66
     1
 10
0.0
 20
0.0
 30
0.0
  0
VERTEX
  8
0
  6
CONTINUOUS
 10
158.793231
 20
157.413256
 30
0.0
  0
VERTEX
  8
0
  6
CONTINUOUS
 10
159.543175
 20
158.20334
 30
0.0
  0
VERTEX
  8
0
  6
CONTINUOUS
 10
159.853761
 20
159.250325
 30
0.0
  0
SEQEND
  8
0
  6
CONTINUOUS
  0
POLYLINE
  8
0
  6
CONTINUOUS
 66
     1
 10
0.0
 20
0.0
 30
0.0
  0
VERTEX
  8
0
  6
CONTINUOUS
 10
159.853761
 20
159.250325
 30
0.0
  0
VERTEX
  8
0
  6
CONTINUOUS
 10
159.711622
 20
159.783135
 30
0.0
  0
VERTEX
  8
0
  6
CONTINUOUS
 10
159.323373
 20
160.01015
 30
0.0
  0
VERTEX
  8
0
  6
CONTINUOUS
 10
158.793054
 20
159.87054
 30
0.0
  0
SEQEND
  8
0
  6
CONTINUOUS
  0
POLYLINE
  8
0
  6
CONTINUOUS
 66
     1
 10
0.0
 20
0.0
 30
0.0
  0
VERTEX
  8
0
  6
CONTINUOUS
 10
159.411834
 20
158.996813
 30
0.0
  0
VERTEX
  8
0
  6
CONTINUOUS
 10
159.32892
 20
159.307618
 30
0.0
  0
VERTEX
  8
0
  6
CONTINUOUS
 10
159.102446
 20
159.440045
 30
0.0
  0
VERTEX
  8
0
  6
CONTINUOUS
 10
158.793091
 20
159.358608
 30
0.0
  0
VERTEX
  8
0
  6
CONTINUOUS
 10
158.48375
 20
159.085126
 30
0.0
  0
VERTEX
  8
0
  6
CONTINUOUS
 10
158.25731
 20
158.692884
 30
0.0
  0
VERTEX
  8
0
  6
CONTINUOUS
 10
158.174447
 20
158.286983
 30
0.0
  0
SEQEND
  8
0
  6
CONTINUOUS
  0
POLYLINE
  8
0
  6
CONTINUOUS
 66
     1
 10
0.0
 20
0.0
 30
0.0
  0
VERTEX
  8
0
  6
CONTINUOUS
 10
158.174447
 20
158.286983
 30
0.0
  0
VERTEX
  8
0
  6
CONTINUOUS
 10
158.292636
 20
157.933495
 30
0.0
  0
VERTEX
  8
0
  6
CONTINUOUS
 10
158.602003
 20
157.850594
 30
0.0
  0
VERTEX
  8
0
  6
CONTINUOUS
 10
158.984376
 20
158.069944
 30
0.0
  0
VERTEX
  8
0
  6
CONTINUOUS
 10
159.293705
 20
158.50776
 30
0.0
  0
VERTEX
  8
0
  6
CONTINUOUS
 10
159.411834
 20
158.996813
 30
0.0
  0
SEQEND
  8
0
  6
CONTINUOUS
  0
POLYLINE
  8
0
  6
CONTINUOUS
 66
     1
 10
0.0
 20
0.0
 30
0.0
  0
VERTEX
  8
0
  6
CONTINUOUS
 10
170.105905
 20
172.094103
 30
0.0
  0
VERTEX
  8
0
  6
CONTINUOUS
 10
170.605844
 20
172.620788
 30
0.0
  0
VERTEX
  8
0
  6
CONTINUOUS
 10
170.812926
 20
173.318744
 30
0.0
  0
SEQEND
  8
0
  6
CONTINUOUS
  0
POLYLINE
  8
0
  6
CONTINUOUS
 66
     1
 10
0.0
 20
0.0
 30
0.0
  0
VERTEX
  8
0
  6
CONTINUOUS
 10
169.221711
 20
171.586883
 30
0.0
  0
VERTEX
  8
0
  6
CONTINUOUS
 10
169.221883
 20
171.586983
 30
0.0
  0
VERTEX
  8
0
  6
CONTINUOUS
 10
169.222055
 20
171.587082
 30
0.0
  0
SEQEND
  8
0
  6
CONTINUOUS
  0
POLYLINE
  8
0
  6
CONTINUOUS
 66
     1
 10
0.0
 20
0.0
 30
0.0
  0
VERTEX
  8
0
  6
CONTINUOUS
 10
183.835543
 20
176.898426
 30
0.0
  0
VERTEX
  8
0
  6
CONTINUOUS
 10
183.923468
 20
176.445209
 30
0.0
  0
VERTEX
  8
0
  6
CONTINUOUS
 10
184.173368
 20
176.164005
 30
0.0
  0
SEQEND
  8
0
  6
CONTINUOUS
  0
POLYLINE
  8
0
  6
CONTINUOUS
 66
     1
 10
0.0
 20
0.0
 30
0.0
  0
VERTEX
  8
0
  6
CONTINUOUS
 10
187.253073
 20
174.96804
 30
0.0
  0
VERTEX
  8
0
  6
CONTINUOUS
 10
187.395211
 20
174.435234
 30
0.0
  0
VERTEX
  8
0
  6
CONTINUOUS
 10
187.783457
 20
174.208219
 30
0.0
  0
VERTEX
  8
0
  6
CONTINUOUS
 10
188.31378
 20
174.347825
 30
0.0
  0
SEQEND
  8
0
  6
CONTINUOUS
  0
POLYLINE
  8
0
  6
CONTINUOUS
 66
     1
 10
0.0
 20
0.0
 30
0.0
  0
VERTEX
  8
0
  6
CONTINUOUS
 10
188.313603
 20
176.805113
 30
0.0
  0
VERTEX
  8
0
  6
CONTINUOUS
 10
187.563658
 20
176.015029
 30
0.0
  0
VERTEX
  8
0
  6
CONTINUOUS
 10
187.253073
 20
174.96804
 30
0.0
  0
SEQEND
  8
0
  6
CONTINUOUS
  0
POLYLINE
  8
0
  6
CONTINUOUS
 66
     1
 10
0.0
 20
0.0
 30
0.0
  0
VERTEX
  8
0
  6
CONTINUOUS
 10
187.694995
 20
175.221552
 30
0.0
  0
VERTEX
  8
0
  6
CONTINUOUS
 10
187.813185
 20
174.868064
 30
0.0
  0
VERTEX
  8
0
  6
CONTINUOUS
 10
188.122552
 20
174.785163
 30
0.0
  0
VERTEX
  8
0
  6
CONTINUOUS
 10
188.504929
 20
175.004513
 30
0.0
  0
VERTEX
  8
0
  6
CONTINUOUS
 10
188.814254
 20
175.442333
 30
0.0
  0
VERTEX
  8
0
  6
CONTINUOUS
 10
188.932387
 20
175.931386
 30
0.0
  0
SEQEND
  8
0
  6
CONTINUOUS
  0
POLYLINE
  8
0
  6
CONTINUOUS
 66
     1
 10
0.0
 20
0.0
 30
0.0
  0
VERTEX
  8
0
  6
CONTINUOUS
 10
188.932387
 20
175.931386
 30
0.0
  0
VERTEX
  8
0
  6
CONTINUOUS
 10
188.849468
 20
176.242191
 30
0.0
  0
VERTEX
  8
0
  6
CONTINUOUS
 10
188.622994
 20
176.374614
 30
0.0
  0
VERTEX
  8
0
  6
CONTINUOUS
 10
188.31364
 20
176.293177
 30
0.0
  0
VERTEX
  8
0
  6
CONTINUOUS
 10
188.004299
 20
176.019699
 30
0.0
  0
VERTEX
  8
0
  6
CONTINUOUS
 10
187.777858
 20
175.627457
 30
0.0
  0
VERTEX
  8
0
  6
CONTINUOUS
 10
187.694995
 20
175.221552
 30
0.0
  0
SEQEND
  8
0
  6
CONTINUOUS
  0
POLYLINE
  8
0
  6
CONTINUOUS
 66
     1
 10
0.0
 20
0.0
 30
0.0
  0
VERTEX
  8
0
  6
CONTINUOUS
 10
187.737472
 20
174.986788
 30
0.0
  0
VERTEX
  8
0
  6
CONTINUOUS
 10
188.130034
 20
175.191483
 30
0.0
  0
VERTEX
  8
0
  6
CONTINUOUS
 10
188.454055
 20
175.634887
 30
0.0
  0
VERTEX
  8
0
  6
CONTINUOUS
 10
188.578815
 20
176.138124
 30
0.0
  0
SEQEND
  8
0
  6
CONTINUOUS
  0
POLYLINE
  8
0
  6
CONTINUOUS
 66
     1
 10
0.0
 20
0.0
 30
0.0
  0
VERTEX
  8
0
  6
CONTINUOUS
 10
188.578815
 20
176.138124
 30
0.0
  0
VERTEX
  8
0
  6
CONTINUOUS
 10
188.568358
 20
176.263283
 30
0.0
  0
VERTEX
  8
0
  6
CONTINUOUS
 10
188.537362
 20
176.372228
 30
0.0
  0
SEQEND
  8
0
  6
CONTINUOUS
  0
POLYLINE
  8
0
  6
CONTINUOUS
 66
     1
 10
0.0
 20
0.0
 30
0.0
  0
VERTEX
  8
0
  6
CONTINUOUS
 10
188.490431
 20
176.087421
 30
0.0
  0
VERTEX
  8
0
  6
CONTINUOUS
 10
188.473912
 20
176.230037
 30
0.0
  0
VERTEX
  8
0
  6
CONTINUOUS
 10
188.425408
 20
176.34483
 30
0.0
  0
SEQEND
  8
0
  6
CONTINUOUS
  0
POLYLINE
  8
0
  6
CONTINUOUS
 66
     1
 10
0.0
 20
0.0
 30
0.0
  0
VERTEX
  8
0
  6
CONTINUOUS
 10
187.70568
 20
175.098254
 30
0.0
  0
VERTEX
  8
0
  6
CONTINUOUS
 10
188.060283
 20
175.237367
 30
0.0
  0
VERTEX
  8
0
  6
CONTINUOUS
 10
188.369004
 20
175.626503
 30
0.0
  0
VERTEX
  8
0
  6
CONTINUOUS
 10
188.490431
 20
176.087421
 30
0.0
  0
SEQEND
  8
0
  6
CONTINUOUS
  0
POLYLINE
  8
0
  6
CONTINUOUS
 66
     1
 10
0.0
 20
0.0
 30
0.0
  0
VERTEX
  8
0
  6
CONTINUOUS
 10
173.836065
 20
173.640507
 30
0.0
  0
VERTEX
  8
0
  6
CONTINUOUS
 10
173.914963
 20
173.670088
 30
0.0
  0
VERTEX
  8
0
  6
CONTINUOUS
 10
173.994884
 20
173.710686
 30
0.0
  0
SEQEND
  8
0
  6
CONTINUOUS
  0
POLYLINE
  8
0
  6
CONTINUOUS
 66
     1
 10
0.0
 20
0.0
 30
0.0
  0
VERTEX
  8
0
  6
CONTINUOUS
 10
159.058266
 20
159.203551
 30
0.0
  0
VERTEX
  8
0
  6
CONTINUOUS
 10
159.047809
 20
159.32871
 30
0.0
  0
VERTEX
  8
0
  6
CONTINUOUS
 10
159.016814
 20
159.437659
 30
0.0
  0
SEQEND
  8
0
  6
CONTINUOUS
  0
POLYLINE
  8
0
  6
CONTINUOUS
 66
     1
 10
0.0
 20
0.0
 30
0.0
  0
VERTEX
  8
0
  6
CONTINUOUS
 10
158.216924
 20
158.052215
 30
0.0
  0
VERTEX
  8
0
  6
CONTINUOUS
 10
158.609486
 20
158.256914
 30
0.0
  0
VERTEX
  8
0
  6
CONTINUOUS
 10
158.933506
 20
158.700314
 30
0.0
  0
VERTEX
  8
0
  6
CONTINUOUS
 10
159.058266
 20
159.203551
 30
0.0
  0
SEQEND
  8
0
  6
CONTINUOUS
  0
POLYLINE
  8
0
  6
CONTINUOUS
 66
     1
 10
0.0
 20
0.0
 30
0.0
  0
VERTEX
  8
0
  6
CONTINUOUS
 10
158.969882
 20
159.152852
 30
0.0
  0
VERTEX
  8
0
  6
CONTINUOUS
 10
158.953364
 20
159.295464
 30
0.0
  0
VERTEX
  8
0
  6
CONTINUOUS
 10
158.904859
 20
159.410261
 30
0.0
  0
SEQEND
  8
0
  6
CONTINUOUS
  0
POLYLINE
  8
0
  6
CONTINUOUS
 66
     1
 10
0.0
 20
0.0
 30
0.0
  0
VERTEX
  8
0
  6
CONTINUOUS
 10
158.185132
 20
158.163685
 30
0.0
  0
VERTEX
  8
0
  6
CONTINUOUS
 10
158.539734
 20
158.302794
 30
0.0
  0
VERTEX
  8
0
  6
CONTINUOUS
 10
158.848455
 20
158.69193
 30
0.0
  0
VERTEX
  8
0
  6
CONTINUOUS
 10
158.969882
 20
159.152852
 30
0.0
  0
SEQEND
  8
0
  6
CONTINUOUS
  0
POLYLINE
  8
0
  6
CONTINUOUS
 66
     1
 10
0.0
 20
0.0
 30
0.0
  0
VERTEX
  8
0
  6
CONTINUOUS
 10
184.954693
 20
178.837041
 30
0.0
  0
VERTEX
  8
0
  6
CONTINUOUS
 10
184.163296
 20
178.003283
 30
0.0
  0
VERTEX
  8
0
  6
CONTINUOUS
 10
183.835543
 20
176.898426
 30
0.0
  0
SEQEND
  8
0
  6
CONTINUOUS
  0
POLYLINE
  8
0
  6
CONTINUOUS
 66
     1
 10
0.0
 20
0.0
 30
0.0
  0
VERTEX
  8
0
  6
CONTINUOUS
 10
137.518125
 20
143.683124
 30
0.0
  0
VERTEX
  8
0
  6
CONTINUOUS
 10
144.18994
 20
139.806032
 30
0.0
  0
VERTEX
  8
0
  6
CONTINUOUS
 10
150.865434
 20
136.097576
 30
0.0
  0
SEQEND
  8
0
  6
CONTINUOUS
  0
POLYLINE
  8
0
  6
CONTINUOUS
 66
     1
 10
0.0
 20
0.0
 30
0.0
  0
VERTEX
  8
0
  6
CONTINUOUS
 10
137.518083
 20
143.683147
 30
0.0
  0
VERTEX
  8
0
  6
CONTINUOUS
 10
137.513332
 20
143.685794
 30
0.0
  0
VERTEX
  8
0
  6
CONTINUOUS
 10
137.435237
 20
143.770821
 30
0.0
  0
VERTEX
  8
0
  6
CONTINUOUS
 10
137.405936
 20
143.908111
 30
0.0
  0
SEQEND
  8
0
  6
CONTINUOUS
  0
POLYLINE
  8
0
  6
CONTINUOUS
 66
     1
 10
0.0
 20
0.0
 30
0.0
  0
VERTEX
  8
0
  6
CONTINUOUS
 10
150.750782
 20
136.323887
 30
0.0
  0
VERTEX
  8
0
  6
CONTINUOUS
 10
144.95388
 20
139.559897
 30
0.0
  0
VERTEX
  8
0
  6
CONTINUOUS
 10
137.405936
 20
143.908111
 30
0.0
  0
SEQEND
  8
0
  6
CONTINUOUS
  0
POLYLINE
  8
0
  6
CONTINUOUS
 66
     1
 10
0.0
 20
0.0
 30
0.0
  0
VERTEX
  8
0
  6
CONTINUOUS
 10
150.74714
 20
173.257168
 30
0.0
  0
VERTEX
  8
0
  6
CONTINUOUS
 10
144.95388
 20
176.601908
 30
0.0
  0
VERTEX
  8
0
  6
CONTINUOUS
 10
137.405936
 20
180.959716
 30
0.0
  0
SEQEND
  8
0
  6
CONTINUOUS
  0
POLYLINE
  8
0
  6
CONTINUOUS
 66
     1
 10
0.0
 20
0.0
 30
0.0
  0
VERTEX
  8
0
  6
CONTINUOUS
 10
137.405936
 20
180.959716
 30
0.0
  0
VERTEX
  8
0
  6
CONTINUOUS
 10
137.435212
 20
181.130761
 30
0.0
  0
VERTEX
  8
0
  6
CONTINUOUS
 10
137.513206
 20
181.305824
 30
0.0
  0
VERTEX
  8
0
  6
CONTINUOUS
 10
137.625889
 20
181.461059
 30
0.0
  0
VERTEX
  8
0
  6
CONTINUOUS
 10
137.759436
 20
181.571995
 30
0.0
  0
SEQEND
  8
0
  6
CONTINUOUS
  0
POLYLINE
  8
0
  6
CONTINUOUS
 66
     1
 10
0.0
 20
0.0
 30
0.0
  0
VERTEX
  8
0
  6
CONTINUOUS
 10
151.10064
 20
173.869447
 30
0.0
  0
VERTEX
  8
0
  6
CONTINUOUS
 10
145.30738
 20
177.214187
 30
0.0
  0
VERTEX
  8
0
  6
CONTINUOUS
 10
137.759436
 20
181.571995
 30
0.0
  0
SEQEND
  8
0
  6
CONTINUOUS
  0
LINE
  8
0
  6
CONTINUOUS
 10
177.300277
 20
161.279527
 30
0.0
 11
168.429731
 21
166.831359
 31
0.0
  0
LINE
  8
0
  6
CONTINUOUS
 10
162.427389
 20
152.747724
 30
0.0
 11
158.003789
 21
155.334288
 31
0.0
  0
LINE
  8
0
  6
CONTINUOUS
 10
177.98313
 20
161.671331
 30
0.0
 11
162.427389
 21
152.747724
 31
0.0
  0
LINE
  8
0
  6
CONTINUOUS
 10
177.98313
 20
161.671331
 30
0.0
 11
168.429672
 21
167.650578
 31
0.0
  0
LINE
  8
0
  6
CONTINUOUS
 10
167.694742
 20
161.154701
 30
0.0
 11
168.379643
 21
161.547598
 31
0.0
  0
LINE
  8
0
  6
CONTINUOUS
 10
167.694742
 20
161.154701
 30
0.0
 11
158.001003
 21
155.593855
 31
0.0
  0
LINE
  8
0
  6
CONTINUOUS
 10
161.8818
 20
183.035644
 30
0.0
 11
161.935709
 21
183.066768
 31
0.0
  0
LINE
  8
0
  6
CONTINUOUS
 10
159.605152
 20
191.755221
 30
0.0
 11
159.603764
 21
191.75442
 31
0.0
  0
LINE
  8
0
  6
CONTINUOUS
 10
160.619895
 20
237.298747
 30
0.0
 11
160.625839
 21
238.081779
 31
0.0
  0
LINE
  8
0
  6
CONTINUOUS
 10
159.919511
 20
237.673981
 30
0.0
 11
163.836708
 21
235.577684
 31
0.0
  0
LINE
  8
0
  6
CONTINUOUS
 10
163.861848
 20
234.90433
 30
0.0
 11
163.862162
 21
234.945695
 31
0.0
  0
LINE
  8
0
  6
CONTINUOUS
 10
163.862162
 20
234.945695
 30
0.0
 11
163.560996
 21
234.771817
 31
0.0
  0
LINE
  8
0
  6
CONTINUOUS
 10
163.560682
 20
234.730452
 30
0.0
 11
163.560996
 21
234.771817
 31
0.0
  0
LINE
  8
0
  6
CONTINUOUS
 10
163.101394
 20
235.0418
 30
0.0
 11
163.291393
 21
235.151496
 31
0.0
  0
LINE
  8
0
  6
CONTINUOUS
 10
163.281265
 20
235.145626
 30
0.0
 11
163.282909
 21
235.362159
 31
0.0
  0
LINE
  8
0
  6
CONTINUOUS
 10
163.282909
 20
235.362159
 30
0.0
 11
159.248249
 21
237.521316
 31
0.0
  0
LINE
  8
0
  6
CONTINUOUS
 10
159.222321
 20
234.105576
 30
0.0
 11
159.248249
 21
237.521316
 31
0.0
  0
LINE
  8
0
  6
CONTINUOUS
 10
158.876803
 20
234.041633
 30
0.0
 11
158.903194
 21
237.518332
 31
0.0
  0
LINE
  8
0
  6
CONTINUOUS
 10
158.903194
 20
237.518332
 30
0.0
 11
155.412414
 21
235.502929
 31
0.0
  0
LINE
  8
0
  6
CONTINUOUS
 10
155.4093
 20
235.092701
 30
0.0
 11
155.412414
 21
235.502929
 31
0.0
  0
LINE
  8
0
  6
CONTINUOUS
 10
155.4124
 20
235.091126
 30
0.0
 11
157.675056
 21
233.761981
 31
0.0
  0
LINE
  8
0
  6
CONTINUOUS
 10
158.382149
 20
233.758426
 30
0.0
 11
158.841769
 21
234.023788
 31
0.0
  0
LINE
  8
0
  6
CONTINUOUS
 10
159.548862
 20
234.020233
 30
0.0
 11
160.473535
 21
233.477055
 31
0.0
  0
LINE
  8
0
  6
CONTINUOUS
 10
160.203778
 20
232.792337
 30
0.0
 11
160.204548
 21
232.893805
 31
0.0
  0
LINE
  8
0
  6
CONTINUOUS
 10
160.204548
 20
232.893805
 30
0.0
 11
159.507461
 21
232.788529
 31
0.0
  0
LINE
  8
0
  6
CONTINUOUS
 10
159.506683
 20
232.685976
 30
0.0
 11
159.507461
 21
232.788529
 31
0.0
  0
LINE
  8
0
  6
CONTINUOUS
 10
159.265992
 20
233.033327
 30
0.0
 11
159.725612
 21
233.298689
 31
0.0
  0
LINE
  8
0
  6
CONTINUOUS
 10
159.724986
 20
233.298319
 30
0.0
 11
159.725614
 21
233.381049
 31
0.0
  0
LINE
  8
0
  6
CONTINUOUS
 10
159.725614
 20
233.381049
 30
0.0
 11
159.266012
 21
233.651032
 31
0.0
  0
LINE
  8
0
  6
CONTINUOUS
 10
159.265696
 20
233.609298
 30
0.0
 11
159.266012
 21
233.651032
 31
0.0
  0
LINE
  8
0
  6
CONTINUOUS
 10
159.124276
 20
233.609932
 30
0.0
 11
159.124594
 21
233.651743
 31
0.0
  0
LINE
  8
0
  6
CONTINUOUS
 10
159.124594
 20
233.651743
 30
0.0
 11
158.205355
 21
233.12102
 31
0.0
  0
LINE
  8
0
  6
CONTINUOUS
 10
157.851809
 20
192.78708
 30
0.0
 11
157.851808
 21
233.122797
 31
0.0
  0
LINE
  8
0
  6
CONTINUOUS
 10
157.851808
 20
233.122797
 30
0.0
 11
154.316409
 21
235.199587
 31
0.0
  0
LINE
  8
0
  6
CONTINUOUS
 10
154.316409
 20
194.863869
 30
0.0
 11
154.316409
 21
235.199587
 31
0.0
  0
LINE
  8
0
  6
CONTINUOUS
 10
154.316409
 20
194.863869
 30
0.0
 11
157.851809
 21
192.78708
 31
0.0
  0
LINE
  8
0
  6
CONTINUOUS
 10
154.316416
 20
235.405489
 30
0.0
 11
164.569464
 21
241.325089
 31
0.0
  0
LINE
  8
0
  6
CONTINUOUS
 10
164.923011
 20
241.323311
 30
0.0
 11
168.45841
 21
239.246522
 31
0.0
  0
LINE
  8
0
  6
CONTINUOUS
 10
168.458403
 20
239.04062
 30
0.0
 11
167.539164
 21
238.509897
 31
0.0
  0
LINE
  8
0
  6
CONTINUOUS
 10
167.538542
 20
238.427852
 30
0.0
 11
167.539164
 21
238.509897
 31
0.0
  0
LINE
  8
0
  6
CONTINUOUS
 10
167.539162
 20
238.427537
 30
0.0
 11
167.998764
 21
238.157554
 31
0.0
  0
LINE
  8
0
  6
CONTINUOUS
 10
168.140182
 20
238.156843
 30
0.0
 11
168.599802
 21
238.422205
 31
0.0
  0
LINE
  8
0
  6
CONTINUOUS
 10
169.015011
 20
237.879474
 30
0.0
 11
169.018047
 21
238.279469
 31
0.0
  0
LINE
  8
0
  6
CONTINUOUS
 10
169.018047
 20
238.279469
 30
0.0
 11
168.831251
 21
237.874434
 31
0.0
  0
LINE
  8
0
  6
CONTINUOUS
 10
168.830481
 20
237.772966
 30
0.0
 11
168.831251
 21
237.874434
 31
0.0
  0
LINE
  8
0
  6
CONTINUOUS
 10
167.823412
 20
237.191491
 30
0.0
 11
167.827445
 21
237.722837
 31
0.0
  0
LINE
  8
0
  6
CONTINUOUS
 10
167.827445
 20
237.722837
 30
0.0
 11
166.902772
 21
238.266015
 31
0.0
  0
LINE
  8
0
  6
CONTINUOUS
 10
166.890527
 20
236.652779
 30
0.0
 11
166.902772
 21
238.266015
 31
0.0
  0
LINE
  8
0
  6
CONTINUOUS
 10
166.902786
 20
238.677818
 30
0.0
 11
167.362405
 21
238.943179
 31
0.0
  0
LINE
  8
0
  6
CONTINUOUS
 10
167.359279
 20
238.941332
 30
0.0
 11
167.362419
 21
239.354983
 31
0.0
  0
LINE
  8
0
  6
CONTINUOUS
 10
167.362419
 20
239.354983
 30
0.0
 11
165.099763
 21
240.684128
 31
0.0
  0
LINE
  8
0
  6
CONTINUOUS
 10
165.065538
 20
236.175342
 30
0.0
 11
165.099763
 21
240.684128
 31
0.0
  0
LINE
  8
0
  6
CONTINUOUS
 10
164.358865
 20
236.234294
 30
0.0
 11
164.39267
 21
240.687683
 31
0.0
  0
LINE
  8
0
  6
CONTINUOUS
 10
164.39267
 20
240.687683
 30
0.0
 11
160.90189
 21
238.67228
 31
0.0
  0
LINE
  8
0
  6
CONTINUOUS
 10
160.900332
 20
238.467021
 30
0.0
 11
160.90189
 21
238.67228
 31
0.0
  0
LINE
  8
0
  6
CONTINUOUS
 10
160.893781
 20
238.471364
 30
0.0
 11
164.566292
 21
236.10312
 31
0.0
  0
LINE
  8
0
  6
CONTINUOUS
 10
164.92794
 20
236.096357
 30
0.0
 11
165.124475
 21
236.209826
 31
0.0
  0
LINE
  8
0
  6
CONTINUOUS
 10
165.583763
 20
235.898479
 30
0.0
 11
165.584077
 21
235.939844
 31
0.0
  0
LINE
  8
0
  6
CONTINUOUS
 10
165.584077
 20
235.939844
 30
0.0
 11
165.276376
 21
235.762192
 31
0.0
  0
LINE
  8
0
  6
CONTINUOUS
 10
165.276062
 20
235.720827
 30
0.0
 11
165.276376
 21
235.762192
 31
0.0
  0
LINE
  8
0
  6
CONTINUOUS
 10
164.186185
 20
235.091521
 30
0.0
 11
164.19143
 21
235.782483
 31
0.0
  0
LINE
  8
0
  6
CONTINUOUS
 10
164.19143
 20
235.782483
 30
0.0
 11
160.625839
 21
238.081779
 31
0.0
  0
LINE
  8
0
  6
CONTINUOUS
 10
170.190749
 20
238.022993
 30
0.0
 11
159.937701
 21
232.103393
 31
0.0
  0
LINE
  8
0
  6
CONTINUOUS
 10
159.937701
 20
191.767675
 30
0.0
 11
159.937701
 21
232.103393
 31
0.0
  0
LINE
  8
0
  6
CONTINUOUS
 10
159.937701
 20
191.767675
 30
0.0
 11
170.190749
 21
197.687275
 31
0.0
  0
LINE
  8
0
  6
CONTINUOUS
 10
170.190749
 20
197.687275
 30
0.0
 11
170.190749
 21
238.022993
 31
0.0
  0
LINE
  8
0
  6
CONTINUOUS
 10
159.584154
 20
191.769453
 30
0.0
 11
159.584154
 21
232.10517
 31
0.0
  0
LINE
  8
0
  6
CONTINUOUS
 10
159.584154
 20
232.10517
 30
0.0
 11
158.205348
 21
232.915118
 31
0.0
  0
LINE
  8
0
  6
CONTINUOUS
 10
158.205349
 20
192.579401
 30
0.0
 11
158.205348
 21
232.915118
 31
0.0
  0
LINE
  8
0
  6
CONTINUOUS
 10
158.205349
 20
192.579401
 30
0.0
 11
159.584154
 21
191.769453
 31
0.0
  0
LINE
  8
0
  6
CONTINUOUS
 10
158.205355
 20
233.12102
 30
0.0
 11
158.965495
 21
233.559887
 31
0.0
  0
LINE
  8
0
  6
CONTINUOUS
 10
159.423841
 20
233.124444
 30
0.0
 11
159.425097
 21
233.289904
 31
0.0
  0
LINE
  8
0
  6
CONTINUOUS
 10
159.425097
 20
233.289904
 30
0.0
 11
159.036188
 21
233.065368
 31
0.0
  0
LINE
  8
0
  6
CONTINUOUS
 10
159.035409
 20
232.962811
 30
0.0
 11
159.036188
 21
233.065368
 31
0.0
  0
LINE
  8
0
  6
CONTINUOUS
 10
159.036185
 20
232.962417
 30
0.0
 11
159.584171
 21
232.640515
 31
0.0
  0
LINE
  8
0
  6
CONTINUOUS
 10
159.937718
 20
232.638737
 30
0.0
 11
169.271528
 21
238.027615
 31
0.0
  0
LINE
  8
0
  6
CONTINUOUS
 10
169.269964
 20
238.026691
 30
0.0
 11
169.271534
 21
238.233516
 31
0.0
  0
LINE
  8
0
  6
CONTINUOUS
 10
169.271534
 20
238.233516
 30
0.0
 11
168.811932
 21
238.503499
 31
0.0
  0
LINE
  8
0
  6
CONTINUOUS
 10
168.81162
 20
238.462329
 30
0.0
 11
168.811932
 21
238.503499
 31
0.0
  0
LINE
  8
0
  6
CONTINUOUS
 10
168.45713
 20
238.339816
 30
0.0
 11
168.458386
 21
238.505276
 31
0.0
  0
LINE
  8
0
  6
CONTINUOUS
 10
168.458386
 20
238.505276
 30
0.0
 11
168.281609
 21
238.403214
 31
0.0
  0
LINE
  8
0
  6
CONTINUOUS
 10
168.280353
 20
238.237754
 30
0.0
 11
168.281609
 21
238.403214
 31
0.0
  0
LINE
  8
0
  6
CONTINUOUS
 10
167.822007
 20
238.673197
 30
0.0
 11
168.458403
 21
239.04062
 31
0.0
  0
LINE
  8
0
  6
CONTINUOUS
 10
168.81195
 20
239.038843
 30
0.0
 11
170.190756
 21
238.228895
 31
0.0
  0
LINE
  8
0
  6
CONTINUOUS
 10
177.97323
 20
192.121579
 30
0.0
 11
162.416881
 21
183.140117
 31
0.0
  0
LINE
  8
0
  6
CONTINUOUS
 10
151.245005
 20
189.290969
 30
0.0
 11
161.709787
 21
183.143672
 31
0.0
  0
LINE
  8
0
  6
CONTINUOUS
 10
177.97323
 20
192.121579
 30
0.0
 11
177.976006
 21
192.487385
 31
0.0
  0
LINE
  8
0
  6
CONTINUOUS
 10
170.367526
 20
197.789337
 30
0.0
 11
170.264409
 21
197.849911
 31
0.0
  0
LINE
  8
0
  6
CONTINUOUS
 10
177.800779
 20
192.794451
 30
0.0
 11
162.24443
 21
183.812988
 31
0.0
  0
LINE
  8
0
  6
CONTINUOUS
 10
177.976006
 20
192.487385
 30
0.0
 11
162.419657
 21
183.505923
 31
0.0
  0
LINE
  8
0
  6
CONTINUOUS
 10
161.709787
 20
183.143672
 30
0.0
 11
161.712564
 21
183.509478
 31
0.0
  0
LINE
  8
0
  6
CONTINUOUS
 10
162.416881
 20
183.140117
 30
0.0
 11
162.419657
 21
183.505923
 31
0.0
  0
LINE
  8
0
  6
CONTINUOUS
 10
151.245005
 20
189.290969
 30
0.0
 11
151.247782
 21
189.656775
 31
0.0
  0
LINE
  8
0
  6
CONTINUOUS
 10
151.247782
 20
189.656775
 30
0.0
 11
161.712564
 21
183.509478
 31
0.0
  0
LINE
  8
0
  6
CONTINUOUS
 10
151.426101
 20
189.962063
 30
0.0
 11
161.890883
 21
183.814766
 31
0.0
  0
LINE
  8
0
  6
CONTINUOUS
 10
171.395922
 20
196.762743
 30
0.0
 11
177.800786
 21
193.000352
 31
0.0
  0
LINE
  8
0
  6
CONTINUOUS
 10
159.760924
 20
191.665613
 30
0.0
 11
170.367526
 21
197.789337
 31
0.0
  0
LINE
  8
0
  6
CONTINUOUS
 10
158.205349
 20
192.579401
 30
0.0
 11
154.104285
 21
194.988477
 31
0.0
  0
LINE
  8
0
  6
CONTINUOUS
 10
159.760924
 20
191.665613
 30
0.0
 11
159.584154
 21
191.769453
 31
0.0
  0
LINE
  8
0
  6
CONTINUOUS
 10
154.104285
 20
194.988477
 30
0.0
 11
153.91665
 21
194.880145
 31
0.0
  0
LINE
  8
0
  6
CONTINUOUS
 10
153.001785
 20
190.871784
 30
0.0
 11
151.426101
 21
189.962063
 31
0.0
  0
LINE
  8
0
  6
CONTINUOUS
 10
153.563881
 20
194.328123
 30
0.0
 11
153.178169
 21
191.147795
 31
0.0
  0
LINE
  8
0
  6
CONTINUOUS
 10
164.080152
 20
235.03035
 30
0.0
 11
164.081831
 21
235.251521
 31
0.0
  0
LINE
  8
0
  6
CONTINUOUS
 10
163.006205
 20
234.909276
 30
0.0
 11
163.0024
 21
234.408081
 31
0.0
  0
LINE
  8
0
  6
CONTINUOUS
 10
160.647896
 20
233.048741
 30
0.0
 11
160.649254
 21
233.227551
 31
0.0
  0
LINE
  8
0
  6
CONTINUOUS
 10
159.192769
 20
232.931385
 30
0.0
 11
159.192309
 21
232.870672
 31
0.0
  0
LINE
  8
0
  6
CONTINUOUS
 10
154.251708
 20
235.265181
 30
0.0
 11
154.242329
 21
194.907386
 31
0.0
  0
LINE
  8
0
  6
CONTINUOUS
 10
168.531072
 20
239.06955
 30
0.0
 11
168.531626
 21
239.142562
 31
0.0
  0
LINE
  8
0
  6
CONTINUOUS
 10
169.023284
 20
237.884247
 30
0.0
 11
169.026564
 21
238.316467
 31
0.0
  0
LINE
  8
0
  6
CONTINUOUS
 10
166.75634
 20
238.473934
 30
0.0
 11
166.741864
 21
236.566919
 31
0.0
  0
LINE
  8
0
  6
CONTINUOUS
 10
165.678362
 20
235.953087
 30
0.0
 11
165.679267
 21
236.072368
 31
0.0
  0
LINE
  8
0
  6
CONTINUOUS
 10
158.132132
 20
233.019078
 30
0.0
 11
158.13573
 21
192.620296
 31
0.0
  0
LINE
  8
0
  6
CONTINUOUS
 10
159.518439
 20
233.179053
 30
0.0
 11
159.520286
 21
233.422429
 31
0.0
  0
LINE
  8
0
  6
CONTINUOUS
 10
167.726817
 20
238.540672
 30
0.0
 11
167.725128
 21
238.318171
 31
0.0
  0
LINE
  8
0
  6
CONTINUOUS
 10
170.263972
 20
197.789217
 30
0.0
 11
170.263972
 21
238.124935
 31
0.0
  0
LINE
  8
0
  6
CONTINUOUS
 10
178.119675
 20
192.325463
 30
0.0
 11
178.122452
 21
192.691269
 31
0.0
  0
LINE
  8
0
  6
CONTINUOUS
 10
177.925869
 20
193.012686
 30
0.0
 11
171.372253
 21
196.862458
 31
0.0
  0
LINE
  8
0
  6
CONTINUOUS
 10
170.263972
 20
200.180252
 30
0.0
 11
181.765004
 21
206.767321
 31
0.0
  0
LINE
  8
0
  6
CONTINUOUS
 10
196.500863
 20
195.995221
 30
0.0
 11
196.500863
 21
162.216795
 31
0.0
  0
LINE
  8
0
  6
CONTINUOUS
 10
137.405936
 20
143.908111
 30
0.0
 11
137.405936
 21
180.959716
 31
0.0
  0
LINE
  8
0
  6
CONTINUOUS
 10
137.759436
 20
181.571995
 30
0.0
 11
151.245005
 21
189.290969
 31
0.0
  0
LINE
  8
0
  6
CONTINUOUS
 10
183.893987
 20
179.457256
 30
0.0
 11
184.805791
 21
179.980316
 31
0.0
  0
LINE
  8
0
  6
CONTINUOUS
 10
176.841713
 20
172.558004
 30
0.0
 11
157.997421
 21
161.747907
 31
0.0
  0
LINE
  8
0
  6
CONTINUOUS
 10
176.841713
 20
172.558004
 30
0.0
 11
176.841557
 21
174.729341
 31
0.0
  0
LINE
  8
0
  6
CONTINUOUS
 10
176.841557
 20
174.729341
 30
0.0
 11
174.525236
 21
173.400576
 31
0.0
  0
LINE
  8
0
  6
CONTINUOUS
 10
173.817806
 20
177.907862
 30
0.0
 11
173.8181
 21
173.814053
 31
0.0
  0
LINE
  8
0
  6
CONTINUOUS
 10
169.929077
 20
172.811795
 30
0.0
 11
170.812926
 21
173.31882
 31
0.0
  0
LINE
  8
0
  6
CONTINUOUS
 10
170.813044
 20
171.680626
 30
0.0
 11
169.929195
 21
171.173605
 31
0.0
  0
LINE
  8
0
  6
CONTINUOUS
 10
157.998622
 20
145.080051
 30
0.0
 11
191.231337
 21
164.144118
 31
0.0
  0
LINE
  8
0
  6
CONTINUOUS
 10
191.231337
 20
164.144118
 30
0.0
 11
176.841713
 21
172.558004
 31
0.0
  0
LINE
  8
0
  6
CONTINUOUS
 10
185.885013
 20
179.370721
 30
0.0
 11
186.733636
 21
179.857536
 31
0.0
  0
LINE
  8
0
  6
CONTINUOUS
 10
186.733636
 20
179.857536
 30
0.0
 11
186.733242
 21
185.317997
 31
0.0
  0
LINE
  8
0
  6
CONTINUOUS
 10
157.996911
 20
168.833817
 30
0.0
 11
157.998622
 21
145.080051
 31
0.0
  0
LINE
  8
0
  6
CONTINUOUS
 10
158.793054
 20
159.87054
 30
0.0
 11
157.997105
 21
159.413945
 31
0.0
  0
LINE
  8
0
  6
CONTINUOUS
 10
158.793054
 20
159.87054
 30
0.0
 11
157.996678
 21
160.3523
 31
0.0
  0
LINE
  8
0
  6
CONTINUOUS
 10
157.997282
 20
156.956656
 30
0.0
 11
158.793231
 21
157.413256
 31
0.0
  0
LINE
  8
0
  6
CONTINUOUS
 10
157.996911
 20
168.833817
 30
0.0
 11
191.229626
 21
187.897884
 31
0.0
  0
LINE
  8
0
  6
CONTINUOUS
 10
170.812994
 20
173.318779
 30
0.0
 11
171.520061
 21
172.905343
 31
0.0
  0
LINE
  8
0
  6
CONTINUOUS
 10
169.929195
 20
171.173605
 30
0.0
 11
169.222055
 21
171.587082
 31
0.0
  0
LINE
  8
0
  6
CONTINUOUS
 10
170.813044
 20
171.680626
 30
0.0
 11
170.105905
 21
172.094103
 31
0.0
  0
LINE
  8
0
  6
CONTINUOUS
 10
170.105905
 20
172.094103
 30
0.0
 11
169.222055
 21
171.587082
 31
0.0
  0
LINE
  8
0
  6
CONTINUOUS
 10
190.151347
 20
175.401954
 30
0.0
 11
188.31378
 21
174.347825
 31
0.0
  0
LINE
  8
0
  6
CONTINUOUS
 10
187.253073
 20
174.96804
 30
0.0
 11
183.835543
 21
176.898426
 31
0.0
  0
LINE
  8
0
  6
CONTINUOUS
 10
188.313603
 20
176.805113
 30
0.0
 11
190.15117
 21
177.859239
 31
0.0
  0
LINE
  8
0
  6
CONTINUOUS
 10
190.15117
 20
177.859239
 30
0.0
 11
190.151347
 21
175.401954
 31
0.0
  0
LINE
  8
0
  6
CONTINUOUS
 10
184.954693
 20
178.837041
 30
0.0
 11
185.885013
 21
179.370721
 31
0.0
  0
LINE
  8
0
  6
CONTINUOUS
 10
188.313603
 20
176.805113
 30
0.0
 11
184.954693
 21
178.837041
 31
0.0
  0
LINE
  8
0
  6
CONTINUOUS
 10
190.15117
 20
177.859239
 30
0.0
 11
186.733636
 21
179.857536
 31
0.0
  0
LINE
  8
0
  6
CONTINUOUS
 10
186.734378
 20
169.550931
 30
0.0
 11
176.841541
 21
174.942301
 31
0.0
  0
LINE
  8
0
  6
CONTINUOUS
 10
186.734005
 20
170.342216
 30
0.0
 11
177.54873
 21
175.347983
 31
0.0
  0
LINE
  8
0
  6
CONTINUOUS
 10
177.54873
 20
175.347983
 30
0.0
 11
176.841541
 21
174.942301
 31
0.0
  0
LINE
  8
0
  6
CONTINUOUS
 10
191.229626
 20
187.897884
 30
0.0
 11
191.231337
 21
164.144118
 31
0.0
  0
LINE
  8
0
  6
CONTINUOUS
 10
186.734378
 20
169.550931
 30
0.0
 11
186.734004
 21
174.737483
 31
0.0
  0
LINE
  8
0
  6
CONTINUOUS
 10
176.841541
 20
174.942301
 30
0.0
 11
176.841557
 21
174.729341
 31
0.0
  0
LINE
  8
0
  6
CONTINUOUS
 10
182.774836
 20
177.518641
 30
0.0
 11
183.835543
 21
176.898426
 31
0.0
  0
LINE
  8
0
  6
CONTINUOUS
 10
177.009134
 20
175.439819
 30
0.0
 11
177.361701
 21
175.24067
 31
0.0
  0
LINE
  8
0
  6
CONTINUOUS
 10
181.412827
 20
182.264689
 30
0.0
 11
181.413477
 21
173.238957
 31
0.0
  0
LINE
  8
0
  6
CONTINUOUS
 10
185.885013
 20
179.370721
 30
0.0
 11
184.805791
 21
179.980316
 31
0.0
  0
LINE
  8
0
  6
CONTINUOUS
 10
184.954693
 20
178.837041
 30
0.0
 11
183.893987
 21
179.457256
 31
0.0
  0
LINE
  8
0
  6
CONTINUOUS
 10
173.994884
 20
173.710686
 30
0.0
 11
174.525236
 21
173.400576
 31
0.0
  0
LINE
  8
0
  6
CONTINUOUS
 10
173.994884
 20
173.710686
 30
0.0
 11
177.009134
 21
175.439819
 31
0.0
  0
LINE
  8
0
  6
CONTINUOUS
 10
159.058266
 20
159.203551
 30
0.0
 11
159.411834
 21
158.996813
 31
0.0
  0
LINE
  8
0
  6
CONTINUOUS
 10
188.229943
 20
176.237123
 30
0.0
 11
188.490431
 21
176.087421
 31
0.0
  0
LINE
  8
0
  6
CONTINUOUS
 10
188.578815
 20
176.138124
 30
0.0
 11
188.932387
 21
175.931386
 31
0.0
  0
LINE
  8
0
  6
CONTINUOUS
 10
158.709395
 20
159.30255
 30
0.0
 11
158.969882
 21
159.152852
 31
0.0
  0
LINE
  8
0
  6
CONTINUOUS
 10
184.173256
 20
176.164069
 30
0.0
 11
187.573096
 21
174.272151
 31
0.0
  0
LINE
  8
0
  6
CONTINUOUS
 10
183.102721
 20
176.789893
 30
0.0
 11
184.163428
 21
176.169678
 31
0.0
  0
LINE
  8
0
  6
CONTINUOUS
 10
159.552251
 20
159.935393
 30
0.0
 11
157.996283
 21
160.89024
 31
0.0
  0
LINE
  8
0
  6
CONTINUOUS
 10
155.890563
 20
138.133352
 30
0.0
 11
196.359283
 21
161.348392
 31
0.0
  0
LINE
  8
0
  6
CONTINUOUS
 10
196.359283
 20
161.348392
 30
0.0
 11
196.361709
 21
193.439316
 31
0.0
  0
LINE
  8
0
  6
CONTINUOUS
 10
196.359283
 20
161.348392
 30
0.0
 11
196.500863
 21
162.216795
 31
0.0
  0
LINE
  8
0
  6
CONTINUOUS
 10
168.379643
 20
161.547598
 30
0.0
 11
172.671271
 21
164.17336
 31
0.0
  0
LINE
  8
0
  6
CONTINUOUS
 10
168.429672
 20
167.650578
 30
0.0
 11
168.429731
 21
166.831359
 31
0.0
  0
ENDSEC
  0
EOF
