  0
SECTION
  2
HEADER
  9
$ACADVER
  1
AC1009
  9
$INSBASE
 10
0.0
 20
0.0
 30
0.0
  9
$EXTMIN
 10
24.860988
 20
100.180535
 30
0.0
  9
$EXTMAX
 10
123.119616
 20
176.478029
 30
0.0
  9
$LIMMIN
 10
24.860988
 20
100.180535
  9
$LIMMAX
 10
123.119616
 20
176.478029
  9
$ORTHOMODE
 70
     0
  9
$REGENMODE
 70
     1
  9
$FILLMODE
 70
     1
  9
$QTEXTMODE
 70
     0
  9
$MIRRTEXT
 70
     1
  9
$DRAGMODE
 70
     2
  9
$LTSCALE
 40
1.0
  9
$OSMODE
 70
     0
  9
$ATTMODE
 70
     1
  9
$TEXTSIZE
 40
3.5
  9
$TRACEWID
 40
0.5
  9
$TEXTSTYLE
  7
STANDARD
  9
$CLAYER
  8
0
  9
$CELTYPE
  6
BYLAYER
  9
$CECOLOR
 62
   256
  9
$DIMSCALE
 40
1.0
  9
$DIMASZ
 40
0.18
  9
$DIMEXO
 40
0.0625
  9
$DIMDLI
 40
0.38
  9
$DIMRND
 40
0.0
  9
$DIMDLE
 40
0.0
  9
$DIMEXE
 40
0.18
  9
$DIMTP
 40
0.0
  9
$DIMTM
 40
0.0
  9
$DIMTXT
 40
0.18
  9
$DIMCEN
 40
0.09
  9
$DIMTSZ
 40
0.0
  9
$DIMTOL
 70
     0
  9
$DIMLIM
 70
     0
  9
$DIMTIH
 70
     1
  9
$DIMTOH
 70
     1
  9
$DIMSE1
 70
     0
  9
$DIMSE2
 70
     0
  9
$DIMTAD
 70
     0
  9
$DIMZIN
 70
     0
  9
$DIMBLK
  1

  9
$DIMASO
 70
     1
  9
$DIMSHO
 70
     1
  9
$DIMPOST
  1

  9
$DIMAPOST
  1

  9
$DIMALT
 70
     0
  9
$DIMALTD
 70
     2
  9
$DIMALTF
 40
25.4
  9
$DIMLFAC
 40
1.0
  9
$DIMTOFL
 70
     0
  9
$DIMTVP
 40
0.0
  9
$DIMTIX
 70
     0
  9
$DIMSOXD
 70
     0
  9
$DIMSAH
 70
     0
  9
$DIMBLK1
  1

  9
$DIMBLK2
  1

  9
$DIMSTYLE
  2
*UNNAMED
  9
$DIMCLRD
 70
     0
  9
$DIMCLRE
 70
     0
  9
$DIMCLRT
 70
     0
  9
$DIMTFAC
 40
1.0
  9
$DIMGAP
 40
0.09
  9
$LUNITS
 70
     2
  9
$LUPREC
 70
     4
  9
$SKETCHINC
 40
0.1
  9
$FILLETRAD
 40
2.0
  9
$AUNITS
 70
     0
  9
$AUPREC
 70
     0
  9
$MENU
  1
ACAD
  9
$ELEVATION
 40
0.0
  9
$PELEVATION
 40
0.0
  9
$THICKNESS
 40
0.0
  9
$LIMCHECK
 70
     0
  9
$BLIPMODE
 70
     1
  9
$CHAMFERA
 40
0.0
  9
$CHAMFERB
 40
0.0
  9
$SKPOLY
 70
     0
  9
$TDCREATE
 40
2450767.540238541
  9
$TDUPDATE
 40
2450767.542457175
  9
$TDINDWG
 40
0.0016668981
  9
$TDUSRTIMER
 40
0.0016668981
  9
$USRTIMER
 70
     1
  9
$ANGBASE
 50
0.0
  9
$ANGDIR
 70
     0
  9
$PDMODE
 70
     0
  9
$PDSIZE
 40
0.0
  9
$PLINEWID
 40
0.0
  9
$COORDS
 70
     2
  9
$SPLFRAME
 70
     0
  9
$SPLINETYPE
 70
     6
  9
$SPLINESEGS
 70
     8
  9
$ATTDIA
 70
     0
  9
$ATTREQ
 70
     1
  9
$HANDLING
 70
     0
  9
$HANDSEED
  5
0
  9
$SURFTAB1
 70
     6
  9
$SURFTAB2
 70
     6
  9
$SURFTYPE
 70
     6
  9
$SURFU
 70
     6
  9
$SURFV
 70
     6
  9
$UCSNAME
  2

  9
$UCSORG
 10
0.0
 20
0.0
 30
0.0
  9
$UCSXDIR
 10
1.0
 20
0.0
 30
0.0
  9
$UCSYDIR
 10
0.0
 20
1.0
 30
0.0
  9
$PUCSNAME
  2

  9
$PUCSORG
 10
0.0
 20
0.0
 30
0.0
  9
$PUCSXDIR
 10
1.0
 20
0.0
 30
0.0
  9
$PUCSYDIR
 10
0.0
 20
1.0
 30
0.0
  9
$USERI1
 70
     0
  9
$USERI2
 70
     0
  9
$USERI3
 70
     0
  9
$USERI4
 70
     0
  9
$USERI5
 70
     0
  9
$USERR1
 40
0.0
  9
$USERR2
 40
0.0
  9
$USERR3
 40
0.0
  9
$USERR4
 40
0.0
  9
$USERR5
 40
0.0
  9
$WORLDVIEW
 70
     1
  9
$SHADEDGE
 70
     3
  9
$SHADEDIF
 70
    70
  9
$TILEMODE
 70
     1
  9
$MAXACTVP
 70
    16
  9
$PINSBASE
 10
0.0
 20
0.0
 30
0.0
  9
$PLIMCHECK
 70
     0
  9
$PEXTMIN
 10
1.000000E+20
 20
1.000000E+20
 30
1.000000E+20
  9
$PEXTMAX
 10
-1.000000E+20
 20
-1.000000E+20
 30
-1.000000E+20
  9
$PLIMMIN
 10
0.0
 20
0.0
  9
$PLIMMAX
 10
420.0
 20
297.0
  9
$UNITMODE
 70
     0
  9
$VISRETAIN
 70
     0
  9
$PLINEGEN
 70
     0
  9
$PSLTSCALE
 70
     1
  9
$TREEDEPTH
 70
  3020
  9
$DWGCODEPAGE
  3
iso8859-1
  0
ENDSEC
  0
SECTION
  2
TABLES
  0
TABLE
  2
VPORT
 70
     2
  0
VPORT
  2
*ACTIVE
 70
     0
 10
0.0
 20
0.0
 11
1.0
 21
1.0
 12
88.885016
 22
137.245351
 13
0.0
 23
0.0
 14
1.0
 24
1.0
 15
0.0
 25
0.0
 16
0.0
 26
0.0
 36
1.0
 17
0.0
 27
0.0
 37
0.0
 40
82.37877
 41
1.748359
 42
50.0
 43
0.0
 44
0.0
 50
0.0
 51
0.0
 71
     0
 72
   100
 73
     1
 74
     0
 75
     0
 76
     0
 77
     0
 78
     0
  0
ENDTAB
  0
TABLE
  2
LTYPE
 70
     1
  0
LTYPE
  2
CONTINUOUS
 70
    64
  3
Solid line
 72
    65
 73
     0
 40
0.0
  0
ENDTAB
  0
TABLE
  2
LAYER
 70
     1
  0
LAYER
  2
0
 70
    64
 62
     7
  6
CONTINUOUS
  0
ENDTAB
  0
TABLE
  2
STYLE
 70
     1
  0
STYLE
  2
STANDARD
 70
     0
 40
0.0
 41
1.0
 50
0.0
 71
     0
 42
3.5
  3
txt
  4

  0
ENDTAB
  0
TABLE
  2
VIEW
 70
     0
  0
ENDTAB
  0
TABLE
  2
UCS
 70
     0
  0
ENDTAB
  0
TABLE
  2
APPID
 70
     1
  0
APPID
  2
ACAD
 70
    64
  0
ENDTAB
  0
TABLE
  2
DIMSTYLE
 70
     0
  0
ENDTAB
  0
ENDSEC
  0
SECTION
  2
BLOCKS
  0
ENDSEC
  0
SECTION
  2
ENTITIES
  0
LINE
  8
0
  6
CONTINUOUS
 10
82.509316
 20
107.800793
 30
0.0
 11
122.978036
 21
131.015833
 31
0.0
  0
LINE
  8
0
  6
CONTINUOUS
 10
123.119616
 20
165.662662
 30
0.0
 11
123.119616
 21
131.884236
 31
0.0
  0
LINE
  8
0
  6
CONTINUOUS
 10
122.978036
 20
131.015833
 30
0.0
 11
123.119616
 21
131.884236
 31
0.0
  0
LINE
  8
0
  6
CONTINUOUS
 10
94.3036
 20
130.941555
 30
0.0
 11
84.60986
 21
125.380709
 31
0.0
  0
LINE
  8
0
  6
CONTINUOUS
 10
95.830586
 20
127.390945
 30
0.0
 11
95.930103
 21
128.767091
 31
0.0
  0
LINE
  8
0
  6
CONTINUOUS
 10
95.930103
 20
128.767091
 30
0.0
 11
96.595369
 21
129.148725
 31
0.0
  0
LINE
  8
0
  6
CONTINUOUS
 10
94.467538
 20
130.684965
 30
0.0
 11
96.194794
 21
129.680912
 31
0.0
  0
LINE
  8
0
  6
CONTINUOUS
 10
94.467538
 20
130.684965
 30
0.0
 11
94.467586
 21
130.02959
 31
0.0
  0
LINE
  8
0
  6
CONTINUOUS
 10
96.287237
 20
128.971827
 30
0.0
 11
94.467586
 21
130.02959
 31
0.0
  0
LINE
  8
0
  6
CONTINUOUS
 10
95.175424
 20
131.843114
 30
0.0
 11
95.175479
 21
131.091076
 31
0.0
  0
LINE
  8
0
  6
CONTINUOUS
 10
96.797518
 20
130.150034
 30
0.0
 11
95.175479
 21
131.091076
 31
0.0
  0
LINE
  8
0
  6
CONTINUOUS
 10
97.391926
 20
130.491091
 30
0.0
 11
95.175424
 21
131.843114
 31
0.0
  0
LINE
  8
0
  6
CONTINUOUS
 10
94.467538
 20
130.684965
 30
0.0
 11
95.175479
 21
131.091076
 31
0.0
  0
LINE
  8
0
  6
CONTINUOUS
 10
95.494388
 20
132.026088
 30
0.0
 11
95.175424
 21
131.843114
 31
0.0
  0
LINE
  8
0
  6
CONTINUOUS
 10
95.494388
 20
132.026088
 30
0.0
 11
97.712854
 21
130.675194
 31
0.0
  0
LINE
  8
0
  6
CONTINUOUS
 10
95.830586
 20
127.390945
 30
0.0
 11
96.255812
 21
127.15198
 31
0.0
  0
LINE
  8
0
  6
CONTINUOUS
 10
96.354386
 20
128.515102
 30
0.0
 11
96.255812
 21
127.15198
 31
0.0
  0
LINE
  8
0
  6
CONTINUOUS
 10
95.930103
 20
128.767091
 30
0.0
 11
96.354386
 21
128.515102
 31
0.0
  0
LINE
  8
0
  6
CONTINUOUS
 10
96.255812
 20
127.15198
 30
0.0
 11
97.847318
 21
128.064952
 31
0.0
  0
LINE
  8
0
  6
CONTINUOUS
 10
97.847295
 20
128.3775
 30
0.0
 11
97.847318
 21
128.064952
 31
0.0
  0
LINE
  8
0
  6
CONTINUOUS
 10
96.354386
 20
128.515102
 30
0.0
 11
97.011925
 21
128.8923
 31
0.0
  0
LINE
  8
0
  6
CONTINUOUS
 10
98.259928
 20
127.825106
 30
0.0
 11
97.847318
 21
128.064952
 31
0.0
  0
LINE
  8
0
  6
CONTINUOUS
 10
110.512744
 20
149.167964
 30
0.0
 11
111.424548
 21
149.691025
 31
0.0
  0
LINE
  8
0
  6
CONTINUOUS
 10
94.988501
 20
131.334452
 30
0.0
 11
95.175153
 21
131.227218
 31
0.0
  0
LINE
  8
0
  6
CONTINUOUS
 10
94.3036
 20
130.941555
 30
0.0
 11
94.988501
 21
131.334452
 31
0.0
  0
LINE
  8
0
  6
CONTINUOUS
 10
96.195223
 20
129.395083
 30
0.0
 11
98.511218
 21
127.969396
 31
0.0
  0
LINE
  8
0
  6
CONTINUOUS
 10
98.902379
 20
128.193833
 30
0.0
 11
96.195193
 21
129.804631
 31
0.0
  0
LINE
  8
0
  6
CONTINUOUS
 10
96.195223
 20
129.395083
 30
0.0
 11
96.195193
 21
129.804631
 31
0.0
  0
LINE
  8
0
  6
CONTINUOUS
 10
98.846741
 20
131.325701
 30
0.0
 11
101.62606
 21
129.756283
 31
0.0
  0
LINE
  8
0
  6
CONTINUOUS
 10
96.195193
 20
129.804631
 30
0.0
 11
98.846741
 21
131.325701
 31
0.0
  0
LINE
  8
0
  6
CONTINUOUS
 10
91.05053
 20
136.092439
 30
0.0
 11
92.464686
 21
136.903675
 31
0.0
  0
LINE
  8
0
  6
CONTINUOUS
 10
91.05053
 20
136.092439
 30
0.0
 11
90.696998
 21
136.299157
 31
0.0
  0
LINE
  8
0
  6
CONTINUOUS
 10
91.0505
 20
136.501986
 30
0.0
 11
89.989882
 21
135.893559
 31
0.0
  0
LINE
  8
0
  6
CONTINUOUS
 10
89.989882
 20
135.893559
 30
0.0
 11
89.63635
 21
136.100277
 31
0.0
  0
LINE
  8
0
  6
CONTINUOUS
 10
84.60962
 20
133.216713
 30
0.0
 11
89.989853
 21
136.303107
 31
0.0
  0
LINE
  8
0
  6
CONTINUOUS
 10
89.989882
 20
135.893559
 30
0.0
 11
89.989853
 21
136.303107
 31
0.0
  0
LINE
  8
0
  6
CONTINUOUS
 10
91.05053
 20
136.092439
 30
0.0
 11
91.0505
 21
136.501986
 31
0.0
  0
LINE
  8
0
  6
CONTINUOUS
 10
92.464686
 20
136.903675
 30
0.0
 11
92.464716
 21
136.494128
 31
0.0
  0
LINE
  8
0
  6
CONTINUOUS
 10
95.222328
 20
138.07604
 30
0.0
 11
92.464716
 21
136.494128
 31
0.0
  0
LINE
  8
0
  6
CONTINUOUS
 10
95.222366
 20
137.542892
 30
0.0
 11
95.222328
 21
138.07604
 31
0.0
  0
LINE
  8
0
  6
CONTINUOUS
 10
103.46047
 20
142.268712
 30
0.0
 11
95.222366
 21
137.542892
 31
0.0
  0
LINE
  8
0
  6
CONTINUOUS
 10
103.46047
 20
142.268712
 30
0.0
 11
103.460314
 21
144.44005
 31
0.0
  0
LINE
  8
0
  6
CONTINUOUS
 10
103.460314
 20
144.44005
 30
0.0
 11
101.143993
 21
143.111285
 31
0.0
  0
LINE
  8
0
  6
CONTINUOUS
 10
100.436563
 20
147.61857
 30
0.0
 11
100.436858
 21
143.524761
 31
0.0
  0
LINE
  8
0
  6
CONTINUOUS
 10
96.547834
 20
142.522504
 30
0.0
 11
97.431683
 21
143.029528
 31
0.0
  0
LINE
  8
0
  6
CONTINUOUS
 10
97.431801
 20
141.391335
 30
0.0
 11
96.547952
 21
140.884314
 31
0.0
  0
LINE
  8
0
  6
CONTINUOUS
 10
84.617379
 20
114.79076
 30
0.0
 11
117.850094
 21
133.854826
 31
0.0
  0
LINE
  8
0
  6
CONTINUOUS
 10
117.850094
 20
133.854826
 30
0.0
 11
103.46047
 21
142.268712
 31
0.0
  0
LINE
  8
0
  6
CONTINUOUS
 10
95.038529
 20
137.437432
 30
0.0
 11
95.222366
 21
137.542892
 31
0.0
  0
LINE
  8
0
  6
CONTINUOUS
 10
104.591987
 20
131.458185
 30
0.0
 11
95.038529
 21
137.437432
 31
0.0
  0
LINE
  8
0
  6
CONTINUOUS
 10
104.591987
 20
131.458185
 30
0.0
 11
89.036246
 21
122.534577
 31
0.0
  0
LINE
  8
0
  6
CONTINUOUS
 10
89.036246
 20
122.534577
 30
0.0
 11
84.612647
 21
125.121142
 31
0.0
  0
LINE
  8
0
  6
CONTINUOUS
 10
95.038529
 20
137.437432
 30
0.0
 11
95.038588
 21
136.618213
 31
0.0
  0
LINE
  8
0
  6
CONTINUOUS
 10
103.909134
 20
131.066381
 30
0.0
 11
95.038588
 21
136.618213
 31
0.0
  0
LINE
  8
0
  6
CONTINUOUS
 10
92.111184
 20
136.700846
 30
0.0
 11
92.464716
 21
136.494128
 31
0.0
  0
LINE
  8
0
  6
CONTINUOUS
 10
94.692069
 20
137.0445
 30
0.0
 11
95.038489
 21
136.834941
 31
0.0
  0
LINE
  8
0
  6
CONTINUOUS
 10
94.692016
 20
137.771764
 30
0.0
 11
94.692069
 21
137.0445
 31
0.0
  0
LINE
  8
0
  6
CONTINUOUS
 10
112.50377
 20
149.081429
 30
0.0
 11
113.352393
 21
149.568245
 31
0.0
  0
LINE
  8
0
  6
CONTINUOUS
 10
113.352393
 20
149.568245
 30
0.0
 11
113.352
 21
155.028706
 31
0.0
  0
LINE
  8
0
  6
CONTINUOUS
 10
84.615668
 20
138.544526
 30
0.0
 11
84.617379
 21
114.79076
 31
0.0
  0
LINE
  8
0
  6
CONTINUOUS
 10
85.411811
 20
129.581249
 30
0.0
 11
84.615863
 21
129.124653
 31
0.0
  0
LINE
  8
0
  6
CONTINUOUS
 10
85.411811
 20
129.581249
 30
0.0
 11
84.615435
 21
130.063008
 31
0.0
  0
LINE
  8
0
  6
CONTINUOUS
 10
84.61604
 20
126.667364
 30
0.0
 11
85.411988
 21
127.123964
 31
0.0
  0
LINE
  8
0
  6
CONTINUOUS
 10
97.431751
 20
143.029488
 30
0.0
 11
98.138819
 21
142.616052
 31
0.0
  0
LINE
  8
0
  6
CONTINUOUS
 10
96.547952
 20
140.884314
 30
0.0
 11
95.840813
 21
141.297791
 31
0.0
  0
LINE
  8
0
  6
CONTINUOUS
 10
97.431801
 20
141.391335
 30
0.0
 11
96.724662
 21
141.804811
 31
0.0
  0
LINE
  8
0
  6
CONTINUOUS
 10
96.724662
 20
141.804811
 30
0.0
 11
95.840813
 21
141.297791
 31
0.0
  0
LINE
  8
0
  6
CONTINUOUS
 10
116.770105
 20
145.112663
 30
0.0
 11
114.932537
 21
144.058533
 31
0.0
  0
LINE
  8
0
  6
CONTINUOUS
 10
113.87183
 20
144.678748
 30
0.0
 11
110.4543
 21
146.609134
 31
0.0
  0
LINE
  8
0
  6
CONTINUOUS
 10
114.93236
 20
146.515822
 30
0.0
 11
116.769928
 21
147.569947
 31
0.0
  0
LINE
  8
0
  6
CONTINUOUS
 10
116.769928
 20
147.569947
 30
0.0
 11
116.770105
 21
145.112663
 31
0.0
  0
LINE
  8
0
  6
CONTINUOUS
 10
111.573451
 20
148.547749
 30
0.0
 11
112.50377
 21
149.081429
 31
0.0
  0
LINE
  8
0
  6
CONTINUOUS
 10
114.93236
 20
146.515822
 30
0.0
 11
111.573451
 21
148.547749
 31
0.0
  0
LINE
  8
0
  6
CONTINUOUS
 10
116.769928
 20
147.569947
 30
0.0
 11
113.352393
 21
149.568245
 31
0.0
  0
LINE
  8
0
  6
CONTINUOUS
 10
113.353135
 20
139.26164
 30
0.0
 11
103.460299
 21
144.653009
 31
0.0
  0
LINE
  8
0
  6
CONTINUOUS
 10
113.352762
 20
140.052924
 30
0.0
 11
104.167487
 21
145.058691
 31
0.0
  0
LINE
  8
0
  6
CONTINUOUS
 10
104.167487
 20
145.058691
 30
0.0
 11
103.460299
 21
144.653009
 31
0.0
  0
LINE
  8
0
  6
CONTINUOUS
 10
113.353135
 20
139.26164
 30
0.0
 11
113.352762
 21
144.448192
 31
0.0
  0
LINE
  8
0
  6
CONTINUOUS
 10
103.460299
 20
144.653009
 30
0.0
 11
103.460314
 21
144.44005
 31
0.0
  0
LINE
  8
0
  6
CONTINUOUS
 10
109.393593
 20
147.229349
 30
0.0
 11
110.4543
 21
146.609134
 31
0.0
  0
LINE
  8
0
  6
CONTINUOUS
 10
103.627891
 20
145.150527
 30
0.0
 11
103.980458
 21
144.951379
 31
0.0
  0
LINE
  8
0
  6
CONTINUOUS
 10
95.175037
 20
131.60531
 30
0.0
 11
94.988489
 21
131.498296
 31
0.0
  0
LINE
  8
0
  6
CONTINUOUS
 10
99.280128
 20
133.960214
 30
0.0
 11
95.843339
 21
131.988684
 31
0.0
  0
LINE
  8
0
  6
CONTINUOUS
 10
94.988489
 20
131.498296
 30
0.0
 11
95.175141
 21
131.391062
 31
0.0
  0
LINE
  8
0
  6
CONTINUOUS
 10
108.031585
 20
151.975398
 30
0.0
 11
108.032235
 21
142.949665
 31
0.0
  0
LINE
  8
0
  6
CONTINUOUS
 10
112.50377
 20
149.081429
 30
0.0
 11
111.424548
 21
149.691025
 31
0.0
  0
LINE
  8
0
  6
CONTINUOUS
 10
111.573451
 20
148.547749
 30
0.0
 11
110.512744
 21
149.167964
 31
0.0
  0
LINE
  8
0
  6
CONTINUOUS
 10
94.988489
 20
131.498296
 30
0.0
 11
94.988501
 21
131.334452
 31
0.0
  0
LINE
  8
0
  6
CONTINUOUS
 10
100.613642
 20
143.421394
 30
0.0
 11
101.143993
 21
143.111285
 31
0.0
  0
LINE
  8
0
  6
CONTINUOUS
 10
100.613642
 20
143.421394
 30
0.0
 11
103.627891
 21
145.150527
 31
0.0
  0
LINE
  8
0
  6
CONTINUOUS
 10
85.677024
 20
128.91426
 30
0.0
 11
86.030591
 21
128.707521
 31
0.0
  0
LINE
  8
0
  6
CONTINUOUS
 10
114.848701
 20
145.947831
 30
0.0
 11
115.109188
 21
145.798129
 31
0.0
  0
LINE
  8
0
  6
CONTINUOUS
 10
115.197573
 20
145.848833
 30
0.0
 11
115.551144
 21
145.642094
 31
0.0
  0
LINE
  8
0
  6
CONTINUOUS
 10
85.328152
 20
129.013258
 30
0.0
 11
85.588639
 21
128.86356
 31
0.0
  0
LINE
  8
0
  6
CONTINUOUS
 10
97.861456
 20
130.760429
 30
0.0
 11
95.746963
 21
132.048014
 31
0.0
  0
LINE
  8
0
  6
CONTINUOUS
 10
110.792014
 20
145.874778
 30
0.0
 11
114.191853
 21
143.98286
 31
0.0
  0
LINE
  8
0
  6
CONTINUOUS
 10
109.721478
 20
146.500601
 30
0.0
 11
110.782185
 21
145.880386
 31
0.0
  0
LINE
  8
0
  6
CONTINUOUS
 10
86.171008
 20
129.646101
 30
0.0
 11
84.61504
 21
130.600949
 31
0.0
  0
LINE
  8
0
  6
CONTINUOUS
 10
84.615668
 20
138.544526
 30
0.0
 11
117.848383
 21
157.608592
 31
0.0
  0
LINE
  8
0
  6
CONTINUOUS
 10
117.848383
 20
157.608592
 30
0.0
 11
117.850094
 21
133.854826
 31
0.0
  0
LINE
  8
0
  6
CONTINUOUS
 10
28.760023
 20
102.202628
 30
0.0
 11
28.749707
 21
101.330119
 31
0.0
  0
LINE
  8
0
  6
CONTINUOUS
 10
28.888729
 20
113.088779
 30
0.0
 11
28.8801
 21
112.358818
 31
0.0
  0
LINE
  8
0
  6
CONTINUOUS
 10
67.202852
 20
120.114819
 30
0.0
 11
73.696665
 21
116.263941
 31
0.0
  0
LINE
  8
0
  6
CONTINUOUS
 10
74.076578
 20
116.248684
 30
0.0
 11
74.394776
 21
116.432395
 31
0.0
  0
LINE
  8
0
  6
CONTINUOUS
 10
64.348602
 20
133.643347
 30
0.0
 11
28.940489
 21
113.200465
 31
0.0
  0
LINE
  8
0
  6
CONTINUOUS
 10
29.272389
 20
111.941257
 30
0.0
 11
29.481696
 21
112.0621
 31
0.0
  0
LINE
  8
0
  6
CONTINUOUS
 10
28.895878
 20
102.387407
 30
0.0
 11
28.827312
 21
102.34782
 31
0.0
  0
LINE
  8
0
  6
CONTINUOUS
 10
30.430209
 20
100.192001
 30
0.0
 11
65.836308
 21
120.631371
 31
0.0
  0
LINE
  8
0
  6
CONTINUOUS
 10
29.910853
 20
106.951938
 30
0.0
 11
30.098971
 21
107.060548
 31
0.0
  0
LINE
  8
0
  6
CONTINUOUS
 10
30.113621
 20
108.309079
 30
0.0
 11
29.678017
 21
108.057583
 31
0.0
  0
LINE
  8
0
  6
CONTINUOUS
 10
29.993396
 20
110.907962
 30
0.0
 11
30.145513
 21
110.995787
 31
0.0
  0
LINE
  8
0
  6
CONTINUOUS
 10
29.587987
 20
112.347451
 30
0.0
 11
29.535244
 21
112.317
 31
0.0
  0
LINE
  8
0
  6
CONTINUOUS
 10
60.4071
 20
135.918924
 30
0.0
 11
25.05176
 21
115.50651
 31
0.0
  0
LINE
  8
0
  6
CONTINUOUS
 10
28.697958
 20
101.219239
 30
0.0
 11
28.759781
 21
101.254932
 31
0.0
  0
LINE
  8
0
  6
CONTINUOUS
 10
29.658696
 20
101.180286
 30
0.0
 11
30.031914
 21
101.395763
 31
0.0
  0
LINE
  8
0
  6
CONTINUOUS
 10
30.062583
 20
104.038676
 30
0.0
 11
28.408522
 21
103.083704
 31
0.0
  0
LINE
  8
0
  6
CONTINUOUS
 10
29.975588
 20
105.174665
 30
0.0
 11
30.077408
 21
105.23345
 31
0.0
  0
LINE
  8
0
  6
CONTINUOUS
 10
65.834913
 20
120.513379
 30
0.0
 11
65.734779
 21
120.57276
 31
0.0
  0
LINE
  8
0
  6
CONTINUOUS
 10
65.834913
 20
120.513379
 30
0.0
 11
65.83731
 21
120.716101
 31
0.0
  0
LINE
  8
0
  6
CONTINUOUS
 10
65.976321
 20
132.473955
 30
0.0
 11
65.978718
 21
132.676676
 31
0.0
  0
LINE
  8
0
  6
CONTINUOUS
 10
63.398894
 20
140.827216
 30
0.0
 11
73.863113
 21
134.621858
 31
0.0
  0
LINE
  8
0
  6
CONTINUOUS
 10
63.578068
 20
141.131999
 30
0.0
 11
74.042286
 21
134.926642
 31
0.0
  0
LINE
  8
0
  6
CONTINUOUS
 10
67.297423
 20
120.142498
 30
0.0
 11
73.647405
 21
116.376913
 31
0.0
  0
LINE
  8
0
  6
CONTINUOUS
 10
74.498297
 20
116.655768
 30
0.0
 11
74.180099
 21
116.472056
 31
0.0
  0
LINE
  8
0
  6
CONTINUOUS
 10
74.391013
 20
134.311558
 30
0.0
 11
74.180099
 21
116.472056
 31
0.0
  0
LINE
  8
0
  6
CONTINUOUS
 10
74.037476
 20
134.314316
 30
0.0
 11
73.826562
 21
116.474814
 31
0.0
  0
LINE
  8
0
  6
CONTINUOUS
 10
65.978718
 20
132.676676
 30
0.0
 11
65.801958
 21
132.781497
 31
0.0
  0
LINE
  8
0
  6
CONTINUOUS
 10
64.423226
 20
133.599094
 30
0.0
 11
60.322384
 21
136.030924
 31
0.0
  0
LINE
  8
0
  6
CONTINUOUS
 10
60.322384
 20
136.030924
 30
0.0
 11
60.324928
 21
136.246098
 31
0.0
  0
LINE
  8
0
  6
CONTINUOUS
 10
63.896266
 20
141.315711
 30
0.0
 11
63.578068
 21
141.131999
 31
0.0
  0
LINE
  8
0
  6
CONTINUOUS
 10
63.377531
 20
139.020274
 30
0.0
 11
63.398894
 21
140.827216
 31
0.0
  0
LINE
  8
0
  6
CONTINUOUS
 10
60.634023
 20
136.823311
 30
0.0
 11
63.222984
 21
138.731668
 31
0.0
  0
LINE
  8
0
  6
CONTINUOUS
 10
74.360484
 20
135.110354
 30
0.0
 11
74.042286
 21
134.926642
 31
0.0
  0
LINE
  8
0
  6
CONTINUOUS
 10
74.709211
 20
134.49527
 30
0.0
 11
74.391013
 21
134.311558
 31
0.0
  0
LINE
  8
0
  6
CONTINUOUS
 10
74.709211
 20
134.49527
 30
0.0
 11
74.498297
 21
116.655768
 31
0.0
  0
LINE
  8
0
  6
CONTINUOUS
 10
63.896266
 20
141.315711
 30
0.0
 11
74.360484
 21
135.110354
 31
0.0
  0
LINE
  8
0
  6
CONTINUOUS
 10
65.801958
 20
132.781497
 30
0.0
 11
64.423226
 21
133.599094
 31
0.0
  0
LINE
  8
0
  6
CONTINUOUS
 10
65.801958
 20
132.781497
 30
0.0
 11
30.446617
 21
112.369083
 31
0.0
  0
LINE
  8
0
  6
CONTINUOUS
 10
29.067886
 20
113.186681
 30
0.0
 11
30.446617
 21
112.369083
 31
0.0
  0
LINE
  8
0
  6
CONTINUOUS
 10
64.423226
 20
133.599094
 30
0.0
 11
29.067886
 21
113.186681
 31
0.0
  0
LINE
  8
0
  6
CONTINUOUS
 10
29.482992
 20
112.169191
 30
0.0
 11
29.339678
 21
112.086449
 31
0.0
  0
LINE
  8
0
  6
CONTINUOUS
 10
29.342074
 20
112.28917
 30
0.0
 11
29.339678
 21
112.086449
 31
0.0
  0
LINE
  8
0
  6
CONTINUOUS
 10
29.516377
 20
112.389804
 30
0.0
 11
29.342074
 21
112.28917
 31
0.0
  0
LINE
  8
0
  6
CONTINUOUS
 10
29.980809
 20
112.114539
 30
0.0
 11
29.521232
 21
112.387072
 31
0.0
  0
LINE
  8
0
  6
CONTINUOUS
 10
30.028624
 20
101.103296
 30
0.0
 11
30.155172
 21
111.806997
 31
0.0
  0
LINE
  8
0
  6
CONTINUOUS
 10
30.028609
 20
101.108822
 30
0.0
 11
29.849467
 21
101.005394
 31
0.0
  0
LINE
  8
0
  6
CONTINUOUS
 10
29.301509
 20
101.330337
 30
0.0
 11
29.849467
 21
101.005394
 31
0.0
  0
LINE
  8
0
  6
CONTINUOUS
 10
29.382866
 20
101.377308
 30
0.0
 11
29.301509
 21
101.330337
 31
0.0
  0
LINE
  8
0
  6
CONTINUOUS
 10
29.357642
 20
101.566851
 30
0.0
 11
29.214327
 21
101.484108
 31
0.0
  0
LINE
  8
0
  6
CONTINUOUS
 10
29.2196
 20
101.930096
 30
0.0
 11
29.214327
 21
101.484108
 31
0.0
  0
LINE
  8
0
  6
CONTINUOUS
 10
29.362915
 20
102.012838
 30
0.0
 11
29.2196
 21
101.930096
 31
0.0
  0
LINE
  8
0
  6
CONTINUOUS
 10
30.302812
 20
100.205786
 30
0.0
 11
28.924081
 21
101.023383
 31
0.0
  0
LINE
  8
0
  6
CONTINUOUS
 10
65.976321
 20
132.473955
 30
0.0
 11
30.620981
 21
112.061541
 31
0.0
  0
LINE
  8
0
  6
CONTINUOUS
 10
65.83731
 20
120.716101
 30
0.0
 11
65.976321
 21
132.473955
 31
0.0
  0
LINE
  8
0
  6
CONTINUOUS
 10
65.83731
 20
120.716101
 30
0.0
 11
30.481969
 21
100.303687
 31
0.0
  0
LINE
  8
0
  6
CONTINUOUS
 10
30.620981
 20
112.061541
 30
0.0
 11
30.481969
 21
100.303687
 31
0.0
  0
LINE
  8
0
  6
CONTINUOUS
 10
29.503782
 20
107.008722
 30
0.0
 11
25.764973
 21
109.42888
 31
0.0
  0
LINE
  8
0
  6
CONTINUOUS
 10
30.101961
 20
107.307681
 30
0.0
 11
30.066134
 21
107.286997
 31
0.0
  0
LINE
  8
0
  6
CONTINUOUS
 10
30.070306
 20
107.639859
 30
0.0
 11
30.066134
 21
107.286997
 31
0.0
  0
LINE
  8
0
  6
CONTINUOUS
 10
30.106133
 20
107.660543
 30
0.0
 11
30.070306
 21
107.639859
 31
0.0
  0
LINE
  8
0
  6
CONTINUOUS
 10
29.608064
 20
107.687011
 30
0.0
 11
29.610729
 21
107.912391
 31
0.0
  0
LINE
  8
0
  6
CONTINUOUS
 10
29.608163
 20
107.702535
 30
0.0
 11
29.420613
 21
107.594253
 31
0.0
  0
LINE
  8
0
  6
CONTINUOUS
 10
25.569691
 20
110.086984
 30
0.0
 11
29.420613
 21
107.594253
 31
0.0
  0
LINE
  8
0
  6
CONTINUOUS
 10
28.500167
 20
111.778895
 30
0.0
 11
25.569691
 21
110.086984
 31
0.0
  0
LINE
  8
0
  6
CONTINUOUS
 10
28.413203
 20
112.126966
 30
0.0
 11
25.403621
 21
110.389383
 31
0.0
  0
LINE
  8
0
  6
CONTINUOUS
 10
25.450949
 20
114.392493
 30
0.0
 11
25.403621
 21
110.389383
 31
0.0
  0
LINE
  8
0
  6
CONTINUOUS
 10
25.799554
 20
114.59376
 30
0.0
 11
25.450949
 21
114.392493
 31
0.0
  0
LINE
  8
0
  6
CONTINUOUS
 10
28.071797
 20
113.246597
 30
0.0
 11
25.809263
 21
114.588296
 31
0.0
  0
LINE
  8
0
  6
CONTINUOUS
 10
28.414293
 20
112.104437
 30
0.0
 11
28.420524
 21
112.631513
 31
0.0
  0
LINE
  8
0
  6
CONTINUOUS
 10
29.687644
 20
110.941045
 30
0.0
 11
28.76302
 21
111.489353
 31
0.0
  0
LINE
  8
0
  6
CONTINUOUS
 10
30.151547
 20
111.503719
 30
0.0
 11
30.063662
 21
111.452978
 31
0.0
  0
LINE
  8
0
  6
CONTINUOUS
 10
29.814522
 20
112.111077
 30
0.0
 11
30.063662
 21
111.452978
 31
0.0
  0
LINE
  8
0
  6
CONTINUOUS
 10
29.901687
 20
112.161402
 30
0.0
 11
29.814522
 21
112.111077
 31
0.0
  0
LINE
  8
0
  6
CONTINUOUS
 10
29.477252
 20
111.678237
 30
0.0
 11
29.483484
 21
112.205314
 31
0.0
  0
LINE
  8
0
  6
CONTINUOUS
 10
29.477246
 20
111.680448
 30
0.0
 11
29.405589
 21
111.639077
 31
0.0
  0
LINE
  8
0
  6
CONTINUOUS
 10
28.946012
 20
111.911609
 30
0.0
 11
29.405589
 21
111.639077
 31
0.0
  0
LINE
  8
0
  6
CONTINUOUS
 10
29.070943
 20
111.983738
 30
0.0
 11
28.946012
 21
111.911609
 31
0.0
  0
LINE
  8
0
  6
CONTINUOUS
 10
28.972086
 20
112.089948
 30
0.0
 11
28.876267
 21
112.034626
 31
0.0
  0
LINE
  8
0
  6
CONTINUOUS
 10
28.8801
 20
112.358818
 30
0.0
 11
28.876267
 21
112.034626
 31
0.0
  0
LINE
  8
0
  6
CONTINUOUS
 10
64.069705
 20
133.808735
 30
0.0
 11
60.534496
 21
135.905139
 31
0.0
  0
LINE
  8
0
  6
CONTINUOUS
 10
64.069705
 20
133.808735
 30
0.0
 11
28.714366
 21
113.39632
 31
0.0
  0
LINE
  8
0
  6
CONTINUOUS
 10
25.179157
 20
115.492725
 30
0.0
 11
28.714366
 21
113.39632
 31
0.0
  0
LINE
  8
0
  6
CONTINUOUS
 10
60.534496
 20
135.905139
 30
0.0
 11
25.179157
 21
115.492725
 31
0.0
  0
LINE
  8
0
  6
CONTINUOUS
 10
24.860988
 20
103.63697
 30
0.0
 11
25.0
 21
115.394823
 31
0.0
  0
LINE
  8
0
  6
CONTINUOUS
 10
28.570561
 20
101.233023
 30
0.0
 11
25.035352
 21
103.329428
 31
0.0
  0
LINE
  8
0
  6
CONTINUOUS
 10
28.762181
 20
102.385077
 30
0.0
 11
28.76008
 21
102.207318
 31
0.0
  0
LINE
  8
0
  6
CONTINUOUS
 10
28.831902
 20
102.425331
 30
0.0
 11
28.762181
 21
102.385077
 31
0.0
  0
LINE
  8
0
  6
CONTINUOUS
 10
29.293421
 20
102.151705
 30
0.0
 11
28.833844
 21
102.424238
 31
0.0
  0
LINE
  8
0
  6
CONTINUOUS
 10
29.356935
 20
101.501612
 30
0.0
 11
29.363167
 21
102.028688
 31
0.0
  0
LINE
  8
0
  6
CONTINUOUS
 10
30.032031
 20
101.40468
 30
0.0
 11
29.685576
 21
101.204654
 31
0.0
  0
LINE
  8
0
  6
CONTINUOUS
 10
29.9467
 20
101.560163
 30
0.0
 11
29.685576
 21
101.204654
 31
0.0
  0
LINE
  8
0
  6
CONTINUOUS
 10
30.034586
 20
101.610904
 30
0.0
 11
29.9467
 21
101.560163
 31
0.0
  0
LINE
  8
0
  6
CONTINUOUS
 10
30.048164
 20
102.773537
 30
0.0
 11
29.587939
 21
102.507826
 31
0.0
  0
LINE
  8
0
  6
CONTINUOUS
 10
28.663315
 20
103.056134
 30
0.0
 11
29.587939
 21
102.507826
 31
0.0
  0
LINE
  8
0
  6
CONTINUOUS
 10
30.06062
 20
103.862868
 30
0.0
 11
28.663315
 21
103.056134
 31
0.0
  0
LINE
  8
0
  6
CONTINUOUS
 10
28.298769
 20
102.333255
 30
0.0
 11
28.305001
 21
102.860331
 31
0.0
  0
LINE
  8
0
  6
CONTINUOUS
 10
28.298739
 20
102.344307
 30
0.0
 11
27.940455
 21
102.137452
 31
0.0
  0
LINE
  8
0
  6
CONTINUOUS
 10
25.677921
 20
103.479151
 30
0.0
 11
27.940455
 21
102.137452
 31
0.0
  0
LINE
  8
0
  6
CONTINUOUS
 10
29.583213
 20
105.733872
 30
0.0
 11
25.677921
 21
103.479151
 31
0.0
  0
LINE
  8
0
  6
CONTINUOUS
 10
29.11093
 20
106.277621
 30
0.0
 11
25.329194
 21
104.094235
 31
0.0
  0
LINE
  8
0
  6
CONTINUOUS
 10
25.376522
 20
108.097345
 30
0.0
 11
25.329194
 21
104.094235
 31
0.0
  0
LINE
  8
0
  6
CONTINUOUS
 10
25.550824
 20
108.197978
 30
0.0
 11
25.376522
 21
108.097345
 31
0.0
  0
LINE
  8
0
  6
CONTINUOUS
 10
29.403213
 20
106.122512
 30
0.0
 11
25.54738
 21
108.199943
 31
0.0
  0
LINE
  8
0
  6
CONTINUOUS
 10
29.5833
 20
105.592389
 30
0.0
 11
29.585876
 21
105.810274
 31
0.0
  0
LINE
  8
0
  6
CONTINUOUS
 10
30.078704
 20
105.340542
 30
0.0
 11
30.042877
 21
105.319857
 31
0.0
  0
LINE
  8
0
  6
CONTINUOUS
 10
30.04696
 20
105.665224
 30
0.0
 11
30.042877
 21
105.319857
 31
0.0
  0
LINE
  8
0
  6
CONTINUOUS
 10
30.082787
 20
105.685908
 30
0.0
 11
30.04696
 21
105.665224
 31
0.0
  0
LINE
  8
0
  6
CONTINUOUS
 10
30.097449
 20
106.947469
 30
0.0
 11
29.498972
 21
106.601938
 31
0.0
  0
LINE
  8
0
  6
CONTINUOUS
 10
25.755397
 20
108.618888
 30
0.0
 11
29.498972
 21
106.601938
 31
0.0
  0
LINE
  8
0
  6
CONTINUOUS
 10
26.421495
 20
109.003459
 30
0.0
 11
25.755397
 21
108.618888
 31
0.0
  0
LINE
  8
0
  6
CONTINUOUS
 10
64.024693
 20
113.074804
 30
0.0
 11
64.024693
 21
119.587156
 31
0.0
  0
LINE
  8
0
  6
CONTINUOUS
 10
74.636572
 20
134.790381
 30
0.0
 11
74.636572
 21
134.81024
 31
0.0
  0
LINE
  8
0
  6
CONTINUOUS
 10
74.636572
 20
134.81024
 30
0.0
 11
74.622621
 21
134.818233
 31
0.0
  0
LINE
  8
0
  6
CONTINUOUS
 10
64.024693
 20
141.23952
 30
0.0
 11
64.024693
 21
150.415859
 31
0.0
  0
LINE
  8
0
  6
CONTINUOUS
 10
64.378193
 20
151.028138
 30
0.0
 11
108.383757
 21
176.434762
 31
0.0
  0
ARC
  8
0
  6
CONTINUOUS
 10
66.416302
 20
120.709715
 30
0.0
 40
0.801833
 50
248.888278
 51
276.940313
  0
LINE
  8
0
  6
CONTINUOUS
 10
64.378193
 20
151.028138
 30
0.0
 11
71.926137
 21
146.67033
 31
0.0
  0
LINE
  8
0
  6
CONTINUOUS
 10
71.926137
 20
146.67033
 30
0.0
 11
77.719397
 21
143.32559
 31
0.0
  0
LINE
  8
0
  6
CONTINUOUS
 10
64.024693
 20
150.415859
 30
0.0
 11
71.572637
 21
146.058051
 31
0.0
  0
LINE
  8
0
  6
CONTINUOUS
 10
71.572637
 20
146.058051
 30
0.0
 11
77.365897
 21
142.713311
 31
0.0
  0
LINE
  8
0
  6
CONTINUOUS
 10
64.024693
 20
113.074804
 30
0.0
 11
71.572637
 21
109.01604
 31
0.0
  0
LINE
  8
0
  6
CONTINUOUS
 10
71.572637
 20
109.01604
 30
0.0
 11
77.365897
 21
105.900824
 31
0.0
  0
LINE
  8
0
  6
CONTINUOUS
 10
73.863113
 20
134.621858
 30
0.0
 11
73.916584
 21
134.795097
 31
0.0
  0
LINE
  8
0
  6
CONTINUOUS
 10
73.916584
 20
134.795097
 30
0.0
 11
74.042286
 21
134.926642
 31
0.0
  0
LINE
  8
0
  6
CONTINUOUS
 10
73.863113
 20
134.621858
 30
0.0
 11
73.987399
 21
134.488363
 31
0.0
  0
LINE
  8
0
  6
CONTINUOUS
 10
73.987399
 20
134.488363
 30
0.0
 11
74.037476
 21
134.314316
 31
0.0
  0
LINE
  8
0
  6
CONTINUOUS
 10
74.180099
 20
116.472056
 30
0.0
 11
74.003327
 21
116.430588
 31
0.0
  0
LINE
  8
0
  6
CONTINUOUS
 10
74.003327
 20
116.430588
 30
0.0
 11
73.826562
 21
116.474814
 31
0.0
  0
LINE
  8
0
  6
CONTINUOUS
 10
77.480549
 20
105.674513
 30
0.0
 11
70.808697
 21
109.262175
 31
0.0
  0
LINE
  8
0
  6
CONTINUOUS
 10
70.808697
 20
109.262175
 30
0.0
 11
64.136882
 21
112.849817
 31
0.0
  0
LINE
  8
0
  6
CONTINUOUS
 10
74.076579
 20
116.248684
 30
0.0
 11
74.049161
 21
116.234504
 31
0.0
  0
LINE
  8
0
  6
CONTINUOUS
 10
74.049161
 20
116.234504
 30
0.0
 11
73.907631
 21
116.203484
 31
0.0
  0
LINE
  8
0
  6
CONTINUOUS
 10
73.907631
 20
116.203484
 30
0.0
 11
73.746383
 21
116.238289
 31
0.0
  0
LINE
  8
0
  6
CONTINUOUS
 10
73.746383
 20
116.238289
 30
0.0
 11
73.696671
 21
116.263938
 31
0.0
  0
LINE
  8
0
  6
CONTINUOUS
 10
63.222984
 20
138.731668
 30
0.0
 11
66.514689
 21
136.779663
 31
0.0
  0
LINE
  8
0
  6
CONTINUOUS
 10
66.514689
 20
136.779663
 30
0.0
 11
69.434929
 21
135.047939
 31
0.0
  0
LINE
  8
0
  6
CONTINUOUS
 10
63.377531
 20
139.020274
 30
0.0
 11
66.669237
 21
137.068269
 31
0.0
  0
LINE
  8
0
  6
CONTINUOUS
 10
66.669237
 20
137.068269
 30
0.0
 11
69.589477
 21
135.336546
 31
0.0
  0
LINE
  8
0
  6
CONTINUOUS
 10
30.446617
 20
112.369083
 30
0.0
 11
30.570904
 21
112.235588
 31
0.0
  0
LINE
  8
0
  6
CONTINUOUS
 10
30.570904
 20
112.235588
 30
0.0
 11
30.620981
 21
112.061541
 31
0.0
  0
LINE
  8
0
  6
CONTINUOUS
 10
64.024693
 20
113.074804
 30
0.0
 11
64.053994
 21
112.937514
 31
0.0
  0
LINE
  8
0
  6
CONTINUOUS
 10
64.053994
 20
112.937514
 30
0.0
 11
64.132089
 21
112.852487
 31
0.0
  0
LINE
  8
0
  6
CONTINUOUS
 10
64.132089
 20
112.852487
 30
0.0
 11
64.13684
 21
112.84984
 31
0.0
  0
LINE
  8
0
  6
CONTINUOUS
 10
66.173744
 20
132.777707
 30
0.0
 11
66.099298
 21
126.480885
 31
0.0
  0
LINE
  8
0
  6
CONTINUOUS
 10
66.099298
 20
126.480885
 30
0.0
 11
66.024851
 21
120.184062
 31
0.0
  0
LINE
  8
0
  6
CONTINUOUS
 10
70.107477
 20
134.422899
 30
0.0
 11
70.028107
 21
127.709614
 31
0.0
  0
LINE
  8
0
  6
CONTINUOUS
 10
70.028107
 20
127.709614
 30
0.0
 11
69.948736
 21
120.996328
 31
0.0
  0
LINE
  8
0
  6
CONTINUOUS
 10
69.780263
 20
134.438841
 30
0.0
 11
69.700892
 21
127.725556
 31
0.0
  0
LINE
  8
0
  6
CONTINUOUS
 10
69.700892
 20
127.725556
 30
0.0
 11
69.621522
 21
121.01227
 31
0.0
  0
LINE
  8
0
  6
CONTINUOUS
 10
66.828173
 20
132.745823
 30
0.0
 11
66.753726
 21
126.449
 31
0.0
  0
LINE
  8
0
  6
CONTINUOUS
 10
66.753726
 20
126.449
 30
0.0
 11
66.67928
 21
120.152177
 31
0.0
  0
LINE
  8
0
  6
CONTINUOUS
 10
66.024851
 20
120.184062
 30
0.0
 11
66.343873
 21
120.099674
 31
0.0
  0
LINE
  8
0
  6
CONTINUOUS
 10
66.11128
 20
119.972572
 30
0.0
 11
66.327619
 21
119.931159
 31
0.0
  0
LINE
  8
0
  6
CONTINUOUS
 10
66.024851
 20
120.184062
 30
0.0
 11
65.549626
 21
120.465874
 31
0.0
  0
LINE
  8
0
  6
CONTINUOUS
 10
66.127415
 20
119.961747
 30
0.0
 11
66.11128
 21
119.972572
 31
0.0
  0
LINE
  8
0
  6
CONTINUOUS
 10
66.11128
 20
119.972572
 30
0.0
 11
66.024851
 21
120.184062
 31
0.0
  0
LINE
  8
0
  6
CONTINUOUS
 10
66.127344
 20
119.961789
 30
0.0
 11
66.127491
 21
119.961701
 31
0.0
  0
LINE
  8
0
  6
CONTINUOUS
 10
65.411631
 20
120.386212
 30
0.0
 11
66.127137
 21
119.961911
 31
0.0
  0
LINE
  8
0
  6
CONTINUOUS
 10
66.67928
 20
120.152177
 30
0.0
 11
68.117663
 21
120.572654
 31
0.0
  0
LINE
  8
0
  6
CONTINUOUS
 10
68.117663
 20
120.572654
 30
0.0
 11
69.621522
 21
121.01227
 31
0.0
  0
LINE
  8
0
  6
CONTINUOUS
 10
66.513031
 20
119.91371
 30
0.0
 11
67.984152
 21
120.343757
 31
0.0
  0
LINE
  8
0
  6
CONTINUOUS
 10
67.984152
 20
120.343757
 30
0.0
 11
69.455273
 21
120.773803
 31
0.0
  0
LINE
  8
0
  6
CONTINUOUS
 10
66.343873
 20
120.099674
 30
0.0
 11
66.67928
 21
120.152177
 31
0.0
  0
LINE
  8
0
  6
CONTINUOUS
 10
66.67928
 20
120.152177
 30
0.0
 11
66.548833
 21
119.928566
 31
0.0
  0
LINE
  8
0
  6
CONTINUOUS
 10
66.548833
 20
119.928566
 30
0.0
 11
66.513192
 21
119.913757
 31
0.0
  0
LINE
  8
0
  6
CONTINUOUS
 10
66.343873
 20
120.099674
 30
0.0
 11
66.327619
 21
119.931159
 31
0.0
  0
LINE
  8
0
  6
CONTINUOUS
 10
66.327619
 20
119.931159
 30
0.0
 11
66.548833
 21
119.928566
 31
0.0
  0
LINE
  8
0
  6
CONTINUOUS
 10
73.696656
 20
116.263946
 30
0.0
 11
73.659724
 21
116.307605
 31
0.0
  0
LINE
  8
0
  6
CONTINUOUS
 10
73.659724
 20
116.307605
 30
0.0
 11
73.647405
 21
116.376913
 31
0.0
  0
LINE
  8
0
  6
CONTINUOUS
 10
73.826562
 20
116.474814
 30
0.0
 11
73.801682
 21
116.387496
 31
0.0
  0
LINE
  8
0
  6
CONTINUOUS
 10
73.801682
 20
116.387496
 30
0.0
 11
73.736106
 21
116.351662
 31
0.0
  0
LINE
  8
0
  6
CONTINUOUS
 10
73.736106
 20
116.351662
 30
0.0
 11
73.647405
 21
116.376913
 31
0.0
  0
LINE
  8
0
  6
CONTINUOUS
 10
69.948736
 20
120.996328
 30
0.0
 11
69.784325
 21
120.671511
 31
0.0
  0
LINE
  8
0
  6
CONTINUOUS
 10
69.784325
 20
120.671511
 30
0.0
 11
69.416496
 21
120.705482
 31
0.0
  0
LINE
  8
0
  6
CONTINUOUS
 10
69.416496
 20
120.705482
 30
0.0
 11
69.352202
 21
120.743609
 31
0.0
  0
LINE
  8
0
  6
CONTINUOUS
 10
69.416496
 20
120.705482
 30
0.0
 11
69.408465
 21
120.760423
 31
0.0
  0
LINE
  8
0
  6
CONTINUOUS
 10
69.621522
 20
121.01227
 30
0.0
 11
69.789225
 21
121.038522
 31
0.0
  0
LINE
  8
0
  6
CONTINUOUS
 10
69.789225
 20
121.038522
 30
0.0
 11
69.948736
 21
120.996328
 31
0.0
  0
LINE
  8
0
  6
CONTINUOUS
 10
69.455434
 20
120.77385
 30
0.0
 11
69.491075
 21
120.78866
 31
0.0
  0
LINE
  8
0
  6
CONTINUOUS
 10
69.491075
 20
120.78866
 30
0.0
 11
69.621522
 21
121.01227
 31
0.0
  0
LINE
  8
0
  6
CONTINUOUS
 10
69.450103
 20
120.772466
 30
0.0
 11
69.654289
 21
120.77669
 31
0.0
  0
LINE
  8
0
  6
CONTINUOUS
 10
69.491075
 20
120.78866
 30
0.0
 11
69.654289
 21
120.77669
 31
0.0
  0
LINE
  8
0
  6
CONTINUOUS
 10
69.654289
 20
120.77669
 30
0.0
 11
69.789225
 21
121.038522
 31
0.0
  0
LINE
  8
0
  6
CONTINUOUS
 10
69.784325
 20
120.671511
 30
0.0
 11
69.654289
 21
120.77669
 31
0.0
  0
LINE
  8
0
  6
CONTINUOUS
 10
69.457584
 20
120.774496
 30
0.0
 11
69.460619
 21
120.775451
 31
0.0
  0
LINE
  8
0
  6
CONTINUOUS
 10
69.460619
 20
120.775451
 30
0.0
 11
69.462478
 21
120.776056
 31
0.0
  0
LINE
  8
0
  6
CONTINUOUS
 10
69.462478
 20
120.776056
 30
0.0
 11
69.46344
 21
120.776374
 31
0.0
  0
LINE
  8
0
  6
CONTINUOUS
 10
69.46344
 20
120.776374
 30
0.0
 11
69.464111
 21
120.776597
 31
0.0
  0
LINE
  8
0
  6
CONTINUOUS
 10
69.464111
 20
120.776597
 30
0.0
 11
69.464697
 21
120.776793
 31
0.0
  0
LINE
  8
0
  6
CONTINUOUS
 10
69.464697
 20
120.776793
 30
0.0
 11
69.465271
 21
120.776985
 31
0.0
  0
LINE
  8
0
  6
CONTINUOUS
 10
69.465271
 20
120.776985
 30
0.0
 11
69.465926
 21
120.777202
 31
0.0
  0
LINE
  8
0
  6
CONTINUOUS
 10
69.465926
 20
120.777202
 30
0.0
 11
69.466229
 21
120.777301
 31
0.0
  0
LINE
  8
0
  6
CONTINUOUS
 10
60.634023
 20
136.823311
 30
0.0
 11
63.712087
 21
134.997997
 31
0.0
  0
LINE
  8
0
  6
CONTINUOUS
 10
63.712087
 20
134.997997
 30
0.0
 11
66.482839
 21
133.35492
 31
0.0
  0
LINE
  8
0
  6
CONTINUOUS
 10
66.266396
 20
133.09259
 30
0.0
 11
66.482839
 21
133.35492
 31
0.0
  0
LINE
  8
0
  6
CONTINUOUS
 10
66.492766
 20
132.693319
 30
0.0
 11
66.173744
 21
132.777707
 31
0.0
  0
LINE
  8
0
  6
CONTINUOUS
 10
60.324928
 20
136.246098
 30
0.0
 11
63.402991
 21
134.420784
 31
0.0
  0
LINE
  8
0
  6
CONTINUOUS
 10
63.402991
 20
134.420784
 30
0.0
 11
66.173744
 21
132.777707
 31
0.0
  0
LINE
  8
0
  6
CONTINUOUS
 10
60.634023
 20
136.823311
 30
0.0
 11
60.515554
 21
136.708408
 31
0.0
  0
LINE
  8
0
  6
CONTINUOUS
 10
60.515554
 20
136.708408
 30
0.0
 11
60.417686
 21
136.561178
 31
0.0
  0
LINE
  8
0
  6
CONTINUOUS
 10
60.417686
 20
136.561178
 30
0.0
 11
60.350733
 21
136.400797
 31
0.0
  0
LINE
  8
0
  6
CONTINUOUS
 10
60.350733
 20
136.400797
 30
0.0
 11
60.324928
 21
136.246098
 31
0.0
  0
LINE
  8
0
  6
CONTINUOUS
 10
60.407083
 20
135.918914
 30
0.0
 11
60.465548
 21
135.929948
 31
0.0
  0
LINE
  8
0
  6
CONTINUOUS
 10
60.465548
 20
135.929948
 30
0.0
 11
60.534496
 21
135.905139
 31
0.0
  0
LINE
  8
0
  6
CONTINUOUS
 10
66.173744
 20
132.777707
 30
0.0
 11
66.266396
 21
133.09259
 31
0.0
  0
LINE
  8
0
  6
CONTINUOUS
 10
69.434929
 20
135.047939
 30
0.0
 11
67.926037
 21
134.182592
 31
0.0
  0
LINE
  8
0
  6
CONTINUOUS
 10
67.926037
 20
134.182592
 30
0.0
 11
66.482839
 21
133.35492
 31
0.0
  0
LINE
  8
0
  6
CONTINUOUS
 10
69.780263
 20
134.438841
 30
0.0
 11
68.271371
 21
133.573494
 31
0.0
  0
LINE
  8
0
  6
CONTINUOUS
 10
68.271371
 20
133.573494
 30
0.0
 11
66.828173
 21
132.745823
 31
0.0
  0
LINE
  8
0
  6
CONTINUOUS
 10
66.482839
 20
133.35492
 30
0.0
 11
66.704279
 21
133.076445
 31
0.0
  0
LINE
  8
0
  6
CONTINUOUS
 10
66.704279
 20
133.076445
 30
0.0
 11
66.828173
 21
132.745823
 31
0.0
  0
LINE
  8
0
  6
CONTINUOUS
 10
66.828173
 20
132.745823
 30
0.0
 11
66.492766
 21
132.693319
 31
0.0
  0
LINE
  8
0
  6
CONTINUOUS
 10
69.589477
 20
135.336546
 30
0.0
 11
69.952982
 21
134.93683
 31
0.0
  0
LINE
  8
0
  6
CONTINUOUS
 10
69.952982
 20
134.93683
 30
0.0
 11
70.107477
 21
134.422899
 31
0.0
  0
LINE
  8
0
  6
CONTINUOUS
 10
70.107477
 20
134.422899
 30
0.0
 11
69.947966
 21
134.465093
 31
0.0
  0
LINE
  8
0
  6
CONTINUOUS
 10
69.947966
 20
134.465093
 30
0.0
 11
69.780263
 21
134.438841
 31
0.0
  0
LINE
  8
0
  6
CONTINUOUS
 10
69.780263
 20
134.438841
 30
0.0
 11
69.656368
 21
134.769464
 31
0.0
  0
LINE
  8
0
  6
CONTINUOUS
 10
69.656368
 20
134.769464
 30
0.0
 11
69.434929
 21
135.047939
 31
0.0
  0
LINE
  8
0
  6
CONTINUOUS
 10
69.434929
 20
135.047939
 30
0.0
 11
69.543151
 21
135.179104
 31
0.0
  0
LINE
  8
0
  6
CONTINUOUS
 10
69.543151
 20
135.179104
 30
0.0
 11
69.589477
 21
135.336546
 31
0.0
  0
LINE
  8
0
  6
CONTINUOUS
 10
63.377531
 20
139.020274
 30
0.0
 11
63.364689
 21
138.943128
 31
0.0
  0
LINE
  8
0
  6
CONTINUOUS
 10
63.364689
 20
138.943128
 30
0.0
 11
63.331258
 21
138.862932
 31
0.0
  0
LINE
  8
0
  6
CONTINUOUS
 10
63.331258
 20
138.862932
 30
0.0
 11
63.282357
 21
138.789289
 31
0.0
  0
LINE
  8
0
  6
CONTINUOUS
 10
63.282357
 20
138.789289
 30
0.0
 11
63.222984
 21
138.731668
 31
0.0
  0
LINE
  8
0
  6
CONTINUOUS
 10
63.398894
 20
140.827216
 30
0.0
 11
63.452366
 21
141.000455
 31
0.0
  0
LINE
  8
0
  6
CONTINUOUS
 10
63.452366
 20
141.000455
 30
0.0
 11
63.578068
 21
141.131999
 31
0.0
  0
LINE
  8
0
  6
CONTINUOUS
 10
64.378193
 20
151.028138
 30
0.0
 11
64.244646
 21
150.917202
 31
0.0
  0
LINE
  8
0
  6
CONTINUOUS
 10
64.244646
 20
150.917202
 30
0.0
 11
64.131963
 21
150.761967
 31
0.0
  0
LINE
  8
0
  6
CONTINUOUS
 10
64.131963
 20
150.761967
 30
0.0
 11
64.053969
 21
150.586904
 31
0.0
  0
LINE
  8
0
  6
CONTINUOUS
 10
64.053969
 20
150.586904
 30
0.0
 11
64.024693
 21
150.415859
 31
0.0
  0
LINE
  8
0
  6
CONTINUOUS
 10
122.979868
 20
165.410188
 30
0.0
 11
122.978036
 21
131.015833
 31
0.0
  0
LINE
  8
0
  6
CONTINUOUS
 10
79.480566
 20
106.748857
 30
0.0
 11
79.480566
 21
123.522356
 31
0.0
  0
LINE
  8
0
  6
CONTINUOUS
 10
79.480566
 20
123.522356
 30
0.0
 11
79.480566
 21
140.295855
 31
0.0
  0
LINE
  8
0
  6
CONTINUOUS
 10
78.779684
 20
106.745325
 30
0.0
 11
78.779684
 21
123.518824
 31
0.0
  0
LINE
  8
0
  6
CONTINUOUS
 10
78.779684
 20
123.518824
 30
0.0
 11
78.779684
 21
140.292323
 31
0.0
  0
LINE
  8
0
  6
CONTINUOUS
 10
78.968689
 20
105.769699
 30
0.0
 11
78.975965
 21
105.773873
 31
0.0
  0
LINE
  8
0
  6
CONTINUOUS
 10
78.975965
 20
105.773873
 30
0.0
 11
82.509316
 21
107.800793
 31
0.0
  0
LINE
  8
0
  6
CONTINUOUS
 10
77.368145
 20
105.993423
 30
0.0
 11
78.3544
 21
105.953587
 31
0.0
  0
LINE
  8
0
  6
CONTINUOUS
 10
78.3544
 20
105.953587
 30
0.0
 11
78.781985
 21
106.848329
 31
0.0
  0
LINE
  8
0
  6
CONTINUOUS
 10
78.920766
 20
105.717316
 30
0.0
 11
78.603765
 21
105.59181
 31
0.0
  0
LINE
  8
0
  6
CONTINUOUS
 10
78.603765
 20
105.59181
 30
0.0
 11
77.926985
 21
105.594987
 31
0.0
  0
LINE
  8
0
  6
CONTINUOUS
 10
77.926985
 20
105.594987
 30
0.0
 11
77.484187
 21
105.765017
 31
0.0
  0
LINE
  8
0
  6
CONTINUOUS
 10
77.368145
 20
105.993423
 30
0.0
 11
77.484162
 21
105.76503
 31
0.0
  0
LINE
  8
0
  6
CONTINUOUS
 10
78.781985
 20
106.848329
 30
0.0
 11
79.482868
 21
106.851853
 31
0.0
  0
LINE
  8
0
  6
CONTINUOUS
 10
78.920766
 20
105.717316
 30
0.0
 11
79.327454
 21
106.151668
 31
0.0
  0
LINE
  8
0
  6
CONTINUOUS
 10
79.327454
 20
106.151668
 30
0.0
 11
79.482868
 21
106.851853
 31
0.0
  0
LINE
  8
0
  6
CONTINUOUS
 10
74.498297
 20
116.655768
 30
0.0
 11
74.470501
 21
116.518592
 31
0.0
  0
LINE
  8
0
  6
CONTINUOUS
 10
74.470501
 20
116.518592
 30
0.0
 11
74.394809
 21
116.432414
 31
0.0
  0
LINE
  8
0
  6
CONTINUOUS
 10
74.180099
 20
116.472056
 30
0.0
 11
74.152303
 21
116.33488
 31
0.0
  0
LINE
  8
0
  6
CONTINUOUS
 10
74.152303
 20
116.33488
 30
0.0
 11
74.076611
 21
116.248703
 31
0.0
  0
LINE
  8
0
  6
CONTINUOUS
 10
74.360484
 20
135.110354
 30
0.0
 11
74.536602
 21
134.951214
 31
0.0
  0
LINE
  8
0
  6
CONTINUOUS
 10
74.536602
 20
134.951214
 30
0.0
 11
74.664245
 21
134.726078
 31
0.0
  0
LINE
  8
0
  6
CONTINUOUS
 10
74.664245
 20
134.726078
 30
0.0
 11
74.709211
 21
134.49527
 31
0.0
  0
LINE
  8
0
  6
CONTINUOUS
 10
74.042286
 20
134.926642
 30
0.0
 11
74.290859
 21
134.659652
 31
0.0
  0
LINE
  8
0
  6
CONTINUOUS
 10
74.290859
 20
134.659652
 30
0.0
 11
74.391013
 21
134.311558
 31
0.0
  0
LINE
  8
0
  6
CONTINUOUS
 10
74.391013
 20
134.311558
 30
0.0
 11
74.278944
 21
134.27457
 31
0.0
  0
LINE
  8
0
  6
CONTINUOUS
 10
74.278944
 20
134.27457
 30
0.0
 11
74.14954
 21
134.27558
 31
0.0
  0
LINE
  8
0
  6
CONTINUOUS
 10
74.14954
 20
134.27558
 30
0.0
 11
74.037476
 21
134.314316
 31
0.0
  0
LINE
  8
0
  6
CONTINUOUS
 10
85.411988
 20
127.123964
 30
0.0
 11
86.161933
 21
127.914048
 31
0.0
  0
LINE
  8
0
  6
CONTINUOUS
 10
86.161933
 20
127.914048
 30
0.0
 11
86.472518
 21
128.961034
 31
0.0
  0
LINE
  8
0
  6
CONTINUOUS
 10
86.472518
 20
128.961034
 30
0.0
 11
86.330379
 21
129.493843
 31
0.0
  0
LINE
  8
0
  6
CONTINUOUS
 10
86.330379
 20
129.493843
 30
0.0
 11
85.94213
 21
129.720858
 31
0.0
  0
LINE
  8
0
  6
CONTINUOUS
 10
85.94213
 20
129.720858
 30
0.0
 11
85.411811
 21
129.581249
 31
0.0
  0
LINE
  8
0
  6
CONTINUOUS
 10
86.030591
 20
128.707521
 30
0.0
 11
85.947677
 21
129.018327
 31
0.0
  0
LINE
  8
0
  6
CONTINUOUS
 10
85.947677
 20
129.018327
 30
0.0
 11
85.721203
 21
129.150753
 31
0.0
  0
LINE
  8
0
  6
CONTINUOUS
 10
85.721203
 20
129.150753
 30
0.0
 11
85.411848
 21
129.069316
 31
0.0
  0
LINE
  8
0
  6
CONTINUOUS
 10
85.411848
 20
129.069316
 30
0.0
 11
85.102507
 21
128.795834
 31
0.0
  0
LINE
  8
0
  6
CONTINUOUS
 10
85.102507
 20
128.795834
 30
0.0
 11
84.876067
 21
128.403592
 31
0.0
  0
LINE
  8
0
  6
CONTINUOUS
 10
84.876067
 20
128.403592
 30
0.0
 11
84.793204
 21
127.997691
 31
0.0
  0
LINE
  8
0
  6
CONTINUOUS
 10
84.793204
 20
127.997691
 30
0.0
 11
84.911394
 21
127.644203
 31
0.0
  0
LINE
  8
0
  6
CONTINUOUS
 10
84.911394
 20
127.644203
 30
0.0
 11
85.22076
 21
127.561303
 31
0.0
  0
LINE
  8
0
  6
CONTINUOUS
 10
85.22076
 20
127.561303
 30
0.0
 11
85.603133
 21
127.780653
 31
0.0
  0
LINE
  8
0
  6
CONTINUOUS
 10
85.603133
 20
127.780653
 30
0.0
 11
85.912462
 21
128.218468
 31
0.0
  0
LINE
  8
0
  6
CONTINUOUS
 10
85.912462
 20
128.218468
 30
0.0
 11
86.030591
 21
128.707521
 31
0.0
  0
LINE
  8
0
  6
CONTINUOUS
 10
84.835681
 20
127.762923
 30
0.0
 11
85.228243
 21
127.967622
 31
0.0
  0
LINE
  8
0
  6
CONTINUOUS
 10
85.228243
 20
127.967622
 30
0.0
 11
85.552264
 21
128.411022
 31
0.0
  0
LINE
  8
0
  6
CONTINUOUS
 10
85.552264
 20
128.411022
 30
0.0
 11
85.677024
 21
128.91426
 31
0.0
  0
LINE
  8
0
  6
CONTINUOUS
 10
84.803889
 20
127.874393
 30
0.0
 11
85.158492
 21
128.013502
 31
0.0
  0
LINE
  8
0
  6
CONTINUOUS
 10
85.158492
 20
128.013502
 30
0.0
 11
85.467212
 21
128.402639
 31
0.0
  0
LINE
  8
0
  6
CONTINUOUS
 10
85.467212
 20
128.402639
 30
0.0
 11
85.588639
 21
128.86356
 31
0.0
  0
LINE
  8
0
  6
CONTINUOUS
 10
85.677024
 20
128.91426
 30
0.0
 11
85.666567
 21
129.039419
 31
0.0
  0
LINE
  8
0
  6
CONTINUOUS
 10
85.666567
 20
129.039419
 30
0.0
 11
85.635571
 21
129.148368
 31
0.0
  0
LINE
  8
0
  6
CONTINUOUS
 10
85.588639
 20
128.86356
 30
0.0
 11
85.572121
 21
129.006172
 31
0.0
  0
LINE
  8
0
  6
CONTINUOUS
 10
85.572121
 20
129.006172
 30
0.0
 11
85.523617
 21
129.120969
 31
0.0
  0
LINE
  8
0
  6
CONTINUOUS
 10
95.746987
 20
132.047998
 30
0.0
 11
95.631393
 21
132.072685
 31
0.0
  0
LINE
  8
0
  6
CONTINUOUS
 10
95.631393
 20
132.072685
 30
0.0
 11
95.494388
 21
132.026088
 31
0.0
  0
LINE
  8
0
  6
CONTINUOUS
 10
122.471711
 20
130.766564
 30
0.0
 11
122.454966
 21
130.756651
 31
0.0
  0
LINE
  8
0
  6
CONTINUOUS
 10
122.47291
 20
130.767258
 30
0.0
 11
122.46033
 21
130.759772
 31
0.0
  0
LINE
  8
0
  6
CONTINUOUS
 10
77.719397
 20
143.32559
 30
0.0
 11
77.746076
 21
143.340994
 31
0.0
  0
LINE
  8
0
  6
CONTINUOUS
 10
77.746076
 20
143.340994
 30
0.0
 11
99.493302
 21
155.89676
 31
0.0
  0
LINE
  8
0
  6
CONTINUOUS
 10
99.493302
 20
155.89676
 30
0.0
 11
121.240527
 21
168.452527
 31
0.0
  0
LINE
  8
0
  6
CONTINUOUS
 10
121.240527
 20
168.452527
 30
0.0
 11
121.267207
 21
168.467931
 31
0.0
  0
LINE
  8
0
  6
CONTINUOUS
 10
79.480566
 20
140.295855
 30
0.0
 11
79.482992
 21
140.297255
 31
0.0
  0
LINE
  8
0
  6
CONTINUOUS
 10
79.482992
 20
140.297255
 30
0.0
 11
101.230217
 21
152.853021
 31
0.0
  0
LINE
  8
0
  6
CONTINUOUS
 10
101.230217
 20
152.853021
 30
0.0
 11
122.977443
 21
165.408788
 31
0.0
  0
LINE
  8
0
  6
CONTINUOUS
 10
122.977443
 20
165.408788
 30
0.0
 11
122.979868
 21
165.410188
 31
0.0
  0
LINE
  8
0
  6
CONTINUOUS
 10
78.779684
 20
140.292323
 30
0.0
 11
78.663526
 21
140.966863
 31
0.0
  0
LINE
  8
0
  6
CONTINUOUS
 10
78.663526
 20
140.966863
 30
0.0
 11
78.352114
 21
141.658648
 31
0.0
  0
LINE
  8
0
  6
CONTINUOUS
 10
78.352114
 20
141.658648
 30
0.0
 11
77.90104
 21
142.272518
 31
0.0
  0
LINE
  8
0
  6
CONTINUOUS
 10
77.90104
 20
142.272518
 30
0.0
 11
77.365897
 21
142.713311
 31
0.0
  0
LINE
  8
0
  6
CONTINUOUS
 10
79.480566
 20
140.295855
 30
0.0
 11
79.332283
 21
141.137203
 31
0.0
  0
LINE
  8
0
  6
CONTINUOUS
 10
79.332283
 20
141.137203
 30
0.0
 11
78.943173
 21
142.002007
 31
0.0
  0
LINE
  8
0
  6
CONTINUOUS
 10
78.943173
 20
142.002007
 30
0.0
 11
78.382467
 21
142.771169
 31
0.0
  0
LINE
  8
0
  6
CONTINUOUS
 10
78.382467
 20
142.771169
 30
0.0
 11
77.719397
 21
143.32559
 31
0.0
  0
LINE
  8
0
  6
CONTINUOUS
 10
77.365897
 20
142.713311
 30
0.0
 11
77.475694
 21
143.058106
 31
0.0
  0
LINE
  8
0
  6
CONTINUOUS
 10
77.475694
 20
143.058106
 30
0.0
 11
77.719397
 21
143.32559
 31
0.0
  0
LINE
  8
0
  6
CONTINUOUS
 10
78.779684
 20
140.292323
 30
0.0
 11
79.131312
 21
140.215518
 31
0.0
  0
LINE
  8
0
  6
CONTINUOUS
 10
79.131312
 20
140.215518
 30
0.0
 11
79.480566
 21
140.295855
 31
0.0
  0
LINE
  8
0
  6
CONTINUOUS
 10
96.724662
 20
141.804811
 30
0.0
 11
97.224601
 21
142.331497
 31
0.0
  0
LINE
  8
0
  6
CONTINUOUS
 10
97.224601
 20
142.331497
 30
0.0
 11
97.431683
 21
143.029452
 31
0.0
  0
LINE
  8
0
  6
CONTINUOUS
 10
96.547834
 20
142.522504
 30
0.0
 11
96.1943
 21
142.209958
 31
0.0
  0
LINE
  8
0
  6
CONTINUOUS
 10
96.1943
 20
142.209958
 30
0.0
 11
95.935516
 21
141.761682
 31
0.0
  0
LINE
  8
0
  6
CONTINUOUS
 10
95.935516
 20
141.761682
 30
0.0
 11
95.840813
 21
141.297791
 31
0.0
  0
LINE
  8
0
  6
CONTINUOUS
 10
95.840813
 20
141.297791
 30
0.0
 11
96.047954
 21
140.837407
 31
0.0
  0
LINE
  8
0
  6
CONTINUOUS
 10
96.047954
 20
140.837407
 30
0.0
 11
96.547952
 21
140.884314
 31
0.0
  0
LINE
  8
0
  6
CONTINUOUS
 10
95.840469
 20
141.297592
 30
0.0
 11
95.840641
 21
141.297691
 31
0.0
  0
LINE
  8
0
  6
CONTINUOUS
 10
95.840641
 20
141.297691
 30
0.0
 11
95.840813
 21
141.297791
 31
0.0
  0
LINE
  8
0
  6
CONTINUOUS
 10
100.436858
 20
143.524761
 30
0.0
 11
100.643995
 21
143.064377
 31
0.0
  0
LINE
  8
0
  6
CONTINUOUS
 10
100.643995
 20
143.064377
 30
0.0
 11
101.143993
 21
143.111285
 31
0.0
  0
LINE
  8
0
  6
CONTINUOUS
 10
98.138819
 20
142.616052
 30
0.0
 11
98.044061
 21
142.971255
 31
0.0
  0
LINE
  8
0
  6
CONTINUOUS
 10
98.044061
 20
142.971255
 30
0.0
 11
97.785229
 21
143.122597
 31
0.0
  0
LINE
  8
0
  6
CONTINUOUS
 10
97.785229
 20
143.122597
 30
0.0
 11
97.431683
 21
143.029528
 31
0.0
  0
LINE
  8
0
  6
CONTINUOUS
 10
97.431801
 20
141.391335
 30
0.0
 11
97.785331
 21
141.703884
 31
0.0
  0
LINE
  8
0
  6
CONTINUOUS
 10
97.785331
 20
141.703884
 30
0.0
 11
98.04412
 21
142.152161
 31
0.0
  0
LINE
  8
0
  6
CONTINUOUS
 10
98.04412
 20
142.152161
 30
0.0
 11
98.138819
 21
142.616052
 31
0.0
  0
LINE
  8
0
  6
CONTINUOUS
 10
100.454822
 20
143.351215
 30
0.0
 11
100.53372
 21
143.380796
 31
0.0
  0
LINE
  8
0
  6
CONTINUOUS
 10
100.53372
 20
143.380796
 30
0.0
 11
100.613642
 21
143.421394
 31
0.0
  0
LINE
  8
0
  6
CONTINUOUS
 10
110.512744
 20
149.167964
 30
0.0
 11
109.721346
 21
148.334207
 31
0.0
  0
LINE
  8
0
  6
CONTINUOUS
 10
109.721346
 20
148.334207
 30
0.0
 11
109.393593
 21
147.229349
 31
0.0
  0
LINE
  8
0
  6
CONTINUOUS
 10
111.573451
 20
148.547749
 30
0.0
 11
110.782053
 21
147.713992
 31
0.0
  0
LINE
  8
0
  6
CONTINUOUS
 10
110.782053
 20
147.713992
 30
0.0
 11
110.4543
 21
146.609134
 31
0.0
  0
LINE
  8
0
  6
CONTINUOUS
 10
109.393593
 20
147.229349
 30
0.0
 11
109.478826
 21
146.782054
 31
0.0
  0
LINE
  8
0
  6
CONTINUOUS
 10
109.478826
 20
146.782054
 30
0.0
 11
109.721478
 21
146.500601
 31
0.0
  0
LINE
  8
0
  6
CONTINUOUS
 10
110.4543
 20
146.609134
 30
0.0
 11
110.542225
 21
146.155917
 31
0.0
  0
LINE
  8
0
  6
CONTINUOUS
 10
110.542225
 20
146.155917
 30
0.0
 11
110.792126
 21
145.874713
 31
0.0
  0
LINE
  8
0
  6
CONTINUOUS
 10
113.87183
 20
144.678748
 30
0.0
 11
114.013969
 21
144.145942
 31
0.0
  0
LINE
  8
0
  6
CONTINUOUS
 10
114.013969
 20
144.145942
 30
0.0
 11
114.402214
 21
143.918928
 31
0.0
  0
LINE
  8
0
  6
CONTINUOUS
 10
114.402214
 20
143.918928
 30
0.0
 11
114.932537
 21
144.058533
 31
0.0
  0
LINE
  8
0
  6
CONTINUOUS
 10
114.93236
 20
146.515822
 30
0.0
 11
114.182415
 21
145.725737
 31
0.0
  0
LINE
  8
0
  6
CONTINUOUS
 10
114.182415
 20
145.725737
 30
0.0
 11
113.87183
 21
144.678748
 31
0.0
  0
LINE
  8
0
  6
CONTINUOUS
 10
115.551144
 20
145.642094
 30
0.0
 11
115.468226
 21
145.9529
 31
0.0
  0
LINE
  8
0
  6
CONTINUOUS
 10
115.468226
 20
145.9529
 30
0.0
 11
115.241752
 21
146.085322
 31
0.0
  0
LINE
  8
0
  6
CONTINUOUS
 10
115.241752
 20
146.085322
 30
0.0
 11
114.932397
 21
146.003885
 31
0.0
  0
LINE
  8
0
  6
CONTINUOUS
 10
114.932397
 20
146.003885
 30
0.0
 11
114.623056
 21
145.730407
 31
0.0
  0
LINE
  8
0
  6
CONTINUOUS
 10
114.623056
 20
145.730407
 30
0.0
 11
114.396616
 21
145.338165
 31
0.0
  0
LINE
  8
0
  6
CONTINUOUS
 10
114.396616
 20
145.338165
 30
0.0
 11
114.313753
 21
144.93226
 31
0.0
  0
LINE
  8
0
  6
CONTINUOUS
 10
114.35623
 20
144.697496
 30
0.0
 11
114.748792
 21
144.902191
 31
0.0
  0
LINE
  8
0
  6
CONTINUOUS
 10
114.748792
 20
144.902191
 30
0.0
 11
115.072813
 21
145.345595
 31
0.0
  0
LINE
  8
0
  6
CONTINUOUS
 10
115.072813
 20
145.345595
 30
0.0
 11
115.197573
 21
145.848833
 31
0.0
  0
LINE
  8
0
  6
CONTINUOUS
 10
114.324438
 20
144.808962
 30
0.0
 11
114.67904
 21
144.948075
 31
0.0
  0
LINE
  8
0
  6
CONTINUOUS
 10
114.67904
 20
144.948075
 30
0.0
 11
114.987761
 21
145.337212
 31
0.0
  0
LINE
  8
0
  6
CONTINUOUS
 10
114.987761
 20
145.337212
 30
0.0
 11
115.109188
 21
145.798129
 31
0.0
  0
LINE
  8
0
  6
CONTINUOUS
 10
114.313753
 20
144.93226
 30
0.0
 11
114.431943
 21
144.578772
 31
0.0
  0
LINE
  8
0
  6
CONTINUOUS
 10
114.431943
 20
144.578772
 30
0.0
 11
114.741309
 21
144.495872
 31
0.0
  0
LINE
  8
0
  6
CONTINUOUS
 10
114.741309
 20
144.495872
 30
0.0
 11
115.123686
 21
144.715222
 31
0.0
  0
LINE
  8
0
  6
CONTINUOUS
 10
115.123686
 20
144.715222
 30
0.0
 11
115.433011
 21
145.153041
 31
0.0
  0
LINE
  8
0
  6
CONTINUOUS
 10
115.433011
 20
145.153041
 30
0.0
 11
115.551144
 21
145.642094
 31
0.0
  0
LINE
  8
0
  6
CONTINUOUS
 10
115.197573
 20
145.848833
 30
0.0
 11
115.187116
 21
145.973992
 31
0.0
  0
LINE
  8
0
  6
CONTINUOUS
 10
115.187116
 20
145.973992
 30
0.0
 11
115.15612
 21
146.082937
 31
0.0
  0
LINE
  8
0
  6
CONTINUOUS
 10
115.109188
 20
145.798129
 30
0.0
 11
115.09267
 21
145.940745
 31
0.0
  0
LINE
  8
0
  6
CONTINUOUS
 10
115.09267
 20
145.940745
 30
0.0
 11
115.044165
 21
146.055538
 31
0.0
  0
LINE
  8
0
  6
CONTINUOUS
 10
108.383757
 20
176.434762
 30
0.0
 11
115.672722
 21
171.927433
 31
0.0
  0
LINE
  8
0
  6
CONTINUOUS
 10
115.672722
 20
171.927433
 30
0.0
 11
121.267207
 21
168.467931
 31
0.0
  0
LINE
  8
0
  6
CONTINUOUS
 10
121.520525
 20
168.481795
 30
0.0
 11
115.077592
 21
172.465957
 31
0.0
  0
LINE
  8
0
  6
CONTINUOUS
 10
115.077592
 20
172.465957
 30
0.0
 11
108.634696
 21
176.450097
 31
0.0
  0
LINE
  8
0
  6
CONTINUOUS
 10
108.383757
 20
176.434762
 30
0.0
 11
108.517248
 21
176.478029
 31
0.0
  0
LINE
  8
0
  6
CONTINUOUS
 10
108.517248
 20
176.478029
 30
0.0
 11
108.62986
 21
176.452986
 31
0.0
  0
LINE
  8
0
  6
CONTINUOUS
 10
108.62986
 20
176.452986
 30
0.0
 11
108.634663
 21
176.450116
 31
0.0
  0
LINE
  8
0
  6
CONTINUOUS
 10
121.267207
 20
168.467931
 30
0.0
 11
121.919104
 21
167.907058
 31
0.0
  0
LINE
  8
0
  6
CONTINUOUS
 10
121.919104
 20
167.907058
 30
0.0
 11
122.466729
 21
167.130344
 31
0.0
  0
LINE
  8
0
  6
CONTINUOUS
 10
122.466729
 20
167.130344
 30
0.0
 11
122.842759
 21
166.257988
 31
0.0
  0
LINE
  8
0
  6
CONTINUOUS
 10
122.842759
 20
166.257988
 30
0.0
 11
122.979868
 21
165.410188
 31
0.0
  0
LINE
  8
0
  6
CONTINUOUS
 10
123.119036
 20
165.614328
 30
0.0
 11
123.028437
 21
166.284888
 31
0.0
  0
LINE
  8
0
  6
CONTINUOUS
 10
123.028437
 20
166.284888
 30
0.0
 11
122.765917
 21
166.99547
 31
0.0
  0
LINE
  8
0
  6
CONTINUOUS
 10
122.765917
 20
166.99547
 30
0.0
 11
122.210514
 21
167.864366
 31
0.0
  0
LINE
  8
0
  6
CONTINUOUS
 10
122.210514
 20
167.864366
 30
0.0
 11
121.520525
 21
168.481795
 31
0.0
  0
LINE
  8
0
  6
CONTINUOUS
 10
122.979868
 20
165.410188
 30
0.0
 11
123.119036
 21
165.614597
 31
0.0
  0
LINE
  8
0
  6
CONTINUOUS
 10
121.267207
 20
168.467931
 30
0.0
 11
121.520507
 21
168.481806
 31
0.0
  0
LINE
  8
0
  6
CONTINUOUS
 10
25.450949
 20
114.392493
 30
0.0
 11
25.557882
 21
114.617782
 31
0.0
  0
LINE
  8
0
  6
CONTINUOUS
 10
25.557882
 20
114.617782
 30
0.0
 11
25.809263
 21
114.588296
 31
0.0
  0
LINE
  8
0
  6
CONTINUOUS
 10
25.677921
 20
103.479151
 30
0.0
 11
25.429348
 21
103.746141
 31
0.0
  0
LINE
  8
0
  6
CONTINUOUS
 10
25.429348
 20
103.746141
 30
0.0
 11
25.329194
 21
104.094235
 31
0.0
  0
LINE
  8
0
  6
CONTINUOUS
 10
25.035352
 20
103.329428
 30
0.0
 11
24.947293
 21
103.408997
 31
0.0
  0
LINE
  8
0
  6
CONTINUOUS
 10
24.947293
 20
103.408997
 30
0.0
 11
24.883471
 21
103.521566
 31
0.0
  0
LINE
  8
0
  6
CONTINUOUS
 10
24.883471
 20
103.521566
 30
0.0
 11
24.860988
 21
103.63697
 31
0.0
  0
LINE
  8
0
  6
CONTINUOUS
 10
25.376522
 20
108.097345
 30
0.0
 11
25.427049
 21
108.208305
 31
0.0
  0
LINE
  8
0
  6
CONTINUOUS
 10
25.427049
 20
108.208305
 30
0.0
 11
25.54738
 21
108.199943
 31
0.0
  0
LINE
  8
0
  6
CONTINUOUS
 10
25.755397
 20
108.618888
 30
0.0
 11
25.572276
 21
108.775514
 31
0.0
  0
LINE
  8
0
  6
CONTINUOUS
 10
25.572276
 20
108.775514
 30
0.0
 11
25.437777
 21
109.005423
 31
0.0
  0
LINE
  8
0
  6
CONTINUOUS
 10
25.437777
 20
109.005423
 30
0.0
 11
25.390071
 21
109.243364
 31
0.0
  0
LINE
  8
0
  6
CONTINUOUS
 10
25.390071
 20
109.243364
 30
0.0
 11
25.442699
 21
109.421807
 31
0.0
  0
LINE
  8
0
  6
CONTINUOUS
 10
25.442699
 20
109.421807
 30
0.0
 11
25.580724
 21
109.490107
 31
0.0
  0
LINE
  8
0
  6
CONTINUOUS
 10
25.580724
 20
109.490107
 30
0.0
 11
25.764973
 21
109.42888
 31
0.0
  0
LINE
  8
0
  6
CONTINUOUS
 10
25.569691
 20
110.086984
 30
0.0
 11
25.450838
 21
110.22046
 31
0.0
  0
LINE
  8
0
  6
CONTINUOUS
 10
25.450838
 20
110.22046
 30
0.0
 11
25.403621
 21
110.389383
 31
0.0
  0
LINE
  8
0
  6
CONTINUOUS
 10
29.587939
 20
102.507826
 30
0.0
 11
29.799281
 21
102.316859
 31
0.0
  0
LINE
  8
0
  6
CONTINUOUS
 10
29.799281
 20
102.316859
 30
0.0
 11
29.952452
 21
102.046695
 31
0.0
  0
LINE
  8
0
  6
CONTINUOUS
 10
29.952452
 20
102.046695
 30
0.0
 11
30.006412
 21
101.769725
 31
0.0
  0
LINE
  8
0
  6
CONTINUOUS
 10
30.006412
 20
101.769725
 30
0.0
 11
29.9467
 21
101.560163
 31
0.0
  0
LINE
  8
0
  6
CONTINUOUS
 10
30.028624
 20
101.103296
 30
0.0
 11
30.003744
 21
101.015978
 31
0.0
  0
LINE
  8
0
  6
CONTINUOUS
 10
30.003744
 20
101.015978
 30
0.0
 11
29.938168
 21
100.980144
 31
0.0
  0
LINE
  8
0
  6
CONTINUOUS
 10
29.938168
 20
100.980144
 30
0.0
 11
29.849467
 21
101.005394
 31
0.0
  0
LINE
  8
0
  6
CONTINUOUS
 10
28.924081
 20
101.023383
 30
0.0
 11
28.836022
 21
101.102953
 31
0.0
  0
LINE
  8
0
  6
CONTINUOUS
 10
28.836022
 20
101.102953
 30
0.0
 11
28.7722
 21
101.215521
 31
0.0
  0
LINE
  8
0
  6
CONTINUOUS
 10
28.7722
 20
101.215521
 30
0.0
 11
28.749717
 21
101.330925
 31
0.0
  0
LINE
  8
0
  6
CONTINUOUS
 10
28.760023
 20
102.202628
 30
0.0
 11
28.792367
 21
102.316141
 31
0.0
  0
LINE
  8
0
  6
CONTINUOUS
 10
28.792367
 20
102.316141
 30
0.0
 11
28.877616
 21
102.362726
 31
0.0
  0
LINE
  8
0
  6
CONTINUOUS
 10
28.877616
 20
102.362726
 30
0.0
 11
28.992928
 21
102.3299
 31
0.0
  0
LINE
  8
0
  6
CONTINUOUS
 10
28.992928
 20
102.3299
 30
0.0
 11
29.107404
 21
102.22646
 31
0.0
  0
LINE
  8
0
  6
CONTINUOUS
 10
29.107404
 20
102.22646
 30
0.0
 11
29.190372
 21
102.080121
 31
0.0
  0
LINE
  8
0
  6
CONTINUOUS
 10
29.190372
 20
102.080121
 30
0.0
 11
29.2196
 21
101.930096
 31
0.0
  0
LINE
  8
0
  6
CONTINUOUS
 10
28.298769
 20
102.333255
 30
0.0
 11
28.24901
 21
102.15862
 31
0.0
  0
LINE
  8
0
  6
CONTINUOUS
 10
28.24901
 20
102.15862
 30
0.0
 11
28.117858
 21
102.086951
 31
0.0
  0
LINE
  8
0
  6
CONTINUOUS
 10
28.117858
 20
102.086951
 30
0.0
 11
27.940455
 21
102.137452
 31
0.0
  0
LINE
  8
0
  6
CONTINUOUS
 10
28.762181
 20
102.385077
 30
0.0
 11
28.772133
 21
102.420004
 31
0.0
  0
LINE
  8
0
  6
CONTINUOUS
 10
28.772133
 20
102.420004
 30
0.0
 11
28.798364
 21
102.434338
 31
0.0
  0
LINE
  8
0
  6
CONTINUOUS
 10
28.798364
 20
102.434338
 30
0.0
 11
28.833844
 21
102.424238
 31
0.0
  0
LINE
  8
0
  6
CONTINUOUS
 10
28.749707
 20
101.330119
 30
0.0
 11
28.695999
 21
101.218143
 31
0.0
  0
LINE
  8
0
  6
CONTINUOUS
 10
28.695999
 20
101.218143
 30
0.0
 11
28.570561
 21
101.233023
 31
0.0
  0
LINE
  8
0
  6
CONTINUOUS
 10
29.685576
 20
101.204654
 30
0.0
 11
29.599125
 21
101.169389
 31
0.0
  0
LINE
  8
0
  6
CONTINUOUS
 10
29.599125
 20
101.169389
 30
0.0
 11
29.485632
 21
101.228107
 31
0.0
  0
LINE
  8
0
  6
CONTINUOUS
 10
29.485632
 20
101.228107
 30
0.0
 11
29.392003
 21
101.356542
 31
0.0
  0
LINE
  8
0
  6
CONTINUOUS
 10
29.392003
 20
101.356542
 30
0.0
 11
29.356935
 21
101.501612
 31
0.0
  0
LINE
  8
0
  6
CONTINUOUS
 10
29.293421
 20
102.151705
 30
0.0
 11
29.328645
 21
102.119877
 31
0.0
  0
LINE
  8
0
  6
CONTINUOUS
 10
29.328645
 20
102.119877
 30
0.0
 11
29.354174
 21
102.07485
 31
0.0
  0
LINE
  8
0
  6
CONTINUOUS
 10
29.354174
 20
102.07485
 30
0.0
 11
29.363167
 21
102.028688
 31
0.0
  0
LINE
  8
0
  6
CONTINUOUS
 10
29.301509
 20
101.330337
 30
0.0
 11
29.239366
 21
101.397085
 31
0.0
  0
LINE
  8
0
  6
CONTINUOUS
 10
29.239366
 20
101.397085
 30
0.0
 11
29.214327
 21
101.484108
 31
0.0
  0
LINE
  8
0
  6
CONTINUOUS
 10
30.481969
 20
100.303687
 30
0.0
 11
30.45709
 21
100.21637
 31
0.0
  0
LINE
  8
0
  6
CONTINUOUS
 10
30.45709
 20
100.21637
 30
0.0
 11
30.391514
 21
100.180535
 31
0.0
  0
LINE
  8
0
  6
CONTINUOUS
 10
30.391514
 20
100.180535
 30
0.0
 11
30.302812
 21
100.205786
 31
0.0
  0
LINE
  8
0
  6
CONTINUOUS
 10
30.042877
 20
105.319857
 30
0.0
 11
30.010533
 21
105.206344
 31
0.0
  0
LINE
  8
0
  6
CONTINUOUS
 10
30.010533
 20
105.206344
 30
0.0
 11
29.925284
 21
105.159759
 31
0.0
  0
LINE
  8
0
  6
CONTINUOUS
 10
29.925284
 20
105.159759
 30
0.0
 11
29.809973
 21
105.192585
 31
0.0
  0
LINE
  8
0
  6
CONTINUOUS
 10
29.809973
 20
105.192585
 30
0.0
 11
29.695496
 21
105.296025
 31
0.0
  0
LINE
  8
0
  6
CONTINUOUS
 10
29.695496
 20
105.296025
 30
0.0
 11
29.612528
 21
105.442364
 31
0.0
  0
LINE
  8
0
  6
CONTINUOUS
 10
29.612528
 20
105.442364
 30
0.0
 11
29.5833
 21
105.592389
 31
0.0
  0
LINE
  8
0
  6
CONTINUOUS
 10
28.305001
 20
102.860331
 30
0.0
 11
28.35476
 21
103.034966
 31
0.0
  0
LINE
  8
0
  6
CONTINUOUS
 10
28.35476
 20
103.034966
 30
0.0
 11
28.485913
 21
103.106635
 31
0.0
  0
LINE
  8
0
  6
CONTINUOUS
 10
28.485913
 20
103.106635
 30
0.0
 11
28.663315
 21
103.056134
 31
0.0
  0
LINE
  8
0
  6
CONTINUOUS
 10
29.498972
 20
106.601938
 30
0.0
 11
29.773654
 21
106.366999
 31
0.0
  0
LINE
  8
0
  6
CONTINUOUS
 10
29.773654
 20
106.366999
 30
0.0
 11
29.975402
 21
106.022135
 31
0.0
  0
LINE
  8
0
  6
CONTINUOUS
 10
29.975402
 20
106.022135
 30
0.0
 11
30.04696
 21
105.665224
 31
0.0
  0
LINE
  8
0
  6
CONTINUOUS
 10
29.610729
 20
107.912391
 30
0.0
 11
29.643073
 21
108.025904
 31
0.0
  0
LINE
  8
0
  6
CONTINUOUS
 10
29.643073
 20
108.025904
 30
0.0
 11
29.728321
 21
108.072489
 31
0.0
  0
LINE
  8
0
  6
CONTINUOUS
 10
29.728321
 20
108.072489
 30
0.0
 11
29.843633
 21
108.039663
 31
0.0
  0
LINE
  8
0
  6
CONTINUOUS
 10
29.843633
 20
108.039663
 30
0.0
 11
29.95811
 21
107.936222
 31
0.0
  0
LINE
  8
0
  6
CONTINUOUS
 10
29.95811
 20
107.936222
 30
0.0
 11
30.041078
 21
107.789884
 31
0.0
  0
LINE
  8
0
  6
CONTINUOUS
 10
30.041078
 20
107.789884
 30
0.0
 11
30.070306
 21
107.639859
 31
0.0
  0
LINE
  8
0
  6
CONTINUOUS
 10
30.066134
 20
107.286997
 30
0.0
 11
29.987192
 21
107.019332
 31
0.0
  0
LINE
  8
0
  6
CONTINUOUS
 10
29.987192
 20
107.019332
 30
0.0
 11
29.780155
 21
106.916882
 31
0.0
  0
LINE
  8
0
  6
CONTINUOUS
 10
29.780155
 20
106.916882
 30
0.0
 11
29.503782
 21
107.008722
 31
0.0
  0
LINE
  8
0
  6
CONTINUOUS
 10
29.403213
 20
106.122512
 30
0.0
 11
29.494774
 21
106.044199
 31
0.0
  0
LINE
  8
0
  6
CONTINUOUS
 10
29.494774
 20
106.044199
 30
0.0
 11
29.562023
 21
105.929244
 31
0.0
  0
LINE
  8
0
  6
CONTINUOUS
 10
29.562023
 20
105.929244
 30
0.0
 11
29.585876
 21
105.810274
 31
0.0
  0
LINE
  8
0
  6
CONTINUOUS
 10
29.608064
 20
107.687011
 30
0.0
 11
29.58175
 21
107.59779
 31
0.0
  0
LINE
  8
0
  6
CONTINUOUS
 10
29.58175
 20
107.59779
 30
0.0
 11
29.512738
 21
107.56364
 31
0.0
  0
LINE
  8
0
  6
CONTINUOUS
 10
29.512738
 20
107.56364
 30
0.0
 11
29.420613
 21
107.594253
 31
0.0
  0
LINE
  8
0
  6
CONTINUOUS
 10
28.76302
 20
111.489353
 30
0.0
 11
28.586902
 21
111.648493
 31
0.0
  0
LINE
  8
0
  6
CONTINUOUS
 10
28.586902
 20
111.648493
 30
0.0
 11
28.459259
 21
111.873629
 31
0.0
  0
LINE
  8
0
  6
CONTINUOUS
 10
28.459259
 20
111.873629
 30
0.0
 11
28.414293
 21
112.104437
 31
0.0
  0
LINE
  8
0
  6
CONTINUOUS
 10
30.063662
 20
111.452978
 30
0.0
 11
30.117621
 21
111.176008
 31
0.0
  0
LINE
  8
0
  6
CONTINUOUS
 10
30.117621
 20
111.176008
 30
0.0
 11
30.057909
 21
110.966446
 31
0.0
  0
LINE
  8
0
  6
CONTINUOUS
 10
30.057909
 20
110.966446
 30
0.0
 11
29.900527
 21
110.880444
 31
0.0
  0
LINE
  8
0
  6
CONTINUOUS
 10
29.900527
 20
110.880444
 30
0.0
 11
29.687644
 21
110.941045
 31
0.0
  0
LINE
  8
0
  6
CONTINUOUS
 10
28.071797
 20
113.246597
 30
0.0
 11
28.32037
 21
112.979607
 31
0.0
  0
LINE
  8
0
  6
CONTINUOUS
 10
28.32037
 20
112.979607
 30
0.0
 11
28.420524
 21
112.631513
 31
0.0
  0
LINE
  8
0
  6
CONTINUOUS
 10
28.946012
 20
111.911609
 30
0.0
 11
28.910789
 21
111.943437
 31
0.0
  0
LINE
  8
0
  6
CONTINUOUS
 10
28.910789
 20
111.943437
 30
0.0
 11
28.88526
 21
111.988464
 31
0.0
  0
LINE
  8
0
  6
CONTINUOUS
 10
28.88526
 20
111.988464
 30
0.0
 11
28.876267
 21
112.034626
 31
0.0
  0
LINE
  8
0
  6
CONTINUOUS
 10
29.339678
 20
112.086449
 30
0.0
 11
29.29396
 21
111.957569
 31
0.0
  0
LINE
  8
0
  6
CONTINUOUS
 10
29.29396
 20
111.957569
 30
0.0
 11
29.177934
 21
111.929967
 31
0.0
  0
LINE
  8
0
  6
CONTINUOUS
 10
29.177934
 20
111.929967
 30
0.0
 11
29.035917
 21
112.014184
 31
0.0
  0
LINE
  8
0
  6
CONTINUOUS
 10
29.035917
 20
112.014184
 30
0.0
 11
28.922155
 21
112.178053
 31
0.0
  0
LINE
  8
0
  6
CONTINUOUS
 10
28.922155
 20
112.178053
 30
0.0
 11
28.8801
 21
112.358981
 31
0.0
  0
LINE
  8
0
  6
CONTINUOUS
 10
29.477252
 20
111.678237
 30
0.0
 11
29.4673
 21
111.64331
 31
0.0
  0
LINE
  8
0
  6
CONTINUOUS
 10
29.4673
 20
111.64331
 30
0.0
 11
29.44107
 21
111.628977
 31
0.0
  0
LINE
  8
0
  6
CONTINUOUS
 10
29.44107
 20
111.628977
 30
0.0
 11
29.405589
 21
111.639077
 31
0.0
  0
LINE
  8
0
  6
CONTINUOUS
 10
29.483484
 20
112.205314
 30
0.0
 11
29.52147
 21
112.307062
 31
0.0
  0
LINE
  8
0
  6
CONTINUOUS
 10
29.52147
 20
112.307062
 30
0.0
 11
29.61681
 21
112.323437
 31
0.0
  0
LINE
  8
0
  6
CONTINUOUS
 10
29.61681
 20
112.323437
 30
0.0
 11
29.730102
 21
112.247671
 31
0.0
  0
LINE
  8
0
  6
CONTINUOUS
 10
29.730102
 20
112.247671
 30
0.0
 11
29.814522
 21
112.111077
 31
0.0
  0
LINE
  8
0
  6
CONTINUOUS
 10
29.342074
 20
112.28917
 30
0.0
 11
29.366954
 21
112.376488
 31
0.0
  0
LINE
  8
0
  6
CONTINUOUS
 10
29.366954
 20
112.376488
 30
0.0
 11
29.43253
 21
112.412322
 31
0.0
  0
LINE
  8
0
  6
CONTINUOUS
 10
29.43253
 20
112.412322
 30
0.0
 11
29.521232
 21
112.387072
 31
0.0
  0
LINE
  8
0
  6
CONTINUOUS
 10
28.888729
 20
113.088779
 30
0.0
 11
28.913609
 21
113.176097
 31
0.0
  0
LINE
  8
0
  6
CONTINUOUS
 10
28.913609
 20
113.176097
 30
0.0
 11
28.979185
 21
113.211931
 31
0.0
  0
LINE
  8
0
  6
CONTINUOUS
 10
28.979185
 20
113.211931
 30
0.0
 11
29.067886
 21
113.186681
 31
0.0
  0
LINE
  8
0
  6
CONTINUOUS
 10
28.714366
 20
113.39632
 30
0.0
 11
28.838375
 21
113.263314
 31
0.0
  0
LINE
  8
0
  6
CONTINUOUS
 10
28.838375
 20
113.263314
 30
0.0
 11
28.888739
 21
113.089692
 31
0.0
  0
LINE
  8
0
  6
CONTINUOUS
 10
29.980809
 20
112.114539
 30
0.0
 11
30.105095
 21
111.981044
 31
0.0
  0
LINE
  8
0
  6
CONTINUOUS
 10
30.105095
 20
111.981044
 30
0.0
 11
30.155172
 21
111.806997
 31
0.0
  0
LINE
  8
0
  6
CONTINUOUS
 10
25.0
 20
115.394823
 30
0.0
 11
25.02488
 21
115.482141
 31
0.0
  0
LINE
  8
0
  6
CONTINUOUS
 10
25.02488
 20
115.482141
 30
0.0
 11
25.090456
 21
115.517975
 31
0.0
  0
LINE
  8
0
  6
CONTINUOUS
 10
25.090456
 20
115.517975
 30
0.0
 11
25.179157
 21
115.492725
 31
0.0
  0
ENDSEC
  0
EOF
