  0
SECTION
  2
HEADER
  9
$ACADVER
  1
AC1009
  9
$INSBASE
 10
0.0
 20
0.0
 30
0.0
  9
$EXTMIN
 10
119.816222
 20
109.369112
 30
0.0
  9
$EXTMAX
 10
216.131839
 20
206.809982
 30
0.0
  9
$LIMMIN
 10
119.816222
 20
109.369112
  9
$LIMMAX
 10
326.152444
 20
226.809106
  9
$ORTHOMODE
 70
     0
  9
$REGENMODE
 70
     1
  9
$FILLMODE
 70
     1
  9
$QTEXTMODE
 70
     0
  9
$MIRRTEXT
 70
     1
  9
$DRAGMODE
 70
     2
  9
$LTSCALE
 40
1.0
  9
$OSMODE
 70
     0
  9
$ATTMODE
 70
     1
  9
$TEXTSIZE
 40
3.5
  9
$TRACEWID
 40
0.5
  9
$TEXTSTYLE
  7
STANDARD
  9
$CLAYER
  8
0
  9
$CELTYPE
  6
BYLAYER
  9
$CECOLOR
 62
   256
  9
$DIMSCALE
 40
1.0
  9
$DIMASZ
 40
0.18
  9
$DIMEXO
 40
0.0625
  9
$DIMDLI
 40
0.38
  9
$DIMRND
 40
0.0
  9
$DIMDLE
 40
0.0
  9
$DIMEXE
 40
0.18
  9
$DIMTP
 40
0.0
  9
$DIMTM
 40
0.0
  9
$DIMTXT
 40
0.18
  9
$DIMCEN
 40
0.09
  9
$DIMTSZ
 40
0.0
  9
$DIMTOL
 70
     0
  9
$DIMLIM
 70
     0
  9
$DIMTIH
 70
     1
  9
$DIMTOH
 70
     1
  9
$DIMSE1
 70
     0
  9
$DIMSE2
 70
     0
  9
$DIMTAD
 70
     0
  9
$DIMZIN
 70
     0
  9
$DIMBLK
  1

  9
$DIMASO
 70
     1
  9
$DIMSHO
 70
     1
  9
$DIMPOST
  1

  9
$DIMAPOST
  1

  9
$DIMALT
 70
     0
  9
$DIMALTD
 70
     2
  9
$DIMALTF
 40
25.4
  9
$DIMLFAC
 40
1.0
  9
$DIMTOFL
 70
     0
  9
$DIMTVP
 40
0.0
  9
$DIMTIX
 70
     0
  9
$DIMSOXD
 70
     0
  9
$DIMSAH
 70
     0
  9
$DIMBLK1
  1

  9
$DIMBLK2
  1

  9
$DIMSTYLE
  2
*UNNAMED
  9
$DIMCLRD
 70
     0
  9
$DIMCLRE
 70
     0
  9
$DIMCLRT
 70
     0
  9
$DIMTFAC
 40
1.0
  9
$DIMGAP
 40
0.09
  9
$LUNITS
 70
     2
  9
$LUPREC
 70
     4
  9
$SKETCHINC
 40
0.1
  9
$FILLETRAD
 40
2.0
  9
$AUNITS
 70
     0
  9
$AUPREC
 70
     0
  9
$MENU
  1
ACAD
  9
$ELEVATION
 40
0.0
  9
$PELEVATION
 40
0.0
  9
$THICKNESS
 40
0.0
  9
$LIMCHECK
 70
     0
  9
$BLIPMODE
 70
     1
  9
$CHAMFERA
 40
0.0
  9
$CHAMFERB
 40
0.0
  9
$SKPOLY
 70
     0
  9
$TDCREATE
 40
2450955.367451505
  9
$TDUPDATE
 40
2450955.367616088
  9
$TDINDWG
 40
0.0000921296
  9
$TDUSRTIMER
 40
0.0000921296
  9
$USRTIMER
 70
     1
  9
$ANGBASE
 50
0.0
  9
$ANGDIR
 70
     0
  9
$PDMODE
 70
     0
  9
$PDSIZE
 40
0.0
  9
$PLINEWID
 40
0.0
  9
$COORDS
 70
     2
  9
$SPLFRAME
 70
     0
  9
$SPLINETYPE
 70
     6
  9
$SPLINESEGS
 70
     8
  9
$ATTDIA
 70
     0
  9
$ATTREQ
 70
     1
  9
$HANDLING
 70
     0
  9
$HANDSEED
  5
0
  9
$SURFTAB1
 70
     6
  9
$SURFTAB2
 70
     6
  9
$SURFTYPE
 70
     6
  9
$SURFU
 70
     6
  9
$SURFV
 70
     6
  9
$UCSNAME
  2

  9
$UCSORG
 10
0.0
 20
0.0
 30
0.0
  9
$UCSXDIR
 10
1.0
 20
0.0
 30
0.0
  9
$UCSYDIR
 10
0.0
 20
1.0
 30
0.0
  9
$PUCSNAME
  2

  9
$PUCSORG
 10
0.0
 20
0.0
 30
0.0
  9
$PUCSXDIR
 10
1.0
 20
0.0
 30
0.0
  9
$PUCSYDIR
 10
0.0
 20
1.0
 30
0.0
  9
$USERI1
 70
     0
  9
$USERI2
 70
     0
  9
$USERI3
 70
     0
  9
$USERI4
 70
     0
  9
$USERI5
 70
     0
  9
$USERR1
 40
0.0
  9
$USERR2
 40
0.0
  9
$USERR3
 40
0.0
  9
$USERR4
 40
0.0
  9
$USERR5
 40
0.0
  9
$WORLDVIEW
 70
     1
  9
$SHADEDGE
 70
     3
  9
$SHADEDIF
 70
    70
  9
$TILEMODE
 70
     1
  9
$MAXACTVP
 70
    16
  9
$PINSBASE
 10
0.0
 20
0.0
 30
0.0
  9
$PLIMCHECK
 70
     0
  9
$PEXTMIN
 10
1.000000E+20
 20
1.000000E+20
 30
1.000000E+20
  9
$PEXTMAX
 10
-1.000000E+20
 20
-1.000000E+20
 30
-1.000000E+20
  9
$PLIMMIN
 10
0.0
 20
0.0
  9
$PLIMMAX
 10
420.0
 20
297.0
  9
$UNITMODE
 70
     0
  9
$VISRETAIN
 70
     0
  9
$PLINEGEN
 70
     0
  9
$PSLTSCALE
 70
     1
  9
$TREEDEPTH
 70
  3020
  9
$DWGCODEPAGE
  3
iso8859-1
  0
ENDSEC
  0
SECTION
  2
TABLES
  0
TABLE
  2
VPORT
 70
     2
  0
VPORT
  2
*ACTIVE
 70
     0
 10
0.0
 20
0.0
 11
1.0
 21
1.0
 12
200.627381
 22
158.268547
 13
0.0
 23
0.0
 14
1.0
 24
1.0
 15
0.0
 25
0.0
 16
0.0
 26
0.0
 36
1.0
 17
0.0
 27
0.0
 37
0.0
 40
158.518748
 41
1.748359
 42
50.0
 43
0.0
 44
0.0
 50
0.0
 51
0.0
 71
     0
 72
   100
 73
     1
 74
     0
 75
     0
 76
     0
 77
     0
 78
     0
  0
ENDTAB
  0
TABLE
  2
LTYPE
 70
     1
  0
LTYPE
  2
CONTINUOUS
 70
    64
  3
Solid line
 72
    65
 73
     0
 40
0.0
  0
ENDTAB
  0
TABLE
  2
LAYER
 70
     1
  0
LAYER
  2
0
 70
    64
 62
     7
  6
CONTINUOUS
  0
ENDTAB
  0
TABLE
  2
STYLE
 70
     1
  0
STYLE
  2
STANDARD
 70
     0
 40
0.0
 41
1.0
 50
0.0
 71
     0
 42
3.5
  3
txt
  4

  0
ENDTAB
  0
TABLE
  2
VIEW
 70
     0
  0
ENDTAB
  0
TABLE
  2
UCS
 70
     0
  0
ENDTAB
  0
TABLE
  2
APPID
 70
     1
  0
APPID
  2
ACAD
 70
    64
  0
ENDTAB
  0
TABLE
  2
DIMSTYLE
 70
     0
  0
ENDTAB
  0
ENDSEC
  0
SECTION
  2
BLOCKS
  0
ENDSEC
  0
SECTION
  2
ENTITIES
  0
POLYLINE
  8
0
  6
CONTINUOUS
 66
     1
 10
0.0
 20
0.0
 30
0.0
  0
VERTEX
  8
0
  6
CONTINUOUS
 10
194.648979
 20
198.849841
 30
0.0
  0
VERTEX
  8
0
  6
CONTINUOUS
 10
194.6223
 20
198.834537
 30
0.0
  0
VERTEX
  8
0
  6
CONTINUOUS
 10
172.875928
 20
186.359645
 30
0.0
  0
VERTEX
  8
0
  6
CONTINUOUS
 10
151.129557
 20
173.884753
 30
0.0
  0
VERTEX
  8
0
  6
CONTINUOUS
 10
151.102878
 20
173.869449
 30
0.0
  0
SEQEND
  8
0
  6
CONTINUOUS
  0
POLYLINE
  8
0
  6
CONTINUOUS
 66
     1
 10
0.0
 20
0.0
 30
0.0
  0
VERTEX
  8
0
  6
CONTINUOUS
 10
194.648979
 20
198.849841
 30
0.0
  0
VERTEX
  8
0
  6
CONTINUOUS
 10
189.054266
 20
202.287913
 30
0.0
  0
VERTEX
  8
0
  6
CONTINUOUS
 10
181.765004
 20
206.767321
 30
0.0
  0
SEQEND
  8
0
  6
CONTINUOUS
  0
POLYLINE
  8
0
  6
CONTINUOUS
 66
     1
 10
0.0
 20
0.0
 30
0.0
  0
VERTEX
  8
0
  6
CONTINUOUS
 10
182.014608
 20
206.782126
 30
0.0
  0
VERTEX
  8
0
  6
CONTINUOUS
 10
182.011098
 20
206.78423
 30
0.0
  0
VERTEX
  8
0
  6
CONTINUOUS
 10
181.898491
 20
206.809982
 30
0.0
  0
VERTEX
  8
0
  6
CONTINUOUS
 10
181.765004
 20
206.767321
 30
0.0
  0
SEQEND
  8
0
  6
CONTINUOUS
  0
POLYLINE
  8
0
  6
CONTINUOUS
 66
     1
 10
0.0
 20
0.0
 30
0.0
  0
VERTEX
  8
0
  6
CONTINUOUS
 10
196.361709
 20
195.792146
 30
0.0
  0
VERTEX
  8
0
  6
CONTINUOUS
 10
196.361709
 20
193.439316
 30
0.0
  0
SEQEND
  8
0
  6
CONTINUOUS
  0
POLYLINE
  8
0
  6
CONTINUOUS
 66
     1
 10
0.0
 20
0.0
 30
0.0
  0
VERTEX
  8
0
  6
CONTINUOUS
 10
196.361709
 20
195.792146
 30
0.0
  0
VERTEX
  8
0
  6
CONTINUOUS
 10
196.359283
 20
195.790755
 30
0.0
  0
VERTEX
  8
0
  6
CONTINUOUS
 10
174.612912
 20
183.315863
 30
0.0
  0
VERTEX
  8
0
  6
CONTINUOUS
 10
152.86654
 20
170.840971
 30
0.0
  0
VERTEX
  8
0
  6
CONTINUOUS
 10
152.864115
 20
170.839579
 30
0.0
  0
SEQEND
  8
0
  6
CONTINUOUS
  0
POLYLINE
  8
0
  6
CONTINUOUS
 66
     1
 10
0.0
 20
0.0
 30
0.0
  0
VERTEX
  8
0
  6
CONTINUOUS
 10
152.864115
 20
170.839579
 30
0.0
  0
VERTEX
  8
0
  6
CONTINUOUS
 10
152.864115
 20
154.011996
 30
0.0
  0
VERTEX
  8
0
  6
CONTINUOUS
 10
152.864115
 20
137.184412
 30
0.0
  0
SEQEND
  8
0
  6
CONTINUOUS
  0
POLYLINE
  8
0
  6
CONTINUOUS
 66
     1
 10
0.0
 20
0.0
 30
0.0
  0
VERTEX
  8
0
  6
CONTINUOUS
 10
152.163232
 20
170.836055
 30
0.0
  0
VERTEX
  8
0
  6
CONTINUOUS
 10
152.163232
 20
154.008471
 30
0.0
  0
VERTEX
  8
0
  6
CONTINUOUS
 10
152.163232
 20
137.180888
 30
0.0
  0
SEQEND
  8
0
  6
CONTINUOUS
  0
POLYLINE
  8
0
  6
CONTINUOUS
 66
     1
 10
0.0
 20
0.0
 30
0.0
  0
VERTEX
  8
0
  6
CONTINUOUS
 10
150.749392
 20
173.257168
 30
0.0
  0
VERTEX
  8
0
  6
CONTINUOUS
 10
151.735647
 20
172.204463
 30
0.0
  0
VERTEX
  8
0
  6
CONTINUOUS
 10
152.163232
 20
170.836055
 30
0.0
  0
SEQEND
  8
0
  6
CONTINUOUS
  0
POLYLINE
  8
0
  6
CONTINUOUS
 66
     1
 10
0.0
 20
0.0
 30
0.0
  0
VERTEX
  8
0
  6
CONTINUOUS
 10
150.749392
 20
136.325982
 30
0.0
  0
VERTEX
  8
0
  6
CONTINUOUS
 10
151.735647
 20
136.286146
 30
0.0
  0
VERTEX
  8
0
  6
CONTINUOUS
 10
152.163232
 20
137.180888
 30
0.0
  0
SEQEND
  8
0
  6
CONTINUOUS
  0
POLYLINE
  8
0
  6
CONTINUOUS
 66
     1
 10
0.0
 20
0.0
 30
0.0
  0
VERTEX
  8
0
  6
CONTINUOUS
 10
194.648979
 20
198.849841
 30
0.0
  0
VERTEX
  8
0
  6
CONTINUOUS
 10
194.900973
 20
198.863179
 30
0.0
  0
SEQEND
  8
0
  6
CONTINUOUS
  0
POLYLINE
  8
0
  6
CONTINUOUS
 66
     1
 10
0.0
 20
0.0
 30
0.0
  0
VERTEX
  8
0
  6
CONTINUOUS
 10
150.749392
 20
136.325982
 30
0.0
  0
VERTEX
  8
0
  6
CONTINUOUS
 10
150.865409
 20
136.097589
 30
0.0
  0
SEQEND
  8
0
  6
CONTINUOUS
  0
POLYLINE
  8
0
  6
CONTINUOUS
 66
     1
 10
0.0
 20
0.0
 30
0.0
  0
VERTEX
  8
0
  6
CONTINUOUS
 10
151.102878
 20
173.869449
 30
0.0
  0
VERTEX
  8
0
  6
CONTINUOUS
 10
150.749392
 20
173.257168
 30
0.0
  0
SEQEND
  8
0
  6
CONTINUOUS
  0
POLYLINE
  8
0
  6
CONTINUOUS
 66
     1
 10
0.0
 20
0.0
 30
0.0
  0
VERTEX
  8
0
  6
CONTINUOUS
 10
152.163232
 20
137.180888
 30
0.0
  0
VERTEX
  8
0
  6
CONTINUOUS
 10
152.864115
 20
137.184412
 30
0.0
  0
SEQEND
  8
0
  6
CONTINUOUS
  0
POLYLINE
  8
0
  6
CONTINUOUS
 66
     1
 10
0.0
 20
0.0
 30
0.0
  0
VERTEX
  8
0
  6
CONTINUOUS
 10
152.864115
 20
170.839579
 30
0.0
  0
VERTEX
  8
0
  6
CONTINUOUS
 10
152.163232
 20
170.836055
 30
0.0
  0
SEQEND
  8
0
  6
CONTINUOUS
  0
POLYLINE
  8
0
  6
CONTINUOUS
 66
     1
 10
0.0
 20
0.0
 30
0.0
  0
VERTEX
  8
0
  6
CONTINUOUS
 10
196.361709
 20
195.792146
 30
0.0
  0
VERTEX
  8
0
  6
CONTINUOUS
 10
196.500863
 20
195.995221
 30
0.0
  0
SEQEND
  8
0
  6
CONTINUOUS
  0
POLYLINE
  8
0
  6
CONTINUOUS
 66
     1
 10
0.0
 20
0.0
 30
0.0
  0
VERTEX
  8
0
  6
CONTINUOUS
 10
152.302013
 20
136.049875
 30
0.0
  0
VERTEX
  8
0
  6
CONTINUOUS
 10
152.708701
 20
136.484227
 30
0.0
  0
VERTEX
  8
0
  6
CONTINUOUS
 10
152.864115
 20
137.184412
 30
0.0
  0
SEQEND
  8
0
  6
CONTINUOUS
  0
POLYLINE
  8
0
  6
CONTINUOUS
 66
     1
 10
0.0
 20
0.0
 30
0.0
  0
VERTEX
  8
0
  6
CONTINUOUS
 10
151.102878
 20
173.869449
 30
0.0
  0
VERTEX
  8
0
  6
CONTINUOUS
 10
151.765973
 20
173.316907
 30
0.0
  0
VERTEX
  8
0
  6
CONTINUOUS
 10
152.326701
 20
172.548346
 30
0.0
  0
VERTEX
  8
0
  6
CONTINUOUS
 10
152.715826
 20
171.682869
 30
0.0
  0
VERTEX
  8
0
  6
CONTINUOUS
 10
152.864115
 20
170.839579
 30
0.0
  0
SEQEND
  8
0
  6
CONTINUOUS
  0
POLYLINE
  8
0
  6
CONTINUOUS
 66
     1
 10
0.0
 20
0.0
 30
0.0
  0
VERTEX
  8
0
  6
CONTINUOUS
 10
196.361709
 20
195.792146
 30
0.0
  0
VERTEX
  8
0
  6
CONTINUOUS
 10
196.224593
 20
196.641845
 30
0.0
  0
VERTEX
  8
0
  6
CONTINUOUS
 10
195.848548
 20
197.514826
 30
0.0
  0
VERTEX
  8
0
  6
CONTINUOUS
 10
195.300901
 20
198.290891
 30
0.0
  0
VERTEX
  8
0
  6
CONTINUOUS
 10
194.648979
 20
198.849841
 30
0.0
  0
SEQEND
  8
0
  6
CONTINUOUS
  0
POLYLINE
  8
0
  6
CONTINUOUS
 66
     1
 10
0.0
 20
0.0
 30
0.0
  0
VERTEX
  8
0
  6
CONTINUOUS
 10
182.014631
 20
206.782113
 30
0.0
  0
VERTEX
  8
0
  6
CONTINUOUS
 10
188.45779
 20
202.822653
 30
0.0
  0
VERTEX
  8
0
  6
CONTINUOUS
 10
194.900985
 20
198.863172
 30
0.0
  0
SEQEND
  8
0
  6
CONTINUOUS
  0
POLYLINE
  8
0
  6
CONTINUOUS
 66
     1
 10
0.0
 20
0.0
 30
0.0
  0
VERTEX
  8
0
  6
CONTINUOUS
 10
194.900985
 20
198.863172
 30
0.0
  0
VERTEX
  8
0
  6
CONTINUOUS
 10
195.591637
 20
198.24735
 30
0.0
  0
VERTEX
  8
0
  6
CONTINUOUS
 10
196.147859
 20
197.377758
 30
0.0
  0
VERTEX
  8
0
  6
CONTINUOUS
 10
196.410253
 20
196.666829
 30
0.0
  0
VERTEX
  8
0
  6
CONTINUOUS
 10
196.500863
 20
195.994956
 30
0.0
  0
SEQEND
  8
0
  6
CONTINUOUS
  0
POLYLINE
  8
0
  6
CONTINUOUS
 66
     1
 10
0.0
 20
0.0
 30
0.0
  0
VERTEX
  8
0
  6
CONTINUOUS
 10
152.302013
 20
136.049875
 30
0.0
  0
VERTEX
  8
0
  6
CONTINUOUS
 10
151.985012
 20
135.924369
 30
0.0
  0
VERTEX
  8
0
  6
CONTINUOUS
 10
151.308232
 20
135.927546
 30
0.0
  0
VERTEX
  8
0
  6
CONTINUOUS
 10
150.865434
 20
136.097576
 30
0.0
  0
SEQEND
  8
0
  6
CONTINUOUS
  0
POLYLINE
  8
0
  6
CONTINUOUS
 66
     1
 10
0.0
 20
0.0
 30
0.0
  0
VERTEX
  8
0
  6
CONTINUOUS
 10
152.349936
 20
136.102258
 30
0.0
  0
VERTEX
  8
0
  6
CONTINUOUS
 10
152.357212
 20
136.106432
 30
0.0
  0
VERTEX
  8
0
  6
CONTINUOUS
 10
155.890563
 20
138.133352
 30
0.0
  0
SEQEND
  8
0
  6
CONTINUOUS
  0
POLYLINE
  8
0
  6
CONTINUOUS
 66
     1
 10
0.0
 20
0.0
 30
0.0
  0
VERTEX
  8
0
  6
CONTINUOUS
 10
169.128229
 20
162.33729
 30
0.0
  0
VERTEX
  8
0
  6
CONTINUOUS
 10
169.012635
 20
162.361976
 30
0.0
  0
VERTEX
  8
0
  6
CONTINUOUS
 10
168.87563
 20
162.315379
 30
0.0
  0
SEQEND
  8
0
  6
CONTINUOUS
  0
POLYLINE
  8
0
  6
CONTINUOUS
 66
     1
 10
0.0
 20
0.0
 30
0.0
  0
VERTEX
  8
0
  6
CONTINUOUS
 10
182.774836
 20
177.518641
 30
0.0
  0
VERTEX
  8
0
  6
CONTINUOUS
 10
182.860068
 20
177.071346
 30
0.0
  0
VERTEX
  8
0
  6
CONTINUOUS
 10
183.102721
 20
176.789893
 30
0.0
  0
SEQEND
  8
0
  6
CONTINUOUS
  0
POLYLINE
  8
0
  6
CONTINUOUS
 66
     1
 10
0.0
 20
0.0
 30
0.0
  0
VERTEX
  8
0
  6
CONTINUOUS
 10
183.893987
 20
179.457256
 30
0.0
  0
VERTEX
  8
0
  6
CONTINUOUS
 10
183.102589
 20
178.623498
 30
0.0
  0
VERTEX
  8
0
  6
CONTINUOUS
 10
182.774836
 20
177.518641
 30
0.0
  0
SEQEND
  8
0
  6
CONTINUOUS
  0
POLYLINE
  8
0
  6
CONTINUOUS
 66
     1
 10
0.0
 20
0.0
 30
0.0
  0
VERTEX
  8
0
  6
CONTINUOUS
 10
173.8181
 20
173.814053
 30
0.0
  0
VERTEX
  8
0
  6
CONTINUOUS
 10
174.025238
 20
173.353669
 30
0.0
  0
VERTEX
  8
0
  6
CONTINUOUS
 10
174.525236
 20
173.400576
 30
0.0
  0
SEQEND
  8
0
  6
CONTINUOUS
  0
POLYLINE
  8
0
  6
CONTINUOUS
 66
     1
 10
0.0
 20
0.0
 30
0.0
  0
VERTEX
  8
0
  6
CONTINUOUS
 10
171.520061
 20
172.905343
 30
0.0
  0
VERTEX
  8
0
  6
CONTINUOUS
 10
171.425303
 20
173.260547
 30
0.0
  0
VERTEX
  8
0
  6
CONTINUOUS
 10
171.166472
 20
173.411889
 30
0.0
  0
VERTEX
  8
0
  6
CONTINUOUS
 10
170.812926
 20
173.31882
 30
0.0
  0
SEQEND
  8
0
  6
CONTINUOUS
  0
POLYLINE
  8
0
  6
CONTINUOUS
 66
     1
 10
0.0
 20
0.0
 30
0.0
  0
VERTEX
  8
0
  6
CONTINUOUS
 10
170.813044
 20
171.680626
 30
0.0
  0
VERTEX
  8
0
  6
CONTINUOUS
 10
171.166574
 20
171.993175
 30
0.0
  0
VERTEX
  8
0
  6
CONTINUOUS
 10
171.425362
 20
172.441452
 30
0.0
  0
VERTEX
  8
0
  6
CONTINUOUS
 10
171.520061
 20
172.905343
 30
0.0
  0
SEQEND
  8
0
  6
CONTINUOUS
  0
POLYLINE
  8
0
  6
CONTINUOUS
 66
     1
 10
0.0
 20
0.0
 30
0.0
  0
VERTEX
  8
0
  6
CONTINUOUS
 10
169.222055
 20
171.587082
 30
0.0
  0
VERTEX
  8
0
  6
CONTINUOUS
 10
169.429197
 20
171.126698
 30
0.0
  0
VERTEX
  8
0
  6
CONTINUOUS
 10
169.929195
 20
171.173605
 30
0.0
  0
SEQEND
  8
0
  6
CONTINUOUS
  0
POLYLINE
  8
0
  6
CONTINUOUS
 66
     1
 10
0.0
 20
0.0
 30
0.0
  0
VERTEX
  8
0
  6
CONTINUOUS
 10
169.929077
 20
172.811795
 30
0.0
  0
VERTEX
  8
0
  6
CONTINUOUS
 10
169.575542
 20
172.49925
 30
0.0
  0
VERTEX
  8
0
  6
CONTINUOUS
 10
169.316758
 20
172.050973
 30
0.0
  0
VERTEX
  8
0
  6
CONTINUOUS
 10
169.222055
 20
171.587082
 30
0.0
  0
SEQEND
  8
0
  6
CONTINUOUS
  0
POLYLINE
  8
0
  6
CONTINUOUS
 66
     1
 10
0.0
 20
0.0
 30
0.0
  0
VERTEX
  8
0
  6
CONTINUOUS
 10
158.793231
 20
157.413256
 30
0.0
  0
VERTEX
  8
0
  6
CONTINUOUS
 10
159.543175
 20
158.20334
 30
0.0
  0
VERTEX
  8
0
  6
CONTINUOUS
 10
159.853761
 20
159.250325
 30
0.0
  0
SEQEND
  8
0
  6
CONTINUOUS
  0
POLYLINE
  8
0
  6
CONTINUOUS
 66
     1
 10
0.0
 20
0.0
 30
0.0
  0
VERTEX
  8
0
  6
CONTINUOUS
 10
159.853761
 20
159.250325
 30
0.0
  0
VERTEX
  8
0
  6
CONTINUOUS
 10
159.711622
 20
159.783135
 30
0.0
  0
VERTEX
  8
0
  6
CONTINUOUS
 10
159.323373
 20
160.01015
 30
0.0
  0
VERTEX
  8
0
  6
CONTINUOUS
 10
158.793054
 20
159.87054
 30
0.0
  0
SEQEND
  8
0
  6
CONTINUOUS
  0
POLYLINE
  8
0
  6
CONTINUOUS
 66
     1
 10
0.0
 20
0.0
 30
0.0
  0
VERTEX
  8
0
  6
CONTINUOUS
 10
159.411834
 20
158.996813
 30
0.0
  0
VERTEX
  8
0
  6
CONTINUOUS
 10
159.32892
 20
159.307618
 30
0.0
  0
VERTEX
  8
0
  6
CONTINUOUS
 10
159.102446
 20
159.440045
 30
0.0
  0
VERTEX
  8
0
  6
CONTINUOUS
 10
158.793091
 20
159.358608
 30
0.0
  0
VERTEX
  8
0
  6
CONTINUOUS
 10
158.48375
 20
159.085126
 30
0.0
  0
VERTEX
  8
0
  6
CONTINUOUS
 10
158.25731
 20
158.692884
 30
0.0
  0
VERTEX
  8
0
  6
CONTINUOUS
 10
158.174447
 20
158.286983
 30
0.0
  0
SEQEND
  8
0
  6
CONTINUOUS
  0
POLYLINE
  8
0
  6
CONTINUOUS
 66
     1
 10
0.0
 20
0.0
 30
0.0
  0
VERTEX
  8
0
  6
CONTINUOUS
 10
158.174447
 20
158.286983
 30
0.0
  0
VERTEX
  8
0
  6
CONTINUOUS
 10
158.292636
 20
157.933495
 30
0.0
  0
VERTEX
  8
0
  6
CONTINUOUS
 10
158.602003
 20
157.850594
 30
0.0
  0
VERTEX
  8
0
  6
CONTINUOUS
 10
158.984376
 20
158.069944
 30
0.0
  0
VERTEX
  8
0
  6
CONTINUOUS
 10
159.293705
 20
158.50776
 30
0.0
  0
VERTEX
  8
0
  6
CONTINUOUS
 10
159.411834
 20
158.996813
 30
0.0
  0
SEQEND
  8
0
  6
CONTINUOUS
  0
POLYLINE
  8
0
  6
CONTINUOUS
 66
     1
 10
0.0
 20
0.0
 30
0.0
  0
VERTEX
  8
0
  6
CONTINUOUS
 10
170.105905
 20
172.094103
 30
0.0
  0
VERTEX
  8
0
  6
CONTINUOUS
 10
170.605844
 20
172.620788
 30
0.0
  0
VERTEX
  8
0
  6
CONTINUOUS
 10
170.812926
 20
173.318744
 30
0.0
  0
SEQEND
  8
0
  6
CONTINUOUS
  0
POLYLINE
  8
0
  6
CONTINUOUS
 66
     1
 10
0.0
 20
0.0
 30
0.0
  0
VERTEX
  8
0
  6
CONTINUOUS
 10
169.221711
 20
171.586883
 30
0.0
  0
VERTEX
  8
0
  6
CONTINUOUS
 10
169.221883
 20
171.586983
 30
0.0
  0
VERTEX
  8
0
  6
CONTINUOUS
 10
169.222055
 20
171.587082
 30
0.0
  0
SEQEND
  8
0
  6
CONTINUOUS
  0
POLYLINE
  8
0
  6
CONTINUOUS
 66
     1
 10
0.0
 20
0.0
 30
0.0
  0
VERTEX
  8
0
  6
CONTINUOUS
 10
183.835543
 20
176.898426
 30
0.0
  0
VERTEX
  8
0
  6
CONTINUOUS
 10
183.923468
 20
176.445209
 30
0.0
  0
VERTEX
  8
0
  6
CONTINUOUS
 10
184.173368
 20
176.164005
 30
0.0
  0
SEQEND
  8
0
  6
CONTINUOUS
  0
POLYLINE
  8
0
  6
CONTINUOUS
 66
     1
 10
0.0
 20
0.0
 30
0.0
  0
VERTEX
  8
0
  6
CONTINUOUS
 10
187.253073
 20
174.96804
 30
0.0
  0
VERTEX
  8
0
  6
CONTINUOUS
 10
187.395211
 20
174.435234
 30
0.0
  0
VERTEX
  8
0
  6
CONTINUOUS
 10
187.783457
 20
174.208219
 30
0.0
  0
VERTEX
  8
0
  6
CONTINUOUS
 10
188.31378
 20
174.347825
 30
0.0
  0
SEQEND
  8
0
  6
CONTINUOUS
  0
POLYLINE
  8
0
  6
CONTINUOUS
 66
     1
 10
0.0
 20
0.0
 30
0.0
  0
VERTEX
  8
0
  6
CONTINUOUS
 10
188.313603
 20
176.805113
 30
0.0
  0
VERTEX
  8
0
  6
CONTINUOUS
 10
187.563658
 20
176.015029
 30
0.0
  0
VERTEX
  8
0
  6
CONTINUOUS
 10
187.253073
 20
174.96804
 30
0.0
  0
SEQEND
  8
0
  6
CONTINUOUS
  0
POLYLINE
  8
0
  6
CONTINUOUS
 66
     1
 10
0.0
 20
0.0
 30
0.0
  0
VERTEX
  8
0
  6
CONTINUOUS
 10
187.694995
 20
175.221552
 30
0.0
  0
VERTEX
  8
0
  6
CONTINUOUS
 10
187.813185
 20
174.868064
 30
0.0
  0
VERTEX
  8
0
  6
CONTINUOUS
 10
188.122552
 20
174.785163
 30
0.0
  0
VERTEX
  8
0
  6
CONTINUOUS
 10
188.504929
 20
175.004513
 30
0.0
  0
VERTEX
  8
0
  6
CONTINUOUS
 10
188.814254
 20
175.442333
 30
0.0
  0
VERTEX
  8
0
  6
CONTINUOUS
 10
188.932387
 20
175.931386
 30
0.0
  0
SEQEND
  8
0
  6
CONTINUOUS
  0
POLYLINE
  8
0
  6
CONTINUOUS
 66
     1
 10
0.0
 20
0.0
 30
0.0
  0
VERTEX
  8
0
  6
CONTINUOUS
 10
188.932387
 20
175.931386
 30
0.0
  0
VERTEX
  8
0
  6
CONTINUOUS
 10
188.849468
 20
176.242191
 30
0.0
  0
VERTEX
  8
0
  6
CONTINUOUS
 10
188.622994
 20
176.374614
 30
0.0
  0
VERTEX
  8
0
  6
CONTINUOUS
 10
188.31364
 20
176.293177
 30
0.0
  0
VERTEX
  8
0
  6
CONTINUOUS
 10
188.004299
 20
176.019699
 30
0.0
  0
VERTEX
  8
0
  6
CONTINUOUS
 10
187.777858
 20
175.627457
 30
0.0
  0
VERTEX
  8
0
  6
CONTINUOUS
 10
187.694995
 20
175.221552
 30
0.0
  0
SEQEND
  8
0
  6
CONTINUOUS
  0
POLYLINE
  8
0
  6
CONTINUOUS
 66
     1
 10
0.0
 20
0.0
 30
0.0
  0
VERTEX
  8
0
  6
CONTINUOUS
 10
187.737472
 20
174.986788
 30
0.0
  0
VERTEX
  8
0
  6
CONTINUOUS
 10
188.130034
 20
175.191483
 30
0.0
  0
VERTEX
  8
0
  6
CONTINUOUS
 10
188.454055
 20
175.634887
 30
0.0
  0
VERTEX
  8
0
  6
CONTINUOUS
 10
188.578815
 20
176.138124
 30
0.0
  0
SEQEND
  8
0
  6
CONTINUOUS
  0
POLYLINE
  8
0
  6
CONTINUOUS
 66
     1
 10
0.0
 20
0.0
 30
0.0
  0
VERTEX
  8
0
  6
CONTINUOUS
 10
188.578815
 20
176.138124
 30
0.0
  0
VERTEX
  8
0
  6
CONTINUOUS
 10
188.568358
 20
176.263283
 30
0.0
  0
VERTEX
  8
0
  6
CONTINUOUS
 10
188.537362
 20
176.372228
 30
0.0
  0
SEQEND
  8
0
  6
CONTINUOUS
  0
POLYLINE
  8
0
  6
CONTINUOUS
 66
     1
 10
0.0
 20
0.0
 30
0.0
  0
VERTEX
  8
0
  6
CONTINUOUS
 10
188.490431
 20
176.087421
 30
0.0
  0
VERTEX
  8
0
  6
CONTINUOUS
 10
188.473912
 20
176.230037
 30
0.0
  0
VERTEX
  8
0
  6
CONTINUOUS
 10
188.425408
 20
176.34483
 30
0.0
  0
SEQEND
  8
0
  6
CONTINUOUS
  0
POLYLINE
  8
0
  6
CONTINUOUS
 66
     1
 10
0.0
 20
0.0
 30
0.0
  0
VERTEX
  8
0
  6
CONTINUOUS
 10
187.70568
 20
175.098254
 30
0.0
  0
VERTEX
  8
0
  6
CONTINUOUS
 10
188.060283
 20
175.237367
 30
0.0
  0
VERTEX
  8
0
  6
CONTINUOUS
 10
188.369004
 20
175.626503
 30
0.0
  0
VERTEX
  8
0
  6
CONTINUOUS
 10
188.490431
 20
176.087421
 30
0.0
  0
SEQEND
  8
0
  6
CONTINUOUS
  0
POLYLINE
  8
0
  6
CONTINUOUS
 66
     1
 10
0.0
 20
0.0
 30
0.0
  0
VERTEX
  8
0
  6
CONTINUOUS
 10
173.836065
 20
173.640507
 30
0.0
  0
VERTEX
  8
0
  6
CONTINUOUS
 10
173.914963
 20
173.670088
 30
0.0
  0
VERTEX
  8
0
  6
CONTINUOUS
 10
173.994884
 20
173.710686
 30
0.0
  0
SEQEND
  8
0
  6
CONTINUOUS
  0
POLYLINE
  8
0
  6
CONTINUOUS
 66
     1
 10
0.0
 20
0.0
 30
0.0
  0
VERTEX
  8
0
  6
CONTINUOUS
 10
159.058266
 20
159.203551
 30
0.0
  0
VERTEX
  8
0
  6
CONTINUOUS
 10
159.047809
 20
159.32871
 30
0.0
  0
VERTEX
  8
0
  6
CONTINUOUS
 10
159.016814
 20
159.437659
 30
0.0
  0
SEQEND
  8
0
  6
CONTINUOUS
  0
POLYLINE
  8
0
  6
CONTINUOUS
 66
     1
 10
0.0
 20
0.0
 30
0.0
  0
VERTEX
  8
0
  6
CONTINUOUS
 10
158.216924
 20
158.052215
 30
0.0
  0
VERTEX
  8
0
  6
CONTINUOUS
 10
158.609486
 20
158.256914
 30
0.0
  0
VERTEX
  8
0
  6
CONTINUOUS
 10
158.933506
 20
158.700314
 30
0.0
  0
VERTEX
  8
0
  6
CONTINUOUS
 10
159.058266
 20
159.203551
 30
0.0
  0
SEQEND
  8
0
  6
CONTINUOUS
  0
POLYLINE
  8
0
  6
CONTINUOUS
 66
     1
 10
0.0
 20
0.0
 30
0.0
  0
VERTEX
  8
0
  6
CONTINUOUS
 10
158.969882
 20
159.152852
 30
0.0
  0
VERTEX
  8
0
  6
CONTINUOUS
 10
158.953364
 20
159.295464
 30
0.0
  0
VERTEX
  8
0
  6
CONTINUOUS
 10
158.904859
 20
159.410261
 30
0.0
  0
SEQEND
  8
0
  6
CONTINUOUS
  0
POLYLINE
  8
0
  6
CONTINUOUS
 66
     1
 10
0.0
 20
0.0
 30
0.0
  0
VERTEX
  8
0
  6
CONTINUOUS
 10
158.185132
 20
158.163685
 30
0.0
  0
VERTEX
  8
0
  6
CONTINUOUS
 10
158.539734
 20
158.302794
 30
0.0
  0
VERTEX
  8
0
  6
CONTINUOUS
 10
158.848455
 20
158.69193
 30
0.0
  0
VERTEX
  8
0
  6
CONTINUOUS
 10
158.969882
 20
159.152852
 30
0.0
  0
SEQEND
  8
0
  6
CONTINUOUS
  0
POLYLINE
  8
0
  6
CONTINUOUS
 66
     1
 10
0.0
 20
0.0
 30
0.0
  0
VERTEX
  8
0
  6
CONTINUOUS
 10
184.954693
 20
178.837041
 30
0.0
  0
VERTEX
  8
0
  6
CONTINUOUS
 10
184.163296
 20
178.003283
 30
0.0
  0
VERTEX
  8
0
  6
CONTINUOUS
 10
183.835543
 20
176.898426
 30
0.0
  0
SEQEND
  8
0
  6
CONTINUOUS
  0
POLYLINE
  8
0
  6
CONTINUOUS
 66
     1
 10
0.0
 20
0.0
 30
0.0
  0
VERTEX
  8
0
  6
CONTINUOUS
 10
137.518125
 20
143.683124
 30
0.0
  0
VERTEX
  8
0
  6
CONTINUOUS
 10
144.18994
 20
139.806032
 30
0.0
  0
VERTEX
  8
0
  6
CONTINUOUS
 10
150.865434
 20
136.097576
 30
0.0
  0
SEQEND
  8
0
  6
CONTINUOUS
  0
POLYLINE
  8
0
  6
CONTINUOUS
 66
     1
 10
0.0
 20
0.0
 30
0.0
  0
VERTEX
  8
0
  6
CONTINUOUS
 10
137.518083
 20
143.683147
 30
0.0
  0
VERTEX
  8
0
  6
CONTINUOUS
 10
137.513332
 20
143.685794
 30
0.0
  0
VERTEX
  8
0
  6
CONTINUOUS
 10
137.435237
 20
143.770821
 30
0.0
  0
VERTEX
  8
0
  6
CONTINUOUS
 10
137.405936
 20
143.908111
 30
0.0
  0
SEQEND
  8
0
  6
CONTINUOUS
  0
POLYLINE
  8
0
  6
CONTINUOUS
 66
     1
 10
0.0
 20
0.0
 30
0.0
  0
VERTEX
  8
0
  6
CONTINUOUS
 10
150.750782
 20
136.323887
 30
0.0
  0
VERTEX
  8
0
  6
CONTINUOUS
 10
144.95388
 20
139.559897
 30
0.0
  0
VERTEX
  8
0
  6
CONTINUOUS
 10
137.405936
 20
143.908111
 30
0.0
  0
SEQEND
  8
0
  6
CONTINUOUS
  0
POLYLINE
  8
0
  6
CONTINUOUS
 66
     1
 10
0.0
 20
0.0
 30
0.0
  0
VERTEX
  8
0
  6
CONTINUOUS
 10
150.74714
 20
173.257168
 30
0.0
  0
VERTEX
  8
0
  6
CONTINUOUS
 10
144.95388
 20
176.601908
 30
0.0
  0
VERTEX
  8
0
  6
CONTINUOUS
 10
137.405936
 20
180.959716
 30
0.0
  0
SEQEND
  8
0
  6
CONTINUOUS
  0
POLYLINE
  8
0
  6
CONTINUOUS
 66
     1
 10
0.0
 20
0.0
 30
0.0
  0
VERTEX
  8
0
  6
CONTINUOUS
 10
137.405936
 20
180.959716
 30
0.0
  0
VERTEX
  8
0
  6
CONTINUOUS
 10
137.435212
 20
181.130761
 30
0.0
  0
VERTEX
  8
0
  6
CONTINUOUS
 10
137.513206
 20
181.305824
 30
0.0
  0
VERTEX
  8
0
  6
CONTINUOUS
 10
137.625889
 20
181.461059
 30
0.0
  0
VERTEX
  8
0
  6
CONTINUOUS
 10
137.759436
 20
181.571995
 30
0.0
  0
SEQEND
  8
0
  6
CONTINUOUS
  0
POLYLINE
  8
0
  6
CONTINUOUS
 66
     1
 10
0.0
 20
0.0
 30
0.0
  0
VERTEX
  8
0
  6
CONTINUOUS
 10
151.10064
 20
173.869447
 30
0.0
  0
VERTEX
  8
0
  6
CONTINUOUS
 10
145.30738
 20
177.214187
 30
0.0
  0
VERTEX
  8
0
  6
CONTINUOUS
 10
137.759436
 20
181.571995
 30
0.0
  0
SEQEND
  8
0
  6
CONTINUOUS
  0
POLYLINE
  8
0
  6
CONTINUOUS
 66
     1
 10
0.0
 20
0.0
 30
0.0
  0
VERTEX
  8
0
  6
CONTINUOUS
 10
126.380787
 20
119.025055
 30
0.0
  0
VERTEX
  8
0
  6
CONTINUOUS
 10
126.304975
 20
119.381057
 30
0.0
  0
VERTEX
  8
0
  6
CONTINUOUS
 10
126.10343
 20
119.722383
 30
0.0
  0
VERTEX
  8
0
  6
CONTINUOUS
 10
125.832482
 20
119.95363
 30
0.0
  0
SEQEND
  8
0
  6
CONTINUOUS
  0
POLYLINE
  8
0
  6
CONTINUOUS
 66
     1
 10
0.0
 20
0.0
 30
0.0
  0
VERTEX
  8
0
  6
CONTINUOUS
 10
125.894167
 20
118.774607
 30
0.0
  0
VERTEX
  8
0
  6
CONTINUOUS
 10
125.942281
 20
118.578855
 30
0.0
  0
VERTEX
  8
0
  6
CONTINUOUS
 10
126.065716
 20
118.403776
 30
0.0
  0
VERTEX
  8
0
  6
CONTINUOUS
 10
126.217326
 20
118.316244
 30
0.0
  0
VERTEX
  8
0
  6
CONTINUOUS
 10
126.339199
 20
118.349694
 30
0.0
  0
VERTEX
  8
0
  6
CONTINUOUS
 10
126.384785
 20
118.491349
 30
0.0
  0
SEQEND
  8
0
  6
CONTINUOUS
  0
POLYLINE
  8
0
  6
CONTINUOUS
 66
     1
 10
0.0
 20
0.0
 30
0.0
  0
VERTEX
  8
0
  6
CONTINUOUS
 10
125.891441
 20
119.138528
 30
0.0
  0
VERTEX
  8
0
  6
CONTINUOUS
 10
125.86617
 20
119.257195
 30
0.0
  0
VERTEX
  8
0
  6
CONTINUOUS
 10
125.798988
 20
119.37097
 30
0.0
  0
VERTEX
  8
0
  6
CONTINUOUS
 10
125.708673
 20
119.448053
 30
0.0
  0
SEQEND
  8
0
  6
CONTINUOUS
  0
POLYLINE
  8
0
  6
CONTINUOUS
 66
     1
 10
0.0
 20
0.0
 30
0.0
  0
VERTEX
  8
0
  6
CONTINUOUS
 10
120.558736
 20
122.215324
 30
0.0
  0
VERTEX
  8
0
  6
CONTINUOUS
 10
120.439209
 20
122.222169
 30
0.0
  0
VERTEX
  8
0
  6
CONTINUOUS
 10
120.391063
 20
122.108127
 30
0.0
  0
SEQEND
  8
0
  6
CONTINUOUS
  0
POLYLINE
  8
0
  6
CONTINUOUS
 66
     1
 10
0.0
 20
0.0
 30
0.0
  0
VERTEX
  8
0
  6
CONTINUOUS
 10
120.451518
 20
114.038405
 30
0.0
  0
VERTEX
  8
0
  6
CONTINUOUS
 10
120.500004
 20
113.806287
 30
0.0
  0
VERTEX
  8
0
  6
CONTINUOUS
 10
120.629399
 20
113.582152
 30
0.0
  0
VERTEX
  8
0
  6
CONTINUOUS
 10
120.805031
 20
113.426056
 30
0.0
  0
SEQEND
  8
0
  6
CONTINUOUS
  0
POLYLINE
  8
0
  6
CONTINUOUS
 66
     1
 10
0.0
 20
0.0
 30
0.0
  0
VERTEX
  8
0
  6
CONTINUOUS
 10
124.379532
 20
111.362317
 30
0.0
  0
VERTEX
  8
0
  6
CONTINUOUS
 10
124.554341
 20
111.316085
 30
0.0
  0
VERTEX
  8
0
  6
CONTINUOUS
 10
124.681487
 20
111.392107
 30
0.0
  0
VERTEX
  8
0
  6
CONTINUOUS
 10
124.726902
 20
111.570011
 30
0.0
  0
SEQEND
  8
0
  6
CONTINUOUS
  0
POLYLINE
  8
0
  6
CONTINUOUS
 66
     1
 10
0.0
 20
0.0
 30
0.0
  0
VERTEX
  8
0
  6
CONTINUOUS
 10
125.243963
 20
112.414581
 30
0.0
  0
VERTEX
  8
0
  6
CONTINUOUS
 10
124.981749
 20
112.483927
 30
0.0
  0
VERTEX
  8
0
  6
CONTINUOUS
 10
124.79103
 20
112.369895
 30
0.0
  0
VERTEX
  8
0
  6
CONTINUOUS
 10
124.722908
 20
112.103039
 30
0.0
  0
SEQEND
  8
0
  6
CONTINUOUS
  0
POLYLINE
  8
0
  6
CONTINUOUS
 66
     1
 10
0.0
 20
0.0
 30
0.0
  0
VERTEX
  8
0
  6
CONTINUOUS
 10
125.769625
 20
112.11109
 30
0.0
  0
VERTEX
  8
0
  6
CONTINUOUS
 10
125.857029
 20
112.087974
 30
0.0
  0
VERTEX
  8
0
  6
CONTINUOUS
 10
125.920602
 20
112.125985
 30
0.0
  0
VERTEX
  8
0
  6
CONTINUOUS
 10
125.943309
 20
112.214937
 30
0.0
  0
SEQEND
  8
0
  6
CONTINUOUS
  0
POLYLINE
  8
0
  6
CONTINUOUS
 66
     1
 10
0.0
 20
0.0
 30
0.0
  0
VERTEX
  8
0
  6
CONTINUOUS
 10
126.430856
 20
112.3417
 30
0.0
  0
VERTEX
  8
0
  6
CONTINUOUS
 10
126.396915
 20
112.504183
 30
0.0
  0
VERTEX
  8
0
  6
CONTINUOUS
 10
126.306339
 20
112.661077
 30
0.0
  0
VERTEX
  8
0
  6
CONTINUOUS
 10
126.183396
 20
112.770345
 30
0.0
  0
VERTEX
  8
0
  6
CONTINUOUS
 10
126.06103
 20
112.802706
 30
0.0
  0
VERTEX
  8
0
  6
CONTINUOUS
 10
125.972028
 20
112.749491
 30
0.0
  0
VERTEX
  8
0
  6
CONTINUOUS
 10
125.940238
 20
112.624959
 30
0.0
  0
SEQEND
  8
0
  6
CONTINUOUS
  0
POLYLINE
  8
0
  6
CONTINUOUS
 66
     1
 10
0.0
 20
0.0
 30
0.0
  0
VERTEX
  8
0
  6
CONTINUOUS
 10
126.34928
 20
110.750728
 30
0.0
  0
VERTEX
  8
0
  6
CONTINUOUS
 10
126.417817
 20
110.908082
 30
0.0
  0
VERTEX
  8
0
  6
CONTINUOUS
 10
126.440109
 20
111.106536
 30
0.0
  0
SEQEND
  8
0
  6
CONTINUOUS
  0
POLYLINE
  8
0
  6
CONTINUOUS
 66
     1
 10
0.0
 20
0.0
 30
0.0
  0
VERTEX
  8
0
  6
CONTINUOUS
 10
125.814805
 20
110.737785
 30
0.0
  0
VERTEX
  8
0
  6
CONTINUOUS
 10
125.851949
 20
110.592077
 30
0.0
  0
VERTEX
  8
0
  6
CONTINUOUS
 10
125.946159
 20
110.464779
 30
0.0
  0
VERTEX
  8
0
  6
CONTINUOUS
 10
126.058499
 20
110.408502
 30
0.0
  0
VERTEX
  8
0
  6
CONTINUOUS
 10
126.14254
 20
110.446506
 30
0.0
  0
SEQEND
  8
0
  6
CONTINUOUS
  0
POLYLINE
  8
0
  6
CONTINUOUS
 66
     1
 10
0.0
 20
0.0
 30
0.0
  0
VERTEX
  8
0
  6
CONTINUOUS
 10
125.810505
 20
111.311816
 30
0.0
  0
VERTEX
  8
0
  6
CONTINUOUS
 10
125.758098
 20
111.48641
 30
0.0
  0
VERTEX
  8
0
  6
CONTINUOUS
 10
125.633749
 20
111.61799
 30
0.0
  0
SEQEND
  8
0
  6
CONTINUOUS
  0
POLYLINE
  8
0
  6
CONTINUOUS
 66
     1
 10
0.0
 20
0.0
 30
0.0
  0
VERTEX
  8
0
  6
CONTINUOUS
 10
125.38844
 20
111.759619
 30
0.0
  0
VERTEX
  8
0
  6
CONTINUOUS
 10
125.301035
 20
111.782735
 30
0.0
  0
VERTEX
  8
0
  6
CONTINUOUS
 10
125.237462
 20
111.744724
 30
0.0
  0
VERTEX
  8
0
  6
CONTINUOUS
 10
125.214755
 20
111.655772
 30
0.0
  0
SEQEND
  8
0
  6
CONTINUOUS
  0
POLYLINE
  8
0
  6
CONTINUOUS
 66
     1
 10
0.0
 20
0.0
 30
0.0
  0
VERTEX
  8
0
  6
CONTINUOUS
 10
125.049671
 20
110.403864
 30
0.0
  0
VERTEX
  8
0
  6
CONTINUOUS
 10
125.137075
 20
110.380748
 30
0.0
  0
VERTEX
  8
0
  6
CONTINUOUS
 10
125.200648
 20
110.418759
 30
0.0
  0
VERTEX
  8
0
  6
CONTINUOUS
 10
125.223356
 20
110.507711
 30
0.0
  0
SEQEND
  8
0
  6
CONTINUOUS
  0
POLYLINE
  8
0
  6
CONTINUOUS
 66
     1
 10
0.0
 20
0.0
 30
0.0
  0
VERTEX
  8
0
  6
CONTINUOUS
 10
119.966736
 20
113.542622
 30
0.0
  0
VERTEX
  8
0
  6
CONTINUOUS
 10
120.019143
 20
113.368027
 30
0.0
  0
VERTEX
  8
0
  6
CONTINUOUS
 10
120.143493
 20
113.236447
 30
0.0
  0
SEQEND
  8
0
  6
CONTINUOUS
  0
POLYLINE
  8
0
  6
CONTINUOUS
 66
     1
 10
0.0
 20
0.0
 30
0.0
  0
VERTEX
  8
0
  6
CONTINUOUS
 10
119.989907
 20
133.737535
 30
0.0
  0
VERTEX
  8
0
  6
CONTINUOUS
 10
119.902502
 20
133.76065
 30
0.0
  0
VERTEX
  8
0
  6
CONTINUOUS
 10
119.838929
 20
133.72264
 30
0.0
  0
VERTEX
  8
0
  6
CONTINUOUS
 10
119.816222
 20
133.633687
 30
0.0
  0
SEQEND
  8
0
  6
CONTINUOUS
  0
POLYLINE
  8
0
  6
CONTINUOUS
 66
     1
 10
0.0
 20
0.0
 30
0.0
  0
VERTEX
  8
0
  6
CONTINUOUS
 10
125.072842
 20
130.598777
 30
0.0
  0
VERTEX
  8
0
  6
CONTINUOUS
 10
125.020435
 20
130.773372
 30
0.0
  0
VERTEX
  8
0
  6
CONTINUOUS
 10
124.896085
 20
130.904951
 30
0.0
  0
SEQEND
  8
0
  6
CONTINUOUS
  0
POLYLINE
  8
0
  6
CONTINUOUS
 66
     1
 10
0.0
 20
0.0
 30
0.0
  0
VERTEX
  8
0
  6
CONTINUOUS
 10
125.081442
 20
129.450716
 30
0.0
  0
VERTEX
  8
0
  6
CONTINUOUS
 10
125.133849
 20
129.276121
 30
0.0
  0
VERTEX
  8
0
  6
CONTINUOUS
 10
125.258199
 20
129.144541
 30
0.0
  0
SEQEND
  8
0
  6
CONTINUOUS
  0
POLYLINE
  8
0
  6
CONTINUOUS
 66
     1
 10
0.0
 20
0.0
 30
0.0
  0
VERTEX
  8
0
  6
CONTINUOUS
 10
125.503508
 20
129.002912
 30
0.0
  0
VERTEX
  8
0
  6
CONTINUOUS
 10
125.590912
 20
128.979797
 30
0.0
  0
VERTEX
  8
0
  6
CONTINUOUS
 10
125.654485
 20
129.017807
 30
0.0
  0
VERTEX
  8
0
  6
CONTINUOUS
 10
125.677193
 20
129.106759
 30
0.0
  0
SEQEND
  8
0
  6
CONTINUOUS
  0
POLYLINE
  8
0
  6
CONTINUOUS
 66
     1
 10
0.0
 20
0.0
 30
0.0
  0
VERTEX
  8
0
  6
CONTINUOUS
 10
125.99909
 20
129.594521
 30
0.0
  0
VERTEX
  8
0
  6
CONTINUOUS
 10
125.913748
 20
129.730318
 30
0.0
  0
VERTEX
  8
0
  6
CONTINUOUS
 10
125.801279
 20
129.803835
 30
0.0
  0
VERTEX
  8
0
  6
CONTINUOUS
 10
125.708166
 20
129.784687
 30
0.0
  0
VERTEX
  8
0
  6
CONTINUOUS
 10
125.672892
 20
129.68079
 30
0.0
  0
SEQEND
  8
0
  6
CONTINUOUS
  0
POLYLINE
  8
0
  6
CONTINUOUS
 66
     1
 10
0.0
 20
0.0
 30
0.0
  0
VERTEX
  8
0
  6
CONTINUOUS
 10
126.309177
 20
128.58366
 30
0.0
  0
VERTEX
  8
0
  6
CONTINUOUS
 10
126.283705
 20
128.809691
 30
0.0
  0
VERTEX
  8
0
  6
CONTINUOUS
 10
126.212205
 20
129.047896
 30
0.0
  0
SEQEND
  8
0
  6
CONTINUOUS
  0
POLYLINE
  8
0
  6
CONTINUOUS
 66
     1
 10
0.0
 20
0.0
 30
0.0
  0
VERTEX
  8
0
  6
CONTINUOUS
 10
125.827813
 20
127.631755
 30
0.0
  0
VERTEX
  8
0
  6
CONTINUOUS
 10
125.875927
 20
127.436002
 30
0.0
  0
VERTEX
  8
0
  6
CONTINUOUS
 10
125.999362
 20
127.260923
 30
0.0
  0
VERTEX
  8
0
  6
CONTINUOUS
 10
126.150971
 20
127.173392
 30
0.0
  0
VERTEX
  8
0
  6
CONTINUOUS
 10
126.272845
 20
127.206842
 30
0.0
  0
VERTEX
  8
0
  6
CONTINUOUS
 10
126.318431
 20
127.348496
 30
0.0
  0
SEQEND
  8
0
  6
CONTINUOUS
  0
POLYLINE
  8
0
  6
CONTINUOUS
 66
     1
 10
0.0
 20
0.0
 30
0.0
  0
VERTEX
  8
0
  6
CONTINUOUS
 10
125.824741
 20
128.041776
 30
0.0
  0
VERTEX
  8
0
  6
CONTINUOUS
 10
125.800498
 20
128.157835
 30
0.0
  0
VERTEX
  8
0
  6
CONTINUOUS
 10
125.735801
 20
128.269903
 30
0.0
  0
VERTEX
  8
0
  6
CONTINUOUS
 10
125.647985
 20
128.347951
 30
0.0
  0
SEQEND
  8
0
  6
CONTINUOUS
  0
POLYLINE
  8
0
  6
CONTINUOUS
 66
     1
 10
0.0
 20
0.0
 30
0.0
  0
VERTEX
  8
0
  6
CONTINUOUS
 10
124.592053
 20
129.569966
 30
0.0
  0
VERTEX
  8
0
  6
CONTINUOUS
 10
124.749274
 20
129.046181
 30
0.0
  0
VERTEX
  8
0
  6
CONTINUOUS
 10
125.122323
 20
128.651442
 30
0.0
  0
SEQEND
  8
0
  6
CONTINUOUS
  0
POLYLINE
  8
0
  6
CONTINUOUS
 66
     1
 10
0.0
 20
0.0
 30
0.0
  0
VERTEX
  8
0
  6
CONTINUOUS
 10
124.58806
 20
130.102994
 30
0.0
  0
VERTEX
  8
0
  6
CONTINUOUS
 10
124.539574
 20
130.335111
 30
0.0
  0
VERTEX
  8
0
  6
CONTINUOUS
 10
124.410179
 20
130.559247
 30
0.0
  0
VERTEX
  8
0
  6
CONTINUOUS
 10
124.234547
 20
130.715343
 30
0.0
  0
SEQEND
  8
0
  6
CONTINUOUS
  0
POLYLINE
  8
0
  6
CONTINUOUS
 66
     1
 10
0.0
 20
0.0
 30
0.0
  0
VERTEX
  8
0
  6
CONTINUOUS
 10
120.660046
 20
132.779082
 30
0.0
  0
VERTEX
  8
0
  6
CONTINUOUS
 10
120.413146
 20
132.802057
 30
0.0
  0
VERTEX
  8
0
  6
CONTINUOUS
 10
120.312676
 20
132.571388
 30
0.0
  0
SEQEND
  8
0
  6
CONTINUOUS
  0
POLYLINE
  8
0
  6
CONTINUOUS
 66
     1
 10
0.0
 20
0.0
 30
0.0
  0
VERTEX
  8
0
  6
CONTINUOUS
 10
120.373131
 20
124.501666
 30
0.0
  0
VERTEX
  8
0
  6
CONTINUOUS
 10
120.423412
 20
124.330797
 30
0.0
  0
VERTEX
  8
0
  6
CONTINUOUS
 10
120.543874
 20
124.199084
 30
0.0
  0
SEQEND
  8
0
  6
CONTINUOUS
  0
POLYLINE
  8
0
  6
CONTINUOUS
 66
     1
 10
0.0
 20
0.0
 30
0.0
  0
VERTEX
  8
0
  6
CONTINUOUS
 10
125.696912
 20
121.01793
 30
0.0
  0
VERTEX
  8
0
  6
CONTINUOUS
 10
125.786852
 20
120.990942
 30
0.0
  0
VERTEX
  8
0
  6
CONTINUOUS
 10
125.852906
 20
121.027793
 30
0.0
  0
VERTEX
  8
0
  6
CONTINUOUS
 10
125.87661
 20
121.118186
 30
0.0
  0
SEQEND
  8
0
  6
CONTINUOUS
  0
POLYLINE
  8
0
  6
CONTINUOUS
 66
     1
 10
0.0
 20
0.0
 30
0.0
  0
VERTEX
  8
0
  6
CONTINUOUS
 10
126.364501
 20
121.198848
 30
0.0
  0
VERTEX
  8
0
  6
CONTINUOUS
 10
126.330561
 20
121.36133
 30
0.0
  0
VERTEX
  8
0
  6
CONTINUOUS
 10
126.239985
 20
121.518225
 30
0.0
  0
VERTEX
  8
0
  6
CONTINUOUS
 10
126.117042
 20
121.627492
 30
0.0
  0
VERTEX
  8
0
  6
CONTINUOUS
 10
125.994676
 20
121.659854
 30
0.0
  0
VERTEX
  8
0
  6
CONTINUOUS
 10
125.905674
 20
121.606639
 30
0.0
  0
VERTEX
  8
0
  6
CONTINUOUS
 10
125.873884
 20
121.482106
 30
0.0
  0
SEQEND
  8
0
  6
CONTINUOUS
  0
POLYLINE
  8
0
  6
CONTINUOUS
 66
     1
 10
0.0
 20
0.0
 30
0.0
  0
VERTEX
  8
0
  6
CONTINUOUS
 10
125.829405
 20
120.364376
 30
0.0
  0
VERTEX
  8
0
  6
CONTINUOUS
 10
126.099227
 20
120.28341
 30
0.0
  0
VERTEX
  8
0
  6
CONTINUOUS
 10
126.297387
 20
120.393966
 30
0.0
  0
VERTEX
  8
0
  6
CONTINUOUS
 10
126.3685
 20
120.665142
 30
0.0
  0
SEQEND
  8
0
  6
CONTINUOUS
  0
POLYLINE
  8
0
  6
CONTINUOUS
 66
     1
 10
0.0
 20
0.0
 30
0.0
  0
VERTEX
  8
0
  6
CONTINUOUS
 10
120.739456
 20
123.506583
 30
0.0
  0
VERTEX
  8
0
  6
CONTINUOUS
 10
120.559575
 20
123.56056
 30
0.0
  0
VERTEX
  8
0
  6
CONTINUOUS
 10
120.427468
 20
123.486857
 30
0.0
  0
VERTEX
  8
0
  6
CONTINUOUS
 10
120.38006
 20
123.306072
 30
0.0
  0
VERTEX
  8
0
  6
CONTINUOUS
 10
120.430601
 20
123.068737
 30
0.0
  0
VERTEX
  8
0
  6
CONTINUOUS
 10
120.564965
 20
122.841187
 30
0.0
  0
VERTEX
  8
0
  6
CONTINUOUS
 10
120.745596
 20
122.687022
 30
0.0
  0
SEQEND
  8
0
  6
CONTINUOUS
  0
POLYLINE
  8
0
  6
CONTINUOUS
 66
     1
 10
0.0
 20
0.0
 30
0.0
  0
VERTEX
  8
0
  6
CONTINUOUS
 10
126.801877
 20
109.392227
 30
0.0
  0
VERTEX
  8
0
  6
CONTINUOUS
 10
126.889282
 20
109.369112
 30
0.0
  0
VERTEX
  8
0
  6
CONTINUOUS
 10
126.952855
 20
109.407122
 30
0.0
  0
VERTEX
  8
0
  6
CONTINUOUS
 10
126.975562
 20
109.496074
 30
0.0
  0
SEQEND
  8
0
  6
CONTINUOUS
  0
POLYLINE
  8
0
  6
CONTINUOUS
 66
     1
 10
0.0
 20
0.0
 30
0.0
  0
VERTEX
  8
0
  6
CONTINUOUS
 10
125.223356
 20
110.507711
 30
0.0
  0
VERTEX
  8
0
  6
CONTINUOUS
 10
125.247599
 20
110.391652
 30
0.0
  0
VERTEX
  8
0
  6
CONTINUOUS
 10
125.312296
 20
110.279585
 30
0.0
  0
VERTEX
  8
0
  6
CONTINUOUS
 10
125.400112
 20
110.201537
 30
0.0
  0
SEQEND
  8
0
  6
CONTINUOUS
  0
POLYLINE
  8
0
  6
CONTINUOUS
 66
     1
 10
0.0
 20
0.0
 30
0.0
  0
VERTEX
  8
0
  6
CONTINUOUS
 10
125.705987
 20
111.290509
 30
0.0
  0
VERTEX
  8
0
  6
CONTINUOUS
 10
125.672047
 20
111.452992
 30
0.0
  0
VERTEX
  8
0
  6
CONTINUOUS
 10
125.58147
 20
111.609887
 30
0.0
  0
VERTEX
  8
0
  6
CONTINUOUS
 10
125.458528
 20
111.719154
 30
0.0
  0
VERTEX
  8
0
  6
CONTINUOUS
 10
125.336162
 20
111.751516
 30
0.0
  0
VERTEX
  8
0
  6
CONTINUOUS
 10
125.247159
 20
111.698301
 30
0.0
  0
VERTEX
  8
0
  6
CONTINUOUS
 10
125.215369
 20
111.573768
 30
0.0
  0
SEQEND
  8
0
  6
CONTINUOUS
  0
POLYLINE
  8
0
  6
CONTINUOUS
 66
     1
 10
0.0
 20
0.0
 30
0.0
  0
VERTEX
  8
0
  6
CONTINUOUS
 10
125.709673
 20
110.798483
 30
0.0
  0
VERTEX
  8
0
  6
CONTINUOUS
 10
125.76208
 20
110.623889
 30
0.0
  0
VERTEX
  8
0
  6
CONTINUOUS
 10
125.88643
 20
110.492309
 30
0.0
  0
SEQEND
  8
0
  6
CONTINUOUS
  0
POLYLINE
  8
0
  6
CONTINUOUS
 66
     1
 10
0.0
 20
0.0
 30
0.0
  0
VERTEX
  8
0
  6
CONTINUOUS
 10
126.306959
 20
110.249516
 30
0.0
  0
VERTEX
  8
0
  6
CONTINUOUS
 10
126.394364
 20
110.2264
 30
0.0
  0
VERTEX
  8
0
  6
CONTINUOUS
 10
126.457937
 20
110.264411
 30
0.0
  0
VERTEX
  8
0
  6
CONTINUOUS
 10
126.480644
 20
110.353363
 30
0.0
  0
SEQEND
  8
0
  6
CONTINUOUS
  0
POLYLINE
  8
0
  6
CONTINUOUS
 66
     1
 10
0.0
 20
0.0
 30
0.0
  0
VERTEX
  8
0
  6
CONTINUOUS
 10
126.338731
 20
129.296368
 30
0.0
  0
VERTEX
  8
0
  6
CONTINUOUS
 10
126.314488
 20
129.412427
 30
0.0
  0
VERTEX
  8
0
  6
CONTINUOUS
 10
126.24979
 20
129.524494
 30
0.0
  0
VERTEX
  8
0
  6
CONTINUOUS
 10
126.161974
 20
129.602542
 30
0.0
  0
SEQEND
  8
0
  6
CONTINUOUS
  0
POLYLINE
  8
0
  6
CONTINUOUS
 66
     1
 10
0.0
 20
0.0
 30
0.0
  0
VERTEX
  8
0
  6
CONTINUOUS
 10
125.741445
 20
129.845335
 30
0.0
  0
VERTEX
  8
0
  6
CONTINUOUS
 10
125.65404
 20
129.868451
 30
0.0
  0
VERTEX
  8
0
  6
CONTINUOUS
 10
125.590467
 20
129.83044
 30
0.0
  0
VERTEX
  8
0
  6
CONTINUOUS
 10
125.56776
 20
129.741488
 30
0.0
  0
SEQEND
  8
0
  6
CONTINUOUS
  0
POLYLINE
  8
0
  6
CONTINUOUS
 66
     1
 10
0.0
 20
0.0
 30
0.0
  0
VERTEX
  8
0
  6
CONTINUOUS
 10
125.080797
 20
129.536838
 30
0.0
  0
VERTEX
  8
0
  6
CONTINUOUS
 10
125.128911
 20
129.341086
 30
0.0
  0
VERTEX
  8
0
  6
CONTINUOUS
 10
125.252346
 20
129.166007
 30
0.0
  0
VERTEX
  8
0
  6
CONTINUOUS
 10
125.403956
 20
129.078475
 30
0.0
  0
VERTEX
  8
0
  6
CONTINUOUS
 10
125.525829
 20
129.111925
 30
0.0
  0
VERTEX
  8
0
  6
CONTINUOUS
 10
125.571415
 20
129.25358
 30
0.0
  0
SEQEND
  8
0
  6
CONTINUOUS
  0
POLYLINE
  8
0
  6
CONTINUOUS
 66
     1
 10
0.0
 20
0.0
 30
0.0
  0
VERTEX
  8
0
  6
CONTINUOUS
 10
125.246526
 20
130.702624
 30
0.0
  0
VERTEX
  8
0
  6
CONTINUOUS
 10
125.159122
 20
130.72574
 30
0.0
  0
VERTEX
  8
0
  6
CONTINUOUS
 10
125.095549
 20
130.687729
 30
0.0
  0
VERTEX
  8
0
  6
CONTINUOUS
 10
125.072842
 20
130.598777
 30
0.0
  0
SEQEND
  8
0
  6
CONTINUOUS
  0
POLYLINE
  8
0
  6
CONTINUOUS
 66
     1
 10
0.0
 20
0.0
 30
0.0
  0
VERTEX
  8
0
  6
CONTINUOUS
 10
126.825048
 20
129.58714
 30
0.0
  0
VERTEX
  8
0
  6
CONTINUOUS
 10
126.772641
 20
129.761735
 30
0.0
  0
VERTEX
  8
0
  6
CONTINUOUS
 10
126.648291
 20
129.893315
 30
0.0
  0
SEQEND
  8
0
  6
CONTINUOUS
  0
POLYLINE
  8
0
  6
CONTINUOUS
 66
     1
 10
0.0
 20
0.0
 30
0.0
  0
VERTEX
  8
0
  6
CONTINUOUS
 10
214.354318
 20
181.160843
 30
0.0
  0
VERTEX
  8
0
  6
CONTINUOUS
 10
214.289274
 20
181.29359
 30
0.0
  0
VERTEX
  8
0
  6
CONTINUOUS
 10
214.189691
 20
181.387038
 30
0.0
  0
SEQEND
  8
0
  6
CONTINUOUS
  0
POLYLINE
  8
0
  6
CONTINUOUS
 66
     1
 10
0.0
 20
0.0
 30
0.0
  0
VERTEX
  8
0
  6
CONTINUOUS
 10
214.540132
 20
181.18471
 30
0.0
  0
VERTEX
  8
0
  6
CONTINUOUS
 10
214.474258
 20
181.207715
 30
0.0
  0
VERTEX
  8
0
  6
CONTINUOUS
 10
214.41831
 20
181.197145
 30
0.0
  0
SEQEND
  8
0
  6
CONTINUOUS
  0
POLYLINE
  8
0
  6
CONTINUOUS
 66
     1
 10
0.0
 20
0.0
 30
0.0
  0
VERTEX
  8
0
  6
CONTINUOUS
 10
216.118654
 20
180.069226
 30
0.0
  0
VERTEX
  8
0
  6
CONTINUOUS
 10
216.094411
 20
180.185285
 30
0.0
  0
VERTEX
  8
0
  6
CONTINUOUS
 10
216.029714
 20
180.297353
 30
0.0
  0
VERTEX
  8
0
  6
CONTINUOUS
 10
215.941897
 20
180.375401
 30
0.0
  0
SEQEND
  8
0
  6
CONTINUOUS
  0
POLYLINE
  8
0
  6
CONTINUOUS
 66
     1
 10
0.0
 20
0.0
 30
0.0
  0
VERTEX
  8
0
  6
CONTINUOUS
 10
209.146188
 20
184.325205
 30
0.0
  0
VERTEX
  8
0
  6
CONTINUOUS
 10
209.080314
 20
184.348209
 30
0.0
  0
VERTEX
  8
0
  6
CONTINUOUS
 10
209.024365
 20
184.33764
 30
0.0
  0
SEQEND
  8
0
  6
CONTINUOUS
  0
POLYLINE
  8
0
  6
CONTINUOUS
 66
     1
 10
0.0
 20
0.0
 30
0.0
  0
VERTEX
  8
0
  6
CONTINUOUS
 10
216.079977
 20
159.967464
 30
0.0
  0
VERTEX
  8
0
  6
CONTINUOUS
 10
216.118654
 20
160.012005
 30
0.0
  0
VERTEX
  8
0
  6
CONTINUOUS
 10
216.131839
 20
160.083746
 30
0.0
  0
SEQEND
  8
0
  6
CONTINUOUS
  0
POLYLINE
  8
0
  6
CONTINUOUS
 66
     1
 10
0.0
 20
0.0
 30
0.0
  0
VERTEX
  8
0
  6
CONTINUOUS
 10
181.942878
 20
136.606333
 30
0.0
  0
VERTEX
  8
0
  6
CONTINUOUS
 10
181.981554
 20
136.650874
 30
0.0
  0
VERTEX
  8
0
  6
CONTINUOUS
 10
181.99474
 20
136.722615
 30
0.0
  0
SEQEND
  8
0
  6
CONTINUOUS
  0
POLYLINE
  8
0
  6
CONTINUOUS
 66
     1
 10
0.0
 20
0.0
 30
0.0
  0
VERTEX
  8
0
  6
CONTINUOUS
 10
181.99474
 20
136.722615
 30
0.0
  0
VERTEX
  8
0
  6
CONTINUOUS
 10
182.050277
 20
136.769905
 30
0.0
  0
VERTEX
  8
0
  6
CONTINUOUS
 10
182.069512
 20
136.82567
 30
0.0
  0
SEQEND
  8
0
  6
CONTINUOUS
  0
POLYLINE
  8
0
  6
CONTINUOUS
 66
     1
 10
0.0
 20
0.0
 30
0.0
  0
VERTEX
  8
0
  6
CONTINUOUS
 10
165.593077
 20
127.616823
 30
0.0
  0
VERTEX
  8
0
  6
CONTINUOUS
 10
165.607238
 20
127.54607
 30
0.0
  0
VERTEX
  8
0
  6
CONTINUOUS
 10
165.646389
 20
127.501492
 30
0.0
  0
SEQEND
  8
0
  6
CONTINUOUS
  0
POLYLINE
  8
0
  6
CONTINUOUS
 66
     1
 10
0.0
 20
0.0
 30
0.0
  0
VERTEX
  8
0
  6
CONTINUOUS
 10
165.894748
 20
127.500552
 30
0.0
  0
VERTEX
  8
0
  6
CONTINUOUS
 10
165.933425
 20
127.545093
 30
0.0
  0
VERTEX
  8
0
  6
CONTINUOUS
 10
165.94661
 20
127.616834
 30
0.0
  0
SEQEND
  8
0
  6
CONTINUOUS
  0
POLYLINE
  8
0
  6
CONTINUOUS
 66
     1
 10
0.0
 20
0.0
 30
0.0
  0
VERTEX
  8
0
  6
CONTINUOUS
 10
165.593077
 20
127.616823
 30
0.0
  0
VERTEX
  8
0
  6
CONTINUOUS
 10
165.704577
 20
127.579796
 30
0.0
  0
VERTEX
  8
0
  6
CONTINUOUS
 10
165.833979
 20
127.5798
 30
0.0
  0
VERTEX
  8
0
  6
CONTINUOUS
 10
165.94661
 20
127.616834
 30
0.0
  0
SEQEND
  8
0
  6
CONTINUOUS
  0
LINE
  8
0
  6
CONTINUOUS
 10
196.500863
 20
177.231749
 30
0.0
 11
196.500863
 21
162.216795
 31
0.0
  0
LINE
  8
0
  6
CONTINUOUS
 10
209.024365
 20
184.33764
 30
0.0
 11
196.500863
 21
177.231749
 31
0.0
  0
LINE
  8
0
  6
CONTINUOUS
 10
126.975562
 20
109.496074
 30
0.0
 11
162.283972
 21
129.530225
 31
0.0
  0
LINE
  8
0
  6
CONTINUOUS
 10
162.283972
 20
129.530225
 30
0.0
 11
165.593077
 21
127.616823
 31
0.0
  0
LINE
  8
0
  6
CONTINUOUS
 10
196.500863
 20
177.150192
 30
0.0
 11
209.146188
 21
184.325205
 31
0.0
  0
LINE
  8
0
  6
CONTINUOUS
 10
214.189691
 20
181.387038
 30
0.0
 11
209.146188
 21
184.325205
 31
0.0
  0
LINE
  8
0
  6
CONTINUOUS
 10
196.499985
 20
171.691644
 30
0.0
 11
214.189691
 21
181.387038
 31
0.0
  0
LINE
  8
0
  6
CONTINUOUS
 10
196.500144
 20
171.290565
 30
0.0
 11
214.540132
 21
181.18471
 31
0.0
  0
LINE
  8
0
  6
CONTINUOUS
 10
196.500782
 20
169.686249
 30
0.0
 11
215.941897
 21
180.375401
 31
0.0
  0
LINE
  8
0
  6
CONTINUOUS
 10
196.500863
 20
169.279828
 30
0.0
 11
216.118654
 21
180.069226
 31
0.0
  0
LINE
  8
0
  6
CONTINUOUS
 10
215.941897
 20
180.375401
 30
0.0
 11
214.540132
 21
181.18471
 31
0.0
  0
LINE
  8
0
  6
CONTINUOUS
 10
216.131839
 20
160.083746
 30
0.0
 11
216.118654
 21
180.069226
 31
0.0
  0
LINE
  8
0
  6
CONTINUOUS
 10
182.069512
 20
140.75663
 30
0.0
 11
216.131839
 21
160.083746
 31
0.0
  0
LINE
  8
0
  6
CONTINUOUS
 10
142.732912
 20
140.659446
 30
0.0
 11
125.124688
 21
130.71505
 31
0.0
  0
LINE
  8
0
  6
CONTINUOUS
 10
125.246526
 20
130.702624
 30
0.0
 11
142.805451
 21
140.619047
 31
0.0
  0
LINE
  8
0
  6
CONTINUOUS
 10
124.896085
 20
130.904951
 30
0.0
 11
142.448785
 21
140.817843
 31
0.0
  0
LINE
  8
0
  6
CONTINUOUS
 10
162.283498
 20
129.443058
 30
0.0
 11
162.283972
 21
141.800956
 31
0.0
  0
LINE
  8
0
  6
CONTINUOUS
 10
162.283498
 20
129.443058
 30
0.0
 11
165.646389
 21
127.501492
 31
0.0
  0
LINE
  8
0
  6
CONTINUOUS
 10
165.593077
 20
127.616823
 30
0.0
 11
165.581415
 21
143.691225
 31
0.0
  0
LINE
  8
0
  6
CONTINUOUS
 10
165.94661
 20
127.616834
 30
0.0
 11
165.933425
 21
143.894479
 31
0.0
  0
LINE
  8
0
  6
CONTINUOUS
 10
165.894764
 20
127.500561
 30
0.0
 11
181.942894
 21
136.606342
 31
0.0
  0
LINE
  8
0
  6
CONTINUOUS
 10
182.069512
 20
136.825652
 30
0.0
 11
182.069512
 21
153.151009
 31
0.0
  0
LINE
  8
0
  6
CONTINUOUS
 10
126.923716
 20
109.379801
 30
0.0
 11
162.283499
 21
129.443101
 31
0.0
  0
LINE
  8
0
  6
CONTINUOUS
 10
119.989907
 20
133.737535
 30
0.0
 11
137.507776
 21
143.730422
 31
0.0
  0
LINE
  8
0
  6
CONTINUOUS
 10
126.825048
 20
129.58714
 30
0.0
 11
144.593392
 21
139.622389
 31
0.0
  0
LINE
  8
0
  6
CONTINUOUS
 10
126.648291
 20
129.893315
 30
0.0
 11
144.232116
 21
139.823866
 31
0.0
  0
LINE
  8
0
  6
CONTINUOUS
 10
137.435237
 20
143.770821
 30
0.0
 11
119.868068
 21
133.74996
 31
0.0
  0
LINE
  8
0
  6
CONTINUOUS
 10
126.825048
 20
129.58714
 30
0.0
 11
126.975562
 21
109.496074
 31
0.0
  0
LINE
  8
0
  6
CONTINUOUS
 10
125.246526
 20
130.702624
 30
0.0
 11
126.648291
 21
129.893315
 31
0.0
  0
LINE
  8
0
  6
CONTINUOUS
 10
125.080797
 20
129.536838
 30
0.0
 11
125.072842
 21
130.598777
 31
0.0
  0
LINE
  8
0
  6
CONTINUOUS
 10
125.571415
 20
129.25358
 30
0.0
 11
125.675602
 21
129.312696
 31
0.0
  0
LINE
  8
0
  6
CONTINUOUS
 10
125.56776
 20
129.741488
 30
0.0
 11
125.745972
 21
129.842607
 31
0.0
  0
LINE
  8
0
  6
CONTINUOUS
 10
125.56776
 20
129.741488
 30
0.0
 11
125.571415
 21
129.25358
 31
0.0
  0
LINE
  8
0
  6
CONTINUOUS
 10
126.161974
 20
129.602542
 30
0.0
 11
125.741445
 21
129.845335
 31
0.0
  0
LINE
  8
0
  6
CONTINUOUS
 10
126.480644
 20
110.353363
 30
0.0
 11
126.338731
 21
129.296368
 31
0.0
  0
LINE
  8
0
  6
CONTINUOUS
 10
126.306959
 20
110.249516
 30
0.0
 11
126.480581
 21
110.34803
 31
0.0
  0
LINE
  8
0
  6
CONTINUOUS
 10
125.88643
 20
110.492309
 30
0.0
 11
125.907977
 21
110.504535
 31
0.0
  0
LINE
  8
0
  6
CONTINUOUS
 10
125.88643
 20
110.492309
 30
0.0
 11
126.306959
 21
110.249516
 31
0.0
  0
LINE
  8
0
  6
CONTINUOUS
 10
125.709673
 20
110.798483
 30
0.0
 11
125.81386
 21
110.8576
 31
0.0
  0
LINE
  8
0
  6
CONTINUOUS
 10
125.705987
 20
111.290509
 30
0.0
 11
125.807462
 21
111.348087
 31
0.0
  0
LINE
  8
0
  6
CONTINUOUS
 10
125.705987
 20
111.290509
 30
0.0
 11
125.709673
 21
110.798483
 31
0.0
  0
LINE
  8
0
  6
CONTINUOUS
 10
125.223356
 20
110.507711
 30
0.0
 11
125.215369
 21
111.573768
 31
0.0
  0
LINE
  8
0
  6
CONTINUOUS
 10
126.801877
 20
109.392227
 30
0.0
 11
125.400112
 21
110.201537
 31
0.0
  0
LINE
  8
0
  6
CONTINUOUS
 10
120.745596
 20
122.687022
 30
0.0
 11
121.433777
 21
123.077499
 31
0.0
  0
LINE
  8
0
  6
CONTINUOUS
 10
125.829405
 20
120.364376
 30
0.0
 11
120.739456
 21
123.506583
 31
0.0
  0
LINE
  8
0
  6
CONTINUOUS
 10
126.3685
 20
120.665142
 30
0.0
 11
126.403229
 21
120.684847
 31
0.0
  0
LINE
  8
0
  6
CONTINUOUS
 10
126.364501
 20
121.198848
 30
0.0
 11
126.39923
 21
121.218553
 31
0.0
  0
LINE
  8
0
  6
CONTINUOUS
 10
126.364501
 20
121.198848
 30
0.0
 11
126.3685
 21
120.665142
 31
0.0
  0
LINE
  8
0
  6
CONTINUOUS
 10
125.87661
 20
121.118186
 30
0.0
 11
125.873884
 21
121.482106
 31
0.0
  0
LINE
  8
0
  6
CONTINUOUS
 10
125.696912
 20
121.01793
 30
0.0
 11
125.876515
 21
121.119838
 31
0.0
  0
LINE
  8
0
  6
CONTINUOUS
 10
120.543874
 20
124.199084
 30
0.0
 11
125.975229
 21
127.280858
 31
0.0
  0
LINE
  8
0
  6
CONTINUOUS
 10
120.543874
 20
124.199084
 30
0.0
 11
125.696912
 21
121.01793
 31
0.0
  0
LINE
  8
0
  6
CONTINUOUS
 10
120.373131
 20
124.501666
 30
0.0
 11
125.827161
 21
127.596307
 31
0.0
  0
LINE
  8
0
  6
CONTINUOUS
 10
120.312676
 20
132.571388
 30
0.0
 11
120.669101
 21
132.773625
 31
0.0
  0
LINE
  8
0
  6
CONTINUOUS
 10
120.312676
 20
132.571388
 30
0.0
 11
120.373131
 21
124.501666
 31
0.0
  0
LINE
  8
0
  6
CONTINUOUS
 10
124.234547
 20
130.715343
 30
0.0
 11
120.660046
 21
132.779082
 31
0.0
  0
LINE
  8
0
  6
CONTINUOUS
 10
124.592053
 20
129.569966
 30
0.0
 11
124.58806
 21
130.102994
 31
0.0
  0
LINE
  8
0
  6
CONTINUOUS
 10
125.647985
 20
128.347951
 30
0.0
 11
125.122323
 21
128.651442
 31
0.0
  0
LINE
  8
0
  6
CONTINUOUS
 10
125.827813
 20
127.631755
 30
0.0
 11
125.824741
 21
128.041776
 31
0.0
  0
LINE
  8
0
  6
CONTINUOUS
 10
126.318431
 20
127.348496
 30
0.0
 11
126.35316
 21
127.368202
 31
0.0
  0
LINE
  8
0
  6
CONTINUOUS
 10
126.309177
 20
128.58366
 30
0.0
 11
126.343906
 21
128.603366
 31
0.0
  0
LINE
  8
0
  6
CONTINUOUS
 10
126.309177
 20
128.58366
 30
0.0
 11
126.318431
 21
127.348496
 31
0.0
  0
LINE
  8
0
  6
CONTINUOUS
 10
126.212205
 20
129.047896
 30
0.0
 11
126.33999
 21
129.120401
 31
0.0
  0
LINE
  8
0
  6
CONTINUOUS
 10
125.99909
 20
129.594521
 30
0.0
 11
126.088197
 21
129.645081
 31
0.0
  0
LINE
  8
0
  6
CONTINUOUS
 10
125.99909
 20
129.594521
 30
0.0
 11
126.212205
 21
129.047896
 31
0.0
  0
LINE
  8
0
  6
CONTINUOUS
 10
125.677193
 20
129.106759
 30
0.0
 11
125.672892
 21
129.68079
 31
0.0
  0
LINE
  8
0
  6
CONTINUOUS
 10
125.503508
 20
129.002912
 30
0.0
 11
125.67713
 21
129.101426
 31
0.0
  0
LINE
  8
0
  6
CONTINUOUS
 10
125.258199
 20
129.144541
 30
0.0
 11
125.269138
 21
129.150749
 31
0.0
  0
LINE
  8
0
  6
CONTINUOUS
 10
125.258199
 20
129.144541
 30
0.0
 11
125.503508
 21
129.002912
 31
0.0
  0
LINE
  8
0
  6
CONTINUOUS
 10
125.081442
 20
129.450716
 30
0.0
 11
125.090152
 21
129.455658
 31
0.0
  0
LINE
  8
0
  6
CONTINUOUS
 10
125.080797
 20
129.536838
 30
0.0
 11
125.081442
 21
129.450716
 31
0.0
  0
LINE
  8
0
  6
CONTINUOUS
 10
119.989907
 20
133.737535
 30
0.0
 11
124.896085
 21
130.904951
 31
0.0
  0
LINE
  8
0
  6
CONTINUOUS
 10
119.966736
 20
113.542622
 30
0.0
 11
119.816222
 21
133.633687
 31
0.0
  0
LINE
  8
0
  6
CONTINUOUS
 10
125.049671
 20
110.403864
 30
0.0
 11
120.143493
 21
113.236447
 31
0.0
  0
LINE
  8
0
  6
CONTINUOUS
 10
125.214755
 20
111.655772
 30
0.0
 11
125.229811
 21
111.664315
 31
0.0
  0
LINE
  8
0
  6
CONTINUOUS
 10
125.214755
 20
111.655772
 30
0.0
 11
125.215369
 21
111.573768
 31
0.0
  0
LINE
  8
0
  6
CONTINUOUS
 10
125.633749
 20
111.61799
 30
0.0
 11
125.38844
 21
111.759619
 31
0.0
  0
LINE
  8
0
  6
CONTINUOUS
 10
125.814805
 20
110.737785
 30
0.0
 11
125.810505
 21
111.311816
 31
0.0
  0
LINE
  8
0
  6
CONTINUOUS
 10
126.14254
 20
110.446506
 30
0.0
 11
126.478365
 21
110.637054
 31
0.0
  0
LINE
  8
0
  6
CONTINUOUS
 10
126.34928
 20
110.750728
 30
0.0
 11
126.477065
 21
110.823234
 31
0.0
  0
LINE
  8
0
  6
CONTINUOUS
 10
126.34928
 20
110.750728
 30
0.0
 11
126.14254
 21
110.446506
 31
0.0
  0
LINE
  8
0
  6
CONTINUOUS
 10
126.440109
 20
111.106536
 30
0.0
 11
126.474838
 21
111.126242
 31
0.0
  0
LINE
  8
0
  6
CONTINUOUS
 10
126.430856
 20
112.3417
 30
0.0
 11
126.465585
 21
112.361406
 31
0.0
  0
LINE
  8
0
  6
CONTINUOUS
 10
126.430856
 20
112.3417
 30
0.0
 11
126.440109
 21
111.106536
 31
0.0
  0
LINE
  8
0
  6
CONTINUOUS
 10
125.943309
 20
112.214937
 30
0.0
 11
125.940238
 21
112.624959
 31
0.0
  0
LINE
  8
0
  6
CONTINUOUS
 10
125.769625
 20
112.11109
 30
0.0
 11
125.943247
 21
112.209604
 31
0.0
  0
LINE
  8
0
  6
CONTINUOUS
 10
125.243963
 20
112.414581
 30
0.0
 11
126.459478
 21
113.10427
 31
0.0
  0
LINE
  8
0
  6
CONTINUOUS
 10
125.243963
 20
112.414581
 30
0.0
 11
125.769625
 21
112.11109
 31
0.0
  0
LINE
  8
0
  6
CONTINUOUS
 10
124.726902
 20
111.570011
 30
0.0
 11
124.722908
 21
112.103039
 31
0.0
  0
LINE
  8
0
  6
CONTINUOUS
 10
124.379532
 20
111.362317
 30
0.0
 11
124.726776
 21
111.559345
 31
0.0
  0
LINE
  8
0
  6
CONTINUOUS
 10
120.805031
 20
113.426056
 30
0.0
 11
126.431132
 21
116.618331
 31
0.0
  0
LINE
  8
0
  6
CONTINUOUS
 10
120.805031
 20
113.426056
 30
0.0
 11
124.379532
 21
111.362317
 31
0.0
  0
LINE
  8
0
  6
CONTINUOUS
 10
120.451518
 20
114.038405
 30
0.0
 11
126.424909
 21
117.427734
 31
0.0
  0
LINE
  8
0
  6
CONTINUOUS
 10
120.391063
 20
122.108127
 30
0.0
 11
120.569551
 21
122.209401
 31
0.0
  0
LINE
  8
0
  6
CONTINUOUS
 10
120.391063
 20
122.108127
 30
0.0
 11
120.451518
 21
114.038405
 31
0.0
  0
LINE
  8
0
  6
CONTINUOUS
 10
125.708673
 20
119.448053
 30
0.0
 11
120.558736
 21
122.215324
 31
0.0
  0
LINE
  8
0
  6
CONTINUOUS
 10
125.894167
 20
118.774607
 30
0.0
 11
125.891441
 21
119.138528
 31
0.0
  0
LINE
  8
0
  6
CONTINUOUS
 10
126.384785
 20
118.491349
 30
0.0
 11
126.419514
 21
118.511054
 31
0.0
  0
LINE
  8
0
  6
CONTINUOUS
 10
126.380787
 20
119.025055
 30
0.0
 11
126.415516
 21
119.04476
 31
0.0
  0
LINE
  8
0
  6
CONTINUOUS
 10
126.380787
 20
119.025055
 30
0.0
 11
126.384785
 21
118.491349
 31
0.0
  0
LINE
  8
0
  6
CONTINUOUS
 10
125.832482
 20
119.95363
 30
0.0
 11
126.406022
 21
120.279059
 31
0.0
  0
LINE
  8
0
  6
CONTINUOUS
 10
120.745596
 20
122.687022
 30
0.0
 11
125.832482
 21
119.95363
 31
0.0
  0
LINE
  8
0
  6
CONTINUOUS
 10
125.49883
 20
129.090797
 30
0.0
 11
125.676476
 21
129.191594
 31
0.0
  0
LINE
  8
0
  6
CONTINUOUS
 10
125.355451
 20
111.774848
 30
0.0
 11
125.287954
 21
111.73655
 31
0.0
  0
LINE
  8
0
  6
CONTINUOUS
 10
126.212961
 20
120.316323
 30
0.0
 11
126.405101
 21
120.425343
 31
0.0
  0
LINE
  8
0
  6
CONTINUOUS
 10
126.393945
 20
121.898789
 30
0.0
 11
125.946468
 21
121.644888
 31
0.0
  0
LINE
  8
0
  6
CONTINUOUS
 10
126.245846
 20
127.185714
 30
0.0
 11
126.354033
 21
127.2471
 31
0.0
  0
LINE
  8
0
  6
CONTINUOUS
 10
125.775304
 20
129.825754
 30
0.0
 11
125.724738
 21
129.797063
 31
0.0
  0
LINE
  8
0
  6
CONTINUOUS
 10
125.17151
 20
110.391438
 30
0.0
 11
125.235592
 21
110.427799
 31
0.0
  0
LINE
  8
0
  6
CONTINUOUS
 10
126.113401
 20
110.419185
 30
0.0
 11
126.478432
 21
110.626305
 31
0.0
  0
LINE
  8
0
  6
CONTINUOUS
 10
126.460299
 20
113.041641
 30
0.0
 11
126.012822
 21
112.787741
 31
0.0
  0
LINE
  8
0
  6
CONTINUOUS
 10
126.457487
 20
113.347813
 30
0.0
 11
124.878447
 21
112.451858
 31
0.0
  0
LINE
  8
0
  6
CONTINUOUS
 10
126.3122
 20
118.328566
 30
0.0
 11
126.420387
 21
118.389952
 31
0.0
  0
LINE
  8
0
  6
CONTINUOUS
 10
137.405936
 20
143.908111
 30
0.0
 11
137.405936
 21
180.959716
 31
0.0
  0
LINE
  8
0
  6
CONTINUOUS
 10
137.759436
 20
181.571995
 30
0.0
 11
181.765004
 21
206.767321
 31
0.0
  0
LINE
  8
0
  6
CONTINUOUS
 10
167.684842
 20
161.230847
 30
0.0
 11
157.991103
 21
155.67
 31
0.0
  0
LINE
  8
0
  6
CONTINUOUS
 10
169.211829
 20
157.680237
 30
0.0
 11
169.311346
 21
159.056383
 31
0.0
  0
LINE
  8
0
  6
CONTINUOUS
 10
169.311346
 20
159.056383
 30
0.0
 11
169.976612
 21
159.438017
 31
0.0
  0
LINE
  8
0
  6
CONTINUOUS
 10
167.848781
 20
160.974257
 30
0.0
 11
169.576037
 21
159.970204
 31
0.0
  0
LINE
  8
0
  6
CONTINUOUS
 10
167.848781
 20
160.974257
 30
0.0
 11
167.848828
 21
160.318881
 31
0.0
  0
LINE
  8
0
  6
CONTINUOUS
 10
169.66848
 20
159.261118
 30
0.0
 11
167.848828
 21
160.318881
 31
0.0
  0
LINE
  8
0
  6
CONTINUOUS
 10
168.556667
 20
162.132406
 30
0.0
 11
168.556721
 21
161.380368
 31
0.0
  0
LINE
  8
0
  6
CONTINUOUS
 10
170.17876
 20
160.439326
 30
0.0
 11
168.556721
 21
161.380368
 31
0.0
  0
LINE
  8
0
  6
CONTINUOUS
 10
170.773169
 20
160.780383
 30
0.0
 11
168.556667
 21
162.132406
 31
0.0
  0
LINE
  8
0
  6
CONTINUOUS
 10
167.848781
 20
160.974257
 30
0.0
 11
168.556721
 21
161.380368
 31
0.0
  0
LINE
  8
0
  6
CONTINUOUS
 10
168.87563
 20
162.315379
 30
0.0
 11
168.556667
 21
162.132406
 31
0.0
  0
LINE
  8
0
  6
CONTINUOUS
 10
168.87563
 20
162.315379
 30
0.0
 11
171.094096
 21
160.964485
 31
0.0
  0
LINE
  8
0
  6
CONTINUOUS
 10
169.211829
 20
157.680237
 30
0.0
 11
169.637055
 21
157.441271
 31
0.0
  0
LINE
  8
0
  6
CONTINUOUS
 10
169.735629
 20
158.804393
 30
0.0
 11
169.637055
 21
157.441271
 31
0.0
  0
LINE
  8
0
  6
CONTINUOUS
 10
169.311346
 20
159.056383
 30
0.0
 11
169.735629
 21
158.804393
 31
0.0
  0
LINE
  8
0
  6
CONTINUOUS
 10
169.637055
 20
157.441271
 30
0.0
 11
171.228561
 21
158.354244
 31
0.0
  0
LINE
  8
0
  6
CONTINUOUS
 10
171.228538
 20
158.666792
 30
0.0
 11
171.228561
 21
158.354244
 31
0.0
  0
LINE
  8
0
  6
CONTINUOUS
 10
169.735629
 20
158.804393
 30
0.0
 11
170.393167
 21
159.181592
 31
0.0
  0
LINE
  8
0
  6
CONTINUOUS
 10
171.641171
 20
158.114397
 30
0.0
 11
171.228561
 21
158.354244
 31
0.0
  0
LINE
  8
0
  6
CONTINUOUS
 10
183.893987
 20
179.457256
 30
0.0
 11
184.805791
 21
179.980316
 31
0.0
  0
LINE
  8
0
  6
CONTINUOUS
 10
168.369743
 20
161.623743
 30
0.0
 11
168.556395
 21
161.516509
 31
0.0
  0
LINE
  8
0
  6
CONTINUOUS
 10
167.684842
 20
161.230847
 30
0.0
 11
168.369743
 21
161.623743
 31
0.0
  0
LINE
  8
0
  6
CONTINUOUS
 10
169.576465
 20
159.684375
 30
0.0
 11
171.892461
 21
158.258687
 31
0.0
  0
LINE
  8
0
  6
CONTINUOUS
 10
172.283621
 20
158.483125
 30
0.0
 11
169.576436
 21
160.093922
 31
0.0
  0
LINE
  8
0
  6
CONTINUOUS
 10
169.576465
 20
159.684375
 30
0.0
 11
169.576436
 21
160.093922
 31
0.0
  0
LINE
  8
0
  6
CONTINUOUS
 10
172.227984
 20
161.614992
 30
0.0
 11
175.007302
 21
160.045574
 31
0.0
  0
LINE
  8
0
  6
CONTINUOUS
 10
169.576436
 20
160.093922
 30
0.0
 11
172.227984
 21
161.614992
 31
0.0
  0
LINE
  8
0
  6
CONTINUOUS
 10
164.431772
 20
166.381731
 30
0.0
 11
165.845929
 21
167.192967
 31
0.0
  0
LINE
  8
0
  6
CONTINUOUS
 10
164.431772
 20
166.381731
 30
0.0
 11
164.078241
 21
166.588449
 31
0.0
  0
LINE
  8
0
  6
CONTINUOUS
 10
164.431743
 20
166.791278
 30
0.0
 11
163.371125
 21
166.182851
 31
0.0
  0
LINE
  8
0
  6
CONTINUOUS
 10
163.371125
 20
166.182851
 30
0.0
 11
163.017593
 21
166.389569
 31
0.0
  0
LINE
  8
0
  6
CONTINUOUS
 10
157.990862
 20
163.506005
 30
0.0
 11
163.371095
 21
166.592398
 31
0.0
  0
LINE
  8
0
  6
CONTINUOUS
 10
163.371125
 20
166.182851
 30
0.0
 11
163.371095
 21
166.592398
 31
0.0
  0
LINE
  8
0
  6
CONTINUOUS
 10
164.431772
 20
166.381731
 30
0.0
 11
164.431743
 21
166.791278
 31
0.0
  0
LINE
  8
0
  6
CONTINUOUS
 10
165.845929
 20
167.192967
 30
0.0
 11
165.845958
 21
166.78342
 31
0.0
  0
LINE
  8
0
  6
CONTINUOUS
 10
168.60357
 20
168.365331
 30
0.0
 11
165.845958
 21
166.78342
 31
0.0
  0
LINE
  8
0
  6
CONTINUOUS
 10
168.603609
 20
167.832184
 30
0.0
 11
168.60357
 21
168.365331
 31
0.0
  0
LINE
  8
0
  6
CONTINUOUS
 10
176.841713
 20
172.558004
 30
0.0
 11
168.603609
 21
167.832184
 31
0.0
  0
LINE
  8
0
  6
CONTINUOUS
 10
176.841713
 20
172.558004
 30
0.0
 11
176.841557
 21
174.729341
 31
0.0
  0
LINE
  8
0
  6
CONTINUOUS
 10
176.841557
 20
174.729341
 30
0.0
 11
174.525236
 21
173.400576
 31
0.0
  0
LINE
  8
0
  6
CONTINUOUS
 10
173.817806
 20
177.907862
 30
0.0
 11
173.8181
 21
173.814053
 31
0.0
  0
LINE
  8
0
  6
CONTINUOUS
 10
169.929077
 20
172.811795
 30
0.0
 11
170.812926
 21
173.31882
 31
0.0
  0
LINE
  8
0
  6
CONTINUOUS
 10
170.813044
 20
171.680626
 30
0.0
 11
169.929195
 21
171.173605
 31
0.0
  0
LINE
  8
0
  6
CONTINUOUS
 10
157.998622
 20
145.080051
 30
0.0
 11
191.231337
 21
164.144118
 31
0.0
  0
LINE
  8
0
  6
CONTINUOUS
 10
191.231337
 20
164.144118
 30
0.0
 11
176.841713
 21
172.558004
 31
0.0
  0
LINE
  8
0
  6
CONTINUOUS
 10
168.419772
 20
167.726723
 30
0.0
 11
168.603609
 21
167.832184
 31
0.0
  0
LINE
  8
0
  6
CONTINUOUS
 10
177.97323
 20
161.747477
 30
0.0
 11
168.419772
 21
167.726723
 31
0.0
  0
LINE
  8
0
  6
CONTINUOUS
 10
177.97323
 20
161.747477
 30
0.0
 11
162.417489
 21
152.823869
 31
0.0
  0
LINE
  8
0
  6
CONTINUOUS
 10
162.417489
 20
152.823869
 30
0.0
 11
157.993889
 21
155.410434
 31
0.0
  0
LINE
  8
0
  6
CONTINUOUS
 10
168.419772
 20
167.726723
 30
0.0
 11
168.419831
 21
166.907504
 31
0.0
  0
LINE
  8
0
  6
CONTINUOUS
 10
177.290377
 20
161.355672
 30
0.0
 11
168.419831
 21
166.907504
 31
0.0
  0
LINE
  8
0
  6
CONTINUOUS
 10
165.492427
 20
166.990138
 30
0.0
 11
165.845958
 21
166.78342
 31
0.0
  0
LINE
  8
0
  6
CONTINUOUS
 10
168.073311
 20
167.333792
 30
0.0
 11
168.419731
 21
167.124232
 31
0.0
  0
LINE
  8
0
  6
CONTINUOUS
 10
168.073259
 20
168.061055
 30
0.0
 11
168.073311
 21
167.333792
 31
0.0
  0
LINE
  8
0
  6
CONTINUOUS
 10
185.885013
 20
179.370721
 30
0.0
 11
186.733636
 21
179.857536
 31
0.0
  0
LINE
  8
0
  6
CONTINUOUS
 10
186.733636
 20
179.857536
 30
0.0
 11
186.733242
 21
185.317997
 31
0.0
  0
LINE
  8
0
  6
CONTINUOUS
 10
157.996911
 20
168.833817
 30
0.0
 11
157.998622
 21
145.080051
 31
0.0
  0
LINE
  8
0
  6
CONTINUOUS
 10
158.793054
 20
159.87054
 30
0.0
 11
157.997105
 21
159.413945
 31
0.0
  0
LINE
  8
0
  6
CONTINUOUS
 10
158.793054
 20
159.87054
 30
0.0
 11
157.996678
 21
160.3523
 31
0.0
  0
LINE
  8
0
  6
CONTINUOUS
 10
157.997282
 20
156.956656
 30
0.0
 11
158.793231
 21
157.413256
 31
0.0
  0
LINE
  8
0
  6
CONTINUOUS
 10
157.996911
 20
168.833817
 30
0.0
 11
191.229626
 21
187.897884
 31
0.0
  0
LINE
  8
0
  6
CONTINUOUS
 10
170.812994
 20
173.318779
 30
0.0
 11
171.520061
 21
172.905343
 31
0.0
  0
LINE
  8
0
  6
CONTINUOUS
 10
169.929195
 20
171.173605
 30
0.0
 11
169.222055
 21
171.587082
 31
0.0
  0
LINE
  8
0
  6
CONTINUOUS
 10
170.813044
 20
171.680626
 30
0.0
 11
170.105905
 21
172.094103
 31
0.0
  0
LINE
  8
0
  6
CONTINUOUS
 10
170.105905
 20
172.094103
 30
0.0
 11
169.222055
 21
171.587082
 31
0.0
  0
LINE
  8
0
  6
CONTINUOUS
 10
190.151347
 20
175.401954
 30
0.0
 11
188.31378
 21
174.347825
 31
0.0
  0
LINE
  8
0
  6
CONTINUOUS
 10
187.253073
 20
174.96804
 30
0.0
 11
183.835543
 21
176.898426
 31
0.0
  0
LINE
  8
0
  6
CONTINUOUS
 10
188.313603
 20
176.805113
 30
0.0
 11
190.15117
 21
177.859239
 31
0.0
  0
LINE
  8
0
  6
CONTINUOUS
 10
190.15117
 20
177.859239
 30
0.0
 11
190.151347
 21
175.401954
 31
0.0
  0
LINE
  8
0
  6
CONTINUOUS
 10
184.954693
 20
178.837041
 30
0.0
 11
185.885013
 21
179.370721
 31
0.0
  0
LINE
  8
0
  6
CONTINUOUS
 10
188.313603
 20
176.805113
 30
0.0
 11
184.954693
 21
178.837041
 31
0.0
  0
LINE
  8
0
  6
CONTINUOUS
 10
190.15117
 20
177.859239
 30
0.0
 11
186.733636
 21
179.857536
 31
0.0
  0
LINE
  8
0
  6
CONTINUOUS
 10
186.734378
 20
169.550931
 30
0.0
 11
176.841541
 21
174.942301
 31
0.0
  0
LINE
  8
0
  6
CONTINUOUS
 10
186.734005
 20
170.342216
 30
0.0
 11
177.54873
 21
175.347983
 31
0.0
  0
LINE
  8
0
  6
CONTINUOUS
 10
177.54873
 20
175.347983
 30
0.0
 11
176.841541
 21
174.942301
 31
0.0
  0
LINE
  8
0
  6
CONTINUOUS
 10
191.229626
 20
187.897884
 30
0.0
 11
191.231337
 21
164.144118
 31
0.0
  0
LINE
  8
0
  6
CONTINUOUS
 10
186.734378
 20
169.550931
 30
0.0
 11
186.734004
 21
174.737483
 31
0.0
  0
LINE
  8
0
  6
CONTINUOUS
 10
176.841541
 20
174.942301
 30
0.0
 11
176.841557
 21
174.729341
 31
0.0
  0
LINE
  8
0
  6
CONTINUOUS
 10
182.774836
 20
177.518641
 30
0.0
 11
183.835543
 21
176.898426
 31
0.0
  0
LINE
  8
0
  6
CONTINUOUS
 10
177.009134
 20
175.439819
 30
0.0
 11
177.361701
 21
175.24067
 31
0.0
  0
LINE
  8
0
  6
CONTINUOUS
 10
168.55628
 20
161.894601
 30
0.0
 11
168.369731
 21
161.787587
 31
0.0
  0
LINE
  8
0
  6
CONTINUOUS
 10
172.661371
 20
164.249506
 30
0.0
 11
169.224582
 21
162.277976
 31
0.0
  0
LINE
  8
0
  6
CONTINUOUS
 10
168.369731
 20
161.787587
 30
0.0
 11
168.556384
 21
161.680353
 31
0.0
  0
LINE
  8
0
  6
CONTINUOUS
 10
181.412827
 20
182.264689
 30
0.0
 11
181.413477
 21
173.238957
 31
0.0
  0
LINE
  8
0
  6
CONTINUOUS
 10
185.885013
 20
179.370721
 30
0.0
 11
184.805791
 21
179.980316
 31
0.0
  0
LINE
  8
0
  6
CONTINUOUS
 10
184.954693
 20
178.837041
 30
0.0
 11
183.893987
 21
179.457256
 31
0.0
  0
LINE
  8
0
  6
CONTINUOUS
 10
168.369731
 20
161.787587
 30
0.0
 11
168.369743
 21
161.623743
 31
0.0
  0
LINE
  8
0
  6
CONTINUOUS
 10
173.994884
 20
173.710686
 30
0.0
 11
174.525236
 21
173.400576
 31
0.0
  0
LINE
  8
0
  6
CONTINUOUS
 10
173.994884
 20
173.710686
 30
0.0
 11
177.009134
 21
175.439819
 31
0.0
  0
LINE
  8
0
  6
CONTINUOUS
 10
159.058266
 20
159.203551
 30
0.0
 11
159.411834
 21
158.996813
 31
0.0
  0
LINE
  8
0
  6
CONTINUOUS
 10
188.229943
 20
176.237123
 30
0.0
 11
188.490431
 21
176.087421
 31
0.0
  0
LINE
  8
0
  6
CONTINUOUS
 10
188.578815
 20
176.138124
 30
0.0
 11
188.932387
 21
175.931386
 31
0.0
  0
LINE
  8
0
  6
CONTINUOUS
 10
158.709395
 20
159.30255
 30
0.0
 11
158.969882
 21
159.152852
 31
0.0
  0
LINE
  8
0
  6
CONTINUOUS
 10
171.242698
 20
161.049721
 30
0.0
 11
169.128205
 21
162.337306
 31
0.0
  0
LINE
  8
0
  6
CONTINUOUS
 10
184.173256
 20
176.164069
 30
0.0
 11
187.573096
 21
174.272151
 31
0.0
  0
LINE
  8
0
  6
CONTINUOUS
 10
183.102721
 20
176.789893
 30
0.0
 11
184.163428
 21
176.169678
 31
0.0
  0
LINE
  8
0
  6
CONTINUOUS
 10
159.552251
 20
159.935393
 30
0.0
 11
157.996283
 21
160.89024
 31
0.0
  0
LINE
  8
0
  6
CONTINUOUS
 10
155.890563
 20
138.133352
 30
0.0
 11
196.359283
 21
161.348392
 31
0.0
  0
LINE
  8
0
  6
CONTINUOUS
 10
196.500863
 20
195.995221
 30
0.0
 11
196.500863
 21
177.231749
 31
0.0
  0
LINE
  8
0
  6
CONTINUOUS
 10
196.359283
 20
161.348392
 30
0.0
 11
196.361709
 21
193.439316
 31
0.0
  0
LINE
  8
0
  6
CONTINUOUS
 10
196.359283
 20
161.348392
 30
0.0
 11
196.500863
 21
162.216795
 31
0.0
  0
ARC
  8
0
  6
CONTINUOUS
 10
165.771389
 20
127.717998
 30
0.0
 40
0.25
 50
240.0
 51
299.570771
  0
ARC
  8
0
  6
CONTINUOUS
 10
181.819519
 20
136.823779
 30
0.0
 40
0.25
 50
299.570771
 51
0.429229
  0
ENDSEC
  0
EOF
