  0
SECTION
  2
HEADER
  9
$ACADVER
  1
AC1009
  9
$INSBASE
 10
0.0
 20
0.0
 30
0.0
  9
$EXTMIN
 10
24.92677
 20
43.362957
 30
0.0
  9
$EXTMAX
 10
101.906312
 20
159.826772
 30
0.0
  9
$LIMMIN
 10
24.92677
 20
43.362957
  9
$LIMMAX
 10
101.906312
 20
159.826772
  9
$ORTHOMODE
 70
     0
  9
$REGENMODE
 70
     1
  9
$FILLMODE
 70
     1
  9
$QTEXTMODE
 70
     0
  9
$MIRRTEXT
 70
     1
  9
$DRAGMODE
 70
     2
  9
$LTSCALE
 40
1.0
  9
$OSMODE
 70
     0
  9
$ATTMODE
 70
     1
  9
$TEXTSIZE
 40
3.5
  9
$TRACEWID
 40
0.5
  9
$TEXTSTYLE
  7
STANDARD
  9
$CLAYER
  8
0
  9
$CELTYPE
  6
BYLAYER
  9
$CECOLOR
 62
   256
  9
$DIMSCALE
 40
1.0
  9
$DIMASZ
 40
0.18
  9
$DIMEXO
 40
0.0625
  9
$DIMDLI
 40
0.38
  9
$DIMRND
 40
0.0
  9
$DIMDLE
 40
0.0
  9
$DIMEXE
 40
0.18
  9
$DIMTP
 40
0.0
  9
$DIMTM
 40
0.0
  9
$DIMTXT
 40
0.18
  9
$DIMCEN
 40
0.09
  9
$DIMTSZ
 40
0.0
  9
$DIMTOL
 70
     0
  9
$DIMLIM
 70
     0
  9
$DIMTIH
 70
     1
  9
$DIMTOH
 70
     1
  9
$DIMSE1
 70
     0
  9
$DIMSE2
 70
     0
  9
$DIMTAD
 70
     0
  9
$DIMZIN
 70
     0
  9
$DIMBLK
  1

  9
$DIMASO
 70
     1
  9
$DIMSHO
 70
     1
  9
$DIMPOST
  1

  9
$DIMAPOST
  1

  9
$DIMALT
 70
     0
  9
$DIMALTD
 70
     2
  9
$DIMALTF
 40
25.4
  9
$DIMLFAC
 40
1.0
  9
$DIMTOFL
 70
     0
  9
$DIMTVP
 40
0.0
  9
$DIMTIX
 70
     0
  9
$DIMSOXD
 70
     0
  9
$DIMSAH
 70
     0
  9
$DIMBLK1
  1

  9
$DIMBLK2
  1

  9
$DIMSTYLE
  2
*UNNAMED
  9
$DIMCLRD
 70
     0
  9
$DIMCLRE
 70
     0
  9
$DIMCLRT
 70
     0
  9
$DIMTFAC
 40
1.0
  9
$DIMGAP
 40
0.09
  9
$LUNITS
 70
     2
  9
$LUPREC
 70
     4
  9
$SKETCHINC
 40
0.1
  9
$FILLETRAD
 40
2.0
  9
$AUNITS
 70
     0
  9
$AUPREC
 70
     0
  9
$MENU
  1
ACAD
  9
$ELEVATION
 40
0.0
  9
$PELEVATION
 40
0.0
  9
$THICKNESS
 40
0.0
  9
$LIMCHECK
 70
     0
  9
$BLIPMODE
 70
     1
  9
$CHAMFERA
 40
0.0
  9
$CHAMFERB
 40
0.0
  9
$SKPOLY
 70
     0
  9
$TDCREATE
 40
2450955.366220717
  9
$TDUPDATE
 40
2450955.366639004
  9
$TDINDWG
 40
0.0001678241
  9
$TDUSRTIMER
 40
0.0001678241
  9
$USRTIMER
 70
     1
  9
$ANGBASE
 50
0.0
  9
$ANGDIR
 70
     0
  9
$PDMODE
 70
     0
  9
$PDSIZE
 40
0.0
  9
$PLINEWID
 40
0.0
  9
$COORDS
 70
     2
  9
$SPLFRAME
 70
     0
  9
$SPLINETYPE
 70
     6
  9
$SPLINESEGS
 70
     8
  9
$ATTDIA
 70
     0
  9
$ATTREQ
 70
     1
  9
$HANDLING
 70
     0
  9
$HANDSEED
  5
0
  9
$SURFTAB1
 70
     6
  9
$SURFTAB2
 70
     6
  9
$SURFTYPE
 70
     6
  9
$SURFU
 70
     6
  9
$SURFV
 70
     6
  9
$UCSNAME
  2

  9
$UCSORG
 10
0.0
 20
0.0
 30
0.0
  9
$UCSXDIR
 10
1.0
 20
0.0
 30
0.0
  9
$UCSYDIR
 10
0.0
 20
1.0
 30
0.0
  9
$PUCSNAME
  2

  9
$PUCSORG
 10
0.0
 20
0.0
 30
0.0
  9
$PUCSXDIR
 10
1.0
 20
0.0
 30
0.0
  9
$PUCSYDIR
 10
0.0
 20
1.0
 30
0.0
  9
$USERI1
 70
     0
  9
$USERI2
 70
     0
  9
$USERI3
 70
     0
  9
$USERI4
 70
     0
  9
$USERI5
 70
     0
  9
$USERR1
 40
0.0
  9
$USERR2
 40
0.0
  9
$USERR3
 40
0.0
  9
$USERR4
 40
0.0
  9
$USERR5
 40
0.0
  9
$WORLDVIEW
 70
     1
  9
$SHADEDGE
 70
     3
  9
$SHADEDIF
 70
    70
  9
$TILEMODE
 70
     1
  9
$MAXACTVP
 70
    16
  9
$PINSBASE
 10
0.0
 20
0.0
 30
0.0
  9
$PLIMCHECK
 70
     0
  9
$PEXTMIN
 10
1.000000E+20
 20
1.000000E+20
 30
1.000000E+20
  9
$PEXTMAX
 10
-1.000000E+20
 20
-1.000000E+20
 30
-1.000000E+20
  9
$PLIMMIN
 10
0.0
 20
0.0
  9
$PLIMMAX
 10
420.0
 20
297.0
  9
$UNITMODE
 70
     0
  9
$VISRETAIN
 70
     0
  9
$PLINEGEN
 70
     0
  9
$PSLTSCALE
 70
     1
  9
$TREEDEPTH
 70
  3020
  9
$DWGCODEPAGE
  3
iso8859-1
  0
ENDSEC
  0
SECTION
  2
TABLES
  0
TABLE
  2
VPORT
 70
     2
  0
VPORT
  2
*ACTIVE
 70
     0
 10
0.0
 20
0.0
 11
1.0
 21
1.0
 12
111.690517
 22
100.227656
 13
0.0
 23
0.0
 14
1.0
 24
1.0
 15
0.0
 25
0.0
 16
0.0
 26
0.0
 36
1.0
 17
0.0
 27
0.0
 37
0.0
 40
168.85022
 41
1.748359
 42
50.0
 43
0.0
 44
0.0
 50
0.0
 51
0.0
 71
     0
 72
   100
 73
     1
 74
     0
 75
     0
 76
     0
 77
     0
 78
     0
  0
ENDTAB
  0
TABLE
  2
LTYPE
 70
     1
  0
LTYPE
  2
CONTINUOUS
 70
    64
  3
Solid line
 72
    65
 73
     0
 40
0.0
  0
ENDTAB
  0
TABLE
  2
LAYER
 70
     1
  0
LAYER
  2
0
 70
    64
 62
     7
  6
CONTINUOUS
  0
ENDTAB
  0
TABLE
  2
STYLE
 70
     1
  0
STYLE
  2
STANDARD
 70
     0
 40
0.0
 41
1.0
 50
0.0
 71
     0
 42
3.5
  3
txt
  4

  0
ENDTAB
  0
TABLE
  2
VIEW
 70
     0
  0
ENDTAB
  0
TABLE
  2
UCS
 70
     0
  0
ENDTAB
  0
TABLE
  2
APPID
 70
     1
  0
APPID
  2
ACAD
 70
    64
  0
ENDTAB
  0
TABLE
  2
DIMSTYLE
 70
     0
  0
ENDTAB
  0
ENDSEC
  0
SECTION
  2
BLOCKS
  0
ENDSEC
  0
SECTION
  2
ENTITIES
  0
POLYLINE
  8
0
  6
CONTINUOUS
 66
     1
 10
0.0
 20
0.0
 30
0.0
  0
VERTEX
  8
0
  6
CONTINUOUS
 10
89.240992
 20
124.40268
 30
0.0
  0
VERTEX
  8
0
  6
CONTINUOUS
 10
89.568745
 20
125.507538
 30
0.0
  0
VERTEX
  8
0
  6
CONTINUOUS
 10
90.360143
 20
126.341295
 30
0.0
  0
SEQEND
  8
0
  6
CONTINUOUS
  0
POLYLINE
  8
0
  6
CONTINUOUS
 66
     1
 10
0.0
 20
0.0
 30
0.0
  0
VERTEX
  8
0
  6
CONTINUOUS
 10
64.375331
 20
106.657106
 30
0.0
  0
VERTEX
  8
0
  6
CONTINUOUS
 10
64.253904
 20
106.196185
 30
0.0
  0
VERTEX
  8
0
  6
CONTINUOUS
 10
63.945184
 20
105.807048
 30
0.0
  0
VERTEX
  8
0
  6
CONTINUOUS
 10
63.590581
 20
105.667939
 30
0.0
  0
SEQEND
  8
0
  6
CONTINUOUS
  0
POLYLINE
  8
0
  6
CONTINUOUS
 66
     1
 10
0.0
 20
0.0
 30
0.0
  0
VERTEX
  8
0
  6
CONTINUOUS
 10
64.310309
 20
106.914515
 30
0.0
  0
VERTEX
  8
0
  6
CONTINUOUS
 10
64.358813
 20
106.799718
 30
0.0
  0
VERTEX
  8
0
  6
CONTINUOUS
 10
64.375331
 20
106.657106
 30
0.0
  0
SEQEND
  8
0
  6
CONTINUOUS
  0
POLYLINE
  8
0
  6
CONTINUOUS
 66
     1
 10
0.0
 20
0.0
 30
0.0
  0
VERTEX
  8
0
  6
CONTINUOUS
 10
64.463716
 20
106.707806
 30
0.0
  0
VERTEX
  8
0
  6
CONTINUOUS
 10
64.338956
 20
106.204568
 30
0.0
  0
VERTEX
  8
0
  6
CONTINUOUS
 10
64.014935
 20
105.761168
 30
0.0
  0
VERTEX
  8
0
  6
CONTINUOUS
 10
63.622373
 20
105.556469
 30
0.0
  0
SEQEND
  8
0
  6
CONTINUOUS
  0
POLYLINE
  8
0
  6
CONTINUOUS
 66
     1
 10
0.0
 20
0.0
 30
0.0
  0
VERTEX
  8
0
  6
CONTINUOUS
 10
64.422263
 20
106.941914
 30
0.0
  0
VERTEX
  8
0
  6
CONTINUOUS
 10
64.453259
 20
106.832965
 30
0.0
  0
VERTEX
  8
0
  6
CONTINUOUS
 10
64.463716
 20
106.707806
 30
0.0
  0
SEQEND
  8
0
  6
CONTINUOUS
  0
POLYLINE
  8
0
  6
CONTINUOUS
 66
     1
 10
0.0
 20
0.0
 30
0.0
  0
VERTEX
  8
0
  6
CONTINUOUS
 10
79.400334
 20
121.21494
 30
0.0
  0
VERTEX
  8
0
  6
CONTINUOUS
 10
79.320412
 20
121.174342
 30
0.0
  0
VERTEX
  8
0
  6
CONTINUOUS
 10
79.241514
 20
121.144761
 30
0.0
  0
SEQEND
  8
0
  6
CONTINUOUS
  0
POLYLINE
  8
0
  6
CONTINUOUS
 66
     1
 10
0.0
 20
0.0
 30
0.0
  0
VERTEX
  8
0
  6
CONTINUOUS
 10
93.89588
 20
123.591675
 30
0.0
  0
VERTEX
  8
0
  6
CONTINUOUS
 10
93.774453
 20
123.130758
 30
0.0
  0
VERTEX
  8
0
  6
CONTINUOUS
 10
93.465732
 20
122.741621
 30
0.0
  0
VERTEX
  8
0
  6
CONTINUOUS
 10
93.11113
 20
122.602508
 30
0.0
  0
SEQEND
  8
0
  6
CONTINUOUS
  0
POLYLINE
  8
0
  6
CONTINUOUS
 66
     1
 10
0.0
 20
0.0
 30
0.0
  0
VERTEX
  8
0
  6
CONTINUOUS
 10
93.830857
 20
123.849084
 30
0.0
  0
VERTEX
  8
0
  6
CONTINUOUS
 10
93.879362
 20
123.734291
 30
0.0
  0
VERTEX
  8
0
  6
CONTINUOUS
 10
93.89588
 20
123.591675
 30
0.0
  0
SEQEND
  8
0
  6
CONTINUOUS
  0
POLYLINE
  8
0
  6
CONTINUOUS
 66
     1
 10
0.0
 20
0.0
 30
0.0
  0
VERTEX
  8
0
  6
CONTINUOUS
 10
93.942812
 20
123.876483
 30
0.0
  0
VERTEX
  8
0
  6
CONTINUOUS
 10
93.973808
 20
123.767538
 30
0.0
  0
VERTEX
  8
0
  6
CONTINUOUS
 10
93.984265
 20
123.642379
 30
0.0
  0
SEQEND
  8
0
  6
CONTINUOUS
  0
POLYLINE
  8
0
  6
CONTINUOUS
 66
     1
 10
0.0
 20
0.0
 30
0.0
  0
VERTEX
  8
0
  6
CONTINUOUS
 10
93.984265
 20
123.642379
 30
0.0
  0
VERTEX
  8
0
  6
CONTINUOUS
 10
93.859505
 20
123.139141
 30
0.0
  0
VERTEX
  8
0
  6
CONTINUOUS
 10
93.535484
 20
122.695737
 30
0.0
  0
VERTEX
  8
0
  6
CONTINUOUS
 10
93.142922
 20
122.491042
 30
0.0
  0
SEQEND
  8
0
  6
CONTINUOUS
  0
POLYLINE
  8
0
  6
CONTINUOUS
 66
     1
 10
0.0
 20
0.0
 30
0.0
  0
VERTEX
  8
0
  6
CONTINUOUS
 10
93.100445
 20
122.725806
 30
0.0
  0
VERTEX
  8
0
  6
CONTINUOUS
 10
93.183308
 20
123.131711
 30
0.0
  0
VERTEX
  8
0
  6
CONTINUOUS
 10
93.409748
 20
123.523953
 30
0.0
  0
VERTEX
  8
0
  6
CONTINUOUS
 10
93.719089
 20
123.797431
 30
0.0
  0
VERTEX
  8
0
  6
CONTINUOUS
 10
94.028444
 20
123.878868
 30
0.0
  0
VERTEX
  8
0
  6
CONTINUOUS
 10
94.254918
 20
123.746446
 30
0.0
  0
VERTEX
  8
0
  6
CONTINUOUS
 10
94.337836
 20
123.43564
 30
0.0
  0
SEQEND
  8
0
  6
CONTINUOUS
  0
POLYLINE
  8
0
  6
CONTINUOUS
 66
     1
 10
0.0
 20
0.0
 30
0.0
  0
VERTEX
  8
0
  6
CONTINUOUS
 10
94.337836
 20
123.43564
 30
0.0
  0
VERTEX
  8
0
  6
CONTINUOUS
 10
94.219703
 20
122.946587
 30
0.0
  0
VERTEX
  8
0
  6
CONTINUOUS
 10
93.910378
 20
122.508768
 30
0.0
  0
VERTEX
  8
0
  6
CONTINUOUS
 10
93.528001
 20
122.289418
 30
0.0
  0
VERTEX
  8
0
  6
CONTINUOUS
 10
93.218635
 20
122.372318
 30
0.0
  0
VERTEX
  8
0
  6
CONTINUOUS
 10
93.100445
 20
122.725806
 30
0.0
  0
SEQEND
  8
0
  6
CONTINUOUS
  0
POLYLINE
  8
0
  6
CONTINUOUS
 66
     1
 10
0.0
 20
0.0
 30
0.0
  0
VERTEX
  8
0
  6
CONTINUOUS
 10
92.658522
 20
122.472294
 30
0.0
  0
VERTEX
  8
0
  6
CONTINUOUS
 10
92.969107
 20
123.519283
 30
0.0
  0
VERTEX
  8
0
  6
CONTINUOUS
 10
93.719052
 20
124.309368
 30
0.0
  0
SEQEND
  8
0
  6
CONTINUOUS
  0
POLYLINE
  8
0
  6
CONTINUOUS
 66
     1
 10
0.0
 20
0.0
 30
0.0
  0
VERTEX
  8
0
  6
CONTINUOUS
 10
93.719229
 20
121.852079
 30
0.0
  0
VERTEX
  8
0
  6
CONTINUOUS
 10
93.188906
 20
121.712474
 30
0.0
  0
VERTEX
  8
0
  6
CONTINUOUS
 10
92.800661
 20
121.939488
 30
0.0
  0
VERTEX
  8
0
  6
CONTINUOUS
 10
92.658522
 20
122.472294
 30
0.0
  0
SEQEND
  8
0
  6
CONTINUOUS
  0
POLYLINE
  8
0
  6
CONTINUOUS
 66
     1
 10
0.0
 20
0.0
 30
0.0
  0
VERTEX
  8
0
  6
CONTINUOUS
 10
89.578818
 20
123.668259
 30
0.0
  0
VERTEX
  8
0
  6
CONTINUOUS
 10
89.328917
 20
123.949463
 30
0.0
  0
VERTEX
  8
0
  6
CONTINUOUS
 10
89.240992
 20
124.40268
 30
0.0
  0
SEQEND
  8
0
  6
CONTINUOUS
  0
POLYLINE
  8
0
  6
CONTINUOUS
 66
     1
 10
0.0
 20
0.0
 30
0.0
  0
VERTEX
  8
0
  6
CONTINUOUS
 10
74.627505
 20
119.091337
 30
0.0
  0
VERTEX
  8
0
  6
CONTINUOUS
 10
74.627333
 20
119.091237
 30
0.0
  0
VERTEX
  8
0
  6
CONTINUOUS
 10
74.627161
 20
119.091138
 30
0.0
  0
SEQEND
  8
0
  6
CONTINUOUS
  0
POLYLINE
  8
0
  6
CONTINUOUS
 66
     1
 10
0.0
 20
0.0
 30
0.0
  0
VERTEX
  8
0
  6
CONTINUOUS
 10
76.218375
 20
120.822998
 30
0.0
  0
VERTEX
  8
0
  6
CONTINUOUS
 10
76.011293
 20
120.125043
 30
0.0
  0
VERTEX
  8
0
  6
CONTINUOUS
 10
75.511354
 20
119.598357
 30
0.0
  0
SEQEND
  8
0
  6
CONTINUOUS
  0
POLYLINE
  8
0
  6
CONTINUOUS
 66
     1
 10
0.0
 20
0.0
 30
0.0
  0
VERTEX
  8
0
  6
CONTINUOUS
 10
64.817283
 20
106.501067
 30
0.0
  0
VERTEX
  8
0
  6
CONTINUOUS
 10
64.699154
 20
106.012014
 30
0.0
  0
VERTEX
  8
0
  6
CONTINUOUS
 10
64.389825
 20
105.574199
 30
0.0
  0
VERTEX
  8
0
  6
CONTINUOUS
 10
64.007452
 20
105.354849
 30
0.0
  0
VERTEX
  8
0
  6
CONTINUOUS
 10
63.698086
 20
105.437749
 30
0.0
  0
VERTEX
  8
0
  6
CONTINUOUS
 10
63.579896
 20
105.791237
 30
0.0
  0
SEQEND
  8
0
  6
CONTINUOUS
  0
POLYLINE
  8
0
  6
CONTINUOUS
 66
     1
 10
0.0
 20
0.0
 30
0.0
  0
VERTEX
  8
0
  6
CONTINUOUS
 10
63.579896
 20
105.791237
 30
0.0
  0
VERTEX
  8
0
  6
CONTINUOUS
 10
63.662759
 20
106.197138
 30
0.0
  0
VERTEX
  8
0
  6
CONTINUOUS
 10
63.889199
 20
106.58938
 30
0.0
  0
VERTEX
  8
0
  6
CONTINUOUS
 10
64.19854
 20
106.862862
 30
0.0
  0
VERTEX
  8
0
  6
CONTINUOUS
 10
64.507895
 20
106.944299
 30
0.0
  0
VERTEX
  8
0
  6
CONTINUOUS
 10
64.734369
 20
106.811873
 30
0.0
  0
VERTEX
  8
0
  6
CONTINUOUS
 10
64.817283
 20
106.501067
 30
0.0
  0
SEQEND
  8
0
  6
CONTINUOUS
  0
POLYLINE
  8
0
  6
CONTINUOUS
 66
     1
 10
0.0
 20
0.0
 30
0.0
  0
VERTEX
  8
0
  6
CONTINUOUS
 10
64.198503
 20
107.374795
 30
0.0
  0
VERTEX
  8
0
  6
CONTINUOUS
 10
64.728822
 20
107.514404
 30
0.0
  0
VERTEX
  8
0
  6
CONTINUOUS
 10
65.117071
 20
107.287389
 30
0.0
  0
VERTEX
  8
0
  6
CONTINUOUS
 10
65.25921
 20
106.75458
 30
0.0
  0
SEQEND
  8
0
  6
CONTINUOUS
  0
POLYLINE
  8
0
  6
CONTINUOUS
 66
     1
 10
0.0
 20
0.0
 30
0.0
  0
VERTEX
  8
0
  6
CONTINUOUS
 10
65.25921
 20
106.75458
 30
0.0
  0
VERTEX
  8
0
  6
CONTINUOUS
 10
64.948625
 20
105.707594
 30
0.0
  0
VERTEX
  8
0
  6
CONTINUOUS
 10
64.19868
 20
104.91751
 30
0.0
  0
SEQEND
  8
0
  6
CONTINUOUS
  0
POLYLINE
  8
0
  6
CONTINUOUS
 66
     1
 10
0.0
 20
0.0
 30
0.0
  0
VERTEX
  8
0
  6
CONTINUOUS
 10
74.627505
 20
119.091337
 30
0.0
  0
VERTEX
  8
0
  6
CONTINUOUS
 10
74.722208
 20
119.555228
 30
0.0
  0
VERTEX
  8
0
  6
CONTINUOUS
 10
74.980992
 20
120.003504
 30
0.0
  0
VERTEX
  8
0
  6
CONTINUOUS
 10
75.334526
 20
120.31605
 30
0.0
  0
SEQEND
  8
0
  6
CONTINUOUS
  0
POLYLINE
  8
0
  6
CONTINUOUS
 66
     1
 10
0.0
 20
0.0
 30
0.0
  0
VERTEX
  8
0
  6
CONTINUOUS
 10
75.334644
 20
118.67786
 30
0.0
  0
VERTEX
  8
0
  6
CONTINUOUS
 10
74.834646
 20
118.630953
 30
0.0
  0
VERTEX
  8
0
  6
CONTINUOUS
 10
74.627505
 20
119.091337
 30
0.0
  0
SEQEND
  8
0
  6
CONTINUOUS
  0
POLYLINE
  8
0
  6
CONTINUOUS
 66
     1
 10
0.0
 20
0.0
 30
0.0
  0
VERTEX
  8
0
  6
CONTINUOUS
 10
76.925511
 20
120.409598
 30
0.0
  0
VERTEX
  8
0
  6
CONTINUOUS
 10
76.830812
 20
119.945707
 30
0.0
  0
VERTEX
  8
0
  6
CONTINUOUS
 10
76.572023
 20
119.49743
 30
0.0
  0
VERTEX
  8
0
  6
CONTINUOUS
 10
76.218493
 20
119.184881
 30
0.0
  0
SEQEND
  8
0
  6
CONTINUOUS
  0
POLYLINE
  8
0
  6
CONTINUOUS
 66
     1
 10
0.0
 20
0.0
 30
0.0
  0
VERTEX
  8
0
  6
CONTINUOUS
 10
76.218375
 20
120.823074
 30
0.0
  0
VERTEX
  8
0
  6
CONTINUOUS
 10
76.571921
 20
120.916143
 30
0.0
  0
VERTEX
  8
0
  6
CONTINUOUS
 10
76.830753
 20
120.764801
 30
0.0
  0
VERTEX
  8
0
  6
CONTINUOUS
 10
76.925511
 20
120.409598
 30
0.0
  0
SEQEND
  8
0
  6
CONTINUOUS
  0
POLYLINE
  8
0
  6
CONTINUOUS
 66
     1
 10
0.0
 20
0.0
 30
0.0
  0
VERTEX
  8
0
  6
CONTINUOUS
 10
79.930685
 20
120.904831
 30
0.0
  0
VERTEX
  8
0
  6
CONTINUOUS
 10
79.430687
 20
120.857923
 30
0.0
  0
VERTEX
  8
0
  6
CONTINUOUS
 10
79.22355
 20
121.318307
 30
0.0
  0
SEQEND
  8
0
  6
CONTINUOUS
  0
POLYLINE
  8
0
  6
CONTINUOUS
 66
     1
 10
0.0
 20
0.0
 30
0.0
  0
VERTEX
  8
0
  6
CONTINUOUS
 10
88.180285
 20
125.022895
 30
0.0
  0
VERTEX
  8
0
  6
CONTINUOUS
 10
88.508038
 20
126.127753
 30
0.0
  0
VERTEX
  8
0
  6
CONTINUOUS
 10
89.299436
 20
126.96151
 30
0.0
  0
SEQEND
  8
0
  6
CONTINUOUS
  0
POLYLINE
  8
0
  6
CONTINUOUS
 66
     1
 10
0.0
 20
0.0
 30
0.0
  0
VERTEX
  8
0
  6
CONTINUOUS
 10
88.50817
 20
124.294147
 30
0.0
  0
VERTEX
  8
0
  6
CONTINUOUS
 10
88.265518
 20
124.5756
 30
0.0
  0
VERTEX
  8
0
  6
CONTINUOUS
 10
88.180285
 20
125.022895
 30
0.0
  0
SEQEND
  8
0
  6
CONTINUOUS
  0
POLYLINE
  8
0
  6
CONTINUOUS
 66
     1
 10
0.0
 20
0.0
 30
0.0
  0
VERTEX
  8
0
  6
CONTINUOUS
 10
74.28108
 20
109.819634
 30
0.0
  0
VERTEX
  8
0
  6
CONTINUOUS
 10
74.418085
 20
109.866231
 30
0.0
  0
VERTEX
  8
0
  6
CONTINUOUS
 10
74.533679
 20
109.841544
 30
0.0
  0
SEQEND
  8
0
  6
CONTINUOUS
  0
POLYLINE
  8
0
  6
CONTINUOUS
 66
     1
 10
0.0
 20
0.0
 30
0.0
  0
VERTEX
  8
0
  6
CONTINUOUS
 10
61.296012
 20
85.637606
 30
0.0
  0
VERTEX
  8
0
  6
CONTINUOUS
 10
57.762661
 20
83.610686
 30
0.0
  0
VERTEX
  8
0
  6
CONTINUOUS
 10
57.755385
 20
83.606512
 30
0.0
  0
SEQEND
  8
0
  6
CONTINUOUS
  0
POLYLINE
  8
0
  6
CONTINUOUS
 66
     1
 10
0.0
 20
0.0
 30
0.0
  0
VERTEX
  8
0
  6
CONTINUOUS
 10
53.425412
 20
94.149879
 30
0.0
  0
VERTEX
  8
0
  6
CONTINUOUS
 10
53.411791
 20
94.078867
 30
0.0
  0
VERTEX
  8
0
  6
CONTINUOUS
 10
53.373027
 20
94.034423
 30
0.0
  0
SEQEND
  8
0
  6
CONTINUOUS
  0
POLYLINE
  8
0
  6
CONTINUOUS
 66
     1
 10
0.0
 20
0.0
 30
0.0
  0
VERTEX
  8
0
  6
CONTINUOUS
 10
56.270883
 20
83.60183
 30
0.0
  0
VERTEX
  8
0
  6
CONTINUOUS
 10
56.713681
 20
83.4318
 30
0.0
  0
VERTEX
  8
0
  6
CONTINUOUS
 10
57.390461
 20
83.428623
 30
0.0
  0
VERTEX
  8
0
  6
CONTINUOUS
 10
57.707462
 20
83.554129
 30
0.0
  0
SEQEND
  8
0
  6
CONTINUOUS
  0
POLYLINE
  8
0
  6
CONTINUOUS
 66
     1
 10
0.0
 20
0.0
 30
0.0
  0
VERTEX
  8
0
  6
CONTINUOUS
 10
101.906312
 20
143.49921
 30
0.0
  0
VERTEX
  8
0
  6
CONTINUOUS
 10
101.815702
 20
144.171083
 30
0.0
  0
VERTEX
  8
0
  6
CONTINUOUS
 10
101.553308
 20
144.882012
 30
0.0
  0
VERTEX
  8
0
  6
CONTINUOUS
 10
100.997086
 20
145.751604
 30
0.0
  0
VERTEX
  8
0
  6
CONTINUOUS
 10
100.306434
 20
146.367426
 30
0.0
  0
SEQEND
  8
0
  6
CONTINUOUS
  0
POLYLINE
  8
0
  6
CONTINUOUS
 66
     1
 10
0.0
 20
0.0
 30
0.0
  0
VERTEX
  8
0
  6
CONTINUOUS
 10
56.270883
 20
83.60183
 30
0.0
  0
VERTEX
  8
0
  6
CONTINUOUS
 10
49.598778
 20
87.16481
 30
0.0
  0
VERTEX
  8
0
  6
CONTINUOUS
 10
49.467971
 20
87.234663
 30
0.0
  0
SEQEND
  8
0
  6
CONTINUOUS
  0
POLYLINE
  8
0
  6
CONTINUOUS
 66
     1
 10
0.0
 20
0.0
 30
0.0
  0
VERTEX
  8
0
  6
CONTINUOUS
 10
100.306434
 20
146.367426
 30
0.0
  0
VERTEX
  8
0
  6
CONTINUOUS
 10
93.863239
 20
150.326907
 30
0.0
  0
VERTEX
  8
0
  6
CONTINUOUS
 10
87.42008
 20
154.286367
 30
0.0
  0
SEQEND
  8
0
  6
CONTINUOUS
  0
POLYLINE
  8
0
  6
CONTINUOUS
 66
     1
 10
0.0
 20
0.0
 30
0.0
  0
VERTEX
  8
0
  6
CONTINUOUS
 10
40.909778
 20
151.469879
 30
0.0
  0
VERTEX
  8
0
  6
CONTINUOUS
 10
40.565269
 20
151.357279
 30
0.0
  0
VERTEX
  8
0
  6
CONTINUOUS
 10
40.168818
 20
151.361172
 30
0.0
  0
VERTEX
  8
0
  6
CONTINUOUS
 10
39.831232
 20
151.480472
 30
0.0
  0
SEQEND
  8
0
  6
CONTINUOUS
  0
POLYLINE
  8
0
  6
CONTINUOUS
 66
     1
 10
0.0
 20
0.0
 30
0.0
  0
VERTEX
  8
0
  6
CONTINUOUS
 10
40.874969
 20
152.017777
 30
0.0
  0
VERTEX
  8
0
  6
CONTINUOUS
 10
41.031866
 20
152.069742
 30
0.0
  0
VERTEX
  8
0
  6
CONTINUOUS
 10
41.21304
 20
152.069746
 30
0.0
  0
VERTEX
  8
0
  6
CONTINUOUS
 10
41.369944
 20
152.017788
 30
0.0
  0
VERTEX
  8
0
  6
CONTINUOUS
 10
41.460537
 20
151.92779
 30
0.0
  0
VERTEX
  8
0
  6
CONTINUOUS
 10
41.460544
 20
151.823868
 30
0.0
  0
VERTEX
  8
0
  6
CONTINUOUS
 10
41.369963
 20
151.733866
 30
0.0
  0
SEQEND
  8
0
  6
CONTINUOUS
  0
POLYLINE
  8
0
  6
CONTINUOUS
 66
     1
 10
0.0
 20
0.0
 30
0.0
  0
VERTEX
  8
0
  6
CONTINUOUS
 10
40.56118
 20
151.837771
 30
0.0
  0
VERTEX
  8
0
  6
CONTINUOUS
 10
40.446344
 20
151.800237
 30
0.0
  0
VERTEX
  8
0
  6
CONTINUOUS
 10
40.314194
 20
151.801535
 30
0.0
  0
VERTEX
  8
0
  6
CONTINUOUS
 10
40.201665
 20
151.841302
 30
0.0
  0
SEQEND
  8
0
  6
CONTINUOUS
  0
POLYLINE
  8
0
  6
CONTINUOUS
 66
     1
 10
0.0
 20
0.0
 30
0.0
  0
VERTEX
  8
0
  6
CONTINUOUS
 10
35.18266
 20
154.924724
 30
0.0
  0
VERTEX
  8
0
  6
CONTINUOUS
 10
35.115428
 20
155.025045
 30
0.0
  0
VERTEX
  8
0
  6
CONTINUOUS
 10
35.188608
 20
155.123986
 30
0.0
  0
SEQEND
  8
0
  6
CONTINUOUS
  0
POLYLINE
  8
0
  6
CONTINUOUS
 66
     1
 10
0.0
 20
0.0
 30
0.0
  0
VERTEX
  8
0
  6
CONTINUOUS
 10
42.146691
 20
159.115518
 30
0.0
  0
VERTEX
  8
0
  6
CONTINUOUS
 10
42.37083
 20
159.189754
 30
0.0
  0
VERTEX
  8
0
  6
CONTINUOUS
 10
42.629649
 20
159.18976
 30
0.0
  0
VERTEX
  8
0
  6
CONTINUOUS
 10
42.853798
 20
159.115534
 30
0.0
  0
SEQEND
  8
0
  6
CONTINUOUS
  0
POLYLINE
  8
0
  6
CONTINUOUS
 66
     1
 10
0.0
 20
0.0
 30
0.0
  0
VERTEX
  8
0
  6
CONTINUOUS
 10
46.460184
 20
157.047041
 30
0.0
  0
VERTEX
  8
0
  6
CONTINUOUS
 10
46.589602
 20
156.918473
 30
0.0
  0
VERTEX
  8
0
  6
CONTINUOUS
 10
46.589613
 20
156.770013
 30
0.0
  0
VERTEX
  8
0
  6
CONTINUOUS
 10
46.460212
 20
156.641439
 30
0.0
  0
SEQEND
  8
0
  6
CONTINUOUS
  0
POLYLINE
  8
0
  6
CONTINUOUS
 66
     1
 10
0.0
 20
0.0
 30
0.0
  0
VERTEX
  8
0
  6
CONTINUOUS
 10
46.000652
 20
155.769382
 30
0.0
  0
VERTEX
  8
0
  6
CONTINUOUS
 10
45.806525
 20
155.962234
 30
0.0
  0
VERTEX
  8
0
  6
CONTINUOUS
 10
45.806509
 20
156.184926
 30
0.0
  0
VERTEX
  8
0
  6
CONTINUOUS
 10
46.000611
 20
156.377787
 30
0.0
  0
SEQEND
  8
0
  6
CONTINUOUS
  0
POLYLINE
  8
0
  6
CONTINUOUS
 66
     1
 10
0.0
 20
0.0
 30
0.0
  0
VERTEX
  8
0
  6
CONTINUOUS
 10
46.531003
 20
155.465192
 30
0.0
  0
VERTEX
  8
0
  6
CONTINUOUS
 10
46.604233
 20
155.363793
 30
0.0
  0
VERTEX
  8
0
  6
CONTINUOUS
 10
46.531017
 20
155.262391
 30
0.0
  0
SEQEND
  8
0
  6
CONTINUOUS
  0
POLYLINE
  8
0
  6
CONTINUOUS
 66
     1
 10
0.0
 20
0.0
 30
0.0
  0
VERTEX
  8
0
  6
CONTINUOUS
 10
46.672472
 20
154.775671
 30
0.0
  0
VERTEX
  8
0
  6
CONTINUOUS
 10
46.47974
 20
154.719336
 30
0.0
  0
VERTEX
  8
0
  6
CONTINUOUS
 10
46.26609
 20
154.738741
 30
0.0
  0
VERTEX
  8
0
  6
CONTINUOUS
 10
46.113129
 20
154.826475
 30
0.0
  0
VERTEX
  8
0
  6
CONTINUOUS
 10
46.079281
 20
154.949025
 30
0.0
  0
VERTEX
  8
0
  6
CONTINUOUS
 10
46.177477
 20
155.059582
 30
0.0
  0
SEQEND
  8
0
  6
CONTINUOUS
  0
POLYLINE
  8
0
  6
CONTINUOUS
 66
     1
 10
0.0
 20
0.0
 30
0.0
  0
VERTEX
  8
0
  6
CONTINUOUS
 10
47.996288
 20
155.643769
 30
0.0
  0
VERTEX
  8
0
  6
CONTINUOUS
 10
47.896397
 20
155.505423
 30
0.0
  0
VERTEX
  8
0
  6
CONTINUOUS
 10
47.737487
 20
155.386621
 30
0.0
  0
SEQEND
  8
0
  6
CONTINUOUS
  0
POLYLINE
  8
0
  6
CONTINUOUS
 66
     1
 10
0.0
 20
0.0
 30
0.0
  0
VERTEX
  8
0
  6
CONTINUOUS
 10
47.73304
 20
156.114184
 30
0.0
  0
VERTEX
  8
0
  6
CONTINUOUS
 10
47.877183
 20
156.154962
 30
0.0
  0
VERTEX
  8
0
  6
CONTINUOUS
 10
48.034815
 20
156.13698
 30
0.0
  0
VERTEX
  8
0
  6
CONTINUOUS
 10
48.14079
 20
156.06767
 30
0.0
  0
VERTEX
  8
0
  6
CONTINUOUS
 10
48.151308
 20
155.975677
 30
0.0
  0
SEQEND
  8
0
  6
CONTINUOUS
  0
POLYLINE
  8
0
  6
CONTINUOUS
 66
     1
 10
0.0
 20
0.0
 30
0.0
  0
VERTEX
  8
0
  6
CONTINUOUS
 10
47.238085
 20
155.830251
 30
0.0
  0
VERTEX
  8
0
  6
CONTINUOUS
 10
47.061311
 20
155.788245
 30
0.0
  0
VERTEX
  8
0
  6
CONTINUOUS
 10
46.884531
 20
155.830243
 30
0.0
  0
SEQEND
  8
0
  6
CONTINUOUS
  0
POLYLINE
  8
0
  6
CONTINUOUS
 66
     1
 10
0.0
 20
0.0
 30
0.0
  0
VERTEX
  8
0
  6
CONTINUOUS
 10
46.637034
 20
155.972198
 30
0.0
  0
VERTEX
  8
0
  6
CONTINUOUS
 10
46.563804
 20
156.073597
 30
0.0
  0
VERTEX
  8
0
  6
CONTINUOUS
 10
46.637021
 20
156.175
 30
0.0
  0
SEQEND
  8
0
  6
CONTINUOUS
  0
POLYLINE
  8
0
  6
CONTINUOUS
 66
     1
 10
0.0
 20
0.0
 30
0.0
  0
VERTEX
  8
0
  6
CONTINUOUS
 10
47.626917
 20
156.945667
 30
0.0
  0
VERTEX
  8
0
  6
CONTINUOUS
 10
47.700148
 20
156.844268
 30
0.0
  0
VERTEX
  8
0
  6
CONTINUOUS
 10
47.626931
 20
156.742866
 30
0.0
  0
SEQEND
  8
0
  6
CONTINUOUS
  0
POLYLINE
  8
0
  6
CONTINUOUS
 66
     1
 10
0.0
 20
0.0
 30
0.0
  0
VERTEX
  8
0
  6
CONTINUOUS
 10
42.323422
 20
159.784767
 30
0.0
  0
VERTEX
  8
0
  6
CONTINUOUS
 10
42.500196
 20
159.826772
 30
0.0
  0
VERTEX
  8
0
  6
CONTINUOUS
 10
42.676975
 20
159.784775
 30
0.0
  0
SEQEND
  8
0
  6
CONTINUOUS
  0
POLYLINE
  8
0
  6
CONTINUOUS
 66
     1
 10
0.0
 20
0.0
 30
0.0
  0
VERTEX
  8
0
  6
CONTINUOUS
 10
25.0
 20
47.253145
 30
0.0
  0
VERTEX
  8
0
  6
CONTINUOUS
 10
24.945804
 20
47.299666
 30
0.0
  0
VERTEX
  8
0
  6
CONTINUOUS
 10
24.92677
 20
47.354544
 30
0.0
  0
SEQEND
  8
0
  6
CONTINUOUS
  0
POLYLINE
  8
0
  6
CONTINUOUS
 66
     1
 10
0.0
 20
0.0
 30
0.0
  0
VERTEX
  8
0
  6
CONTINUOUS
 10
25.0
 20
149.644308
 30
0.0
  0
VERTEX
  8
0
  6
CONTINUOUS
 10
24.935291
 20
149.708592
 30
0.0
  0
VERTEX
  8
0
  6
CONTINUOUS
 10
24.935286
 20
149.782822
 30
0.0
  0
VERTEX
  8
0
  6
CONTINUOUS
 10
24.999986
 20
149.847109
 30
0.0
  0
SEQEND
  8
0
  6
CONTINUOUS
  0
POLYLINE
  8
0
  6
CONTINUOUS
 66
     1
 10
0.0
 20
0.0
 30
0.0
  0
VERTEX
  8
0
  6
CONTINUOUS
 10
30.230283
 20
44.384925
 30
0.0
  0
VERTEX
  8
0
  6
CONTINUOUS
 10
30.082176
 20
44.374333
 30
0.0
  0
VERTEX
  8
0
  6
CONTINUOUS
 10
29.949942
 20
44.414037
 30
0.0
  0
SEQEND
  8
0
  6
CONTINUOUS
  0
POLYLINE
  8
0
  6
CONTINUOUS
 66
     1
 10
0.0
 20
0.0
 30
0.0
  0
VERTEX
  8
0
  6
CONTINUOUS
 10
30.303495
 20
146.805208
 30
0.0
  0
VERTEX
  8
0
  6
CONTINUOUS
 10
30.126721
 20
146.763203
 30
0.0
  0
VERTEX
  8
0
  6
CONTINUOUS
 10
29.949942
 20
146.8052
 30
0.0
  0
SEQEND
  8
0
  6
CONTINUOUS
  0
POLYLINE
  8
0
  6
CONTINUOUS
 66
     1
 10
0.0
 20
0.0
 30
0.0
  0
VERTEX
  8
0
  6
CONTINUOUS
 10
31.293406
 20
147.373074
 30
0.0
  0
VERTEX
  8
0
  6
CONTINUOUS
 10
31.405475
 20
147.410192
 30
0.0
  0
VERTEX
  8
0
  6
CONTINUOUS
 10
31.534885
 20
147.410195
 30
0.0
  0
VERTEX
  8
0
  6
CONTINUOUS
 10
31.646959
 20
147.373082
 30
0.0
  0
SEQEND
  8
0
  6
CONTINUOUS
  0
POLYLINE
  8
0
  6
CONTINUOUS
 66
     1
 10
0.0
 20
0.0
 30
0.0
  0
VERTEX
  8
0
  6
CONTINUOUS
 10
31.894456
 20
147.231127
 30
0.0
  0
VERTEX
  8
0
  6
CONTINUOUS
 10
31.967687
 20
147.129728
 30
0.0
  0
VERTEX
  8
0
  6
CONTINUOUS
 10
31.89447
 20
147.028326
 30
0.0
  0
SEQEND
  8
0
  6
CONTINUOUS
  0
POLYLINE
  8
0
  6
CONTINUOUS
 66
     1
 10
0.0
 20
0.0
 30
0.0
  0
VERTEX
  8
0
  6
CONTINUOUS
 10
31.641013
 20
146.504481
 30
0.0
  0
VERTEX
  8
0
  6
CONTINUOUS
 10
31.480637
 20
146.510507
 30
0.0
  0
VERTEX
  8
0
  6
CONTINUOUS
 10
31.359797
 20
146.57129
 30
0.0
  0
VERTEX
  8
0
  6
CONTINUOUS
 10
31.328436
 20
146.661708
 30
0.0
  0
VERTEX
  8
0
  6
CONTINUOUS
 10
31.399515
 20
146.744392
 30
0.0
  0
SEQEND
  8
0
  6
CONTINUOUS
  0
POLYLINE
  8
0
  6
CONTINUOUS
 66
     1
 10
0.0
 20
0.0
 30
0.0
  0
VERTEX
  8
0
  6
CONTINUOUS
 10
32.667911
 20
146.741899
 30
0.0
  0
VERTEX
  8
0
  6
CONTINUOUS
 10
32.46081
 20
146.650737
 30
0.0
  0
VERTEX
  8
0
  6
CONTINUOUS
 10
32.219633
 20
146.593428
 30
0.0
  0
SEQEND
  8
0
  6
CONTINUOUS
  0
POLYLINE
  8
0
  6
CONTINUOUS
 66
     1
 10
0.0
 20
0.0
 30
0.0
  0
VERTEX
  8
0
  6
CONTINUOUS
 10
33.237931
 20
147.63676
 30
0.0
  0
VERTEX
  8
0
  6
CONTINUOUS
 10
33.394829
 20
147.688725
 30
0.0
  0
VERTEX
  8
0
  6
CONTINUOUS
 10
33.576002
 20
147.688729
 30
0.0
  0
VERTEX
  8
0
  6
CONTINUOUS
 10
33.732906
 20
147.636771
 30
0.0
  0
VERTEX
  8
0
  6
CONTINUOUS
 10
33.823499
 20
147.546773
 30
0.0
  0
VERTEX
  8
0
  6
CONTINUOUS
 10
33.823506
 20
147.442851
 30
0.0
  0
VERTEX
  8
0
  6
CONTINUOUS
 10
33.732926
 20
147.352849
 30
0.0
  0
SEQEND
  8
0
  6
CONTINUOUS
  0
POLYLINE
  8
0
  6
CONTINUOUS
 66
     1
 10
0.0
 20
0.0
 30
0.0
  0
VERTEX
  8
0
  6
CONTINUOUS
 10
32.884392
 20
147.433951
 30
0.0
  0
VERTEX
  8
0
  6
CONTINUOUS
 10
32.772323
 20
147.396833
 30
0.0
  0
VERTEX
  8
0
  6
CONTINUOUS
 10
32.642913
 20
147.39683
 30
0.0
  0
VERTEX
  8
0
  6
CONTINUOUS
 10
32.530839
 20
147.433943
 30
0.0
  0
SEQEND
  8
0
  6
CONTINUOUS
  0
POLYLINE
  8
0
  6
CONTINUOUS
 66
     1
 10
0.0
 20
0.0
 30
0.0
  0
VERTEX
  8
0
  6
CONTINUOUS
 10
30.939827
 20
147.738109
 30
0.0
  0
VERTEX
  8
0
  6
CONTINUOUS
 10
31.276036
 20
147.849462
 30
0.0
  0
VERTEX
  8
0
  6
CONTINUOUS
 10
31.664264
 20
147.849471
 30
0.0
  0
VERTEX
  8
0
  6
CONTINUOUS
 10
32.000488
 20
147.738133
 30
0.0
  0
SEQEND
  8
0
  6
CONTINUOUS
  0
POLYLINE
  8
0
  6
CONTINUOUS
 66
     1
 10
0.0
 20
0.0
 30
0.0
  0
VERTEX
  8
0
  6
CONTINUOUS
 10
30.480226
 20
147.474457
 30
0.0
  0
VERTEX
  8
0
  6
CONTINUOUS
 10
30.256087
 20
147.400221
 30
0.0
  0
VERTEX
  8
0
  6
CONTINUOUS
 10
29.997268
 20
147.400215
 30
0.0
  0
VERTEX
  8
0
  6
CONTINUOUS
 10
29.773119
 20
147.474441
 30
0.0
  0
SEQEND
  8
0
  6
CONTINUOUS
  0
POLYLINE
  8
0
  6
CONTINUOUS
 66
     1
 10
0.0
 20
0.0
 30
0.0
  0
VERTEX
  8
0
  6
CONTINUOUS
 10
26.166733
 20
149.542934
 30
0.0
  0
VERTEX
  8
0
  6
CONTINUOUS
 10
26.037315
 20
149.671502
 30
0.0
  0
VERTEX
  8
0
  6
CONTINUOUS
 10
26.037305
 20
149.819962
 30
0.0
  0
VERTEX
  8
0
  6
CONTINUOUS
 10
26.166705
 20
149.948536
 30
0.0
  0
SEQEND
  8
0
  6
CONTINUOUS
  0
POLYLINE
  8
0
  6
CONTINUOUS
 66
     1
 10
0.0
 20
0.0
 30
0.0
  0
VERTEX
  8
0
  6
CONTINUOUS
 10
33.124789
 20
153.940068
 30
0.0
  0
VERTEX
  8
0
  6
CONTINUOUS
 10
33.297273
 20
153.982053
 30
0.0
  0
VERTEX
  8
0
  6
CONTINUOUS
 10
33.472172
 20
153.943496
 30
0.0
  0
SEQEND
  8
0
  6
CONTINUOUS
  0
POLYLINE
  8
0
  6
CONTINUOUS
 66
     1
 10
0.0
 20
0.0
 30
0.0
  0
VERTEX
  8
0
  6
CONTINUOUS
 10
38.848045
 20
151.064792
 30
0.0
  0
VERTEX
  8
0
  6
CONTINUOUS
 10
38.91738
 20
151.000248
 30
0.0
  0
VERTEX
  8
0
  6
CONTINUOUS
 10
38.919653
 20
150.924445
 30
0.0
  0
VERTEX
  8
0
  6
CONTINUOUS
 10
38.854229
 20
150.858571
 30
0.0
  0
SEQEND
  8
0
  6
CONTINUOUS
  0
POLYLINE
  8
0
  6
CONTINUOUS
 66
     1
 10
0.0
 20
0.0
 30
0.0
  0
VERTEX
  8
0
  6
CONTINUOUS
 10
39.035434
 20
150.394654
 30
0.0
  0
VERTEX
  8
0
  6
CONTINUOUS
 10
38.842702
 20
150.338319
 30
0.0
  0
VERTEX
  8
0
  6
CONTINUOUS
 10
38.629052
 20
150.357724
 30
0.0
  0
VERTEX
  8
0
  6
CONTINUOUS
 10
38.476091
 20
150.445458
 30
0.0
  0
VERTEX
  8
0
  6
CONTINUOUS
 10
38.442244
 20
150.568008
 30
0.0
  0
VERTEX
  8
0
  6
CONTINUOUS
 10
38.54044
 20
150.678565
 30
0.0
  0
SEQEND
  8
0
  6
CONTINUOUS
  0
POLYLINE
  8
0
  6
CONTINUOUS
 66
     1
 10
0.0
 20
0.0
 30
0.0
  0
VERTEX
  8
0
  6
CONTINUOUS
 10
39.477067
 20
151.277304
 30
0.0
  0
VERTEX
  8
0
  6
CONTINUOUS
 10
39.685074
 20
151.083671
 30
0.0
  0
VERTEX
  8
0
  6
CONTINUOUS
 10
39.691894
 20
150.856263
 30
0.0
  0
VERTEX
  8
0
  6
CONTINUOUS
 10
39.49562
 20
150.658641
 30
0.0
  0
SEQEND
  8
0
  6
CONTINUOUS
  0
POLYLINE
  8
0
  6
CONTINUOUS
 66
     1
 10
0.0
 20
0.0
 30
0.0
  0
VERTEX
  8
0
  6
CONTINUOUS
 10
34.167011
 20
154.120764
 30
0.0
  0
VERTEX
  8
0
  6
CONTINUOUS
 10
34.02834
 20
154.249853
 30
0.0
  0
VERTEX
  8
0
  6
CONTINUOUS
 10
34.023794
 20
154.401458
 30
0.0
  0
VERTEX
  8
0
  6
CONTINUOUS
 10
34.154643
 20
154.533206
 30
0.0
  0
VERTEX
  8
0
  6
CONTINUOUS
 10
34.384315
 20
154.608273
 30
0.0
  0
VERTEX
  8
0
  6
CONTINUOUS
 10
34.648617
 20
154.605677
 30
0.0
  0
VERTEX
  8
0
  6
CONTINUOUS
 10
34.873674
 20
154.526144
 30
0.0
  0
SEQEND
  8
0
  6
CONTINUOUS
  0
POLYLINE
  8
0
  6
CONTINUOUS
 66
     1
 10
0.0
 20
0.0
 30
0.0
  0
VERTEX
  8
0
  6
CONTINUOUS
 10
49.467984
 20
53.439138
 30
0.0
  0
VERTEX
  8
0
  6
CONTINUOUS
 10
49.448958
 20
53.38426
 30
0.0
  0
VERTEX
  8
0
  6
CONTINUOUS
 10
49.394768
 20
53.337735
 30
0.0
  0
SEQEND
  8
0
  6
CONTINUOUS
  0
POLYLINE
  8
0
  6
CONTINUOUS
 66
     1
 10
0.0
 20
0.0
 30
0.0
  0
VERTEX
  8
0
  6
CONTINUOUS
 10
49.394754
 20
155.9317
 30
0.0
  0
VERTEX
  8
0
  6
CONTINUOUS
 10
49.467984
 20
155.830301
 30
0.0
  0
VERTEX
  8
0
  6
CONTINUOUS
 10
49.394768
 20
155.728899
 30
0.0
  0
SEQEND
  8
0
  6
CONTINUOUS
  0
POLYLINE
  8
0
  6
CONTINUOUS
 66
     1
 10
0.0
 20
0.0
 30
0.0
  0
VERTEX
  8
0
  6
CONTINUOUS
 10
47.626931
 20
156.742866
 30
0.0
  0
VERTEX
  8
0
  6
CONTINUOUS
 10
47.803705
 20
156.784871
 30
0.0
  0
VERTEX
  8
0
  6
CONTINUOUS
 10
47.980485
 20
156.742874
 30
0.0
  0
SEQEND
  8
0
  6
CONTINUOUS
  0
POLYLINE
  8
0
  6
CONTINUOUS
 66
     1
 10
0.0
 20
0.0
 30
0.0
  0
VERTEX
  8
0
  6
CONTINUOUS
 10
47.202723
 20
155.931651
 30
0.0
  0
VERTEX
  8
0
  6
CONTINUOUS
 10
46.955239
 20
155.872843
 30
0.0
  0
VERTEX
  8
0
  6
CONTINUOUS
 10
46.707748
 20
155.931639
 30
0.0
  0
SEQEND
  8
0
  6
CONTINUOUS
  0
POLYLINE
  8
0
  6
CONTINUOUS
 66
     1
 10
0.0
 20
0.0
 30
0.0
  0
VERTEX
  8
0
  6
CONTINUOUS
 10
46.703301
 20
155.934237
 30
0.0
  0
VERTEX
  8
0
  6
CONTINUOUS
 10
46.60524
 20
156.075418
 30
0.0
  0
VERTEX
  8
0
  6
CONTINUOUS
 10
46.707728
 20
156.215561
 30
0.0
  0
SEQEND
  8
0
  6
CONTINUOUS
  0
POLYLINE
  8
0
  6
CONTINUOUS
 66
     1
 10
0.0
 20
0.0
 30
0.0
  0
VERTEX
  8
0
  6
CONTINUOUS
 10
47.62697
 20
156.175022
 30
0.0
  0
VERTEX
  8
0
  6
CONTINUOUS
 10
47.803744
 20
156.217027
 30
0.0
  0
VERTEX
  8
0
  6
CONTINUOUS
 10
47.980523
 20
156.17503
 30
0.0
  0
SEQEND
  8
0
  6
CONTINUOUS
  0
POLYLINE
  8
0
  6
CONTINUOUS
 66
     1
 10
0.0
 20
0.0
 30
0.0
  0
VERTEX
  8
0
  6
CONTINUOUS
 10
48.404804
 20
155.931678
 30
0.0
  0
VERTEX
  8
0
  6
CONTINUOUS
 10
48.478034
 20
155.830279
 30
0.0
  0
VERTEX
  8
0
  6
CONTINUOUS
 10
48.404818
 20
155.728876
 30
0.0
  0
SEQEND
  8
0
  6
CONTINUOUS
  0
POLYLINE
  8
0
  6
CONTINUOUS
 66
     1
 10
0.0
 20
0.0
 30
0.0
  0
VERTEX
  8
0
  6
CONTINUOUS
 10
32.071293
 20
146.359085
 30
0.0
  0
VERTEX
  8
0
  6
CONTINUOUS
 10
31.959223
 20
146.321967
 30
0.0
  0
VERTEX
  8
0
  6
CONTINUOUS
 10
31.829814
 20
146.321964
 30
0.0
  0
VERTEX
  8
0
  6
CONTINUOUS
 10
31.717739
 20
146.359077
 30
0.0
  0
SEQEND
  8
0
  6
CONTINUOUS
  0
POLYLINE
  8
0
  6
CONTINUOUS
 66
     1
 10
0.0
 20
0.0
 30
0.0
  0
VERTEX
  8
0
  6
CONTINUOUS
 10
31.293459
 20
146.602429
 30
0.0
  0
VERTEX
  8
0
  6
CONTINUOUS
 10
31.220228
 20
146.703828
 30
0.0
  0
VERTEX
  8
0
  6
CONTINUOUS
 10
31.293445
 20
146.80523
 30
0.0
  0
SEQEND
  8
0
  6
CONTINUOUS
  0
POLYLINE
  8
0
  6
CONTINUOUS
 66
     1
 10
0.0
 20
0.0
 30
0.0
  0
VERTEX
  8
0
  6
CONTINUOUS
 10
31.219148
 20
147.330476
 30
0.0
  0
VERTEX
  8
0
  6
CONTINUOUS
 10
31.411879
 20
147.386811
 30
0.0
  0
VERTEX
  8
0
  6
CONTINUOUS
 10
31.625529
 20
147.367405
 30
0.0
  0
VERTEX
  8
0
  6
CONTINUOUS
 10
31.778491
 20
147.279672
 30
0.0
  0
VERTEX
  8
0
  6
CONTINUOUS
 10
31.812338
 20
147.157122
 30
0.0
  0
VERTEX
  8
0
  6
CONTINUOUS
 10
31.714142
 20
147.046565
 30
0.0
  0
SEQEND
  8
0
  6
CONTINUOUS
  0
POLYLINE
  8
0
  6
CONTINUOUS
 66
     1
 10
0.0
 20
0.0
 30
0.0
  0
VERTEX
  8
0
  6
CONTINUOUS
 10
30.303509
 20
44.211243
 30
0.0
  0
VERTEX
  8
0
  6
CONTINUOUS
 10
30.249313
 20
44.257765
 30
0.0
  0
VERTEX
  8
0
  6
CONTINUOUS
 10
30.230279
 20
44.312643
 30
0.0
  0
SEQEND
  8
0
  6
CONTINUOUS
  0
POLYLINE
  8
0
  6
CONTINUOUS
 66
     1
 10
0.0
 20
0.0
 30
0.0
  0
VERTEX
  8
0
  6
CONTINUOUS
 10
30.303509
 20
146.602407
 30
0.0
  0
VERTEX
  8
0
  6
CONTINUOUS
 10
30.2388
 20
146.666691
 30
0.0
  0
VERTEX
  8
0
  6
CONTINUOUS
 10
30.238795
 20
146.740921
 30
0.0
  0
VERTEX
  8
0
  6
CONTINUOUS
 10
30.303495
 20
146.805208
 30
0.0
  0
SEQEND
  8
0
  6
CONTINUOUS
  0
POLYLINE
  8
0
  6
CONTINUOUS
 66
     1
 10
0.0
 20
0.0
 30
0.0
  0
VERTEX
  8
0
  6
CONTINUOUS
 10
32.071332
 20
43.400078
 30
0.0
  0
VERTEX
  8
0
  6
CONTINUOUS
 10
31.959262
 20
43.36296
 30
0.0
  0
VERTEX
  8
0
  6
CONTINUOUS
 10
31.829853
 20
43.362957
 30
0.0
  0
VERTEX
  8
0
  6
CONTINUOUS
 10
31.717778
 20
43.40007
 30
0.0
  0
SEQEND
  8
0
  6
CONTINUOUS
  0
POLYLINE
  8
0
  6
CONTINUOUS
 66
     1
 10
0.0
 20
0.0
 30
0.0
  0
VERTEX
  8
0
  6
CONTINUOUS
 10
32.071332
 20
145.791241
 30
0.0
  0
VERTEX
  8
0
  6
CONTINUOUS
 10
31.894558
 20
145.749236
 30
0.0
  0
VERTEX
  8
0
  6
CONTINUOUS
 10
31.717778
 20
145.791233
 30
0.0
  0
SEQEND
  8
0
  6
CONTINUOUS
  0
POLYLINE
  8
0
  6
CONTINUOUS
 66
     1
 10
0.0
 20
0.0
 30
0.0
  0
VERTEX
  8
0
  6
CONTINUOUS
 10
34.829198
 20
102.439801
 30
0.0
  0
VERTEX
  8
0
  6
CONTINUOUS
 10
34.852881
 20
102.555778
 30
0.0
  0
VERTEX
  8
0
  6
CONTINUOUS
 10
34.917583
 20
102.66785
 30
0.0
  0
VERTEX
  8
0
  6
CONTINUOUS
 10
35.005968
 20
102.745988
 30
0.0
  0
SEQEND
  8
0
  6
CONTINUOUS
  0
POLYLINE
  8
0
  6
CONTINUOUS
 66
     1
 10
0.0
 20
0.0
 30
0.0
  0
VERTEX
  8
0
  6
CONTINUOUS
 10
35.182751
 20
102.439809
 30
0.0
  0
VERTEX
  8
0
  6
CONTINUOUS
 10
35.005977
 20
102.397803
 30
0.0
  0
VERTEX
  8
0
  6
CONTINUOUS
 10
34.829198
 20
102.439801
 30
0.0
  0
SEQEND
  8
0
  6
CONTINUOUS
  0
POLYLINE
  8
0
  6
CONTINUOUS
 66
     1
 10
0.0
 20
0.0
 30
0.0
  0
VERTEX
  8
0
  6
CONTINUOUS
 10
35.182751
 20
84.009399
 30
0.0
  0
VERTEX
  8
0
  6
CONTINUOUS
 10
35.005977
 20
83.967394
 30
0.0
  0
VERTEX
  8
0
  6
CONTINUOUS
 10
34.829198
 20
84.009391
 30
0.0
  0
SEQEND
  8
0
  6
CONTINUOUS
  0
POLYLINE
  8
0
  6
CONTINUOUS
 66
     1
 10
0.0
 20
0.0
 30
0.0
  0
VERTEX
  8
0
  6
CONTINUOUS
 10
34.881591
 20
83.893931
 30
0.0
  0
VERTEX
  8
0
  6
CONTINUOUS
 10
34.842821
 20
83.938373
 30
0.0
  0
VERTEX
  8
0
  6
CONTINUOUS
 10
34.829198
 20
84.009391
 30
0.0
  0
SEQEND
  8
0
  6
CONTINUOUS
  0
POLYLINE
  8
0
  6
CONTINUOUS
 66
     1
 10
0.0
 20
0.0
 30
0.0
  0
VERTEX
  8
0
  6
CONTINUOUS
 10
32.071332
 20
104.834776
 30
0.0
  0
VERTEX
  8
0
  6
CONTINUOUS
 10
31.959262
 20
104.797658
 30
0.0
  0
VERTEX
  8
0
  6
CONTINUOUS
 10
31.829853
 20
104.797655
 30
0.0
  0
VERTEX
  8
0
  6
CONTINUOUS
 10
31.717778
 20
104.834768
 30
0.0
  0
SEQEND
  8
0
  6
CONTINUOUS
  0
POLYLINE
  8
0
  6
CONTINUOUS
 66
     1
 10
0.0
 20
0.0
 30
0.0
  0
VERTEX
  8
0
  6
CONTINUOUS
 10
53.248629
 20
112.886467
 30
0.0
  0
VERTEX
  8
0
  6
CONTINUOUS
 10
53.33702
 20
112.808333
 30
0.0
  0
VERTEX
  8
0
  6
CONTINUOUS
 10
53.401728
 20
112.696264
 30
0.0
  0
VERTEX
  8
0
  6
CONTINUOUS
 10
53.425412
 20
112.580288
 30
0.0
  0
SEQEND
  8
0
  6
CONTINUOUS
  0
POLYLINE
  8
0
  6
CONTINUOUS
 66
     1
 10
0.0
 20
0.0
 30
0.0
  0
VERTEX
  8
0
  6
CONTINUOUS
 10
35.182751
 20
84.009399
 30
0.0
  0
VERTEX
  8
0
  6
CONTINUOUS
 10
35.169128
 20
83.938383
 30
0.0
  0
VERTEX
  8
0
  6
CONTINUOUS
 10
35.130359
 20
83.89394
 30
0.0
  0
SEQEND
  8
0
  6
CONTINUOUS
  0
POLYLINE
  8
0
  6
CONTINUOUS
 66
     1
 10
0.0
 20
0.0
 30
0.0
  0
VERTEX
  8
0
  6
CONTINUOUS
 10
52.753673
 20
112.602534
 30
0.0
  0
VERTEX
  8
0
  6
CONTINUOUS
 10
52.842065
 20
112.5244
 30
0.0
  0
VERTEX
  8
0
  6
CONTINUOUS
 10
52.906772
 20
112.412331
 30
0.0
  0
VERTEX
  8
0
  6
CONTINUOUS
 10
52.930457
 20
112.296355
 30
0.0
  0
SEQEND
  8
0
  6
CONTINUOUS
  0
POLYLINE
  8
0
  6
CONTINUOUS
 66
     1
 10
0.0
 20
0.0
 30
0.0
  0
VERTEX
  8
0
  6
CONTINUOUS
 10
52.647603
 20
94.02818
 30
0.0
  0
VERTEX
  8
0
  6
CONTINUOUS
 10
52.63398
 20
93.957165
 30
0.0
  0
VERTEX
  8
0
  6
CONTINUOUS
 10
52.595211
 20
93.912721
 30
0.0
  0
SEQEND
  8
0
  6
CONTINUOUS
  0
POLYLINE
  8
0
  6
CONTINUOUS
 66
     1
 10
0.0
 20
0.0
 30
0.0
  0
VERTEX
  8
0
  6
CONTINUOUS
 10
52.930457
 20
93.865946
 30
0.0
  0
VERTEX
  8
0
  6
CONTINUOUS
 10
52.906772
 20
93.777139
 30
0.0
  0
VERTEX
  8
0
  6
CONTINUOUS
 10
52.842065
 20
93.739297
 30
0.0
  0
VERTEX
  8
0
  6
CONTINUOUS
 10
52.753673
 20
93.76256
 30
0.0
  0
SEQEND
  8
0
  6
CONTINUOUS
  0
POLYLINE
  8
0
  6
CONTINUOUS
 66
     1
 10
0.0
 20
0.0
 30
0.0
  0
VERTEX
  8
0
  6
CONTINUOUS
 10
29.490332
 20
105.501981
 30
0.0
  0
VERTEX
  8
0
  6
CONTINUOUS
 10
29.542107
 20
105.676485
 30
0.0
  0
VERTEX
  8
0
  6
CONTINUOUS
 10
29.667102
 20
105.808168
 30
0.0
  0
SEQEND
  8
0
  6
CONTINUOUS
  0
POLYLINE
  8
0
  6
CONTINUOUS
 66
     1
 10
0.0
 20
0.0
 30
0.0
  0
VERTEX
  8
0
  6
CONTINUOUS
 10
29.542725
 20
86.956112
 30
0.0
  0
VERTEX
  8
0
  6
CONTINUOUS
 10
29.503955
 20
87.000554
 30
0.0
  0
VERTEX
  8
0
  6
CONTINUOUS
 10
29.490332
 20
87.071572
 30
0.0
  0
SEQEND
  8
0
  6
CONTINUOUS
  0
POLYLINE
  8
0
  6
CONTINUOUS
 66
     1
 10
0.0
 20
0.0
 30
0.0
  0
VERTEX
  8
0
  6
CONTINUOUS
 10
35.005968
 20
102.745988
 30
0.0
  0
VERTEX
  8
0
  6
CONTINUOUS
 10
35.094359
 20
102.667854
 30
0.0
  0
VERTEX
  8
0
  6
CONTINUOUS
 10
35.159067
 20
102.555784
 30
0.0
  0
VERTEX
  8
0
  6
CONTINUOUS
 10
35.182751
 20
102.439809
 30
0.0
  0
SEQEND
  8
0
  6
CONTINUOUS
  0
POLYLINE
  8
0
  6
CONTINUOUS
 66
     1
 10
0.0
 20
0.0
 30
0.0
  0
VERTEX
  8
0
  6
CONTINUOUS
 10
52.470819
 20
112.764769
 30
0.0
  0
VERTEX
  8
0
  6
CONTINUOUS
 10
52.595824
 20
112.633091
 30
0.0
  0
VERTEX
  8
0
  6
CONTINUOUS
 10
52.647603
 20
112.45859
 30
0.0
  0
SEQEND
  8
0
  6
CONTINUOUS
  0
POLYLINE
  8
0
  6
CONTINUOUS
 66
     1
 10
0.0
 20
0.0
 30
0.0
  0
VERTEX
  8
0
  6
CONTINUOUS
 10
100.054428
 20
146.354095
 30
0.0
  0
VERTEX
  8
0
  6
CONTINUOUS
 10
100.70635
 20
145.795145
 30
0.0
  0
VERTEX
  8
0
  6
CONTINUOUS
 10
101.253997
 20
145.01908
 30
0.0
  0
VERTEX
  8
0
  6
CONTINUOUS
 10
101.630042
 20
144.146099
 30
0.0
  0
VERTEX
  8
0
  6
CONTINUOUS
 10
101.767158
 20
143.2964
 30
0.0
  0
SEQEND
  8
0
  6
CONTINUOUS
  0
POLYLINE
  8
0
  6
CONTINUOUS
 66
     1
 10
0.0
 20
0.0
 30
0.0
  0
VERTEX
  8
0
  6
CONTINUOUS
 10
58.269564
 20
118.343833
 30
0.0
  0
VERTEX
  8
0
  6
CONTINUOUS
 10
58.121275
 20
119.187123
 30
0.0
  0
VERTEX
  8
0
  6
CONTINUOUS
 10
57.73215
 20
120.0526
 30
0.0
  0
VERTEX
  8
0
  6
CONTINUOUS
 10
57.171422
 20
120.821161
 30
0.0
  0
VERTEX
  8
0
  6
CONTINUOUS
 10
56.508327
 20
121.373703
 30
0.0
  0
SEQEND
  8
0
  6
CONTINUOUS
  0
POLYLINE
  8
0
  6
CONTINUOUS
 66
     1
 10
0.0
 20
0.0
 30
0.0
  0
VERTEX
  8
0
  6
CONTINUOUS
 10
58.269564
 20
84.688666
 30
0.0
  0
VERTEX
  8
0
  6
CONTINUOUS
 10
58.11415
 20
83.988481
 30
0.0
  0
VERTEX
  8
0
  6
CONTINUOUS
 10
57.707462
 20
83.554129
 30
0.0
  0
SEQEND
  8
0
  6
CONTINUOUS
  0
POLYLINE
  8
0
  6
CONTINUOUS
 66
     1
 10
0.0
 20
0.0
 30
0.0
  0
VERTEX
  8
0
  6
CONTINUOUS
 10
101.767158
 20
143.2964
 30
0.0
  0
VERTEX
  8
0
  6
CONTINUOUS
 10
101.906312
 20
143.499475
 30
0.0
  0
SEQEND
  8
0
  6
CONTINUOUS
  0
POLYLINE
  8
0
  6
CONTINUOUS
 66
     1
 10
0.0
 20
0.0
 30
0.0
  0
VERTEX
  8
0
  6
CONTINUOUS
 10
58.269564
 20
118.343833
 30
0.0
  0
VERTEX
  8
0
  6
CONTINUOUS
 10
57.568681
 20
118.340309
 30
0.0
  0
SEQEND
  8
0
  6
CONTINUOUS
  0
POLYLINE
  8
0
  6
CONTINUOUS
 66
     1
 10
0.0
 20
0.0
 30
0.0
  0
VERTEX
  8
0
  6
CONTINUOUS
 10
57.568681
 20
84.685142
 30
0.0
  0
VERTEX
  8
0
  6
CONTINUOUS
 10
58.269564
 20
84.688666
 30
0.0
  0
SEQEND
  8
0
  6
CONTINUOUS
  0
POLYLINE
  8
0
  6
CONTINUOUS
 66
     1
 10
0.0
 20
0.0
 30
0.0
  0
VERTEX
  8
0
  6
CONTINUOUS
 10
56.508327
 20
121.373703
 30
0.0
  0
VERTEX
  8
0
  6
CONTINUOUS
 10
56.154841
 20
120.761422
 30
0.0
  0
SEQEND
  8
0
  6
CONTINUOUS
  0
POLYLINE
  8
0
  6
CONTINUOUS
 66
     1
 10
0.0
 20
0.0
 30
0.0
  0
VERTEX
  8
0
  6
CONTINUOUS
 10
56.154841
 20
83.830236
 30
0.0
  0
VERTEX
  8
0
  6
CONTINUOUS
 10
56.270858
 20
83.601843
 30
0.0
  0
SEQEND
  8
0
  6
CONTINUOUS
  0
POLYLINE
  8
0
  6
CONTINUOUS
 66
     1
 10
0.0
 20
0.0
 30
0.0
  0
VERTEX
  8
0
  6
CONTINUOUS
 10
100.054428
 20
146.354095
 30
0.0
  0
VERTEX
  8
0
  6
CONTINUOUS
 10
100.306422
 20
146.367433
 30
0.0
  0
SEQEND
  8
0
  6
CONTINUOUS
  0
POLYLINE
  8
0
  6
CONTINUOUS
 66
     1
 10
0.0
 20
0.0
 30
0.0
  0
VERTEX
  8
0
  6
CONTINUOUS
 10
57.568681
 20
84.685142
 30
0.0
  0
VERTEX
  8
0
  6
CONTINUOUS
 10
57.141096
 20
83.7904
 30
0.0
  0
VERTEX
  8
0
  6
CONTINUOUS
 10
56.154841
 20
83.830236
 30
0.0
  0
SEQEND
  8
0
  6
CONTINUOUS
  0
POLYLINE
  8
0
  6
CONTINUOUS
 66
     1
 10
0.0
 20
0.0
 30
0.0
  0
VERTEX
  8
0
  6
CONTINUOUS
 10
49.467978
 20
87.401098
 30
0.0
  0
VERTEX
  8
0
  6
CONTINUOUS
 10
50.361362
 20
86.92402
 30
0.0
  0
VERTEX
  8
0
  6
CONTINUOUS
 10
56.154841
 20
83.830236
 30
0.0
  0
SEQEND
  8
0
  6
CONTINUOUS
  0
POLYLINE
  8
0
  6
CONTINUOUS
 66
     1
 10
0.0
 20
0.0
 30
0.0
  0
VERTEX
  8
0
  6
CONTINUOUS
 10
49.468194
 20
124.597932
 30
0.0
  0
VERTEX
  8
0
  6
CONTINUOUS
 10
50.361362
 20
124.08547
 30
0.0
  0
VERTEX
  8
0
  6
CONTINUOUS
 10
56.154841
 20
120.761422
 30
0.0
  0
SEQEND
  8
0
  6
CONTINUOUS
  0
POLYLINE
  8
0
  6
CONTINUOUS
 66
     1
 10
0.0
 20
0.0
 30
0.0
  0
VERTEX
  8
0
  6
CONTINUOUS
 10
57.568681
 20
118.340309
 30
0.0
  0
VERTEX
  8
0
  6
CONTINUOUS
 10
57.141096
 20
119.708717
 30
0.0
  0
VERTEX
  8
0
  6
CONTINUOUS
 10
56.154841
 20
120.761422
 30
0.0
  0
SEQEND
  8
0
  6
CONTINUOUS
  0
POLYLINE
  8
0
  6
CONTINUOUS
 66
     1
 10
0.0
 20
0.0
 30
0.0
  0
VERTEX
  8
0
  6
CONTINUOUS
 10
57.568681
 20
84.685142
 30
0.0
  0
VERTEX
  8
0
  6
CONTINUOUS
 10
57.568681
 20
101.512725
 30
0.0
  0
VERTEX
  8
0
  6
CONTINUOUS
 10
57.568681
 20
118.340309
 30
0.0
  0
SEQEND
  8
0
  6
CONTINUOUS
  0
POLYLINE
  8
0
  6
CONTINUOUS
 66
     1
 10
0.0
 20
0.0
 30
0.0
  0
VERTEX
  8
0
  6
CONTINUOUS
 10
58.269564
 20
84.688666
 30
0.0
  0
VERTEX
  8
0
  6
CONTINUOUS
 10
58.269564
 20
101.51625
 30
0.0
  0
VERTEX
  8
0
  6
CONTINUOUS
 10
58.269564
 20
118.343833
 30
0.0
  0
SEQEND
  8
0
  6
CONTINUOUS
  0
POLYLINE
  8
0
  6
CONTINUOUS
 66
     1
 10
0.0
 20
0.0
 30
0.0
  0
VERTEX
  8
0
  6
CONTINUOUS
 10
58.269564
 20
118.343833
 30
0.0
  0
VERTEX
  8
0
  6
CONTINUOUS
 10
58.271989
 20
118.345225
 30
0.0
  0
VERTEX
  8
0
  6
CONTINUOUS
 10
80.018361
 20
130.820117
 30
0.0
  0
VERTEX
  8
0
  6
CONTINUOUS
 10
101.764732
 20
143.295009
 30
0.0
  0
VERTEX
  8
0
  6
CONTINUOUS
 10
101.767158
 20
143.2964
 30
0.0
  0
SEQEND
  8
0
  6
CONTINUOUS
  0
POLYLINE
  8
0
  6
CONTINUOUS
 66
     1
 10
0.0
 20
0.0
 30
0.0
  0
VERTEX
  8
0
  6
CONTINUOUS
 10
101.767158
 20
143.2964
 30
0.0
  0
VERTEX
  8
0
  6
CONTINUOUS
 10
101.767158
 20
140.94357
 30
0.0
  0
SEQEND
  8
0
  6
CONTINUOUS
  0
POLYLINE
  8
0
  6
CONTINUOUS
 66
     1
 10
0.0
 20
0.0
 30
0.0
  0
VERTEX
  8
0
  6
CONTINUOUS
 10
87.170453
 20
154.271575
 30
0.0
  0
VERTEX
  8
0
  6
CONTINUOUS
 10
87.30394
 20
154.314236
 30
0.0
  0
VERTEX
  8
0
  6
CONTINUOUS
 10
87.416547
 20
154.288484
 30
0.0
  0
VERTEX
  8
0
  6
CONTINUOUS
 10
87.420057
 20
154.28638
 30
0.0
  0
SEQEND
  8
0
  6
CONTINUOUS
  0
POLYLINE
  8
0
  6
CONTINUOUS
 66
     1
 10
0.0
 20
0.0
 30
0.0
  0
VERTEX
  8
0
  6
CONTINUOUS
 10
49.467956
 20
125.413164
 30
0.0
  0
VERTEX
  8
0
  6
CONTINUOUS
 10
50.714848
 20
124.697751
 30
0.0
  0
VERTEX
  8
0
  6
CONTINUOUS
 10
56.508327
 20
121.373703
 30
0.0
  0
SEQEND
  8
0
  6
CONTINUOUS
  0
POLYLINE
  8
0
  6
CONTINUOUS
 66
     1
 10
0.0
 20
0.0
 30
0.0
  0
VERTEX
  8
0
  6
CONTINUOUS
 10
87.170453
 20
154.271575
 30
0.0
  0
VERTEX
  8
0
  6
CONTINUOUS
 10
94.459715
 20
149.792167
 30
0.0
  0
VERTEX
  8
0
  6
CONTINUOUS
 10
100.054428
 20
146.354095
 30
0.0
  0
SEQEND
  8
0
  6
CONTINUOUS
  0
POLYLINE
  8
0
  6
CONTINUOUS
 66
     1
 10
0.0
 20
0.0
 30
0.0
  0
VERTEX
  8
0
  6
CONTINUOUS
 10
56.508327
 20
121.373703
 30
0.0
  0
VERTEX
  8
0
  6
CONTINUOUS
 10
56.535006
 20
121.389007
 30
0.0
  0
VERTEX
  8
0
  6
CONTINUOUS
 10
78.281377
 20
133.863899
 30
0.0
  0
VERTEX
  8
0
  6
CONTINUOUS
 10
100.027749
 20
146.338791
 30
0.0
  0
VERTEX
  8
0
  6
CONTINUOUS
 10
100.054428
 20
146.354095
 30
0.0
  0
SEQEND
  8
0
  6
CONTINUOUS
  0
LINE
  8
0
  6
CONTINUOUS
 10
101.764732
 20
108.852646
 30
0.0
 11
101.906312
 21
109.721049
 31
0.0
  0
LINE
  8
0
  6
CONTINUOUS
 10
101.764732
 20
108.852646
 30
0.0
 11
101.767158
 21
140.94357
 31
0.0
  0
LINE
  8
0
  6
CONTINUOUS
 10
101.906312
 20
143.499475
 30
0.0
 11
101.906312
 21
109.721049
 31
0.0
  0
LINE
  8
0
  6
CONTINUOUS
 10
61.296012
 20
85.637606
 30
0.0
 11
101.764732
 21
108.852646
 31
0.0
  0
LINE
  8
0
  6
CONTINUOUS
 10
64.9577
 20
107.439647
 30
0.0
 11
63.401732
 21
108.394495
 31
0.0
  0
LINE
  8
0
  6
CONTINUOUS
 10
88.50817
 20
124.294147
 30
0.0
 11
89.568877
 21
123.673932
 31
0.0
  0
LINE
  8
0
  6
CONTINUOUS
 10
89.578706
 20
123.668324
 30
0.0
 11
92.978545
 21
121.776406
 31
0.0
  0
LINE
  8
0
  6
CONTINUOUS
 10
76.648148
 20
108.553975
 30
0.0
 11
74.533655
 21
109.84156
 31
0.0
  0
LINE
  8
0
  6
CONTINUOUS
 10
64.114844
 20
106.806804
 30
0.0
 11
64.375331
 21
106.657106
 31
0.0
  0
LINE
  8
0
  6
CONTINUOUS
 10
93.984265
 20
123.642379
 30
0.0
 11
94.337836
 21
123.43564
 31
0.0
  0
LINE
  8
0
  6
CONTINUOUS
 10
93.635393
 20
123.741377
 30
0.0
 11
93.89588
 21
123.591675
 31
0.0
  0
LINE
  8
0
  6
CONTINUOUS
 10
64.463716
 20
106.707806
 30
0.0
 11
64.817283
 21
106.501067
 31
0.0
  0
LINE
  8
0
  6
CONTINUOUS
 10
79.400334
 20
121.21494
 30
0.0
 11
82.414583
 21
122.944073
 31
0.0
  0
LINE
  8
0
  6
CONTINUOUS
 10
79.400334
 20
121.21494
 30
0.0
 11
79.930685
 21
120.904831
 31
0.0
  0
LINE
  8
0
  6
CONTINUOUS
 10
73.775181
 20
109.291842
 30
0.0
 11
73.775193
 21
109.127998
 31
0.0
  0
LINE
  8
0
  6
CONTINUOUS
 10
90.360143
 20
126.341295
 30
0.0
 11
89.299436
 21
126.96151
 31
0.0
  0
LINE
  8
0
  6
CONTINUOUS
 10
91.290462
 20
126.874975
 30
0.0
 11
90.21124
 21
127.484571
 31
0.0
  0
LINE
  8
0
  6
CONTINUOUS
 10
86.818277
 20
129.768944
 30
0.0
 11
86.818927
 21
120.743211
 31
0.0
  0
LINE
  8
0
  6
CONTINUOUS
 10
73.775181
 20
109.291842
 30
0.0
 11
73.961833
 21
109.184608
 31
0.0
  0
LINE
  8
0
  6
CONTINUOUS
 10
78.06682
 20
111.75376
 30
0.0
 11
74.630031
 21
109.78223
 31
0.0
  0
LINE
  8
0
  6
CONTINUOUS
 10
73.961729
 20
109.398856
 30
0.0
 11
73.775181
 21
109.291842
 31
0.0
  0
LINE
  8
0
  6
CONTINUOUS
 10
82.414583
 20
122.944073
 30
0.0
 11
82.76715
 21
122.744925
 31
0.0
  0
LINE
  8
0
  6
CONTINUOUS
 10
88.180285
 20
125.022895
 30
0.0
 11
89.240992
 21
124.40268
 31
0.0
  0
LINE
  8
0
  6
CONTINUOUS
 10
82.246991
 20
122.446555
 30
0.0
 11
82.247006
 21
122.233596
 31
0.0
  0
LINE
  8
0
  6
CONTINUOUS
 10
92.139827
 20
117.055186
 30
0.0
 11
92.139454
 21
122.241738
 31
0.0
  0
LINE
  8
0
  6
CONTINUOUS
 10
96.635075
 20
135.402138
 30
0.0
 11
96.636786
 21
111.648372
 31
0.0
  0
LINE
  8
0
  6
CONTINUOUS
 10
82.954179
 20
122.852237
 30
0.0
 11
82.246991
 21
122.446555
 31
0.0
  0
LINE
  8
0
  6
CONTINUOUS
 10
92.139454
 20
117.84647
 30
0.0
 11
82.954179
 21
122.852237
 31
0.0
  0
LINE
  8
0
  6
CONTINUOUS
 10
92.139827
 20
117.055186
 30
0.0
 11
82.246991
 21
122.446555
 31
0.0
  0
LINE
  8
0
  6
CONTINUOUS
 10
95.55662
 20
125.363493
 30
0.0
 11
92.139085
 21
127.361791
 31
0.0
  0
LINE
  8
0
  6
CONTINUOUS
 10
93.719052
 20
124.309368
 30
0.0
 11
90.360143
 21
126.341295
 31
0.0
  0
LINE
  8
0
  6
CONTINUOUS
 10
90.360143
 20
126.341295
 30
0.0
 11
91.290462
 21
126.874975
 31
0.0
  0
LINE
  8
0
  6
CONTINUOUS
 10
95.55662
 20
125.363493
 30
0.0
 11
95.556797
 21
122.906209
 31
0.0
  0
LINE
  8
0
  6
CONTINUOUS
 10
93.719052
 20
124.309368
 30
0.0
 11
95.55662
 21
125.363493
 31
0.0
  0
LINE
  8
0
  6
CONTINUOUS
 10
92.658522
 20
122.472294
 30
0.0
 11
89.240992
 21
124.40268
 31
0.0
  0
LINE
  8
0
  6
CONTINUOUS
 10
95.556797
 20
122.906209
 30
0.0
 11
93.719229
 21
121.852079
 31
0.0
  0
LINE
  8
0
  6
CONTINUOUS
 10
75.511354
 20
119.598357
 30
0.0
 11
74.627505
 21
119.091337
 31
0.0
  0
LINE
  8
0
  6
CONTINUOUS
 10
76.218493
 20
119.184881
 30
0.0
 11
75.511354
 21
119.598357
 31
0.0
  0
LINE
  8
0
  6
CONTINUOUS
 10
75.334644
 20
118.67786
 30
0.0
 11
74.627505
 21
119.091337
 31
0.0
  0
LINE
  8
0
  6
CONTINUOUS
 10
76.218443
 20
120.823034
 30
0.0
 11
76.925511
 21
120.409598
 31
0.0
  0
LINE
  8
0
  6
CONTINUOUS
 10
63.40236
 20
116.338072
 30
0.0
 11
96.635075
 21
135.402138
 31
0.0
  0
LINE
  8
0
  6
CONTINUOUS
 10
63.402732
 20
104.46091
 30
0.0
 11
64.19868
 21
104.91751
 31
0.0
  0
LINE
  8
0
  6
CONTINUOUS
 10
64.198503
 20
107.374795
 30
0.0
 11
63.402127
 21
107.856554
 31
0.0
  0
LINE
  8
0
  6
CONTINUOUS
 10
64.198503
 20
107.374795
 30
0.0
 11
63.402555
 21
106.918199
 31
0.0
  0
LINE
  8
0
  6
CONTINUOUS
 10
63.40236
 20
116.338072
 30
0.0
 11
63.404071
 21
92.584306
 31
0.0
  0
LINE
  8
0
  6
CONTINUOUS
 10
92.139085
 20
127.361791
 30
0.0
 11
92.138692
 21
132.822252
 31
0.0
  0
LINE
  8
0
  6
CONTINUOUS
 10
91.290462
 20
126.874975
 30
0.0
 11
92.139085
 21
127.361791
 31
0.0
  0
LINE
  8
0
  6
CONTINUOUS
 10
73.478708
 20
115.56531
 30
0.0
 11
73.478761
 21
114.838046
 31
0.0
  0
LINE
  8
0
  6
CONTINUOUS
 10
73.478761
 20
114.838046
 30
0.0
 11
73.825181
 21
114.628487
 31
0.0
  0
LINE
  8
0
  6
CONTINUOUS
 10
70.897876
 20
114.494392
 30
0.0
 11
71.251408
 21
114.287674
 31
0.0
  0
LINE
  8
0
  6
CONTINUOUS
 10
82.695826
 20
108.859927
 30
0.0
 11
73.82528
 21
114.411759
 31
0.0
  0
LINE
  8
0
  6
CONTINUOUS
 10
73.825221
 20
115.230978
 30
0.0
 11
73.82528
 21
114.411759
 31
0.0
  0
LINE
  8
0
  6
CONTINUOUS
 10
67.822938
 20
100.328123
 30
0.0
 11
63.399339
 21
102.914688
 31
0.0
  0
LINE
  8
0
  6
CONTINUOUS
 10
83.378679
 20
109.251731
 30
0.0
 11
67.822938
 21
100.328123
 31
0.0
  0
LINE
  8
0
  6
CONTINUOUS
 10
83.378679
 20
109.251731
 30
0.0
 11
73.825221
 21
115.230978
 31
0.0
  0
LINE
  8
0
  6
CONTINUOUS
 10
73.825221
 20
115.230978
 30
0.0
 11
74.009058
 21
115.336438
 31
0.0
  0
LINE
  8
0
  6
CONTINUOUS
 10
96.636786
 20
111.648372
 30
0.0
 11
82.247162
 21
120.062258
 31
0.0
  0
LINE
  8
0
  6
CONTINUOUS
 10
63.404071
 20
92.584306
 30
0.0
 11
96.636786
 21
111.648372
 31
0.0
  0
LINE
  8
0
  6
CONTINUOUS
 10
76.218493
 20
119.184881
 30
0.0
 11
75.334644
 21
118.67786
 31
0.0
  0
LINE
  8
0
  6
CONTINUOUS
 10
75.334526
 20
120.31605
 30
0.0
 11
76.218375
 21
120.823074
 31
0.0
  0
LINE
  8
0
  6
CONTINUOUS
 10
79.223255
 20
125.412116
 30
0.0
 11
79.22355
 21
121.318307
 31
0.0
  0
LINE
  8
0
  6
CONTINUOUS
 10
82.247006
 20
122.233596
 30
0.0
 11
79.930685
 21
120.904831
 31
0.0
  0
LINE
  8
0
  6
CONTINUOUS
 10
82.247162
 20
120.062258
 30
0.0
 11
82.247006
 21
122.233596
 31
0.0
  0
LINE
  8
0
  6
CONTINUOUS
 10
82.247162
 20
120.062258
 30
0.0
 11
74.009058
 21
115.336438
 31
0.0
  0
LINE
  8
0
  6
CONTINUOUS
 10
74.009058
 20
115.336438
 30
0.0
 11
74.00902
 21
115.869586
 31
0.0
  0
LINE
  8
0
  6
CONTINUOUS
 10
74.00902
 20
115.869586
 30
0.0
 11
71.251408
 21
114.287674
 31
0.0
  0
LINE
  8
0
  6
CONTINUOUS
 10
71.251378
 20
114.697221
 30
0.0
 11
71.251408
 21
114.287674
 31
0.0
  0
LINE
  8
0
  6
CONTINUOUS
 10
69.837222
 20
113.885985
 30
0.0
 11
69.837192
 21
114.295532
 31
0.0
  0
LINE
  8
0
  6
CONTINUOUS
 10
68.776574
 20
113.687105
 30
0.0
 11
68.776545
 21
114.096653
 31
0.0
  0
LINE
  8
0
  6
CONTINUOUS
 10
63.396312
 20
111.010259
 30
0.0
 11
68.776545
 21
114.096653
 31
0.0
  0
LINE
  8
0
  6
CONTINUOUS
 10
68.776574
 20
113.687105
 30
0.0
 11
68.423042
 21
113.893823
 31
0.0
  0
LINE
  8
0
  6
CONTINUOUS
 10
69.837192
 20
114.295532
 30
0.0
 11
68.776574
 21
113.687105
 31
0.0
  0
LINE
  8
0
  6
CONTINUOUS
 10
69.837222
 20
113.885985
 30
0.0
 11
69.48369
 21
114.092703
 31
0.0
  0
LINE
  8
0
  6
CONTINUOUS
 10
69.837222
 20
113.885985
 30
0.0
 11
71.251378
 21
114.697221
 31
0.0
  0
LINE
  8
0
  6
CONTINUOUS
 10
74.981885
 20
107.598177
 30
0.0
 11
77.633433
 21
109.119247
 31
0.0
  0
LINE
  8
0
  6
CONTINUOUS
 10
77.633433
 20
109.119247
 30
0.0
 11
80.412752
 21
107.549829
 31
0.0
  0
LINE
  8
0
  6
CONTINUOUS
 10
74.981915
 20
107.188629
 30
0.0
 11
74.981885
 21
107.598177
 31
0.0
  0
LINE
  8
0
  6
CONTINUOUS
 10
77.689071
 20
105.987379
 30
0.0
 11
74.981885
 21
107.598177
 31
0.0
  0
LINE
  8
0
  6
CONTINUOUS
 10
74.981915
 20
107.188629
 30
0.0
 11
77.29791
 21
105.762942
 31
0.0
  0
LINE
  8
0
  6
CONTINUOUS
 10
73.090292
 20
108.735101
 30
0.0
 11
73.775193
 21
109.127998
 31
0.0
  0
LINE
  8
0
  6
CONTINUOUS
 10
73.775193
 20
109.127998
 30
0.0
 11
73.961845
 21
109.020764
 31
0.0
  0
LINE
  8
0
  6
CONTINUOUS
 10
89.299436
 20
126.96151
 30
0.0
 11
90.21124
 21
127.484571
 31
0.0
  0
LINE
  8
0
  6
CONTINUOUS
 10
77.04662
 20
105.618652
 30
0.0
 11
76.63401
 21
105.858498
 31
0.0
  0
LINE
  8
0
  6
CONTINUOUS
 10
75.141078
 20
106.308648
 30
0.0
 11
75.798617
 21
106.685846
 31
0.0
  0
LINE
  8
0
  6
CONTINUOUS
 10
76.633987
 20
106.171046
 30
0.0
 11
76.63401
 21
105.858498
 31
0.0
  0
LINE
  8
0
  6
CONTINUOUS
 10
75.042504
 20
104.945526
 30
0.0
 11
76.63401
 21
105.858498
 31
0.0
  0
LINE
  8
0
  6
CONTINUOUS
 10
74.716795
 20
106.560637
 30
0.0
 11
75.141078
 21
106.308648
 31
0.0
  0
LINE
  8
0
  6
CONTINUOUS
 10
75.141078
 20
106.308648
 30
0.0
 11
75.042504
 21
104.945526
 31
0.0
  0
LINE
  8
0
  6
CONTINUOUS
 10
74.617278
 20
105.184491
 30
0.0
 11
75.042504
 21
104.945526
 31
0.0
  0
LINE
  8
0
  6
CONTINUOUS
 10
74.28108
 20
109.819634
 30
0.0
 11
76.499546
 21
108.46874
 31
0.0
  0
LINE
  8
0
  6
CONTINUOUS
 10
74.28108
 20
109.819634
 30
0.0
 11
73.962116
 21
109.63666
 31
0.0
  0
LINE
  8
0
  6
CONTINUOUS
 10
73.25423
 20
108.478511
 30
0.0
 11
73.962171
 21
108.884622
 31
0.0
  0
LINE
  8
0
  6
CONTINUOUS
 10
76.178618
 20
108.284637
 30
0.0
 11
73.962116
 21
109.63666
 31
0.0
  0
LINE
  8
0
  6
CONTINUOUS
 10
75.58421
 20
107.94358
 30
0.0
 11
73.962171
 21
108.884622
 31
0.0
  0
LINE
  8
0
  6
CONTINUOUS
 10
73.962116
 20
109.63666
 30
0.0
 11
73.962171
 21
108.884622
 31
0.0
  0
LINE
  8
0
  6
CONTINUOUS
 10
75.073929
 20
106.765373
 30
0.0
 11
73.254278
 21
107.823136
 31
0.0
  0
LINE
  8
0
  6
CONTINUOUS
 10
73.25423
 20
108.478511
 30
0.0
 11
73.254278
 21
107.823136
 31
0.0
  0
LINE
  8
0
  6
CONTINUOUS
 10
73.25423
 20
108.478511
 30
0.0
 11
74.981486
 21
107.474458
 31
0.0
  0
LINE
  8
0
  6
CONTINUOUS
 10
74.716795
 20
106.560637
 30
0.0
 11
75.382061
 21
106.942271
 31
0.0
  0
LINE
  8
0
  6
CONTINUOUS
 10
74.617278
 20
105.184491
 30
0.0
 11
74.716795
 21
106.560637
 31
0.0
  0
LINE
  8
0
  6
CONTINUOUS
 10
73.090292
 20
108.735101
 30
0.0
 11
63.396552
 21
103.174255
 31
0.0
  0
LINE
  8
0
  6
CONTINUOUS
 10
41.472466
 20
151.752095
 30
0.0
 11
41.472466
 21
151.875821
 31
0.0
  0
LINE
  8
0
  6
CONTINUOUS
 10
45.780961
 20
156.073596
 30
0.0
 11
45.780961
 21
154.223537
 31
0.0
  0
LINE
  8
0
  6
CONTINUOUS
 10
46.074975
 20
154.917626
 30
0.0
 11
46.074975
 21
154.392309
 31
0.0
  0
LINE
  8
0
  6
CONTINUOUS
 10
48.159824
 20
155.588299
 30
0.0
 11
48.159824
 21
156.012787
 31
0.0
  0
LINE
  8
0
  6
CONTINUOUS
 10
47.700148
 20
156.771858
 30
0.0
 11
47.700148
 21
156.844262
 31
0.0
  0
LINE
  8
0
  6
CONTINUOUS
 10
24.92677
 20
149.745713
 30
0.0
 11
24.92677
 21
47.354549
 31
0.0
  0
LINE
  8
0
  6
CONTINUOUS
 10
31.326298
 20
146.642996
 30
0.0
 11
31.326298
 21
146.583585
 31
0.0
  0
LINE
  8
0
  6
CONTINUOUS
 10
33.835429
 20
147.371078
 30
0.0
 11
33.835429
 21
147.494805
 31
0.0
  0
LINE
  8
0
  6
CONTINUOUS
 10
38.437937
 20
150.536609
 30
0.0
 11
38.437937
 21
150.011292
 31
0.0
  0
LINE
  8
0
  6
CONTINUOUS
 10
39.715269
 20
150.744064
 30
0.0
 11
39.715269
 21
150.962831
 31
0.0
  0
LINE
  8
0
  6
CONTINUOUS
 10
49.467984
 20
53.439132
 30
0.0
 11
49.467984
 21
92.118444
 31
0.0
  0
LINE
  8
0
  6
CONTINUOUS
 10
49.467984
 20
114.814429
 30
0.0
 11
49.467984
 21
155.830295
 31
0.0
  0
LINE
  8
0
  6
CONTINUOUS
 10
46.605226
 20
156.073606
 30
0.0
 11
46.605226
 21
155.99473
 31
0.0
  0
LINE
  8
0
  6
CONTINUOUS
 10
31.816645
 20
146.983664
 30
0.0
 11
31.816645
 21
147.18852
 31
0.0
  0
LINE
  8
0
  6
CONTINUOUS
 10
30.230279
 20
146.703811
 30
0.0
 11
30.230279
 21
105.687935
 31
0.0
  0
LINE
  8
0
  6
CONTINUOUS
 10
30.230279
 20
86.561696
 30
0.0
 11
30.230279
 21
44.312648
 31
0.0
  0
LINE
  8
0
  6
CONTINUOUS
 10
29.542718
 20
86.956115
 30
0.0
 11
34.881584
 21
83.893935
 31
0.0
  0
LINE
  8
0
  6
CONTINUOUS
 10
35.130366
 20
83.893943
 30
0.0
 11
52.595218
 21
93.912725
 31
0.0
  0
LINE
  8
0
  6
CONTINUOUS
 10
52.878072
 20
93.75049
 30
0.0
 11
53.373027
 21
94.034423
 31
0.0
  0
LINE
  8
0
  6
CONTINUOUS
 10
39.831232
 20
151.480472
 30
0.0
 11
34.873674
 21
154.526144
 31
0.0
  0
LINE
  8
0
  6
CONTINUOUS
 10
39.831232
 20
150.810549
 30
0.0
 11
39.831232
 21
151.480472
 31
0.0
  0
LINE
  8
0
  6
CONTINUOUS
 10
40.909778
 20
151.429313
 30
0.0
 11
40.909778
 21
151.469879
 31
0.0
  0
LINE
  8
0
  6
CONTINUOUS
 10
41.369963
 20
151.733866
 30
0.0
 11
40.909778
 21
151.469879
 31
0.0
  0
LINE
  8
0
  6
CONTINUOUS
 10
41.369963
 20
151.693301
 30
0.0
 11
41.369963
 21
151.733866
 31
0.0
  0
LINE
  8
0
  6
CONTINUOUS
 10
40.56118
 20
151.837771
 30
0.0
 11
40.874969
 21
152.017777
 31
0.0
  0
LINE
  8
0
  6
CONTINUOUS
 10
35.18266
 20
154.924724
 30
0.0
 11
40.201665
 21
151.841302
 31
0.0
  0
LINE
  8
0
  6
CONTINUOUS
 10
35.188608
 20
154.92104
 30
0.0
 11
35.188608
 21
155.123986
 31
0.0
  0
LINE
  8
0
  6
CONTINUOUS
 10
42.146691
 20
159.115518
 30
0.0
 11
35.188608
 21
155.123986
 31
0.0
  0
LINE
  8
0
  6
CONTINUOUS
 10
42.146691
 20
152.138297
 30
0.0
 11
42.146691
 21
159.115518
 31
0.0
  0
LINE
  8
0
  6
CONTINUOUS
 10
42.853798
 20
152.543966
 30
0.0
 11
42.853798
 21
159.115534
 31
0.0
  0
LINE
  8
0
  6
CONTINUOUS
 10
46.460184
 20
157.047041
 30
0.0
 11
42.853798
 21
159.115534
 31
0.0
  0
LINE
  8
0
  6
CONTINUOUS
 10
46.460184
 20
156.641389
 30
0.0
 11
46.460184
 21
157.047041
 31
0.0
  0
LINE
  8
0
  6
CONTINUOUS
 10
46.000611
 20
156.377787
 30
0.0
 11
46.460212
 21
156.641439
 31
0.0
  0
LINE
  8
0
  6
CONTINUOUS
 10
46.000652
 20
154.349599
 30
0.0
 11
46.000652
 21
155.769382
 31
0.0
  0
LINE
  8
0
  6
CONTINUOUS
 10
46.531003
 20
155.465192
 30
0.0
 11
46.000652
 21
155.769382
 31
0.0
  0
LINE
  8
0
  6
CONTINUOUS
 10
46.531003
 20
155.262366
 30
0.0
 11
46.531003
 21
155.465192
 31
0.0
  0
LINE
  8
0
  6
CONTINUOUS
 10
46.177477
 20
155.059582
 30
0.0
 11
46.531017
 21
155.262391
 31
0.0
  0
LINE
  8
0
  6
CONTINUOUS
 10
46.672472
 20
154.735106
 30
0.0
 11
46.672472
 21
154.775671
 31
0.0
  0
LINE
  8
0
  6
CONTINUOUS
 10
47.737487
 20
155.386621
 30
0.0
 11
46.672472
 21
154.775671
 31
0.0
  0
LINE
  8
0
  6
CONTINUOUS
 10
47.737487
 20
155.346056
 30
0.0
 11
47.737487
 21
155.386621
 31
0.0
  0
LINE
  8
0
  6
CONTINUOUS
 10
47.996288
 20
155.494509
 30
0.0
 11
47.996288
 21
155.643769
 31
0.0
  0
LINE
  8
0
  6
CONTINUOUS
 10
48.151308
 20
155.975677
 30
0.0
 11
47.996288
 21
155.643769
 31
0.0
  0
LINE
  8
0
  6
CONTINUOUS
 10
48.151308
 20
155.583417
 30
0.0
 11
48.151308
 21
155.975677
 31
0.0
  0
LINE
  8
0
  6
CONTINUOUS
 10
47.238085
 20
155.830251
 30
0.0
 11
47.73304
 21
156.114184
 31
0.0
  0
LINE
  8
0
  6
CONTINUOUS
 10
46.637034
 20
155.972198
 30
0.0
 11
46.884531
 21
155.830243
 31
0.0
  0
LINE
  8
0
  6
CONTINUOUS
 10
46.637021
 20
156.157173
 30
0.0
 11
46.637021
 21
156.175
 31
0.0
  0
LINE
  8
0
  6
CONTINUOUS
 10
46.707728
 20
156.215561
 30
0.0
 11
46.637021
 21
156.175
 31
0.0
  0
LINE
  8
0
  6
CONTINUOUS
 10
42.676975
 20
159.784775
 30
0.0
 11
47.626917
 21
156.945667
 31
0.0
  0
LINE
  8
0
  6
CONTINUOUS
 10
24.999986
 20
149.847109
 30
0.0
 11
42.323422
 21
159.784767
 31
0.0
  0
LINE
  8
0
  6
CONTINUOUS
 10
25.0
 20
47.253145
 30
0.0
 11
29.949942
 21
44.414037
 31
0.0
  0
LINE
  8
0
  6
CONTINUOUS
 10
25.0
 20
47.253145
 30
0.0
 11
25.0
 21
149.644308
 31
0.0
  0
LINE
  8
0
  6
CONTINUOUS
 10
29.949942
 20
146.8052
 30
0.0
 11
25.0
 21
149.644308
 31
0.0
  0
LINE
  8
0
  6
CONTINUOUS
 10
29.949942
 20
44.414037
 30
0.0
 11
29.949942
 21
86.722496
 31
0.0
  0
LINE
  8
0
  6
CONTINUOUS
 10
29.949942
 20
105.848735
 30
0.0
 11
29.949942
 21
146.8052
 31
0.0
  0
LINE
  8
0
  6
CONTINUOUS
 10
31.293406
 20
147.373074
 30
0.0
 11
30.303495
 21
146.805208
 31
0.0
  0
LINE
  8
0
  6
CONTINUOUS
 10
31.293406
 20
147.362944
 30
0.0
 11
31.293406
 21
147.373074
 31
0.0
  0
LINE
  8
0
  6
CONTINUOUS
 10
31.646959
 20
147.36058
 30
0.0
 11
31.646959
 21
147.373082
 31
0.0
  0
LINE
  8
0
  6
CONTINUOUS
 10
31.894456
 20
147.231127
 30
0.0
 11
31.646959
 21
147.373082
 31
0.0
  0
LINE
  8
0
  6
CONTINUOUS
 10
31.894456
 20
147.028301
 30
0.0
 11
31.894456
 21
147.231127
 31
0.0
  0
LINE
  8
0
  6
CONTINUOUS
 10
31.399515
 20
146.744392
 30
0.0
 11
31.89447
 21
147.028326
 31
0.0
  0
LINE
  8
0
  6
CONTINUOUS
 10
31.641013
 20
146.40307
 30
0.0
 11
31.641013
 21
146.504481
 31
0.0
  0
LINE
  8
0
  6
CONTINUOUS
 10
32.219633
 20
146.593428
 30
0.0
 11
31.641013
 21
146.504481
 31
0.0
  0
LINE
  8
0
  6
CONTINUOUS
 10
32.219633
 20
146.444169
 30
0.0
 11
32.219633
 21
146.593428
 31
0.0
  0
LINE
  8
0
  6
CONTINUOUS
 10
32.667911
 20
146.701334
 30
0.0
 11
32.667911
 21
146.741899
 31
0.0
  0
LINE
  8
0
  6
CONTINUOUS
 10
33.732926
 20
147.352849
 30
0.0
 11
32.667911
 21
146.741899
 31
0.0
  0
LINE
  8
0
  6
CONTINUOUS
 10
33.732926
 20
147.312284
 30
0.0
 11
33.732926
 21
147.352849
 31
0.0
  0
LINE
  8
0
  6
CONTINUOUS
 10
32.884392
 20
147.433951
 30
0.0
 11
33.237931
 21
147.63676
 31
0.0
  0
LINE
  8
0
  6
CONTINUOUS
 10
32.000488
 20
147.738133
 30
0.0
 11
32.530839
 21
147.433943
 31
0.0
  0
LINE
  8
0
  6
CONTINUOUS
 10
30.480226
 20
147.474457
 30
0.0
 11
30.939827
 21
147.738109
 31
0.0
  0
LINE
  8
0
  6
CONTINUOUS
 10
26.166733
 20
149.542934
 30
0.0
 11
29.773119
 21
147.474441
 31
0.0
  0
LINE
  8
0
  6
CONTINUOUS
 10
26.166705
 20
149.54289
 30
0.0
 11
26.166705
 21
149.948536
 31
0.0
  0
LINE
  8
0
  6
CONTINUOUS
 10
33.124789
 20
153.940068
 30
0.0
 11
26.166705
 21
149.948536
 31
0.0
  0
LINE
  8
0
  6
CONTINUOUS
 10
33.124789
 20
147.571326
 30
0.0
 11
33.124789
 21
153.940068
 31
0.0
  0
LINE
  8
0
  6
CONTINUOUS
 10
33.472172
 20
147.69472
 30
0.0
 11
33.472172
 21
153.943496
 31
0.0
  0
LINE
  8
0
  6
CONTINUOUS
 10
38.848045
 20
151.064792
 30
0.0
 11
33.472172
 21
153.943496
 31
0.0
  0
LINE
  8
0
  6
CONTINUOUS
 10
38.848045
 20
150.855006
 30
0.0
 11
38.848045
 21
151.064792
 31
0.0
  0
LINE
  8
0
  6
CONTINUOUS
 10
38.54044
 20
150.678565
 30
0.0
 11
38.854229
 21
150.858571
 31
0.0
  0
LINE
  8
0
  6
CONTINUOUS
 10
39.035434
 20
150.354089
 30
0.0
 11
39.035434
 21
150.394654
 31
0.0
  0
LINE
  8
0
  6
CONTINUOUS
 10
39.49562
 20
150.658641
 30
0.0
 11
39.035434
 21
150.394654
 31
0.0
  0
LINE
  8
0
  6
CONTINUOUS
 10
39.49562
 20
150.618076
 30
0.0
 11
39.49562
 21
150.658641
 31
0.0
  0
LINE
  8
0
  6
CONTINUOUS
 10
34.167011
 20
154.120764
 30
0.0
 11
39.477067
 21
151.277304
 31
0.0
  0
LINE
  8
0
  6
CONTINUOUS
 10
34.873674
 20
153.742243
 30
0.0
 11
34.873674
 21
154.526144
 31
0.0
  0
LINE
  8
0
  6
CONTINUOUS
 10
47.980485
 20
156.742874
 30
0.0
 11
49.394754
 21
155.9317
 31
0.0
  0
LINE
  8
0
  6
CONTINUOUS
 10
46.707728
 20
156.215561
 30
0.0
 11
47.626931
 21
156.742866
 31
0.0
  0
LINE
  8
0
  6
CONTINUOUS
 10
47.202723
 20
155.813638
 30
0.0
 11
47.202723
 21
155.931651
 31
0.0
  0
LINE
  8
0
  6
CONTINUOUS
 10
47.62697
 20
156.175022
 30
0.0
 11
47.202723
 21
155.931651
 31
0.0
  0
LINE
  8
0
  6
CONTINUOUS
 10
47.62697
 20
156.053326
 30
0.0
 11
47.62697
 21
156.175022
 31
0.0
  0
LINE
  8
0
  6
CONTINUOUS
 10
47.980523
 20
156.150306
 30
0.0
 11
47.980523
 21
156.17503
 31
0.0
  0
LINE
  8
0
  6
CONTINUOUS
 10
48.404804
 20
155.931678
 30
0.0
 11
47.980523
 21
156.17503
 31
0.0
  0
LINE
  8
0
  6
CONTINUOUS
 10
48.404804
 20
155.728851
 30
0.0
 11
48.404804
 21
155.931678
 31
0.0
  0
LINE
  8
0
  6
CONTINUOUS
 10
32.071293
 20
146.359085
 30
0.0
 11
48.404818
 21
155.728876
 31
0.0
  0
LINE
  8
0
  6
CONTINUOUS
 10
31.293459
 20
146.602429
 30
0.0
 11
31.717739
 21
146.359077
 31
0.0
  0
LINE
  8
0
  6
CONTINUOUS
 10
31.293445
 20
146.602407
 30
0.0
 11
31.293445
 21
146.80523
 31
0.0
  0
LINE
  8
0
  6
CONTINUOUS
 10
31.714142
 20
147.046565
 30
0.0
 11
31.293445
 21
146.80523
 31
0.0
  0
LINE
  8
0
  6
CONTINUOUS
 10
31.714142
 20
146.924869
 30
0.0
 11
31.714142
 21
147.046565
 31
0.0
  0
LINE
  8
0
  6
CONTINUOUS
 10
30.303509
 20
44.211243
 30
0.0
 11
31.717778
 21
43.40007
 31
0.0
  0
LINE
  8
0
  6
CONTINUOUS
 10
30.303509
 20
44.211243
 30
0.0
 11
30.303509
 21
86.519703
 31
0.0
  0
LINE
  8
0
  6
CONTINUOUS
 10
30.303509
 20
105.645941
 30
0.0
 11
30.303509
 21
146.602407
 31
0.0
  0
LINE
  8
0
  6
CONTINUOUS
 10
31.717778
 20
145.791233
 30
0.0
 11
30.303509
 21
146.602407
 31
0.0
  0
LINE
  8
0
  6
CONTINUOUS
 10
31.717778
 20
43.40007
 30
0.0
 11
31.717778
 21
85.708529
 31
0.0
  0
LINE
  8
0
  6
CONTINUOUS
 10
31.717778
 20
104.834768
 30
0.0
 11
31.717778
 21
145.791233
 31
0.0
  0
LINE
  8
0
  6
CONTINUOUS
 10
49.394768
 20
53.337735
 30
0.0
 11
49.394768
 21
92.076448
 31
0.0
  0
LINE
  8
0
  6
CONTINUOUS
 10
49.394768
 20
114.772433
 30
0.0
 11
49.394768
 21
155.728899
 31
0.0
  0
LINE
  8
0
  6
CONTINUOUS
 10
32.071332
 20
43.400078
 30
0.0
 11
49.394768
 21
53.337735
 31
0.0
  0
LINE
  8
0
  6
CONTINUOUS
 10
32.071332
 20
43.400078
 30
0.0
 11
32.071332
 21
85.505714
 31
0.0
  0
LINE
  8
0
  6
CONTINUOUS
 10
32.071332
 20
104.834776
 30
0.0
 11
32.071332
 21
145.791241
 31
0.0
  0
LINE
  8
0
  6
CONTINUOUS
 10
49.394768
 20
155.728899
 30
0.0
 11
32.071332
 21
145.791241
 31
0.0
  0
LINE
  8
0
  6
CONTINUOUS
 10
52.753673
 20
112.602534
 30
0.0
 11
53.248629
 21
112.886467
 31
0.0
  0
LINE
  8
0
  6
CONTINUOUS
 10
29.667102
 20
105.808168
 30
0.0
 11
35.005968
 21
102.745988
 31
0.0
  0
LINE
  8
0
  6
CONTINUOUS
 10
29.490332
 20
105.501981
 30
0.0
 11
34.829198
 21
102.439801
 31
0.0
  0
LINE
  8
0
  6
CONTINUOUS
 10
34.829198
 20
84.009391
 30
0.0
 11
34.829198
 21
102.439801
 31
0.0
  0
LINE
  8
0
  6
CONTINUOUS
 10
29.490332
 20
87.071572
 30
0.0
 11
34.829198
 21
84.009391
 31
0.0
  0
LINE
  8
0
  6
CONTINUOUS
 10
31.717778
 20
104.834768
 30
0.0
 11
29.843872
 21
105.909573
 31
0.0
  0
LINE
  8
0
  6
CONTINUOUS
 10
53.248629
 20
112.886467
 30
0.0
 11
49.677599
 21
114.934681
 31
0.0
  0
LINE
  8
0
  6
CONTINUOUS
 10
52.470819
 20
112.764769
 30
0.0
 11
52.753673
 21
112.602534
 31
0.0
  0
LINE
  8
0
  6
CONTINUOUS
 10
52.543549
 20
93.88308
 30
0.0
 11
52.753673
 21
93.76256
 31
0.0
  0
LINE
  8
0
  6
CONTINUOUS
 10
52.647603
 20
94.02818
 30
0.0
 11
52.647603
 21
112.45859
 31
0.0
  0
LINE
  8
0
  6
CONTINUOUS
 10
35.182751
 20
84.009399
 30
0.0
 11
52.647603
 21
94.02818
 31
0.0
  0
LINE
  8
0
  6
CONTINUOUS
 10
35.182751
 20
84.009399
 30
0.0
 11
35.182751
 21
102.439809
 31
0.0
  0
LINE
  8
0
  6
CONTINUOUS
 10
52.930457
 20
112.296355
 30
0.0
 11
53.425412
 21
112.580288
 31
0.0
  0
LINE
  8
0
  6
CONTINUOUS
 10
53.425412
 20
112.580288
 30
0.0
 11
53.425412
 21
94.149879
 31
0.0
  0
LINE
  8
0
  6
CONTINUOUS
 10
52.930457
 20
93.865946
 30
0.0
 11
53.425412
 21
94.149879
 31
0.0
  0
LINE
  8
0
  6
CONTINUOUS
 10
52.930457
 20
93.865946
 30
0.0
 11
52.930457
 21
112.296355
 31
0.0
  0
LINE
  8
0
  6
CONTINUOUS
 10
29.843872
 20
105.909573
 30
0.0
 11
29.667102
 21
105.808168
 31
0.0
  0
LINE
  8
0
  6
CONTINUOUS
 10
29.490332
 20
87.071572
 30
0.0
 11
29.490332
 21
105.501981
 31
0.0
  0
LINE
  8
0
  6
CONTINUOUS
 10
35.182751
 20
102.439809
 30
0.0
 11
52.647603
 21
112.45859
 31
0.0
  0
LINE
  8
0
  6
CONTINUOUS
 10
35.005968
 20
102.745988
 30
0.0
 11
52.470819
 21
112.764769
 31
0.0
  0
LINE
  8
0
  6
CONTINUOUS
 10
49.677599
 20
114.934681
 30
0.0
 11
32.071332
 21
104.834776
 31
0.0
  0
LINE
  8
0
  6
CONTINUOUS
 10
49.467564
 20
132.643163
 30
0.0
 11
87.170453
 21
154.271575
 31
0.0
  0
ARC
  8
0
  6
CONTINUOUS
 10
35.005968
 20
84.110796
 30
0.0
 40
0.25
 50
240.162975
 51
299.840908
  0
ENDSEC
  0
EOF
