  0
SECTION
  2
HEADER
  9
$ACADVER
  1
AC1009
  9
$INSBASE
 10
0.0
 20
0.0
 30
0.0
  9
$EXTMIN
 10
47.948643
 20
166.250766
 30
0.0
  9
$EXTMAX
 10
88.52943
 20
255.402461
 30
0.0
  9
$LIMMIN
 10
47.983916
 20
166.250766
  9
$LIMMAX
 10
196.247147
 20
255.402461
  9
$ORTHOMODE
 70
     0
  9
$REGENMODE
 70
     1
  9
$FILLMODE
 70
     1
  9
$QTEXTMODE
 70
     0
  9
$MIRRTEXT
 70
     1
  9
$DRAGMODE
 70
     2
  9
$LTSCALE
 40
1.0
  9
$OSMODE
 70
     0
  9
$ATTMODE
 70
     1
  9
$TEXTSIZE
 40
3.5
  9
$TRACEWID
 40
0.5
  9
$TEXTSTYLE
  7
STANDARD
  9
$CLAYER
  8
0
  9
$CELTYPE
  6
BYLAYER
  9
$CECOLOR
 62
   256
  9
$DIMSCALE
 40
1.0
  9
$DIMASZ
 40
0.18
  9
$DIMEXO
 40
0.0625
  9
$DIMDLI
 40
0.38
  9
$DIMRND
 40
0.0
  9
$DIMDLE
 40
0.0
  9
$DIMEXE
 40
0.18
  9
$DIMTP
 40
0.0
  9
$DIMTM
 40
0.0
  9
$DIMTXT
 40
0.18
  9
$DIMCEN
 40
0.09
  9
$DIMTSZ
 40
0.0
  9
$DIMTOL
 70
     0
  9
$DIMLIM
 70
     0
  9
$DIMTIH
 70
     1
  9
$DIMTOH
 70
     1
  9
$DIMSE1
 70
     0
  9
$DIMSE2
 70
     0
  9
$DIMTAD
 70
     0
  9
$DIMZIN
 70
     0
  9
$DIMBLK
  1

  9
$DIMASO
 70
     1
  9
$DIMSHO
 70
     1
  9
$DIMPOST
  1

  9
$DIMAPOST
  1

  9
$DIMALT
 70
     0
  9
$DIMALTD
 70
     2
  9
$DIMALTF
 40
25.4
  9
$DIMLFAC
 40
1.0
  9
$DIMTOFL
 70
     0
  9
$DIMTVP
 40
0.0
  9
$DIMTIX
 70
     0
  9
$DIMSOXD
 70
     0
  9
$DIMSAH
 70
     0
  9
$DIMBLK1
  1

  9
$DIMBLK2
  1

  9
$DIMSTYLE
  2
*UNNAMED
  9
$DIMCLRD
 70
     0
  9
$DIMCLRE
 70
     0
  9
$DIMCLRT
 70
     0
  9
$DIMTFAC
 40
1.0
  9
$DIMGAP
 40
0.09
  9
$LUNITS
 70
     2
  9
$LUPREC
 70
     4
  9
$SKETCHINC
 40
0.1
  9
$FILLETRAD
 40
2.0
  9
$AUNITS
 70
     0
  9
$AUPREC
 70
     0
  9
$MENU
  1
ACAD
  9
$ELEVATION
 40
0.0
  9
$PELEVATION
 40
0.0
  9
$THICKNESS
 40
0.0
  9
$LIMCHECK
 70
     0
  9
$BLIPMODE
 70
     1
  9
$CHAMFERA
 40
0.0
  9
$CHAMFERB
 40
0.0
  9
$SKPOLY
 70
     0
  9
$TDCREATE
 40
2450955.364525347
  9
$TDUPDATE
 40
2450955.364712152
  9
$TDINDWG
 40
0.0000997685
  9
$TDUSRTIMER
 40
0.0000997685
  9
$USRTIMER
 70
     1
  9
$ANGBASE
 50
0.0
  9
$ANGDIR
 70
     0
  9
$PDMODE
 70
     0
  9
$PDSIZE
 40
0.0
  9
$PLINEWID
 40
0.0
  9
$COORDS
 70
     2
  9
$SPLFRAME
 70
     0
  9
$SPLINETYPE
 70
     6
  9
$SPLINESEGS
 70
     8
  9
$ATTDIA
 70
     0
  9
$ATTREQ
 70
     1
  9
$HANDLING
 70
     0
  9
$HANDSEED
  5
0
  9
$SURFTAB1
 70
     6
  9
$SURFTAB2
 70
     6
  9
$SURFTYPE
 70
     6
  9
$SURFU
 70
     6
  9
$SURFV
 70
     6
  9
$UCSNAME
  2

  9
$UCSORG
 10
0.0
 20
0.0
 30
0.0
  9
$UCSXDIR
 10
1.0
 20
0.0
 30
0.0
  9
$UCSYDIR
 10
0.0
 20
1.0
 30
0.0
  9
$PUCSNAME
  2

  9
$PUCSORG
 10
0.0
 20
0.0
 30
0.0
  9
$PUCSXDIR
 10
1.0
 20
0.0
 30
0.0
  9
$PUCSYDIR
 10
0.0
 20
1.0
 30
0.0
  9
$USERI1
 70
     0
  9
$USERI2
 70
     0
  9
$USERI3
 70
     0
  9
$USERI4
 70
     0
  9
$USERI5
 70
     0
  9
$USERR1
 40
0.0
  9
$USERR2
 40
0.0
  9
$USERR3
 40
0.0
  9
$USERR4
 40
0.0
  9
$USERR5
 40
0.0
  9
$WORLDVIEW
 70
     1
  9
$SHADEDGE
 70
     3
  9
$SHADEDIF
 70
    70
  9
$TILEMODE
 70
     1
  9
$MAXACTVP
 70
    16
  9
$PINSBASE
 10
0.0
 20
0.0
 30
0.0
  9
$PLIMCHECK
 70
     0
  9
$PEXTMIN
 10
1.000000E+20
 20
1.000000E+20
 30
1.000000E+20
  9
$PEXTMAX
 10
-1.000000E+20
 20
-1.000000E+20
 30
-1.000000E+20
  9
$PLIMMIN
 10
0.0
 20
0.0
  9
$PLIMMAX
 10
420.0
 20
297.0
  9
$UNITMODE
 70
     0
  9
$VISRETAIN
 70
     0
  9
$PLINEGEN
 70
     0
  9
$PSLTSCALE
 70
     1
  9
$TREEDEPTH
 70
  3020
  9
$DWGCODEPAGE
  3
iso8859-1
  0
ENDSEC
  0
SECTION
  2
TABLES
  0
TABLE
  2
VPORT
 70
     2
  0
VPORT
  2
*ACTIVE
 70
     0
 10
0.0
 20
0.0
 11
1.0
 21
1.0
 12
138.778443
 22
204.919175
 13
0.0
 23
0.0
 14
1.0
 24
1.0
 15
0.0
 25
0.0
 16
0.0
 26
0.0
 36
1.0
 17
0.0
 27
0.0
 37
0.0
 40
148.039634
 41
1.748359
 42
50.0
 43
0.0
 44
0.0
 50
0.0
 51
0.0
 71
     0
 72
   100
 73
     1
 74
     0
 75
     0
 76
     0
 77
     0
 78
     0
  0
ENDTAB
  0
TABLE
  2
LTYPE
 70
     1
  0
LTYPE
  2
CONTINUOUS
 70
    64
  3
Solid line
 72
    65
 73
     0
 40
0.0
  0
ENDTAB
  0
TABLE
  2
LAYER
 70
     1
  0
LAYER
  2
0
 70
    64
 62
     7
  6
CONTINUOUS
  0
ENDTAB
  0
TABLE
  2
STYLE
 70
     1
  0
STYLE
  2
STANDARD
 70
     0
 40
0.0
 41
1.0
 50
0.0
 71
     0
 42
3.5
  3
txt
  4

  0
ENDTAB
  0
TABLE
  2
VIEW
 70
     0
  0
ENDTAB
  0
TABLE
  2
UCS
 70
     0
  0
ENDTAB
  0
TABLE
  2
APPID
 70
     1
  0
APPID
  2
ACAD
 70
    64
  0
ENDTAB
  0
TABLE
  2
DIMSTYLE
 70
     0
  0
ENDTAB
  0
ENDSEC
  0
SECTION
  2
BLOCKS
  0
ENDSEC
  0
SECTION
  2
ENTITIES
  0
POLYLINE
  8
0
  6
CONTINUOUS
 66
     1
 10
0.0
 20
0.0
 30
0.0
  0
VERTEX
  8
0
  6
CONTINUOUS
 10
62.997143
 20
196.895337
 30
0.0
  0
VERTEX
  8
0
  6
CONTINUOUS
 10
63.009291
 20
196.888596
 30
0.0
  0
VERTEX
  8
0
  6
CONTINUOUS
 10
63.02182
 20
196.882092
 30
0.0
  0
SEQEND
  8
0
  6
CONTINUOUS
  0
POLYLINE
  8
0
  6
CONTINUOUS
 66
     1
 10
0.0
 20
0.0
 30
0.0
  0
VERTEX
  8
0
  6
CONTINUOUS
 10
79.557869
 20
205.6491
 30
0.0
  0
VERTEX
  8
0
  6
CONTINUOUS
 10
79.666249
 20
205.742148
 30
0.0
  0
VERTEX
  8
0
  6
CONTINUOUS
 10
79.704301
 20
205.851904
 30
0.0
  0
SEQEND
  8
0
  6
CONTINUOUS
  0
POLYLINE
  8
0
  6
CONTINUOUS
 66
     1
 10
0.0
 20
0.0
 30
0.0
  0
VERTEX
  8
0
  6
CONTINUOUS
 10
63.295023
 20
196.725473
 30
0.0
  0
VERTEX
  8
0
  6
CONTINUOUS
 10
63.648583
 20
196.641478
 30
0.0
  0
VERTEX
  8
0
  6
CONTINUOUS
 10
64.00213
 20
196.725489
 30
0.0
  0
SEQEND
  8
0
  6
CONTINUOUS
  0
POLYLINE
  8
0
  6
CONTINUOUS
 66
     1
 10
0.0
 20
0.0
 30
0.0
  0
VERTEX
  8
0
  6
CONTINUOUS
 10
79.557869
 20
206.017708
 30
0.0
  0
VERTEX
  8
0
  6
CONTINUOUS
 10
79.666249
 20
206.110756
 30
0.0
  0
VERTEX
  8
0
  6
CONTINUOUS
 10
79.704301
 20
206.220513
 30
0.0
  0
SEQEND
  8
0
  6
CONTINUOUS
  0
POLYLINE
  8
0
  6
CONTINUOUS
 66
     1
 10
0.0
 20
0.0
 30
0.0
  0
VERTEX
  8
0
  6
CONTINUOUS
 10
79.505448
 20
206.538771
 30
0.0
  0
VERTEX
  8
0
  6
CONTINUOUS
 10
79.448315
 20
206.549868
 30
0.0
  0
VERTEX
  8
0
  6
CONTINUOUS
 10
79.381071
 20
206.526688
 30
0.0
  0
SEQEND
  8
0
  6
CONTINUOUS
  0
POLYLINE
  8
0
  6
CONTINUOUS
 66
     1
 10
0.0
 20
0.0
 30
0.0
  0
VERTEX
  8
0
  6
CONTINUOUS
 10
79.381085
 20
206.323887
 30
0.0
  0
VERTEX
  8
0
  6
CONTINUOUS
 10
79.454301
 20
206.425289
 30
0.0
  0
VERTEX
  8
0
  6
CONTINUOUS
 10
79.381071
 20
206.526688
 30
0.0
  0
SEQEND
  8
0
  6
CONTINUOUS
  0
POLYLINE
  8
0
  6
CONTINUOUS
 66
     1
 10
0.0
 20
0.0
 30
0.0
  0
VERTEX
  8
0
  6
CONTINUOUS
 10
79.557869
 20
206.017708
 30
0.0
  0
VERTEX
  8
0
  6
CONTINUOUS
 10
79.534184
 20
206.133684
 30
0.0
  0
VERTEX
  8
0
  6
CONTINUOUS
 10
79.469477
 20
206.245753
 30
0.0
  0
VERTEX
  8
0
  6
CONTINUOUS
 10
79.381085
 20
206.323887
 30
0.0
  0
SEQEND
  8
0
  6
CONTINUOUS
  0
POLYLINE
  8
0
  6
CONTINUOUS
 66
     1
 10
0.0
 20
0.0
 30
0.0
  0
VERTEX
  8
0
  6
CONTINUOUS
 10
64.00213
 20
197.094097
 30
0.0
  0
VERTEX
  8
0
  6
CONTINUOUS
 10
63.978446
 20
197.210073
 30
0.0
  0
VERTEX
  8
0
  6
CONTINUOUS
 10
63.913738
 20
197.322142
 30
0.0
  0
VERTEX
  8
0
  6
CONTINUOUS
 10
63.825347
 20
197.400276
 30
0.0
  0
SEQEND
  8
0
  6
CONTINUOUS
  0
POLYLINE
  8
0
  6
CONTINUOUS
 66
     1
 10
0.0
 20
0.0
 30
0.0
  0
VERTEX
  8
0
  6
CONTINUOUS
 10
63.295023
 20
197.094081
 30
0.0
  0
VERTEX
  8
0
  6
CONTINUOUS
 10
63.519172
 20
197.019856
 30
0.0
  0
VERTEX
  8
0
  6
CONTINUOUS
 10
63.777991
 20
197.019862
 30
0.0
  0
VERTEX
  8
0
  6
CONTINUOUS
 10
64.00213
 20
197.094097
 30
0.0
  0
SEQEND
  8
0
  6
CONTINUOUS
  0
POLYLINE
  8
0
  6
CONTINUOUS
 66
     1
 10
0.0
 20
0.0
 30
0.0
  0
VERTEX
  8
0
  6
CONTINUOUS
 10
63.471793
 20
197.400268
 30
0.0
  0
VERTEX
  8
0
  6
CONTINUOUS
 10
63.383408
 20
197.32213
 30
0.0
  0
VERTEX
  8
0
  6
CONTINUOUS
 10
63.318706
 20
197.210058
 30
0.0
  0
VERTEX
  8
0
  6
CONTINUOUS
 10
63.295023
 20
197.094081
 30
0.0
  0
SEQEND
  8
0
  6
CONTINUOUS
  0
POLYLINE
  8
0
  6
CONTINUOUS
 66
     1
 10
0.0
 20
0.0
 30
0.0
  0
VERTEX
  8
0
  6
CONTINUOUS
 10
53.006202
 20
203.402953
 30
0.0
  0
VERTEX
  8
0
  6
CONTINUOUS
 10
52.917817
 20
203.324815
 30
0.0
  0
VERTEX
  8
0
  6
CONTINUOUS
 10
52.853115
 20
203.212743
 30
0.0
  0
VERTEX
  8
0
  6
CONTINUOUS
 10
52.829432
 20
203.096766
 30
0.0
  0
SEQEND
  8
0
  6
CONTINUOUS
  0
POLYLINE
  8
0
  6
CONTINUOUS
 66
     1
 10
0.0
 20
0.0
 30
0.0
  0
VERTEX
  8
0
  6
CONTINUOUS
 10
72.301145
 20
211.283083
 30
0.0
  0
VERTEX
  8
0
  6
CONTINUOUS
 10
71.817441
 20
211.560518
 30
0.0
  0
SEQEND
  8
0
  6
CONTINUOUS
  0
POLYLINE
  8
0
  6
CONTINUOUS
 66
     1
 10
0.0
 20
0.0
 30
0.0
  0
VERTEX
  8
0
  6
CONTINUOUS
 10
61.319704
 20
204.983536
 30
0.0
  0
VERTEX
  8
0
  6
CONTINUOUS
 10
58.548588
 20
206.572948
 30
0.0
  0
VERTEX
  8
0
  6
CONTINUOUS
 10
55.47012
 20
208.338646
 30
0.0
  0
SEQEND
  8
0
  6
CONTINUOUS
  0
POLYLINE
  8
0
  6
CONTINUOUS
 66
     1
 10
0.0
 20
0.0
 30
0.0
  0
VERTEX
  8
0
  6
CONTINUOUS
 10
61.319704
 20
204.983536
 30
0.0
  0
VERTEX
  8
0
  6
CONTINUOUS
 10
66.810425
 20
208.133309
 30
0.0
  0
VERTEX
  8
0
  6
CONTINUOUS
 10
72.301145
 20
211.283083
 30
0.0
  0
SEQEND
  8
0
  6
CONTINUOUS
  0
POLYLINE
  8
0
  6
CONTINUOUS
 66
     1
 10
0.0
 20
0.0
 30
0.0
  0
VERTEX
  8
0
  6
CONTINUOUS
 10
63.471793
 20
197.400268
 30
0.0
  0
VERTEX
  8
0
  6
CONTINUOUS
 10
63.583868
 20
197.363155
 30
0.0
  0
VERTEX
  8
0
  6
CONTINUOUS
 10
63.713277
 20
197.363158
 30
0.0
  0
VERTEX
  8
0
  6
CONTINUOUS
 10
63.825347
 20
197.400276
 30
0.0
  0
SEQEND
  8
0
  6
CONTINUOUS
  0
POLYLINE
  8
0
  6
CONTINUOUS
 66
     1
 10
0.0
 20
0.0
 30
0.0
  0
VERTEX
  8
0
  6
CONTINUOUS
 10
73.552619
 20
208.062097
 30
0.0
  0
VERTEX
  8
0
  6
CONTINUOUS
 10
73.758873
 20
207.76086
 30
0.0
  0
SEQEND
  8
0
  6
CONTINUOUS
  0
POLYLINE
  8
0
  6
CONTINUOUS
 66
     1
 10
0.0
 20
0.0
 30
0.0
  0
VERTEX
  8
0
  6
CONTINUOUS
 10
73.758873
 20
207.76086
 30
0.0
  0
VERTEX
  8
0
  6
CONTINUOUS
 10
73.55266
 20
207.459614
 30
0.0
  0
SEQEND
  8
0
  6
CONTINUOUS
  0
POLYLINE
  8
0
  6
CONTINUOUS
 66
     1
 10
0.0
 20
0.0
 30
0.0
  0
VERTEX
  8
0
  6
CONTINUOUS
 10
61.844922
 20
200.743423
 30
0.0
  0
VERTEX
  8
0
  6
CONTINUOUS
 10
67.698791
 20
204.101518
 30
0.0
  0
VERTEX
  8
0
  6
CONTINUOUS
 10
73.55266
 20
207.459614
 30
0.0
  0
SEQEND
  8
0
  6
CONTINUOUS
  0
POLYLINE
  8
0
  6
CONTINUOUS
 66
     1
 10
0.0
 20
0.0
 30
0.0
  0
VERTEX
  8
0
  6
CONTINUOUS
 10
61.844922
 20
200.743423
 30
0.0
  0
VERTEX
  8
0
  6
CONTINUOUS
 10
61.319761
 20
200.625114
 30
0.0
  0
SEQEND
  8
0
  6
CONTINUOUS
  0
POLYLINE
  8
0
  6
CONTINUOUS
 66
     1
 10
0.0
 20
0.0
 30
0.0
  0
VERTEX
  8
0
  6
CONTINUOUS
 10
61.319761
 20
200.625114
 30
0.0
  0
VERTEX
  8
0
  6
CONTINUOUS
 10
60.794584
 20
200.7434
 30
0.0
  0
SEQEND
  8
0
  6
CONTINUOUS
  0
POLYLINE
  8
0
  6
CONTINUOUS
 66
     1
 10
0.0
 20
0.0
 30
0.0
  0
VERTEX
  8
0
  6
CONTINUOUS
 10
60.794584
 20
200.7434
 30
0.0
  0
VERTEX
  8
0
  6
CONTINUOUS
 10
57.873961
 20
202.418564
 30
0.0
  0
VERTEX
  8
0
  6
CONTINUOUS
 10
54.581823
 20
204.306815
 30
0.0
  0
SEQEND
  8
0
  6
CONTINUOUS
  0
POLYLINE
  8
0
  6
CONTINUOUS
 66
     1
 10
0.0
 20
0.0
 30
0.0
  0
VERTEX
  8
0
  6
CONTINUOUS
 10
73.552619
 20
208.062097
 30
0.0
  0
VERTEX
  8
0
  6
CONTINUOUS
 10
73.480897
 20
208.103234
 30
0.0
  0
SEQEND
  8
0
  6
CONTINUOUS
  0
POLYLINE
  8
0
  6
CONTINUOUS
 66
     1
 10
0.0
 20
0.0
 30
0.0
  0
VERTEX
  8
0
  6
CONTINUOUS
 10
61.669859
 20
201.020115
 30
0.0
  0
VERTEX
  8
0
  6
CONTINUOUS
 10
61.669844
 20
202.763076
 30
0.0
  0
VERTEX
  8
0
  6
CONTINUOUS
 10
61.66983
 20
204.430152
 30
0.0
  0
SEQEND
  8
0
  6
CONTINUOUS
  0
POLYLINE
  8
0
  6
CONTINUOUS
 66
     1
 10
0.0
 20
0.0
 30
0.0
  0
VERTEX
  8
0
  6
CONTINUOUS
 10
61.669859
 20
201.020115
 30
0.0
  0
VERTEX
  8
0
  6
CONTINUOUS
 10
67.523728
 20
204.37821
 30
0.0
  0
VERTEX
  8
0
  6
CONTINUOUS
 10
73.377597
 20
207.736306
 30
0.0
  0
SEQEND
  8
0
  6
CONTINUOUS
  0
POLYLINE
  8
0
  6
CONTINUOUS
 66
     1
 10
0.0
 20
0.0
 30
0.0
  0
VERTEX
  8
0
  6
CONTINUOUS
 10
72.651272
 20
210.729699
 30
0.0
  0
VERTEX
  8
0
  6
CONTINUOUS
 10
73.006353
 20
209.266309
 30
0.0
  0
VERTEX
  8
0
  6
CONTINUOUS
 10
73.377597
 20
207.736306
 30
0.0
  0
SEQEND
  8
0
  6
CONTINUOUS
  0
POLYLINE
  8
0
  6
CONTINUOUS
 66
     1
 10
0.0
 20
0.0
 30
0.0
  0
VERTEX
  8
0
  6
CONTINUOUS
 10
61.66983
 20
204.430152
 30
0.0
  0
VERTEX
  8
0
  6
CONTINUOUS
 10
67.160551
 20
207.579925
 30
0.0
  0
VERTEX
  8
0
  6
CONTINUOUS
 10
72.651272
 20
210.729699
 30
0.0
  0
SEQEND
  8
0
  6
CONTINUOUS
  0
POLYLINE
  8
0
  6
CONTINUOUS
 66
     1
 10
0.0
 20
0.0
 30
0.0
  0
VERTEX
  8
0
  6
CONTINUOUS
 10
60.969605
 20
204.430136
 30
0.0
  0
VERTEX
  8
0
  6
CONTINUOUS
 10
58.198489
 20
206.019548
 30
0.0
  0
VERTEX
  8
0
  6
CONTINUOUS
 10
55.120021
 20
207.785246
 30
0.0
  0
SEQEND
  8
0
  6
CONTINUOUS
  0
POLYLINE
  8
0
  6
CONTINUOUS
 66
     1
 10
0.0
 20
0.0
 30
0.0
  0
VERTEX
  8
0
  6
CONTINUOUS
 10
60.969634
 20
201.020099
 30
0.0
  0
VERTEX
  8
0
  6
CONTINUOUS
 10
58.04901
 20
202.695264
 30
0.0
  0
VERTEX
  8
0
  6
CONTINUOUS
 10
54.756873
 20
204.583515
 30
0.0
  0
SEQEND
  8
0
  6
CONTINUOUS
  0
POLYLINE
  8
0
  6
CONTINUOUS
 66
     1
 10
0.0
 20
0.0
 30
0.0
  0
VERTEX
  8
0
  6
CONTINUOUS
 10
60.969634
 20
201.020099
 30
0.0
  0
VERTEX
  8
0
  6
CONTINUOUS
 10
60.969619
 20
202.76306
 30
0.0
  0
VERTEX
  8
0
  6
CONTINUOUS
 10
60.969605
 20
204.430136
 30
0.0
  0
SEQEND
  8
0
  6
CONTINUOUS
  0
POLYLINE
  8
0
  6
CONTINUOUS
 66
     1
 10
0.0
 20
0.0
 30
0.0
  0
VERTEX
  8
0
  6
CONTINUOUS
 10
54.756873
 20
204.583515
 30
0.0
  0
VERTEX
  8
0
  6
CONTINUOUS
 10
54.736458
 20
204.503505
 30
0.0
  0
VERTEX
  8
0
  6
CONTINUOUS
 10
54.696631
 20
204.424597
 30
0.0
  0
VERTEX
  8
0
  6
CONTINUOUS
 10
54.643194
 20
204.356003
 30
0.0
  0
VERTEX
  8
0
  6
CONTINUOUS
 10
54.581823
 20
204.306815
 30
0.0
  0
SEQEND
  8
0
  6
CONTINUOUS
  0
POLYLINE
  8
0
  6
CONTINUOUS
 66
     1
 10
0.0
 20
0.0
 30
0.0
  0
VERTEX
  8
0
  6
CONTINUOUS
 10
55.47012
 20
208.338646
 30
0.0
  0
VERTEX
  8
0
  6
CONTINUOUS
 10
55.347674
 20
208.240575
 30
0.0
  0
VERTEX
  8
0
  6
CONTINUOUS
 10
55.240746
 20
208.10346
 30
0.0
  0
VERTEX
  8
0
  6
CONTINUOUS
 10
55.161009
 20
207.945675
 30
0.0
  0
VERTEX
  8
0
  6
CONTINUOUS
 10
55.120021
 20
207.785246
 30
0.0
  0
SEQEND
  8
0
  6
CONTINUOUS
  0
POLYLINE
  8
0
  6
CONTINUOUS
 66
     1
 10
0.0
 20
0.0
 30
0.0
  0
VERTEX
  8
0
  6
CONTINUOUS
 10
60.969605
 20
204.430136
 30
0.0
  0
VERTEX
  8
0
  6
CONTINUOUS
 10
61.09021
 20
204.74816
 30
0.0
  0
SEQEND
  8
0
  6
CONTINUOUS
  0
POLYLINE
  8
0
  6
CONTINUOUS
 66
     1
 10
0.0
 20
0.0
 30
0.0
  0
VERTEX
  8
0
  6
CONTINUOUS
 10
61.09021
 20
204.74816
 30
0.0
  0
VERTEX
  8
0
  6
CONTINUOUS
 10
61.319704
 20
204.983536
 30
0.0
  0
SEQEND
  8
0
  6
CONTINUOUS
  0
POLYLINE
  8
0
  6
CONTINUOUS
 66
     1
 10
0.0
 20
0.0
 30
0.0
  0
VERTEX
  8
0
  6
CONTINUOUS
 10
60.794584
 20
200.7434
 30
0.0
  0
VERTEX
  8
0
  6
CONTINUOUS
 10
60.909331
 20
200.861087
 30
0.0
  0
SEQEND
  8
0
  6
CONTINUOUS
  0
POLYLINE
  8
0
  6
CONTINUOUS
 66
     1
 10
0.0
 20
0.0
 30
0.0
  0
VERTEX
  8
0
  6
CONTINUOUS
 10
60.909331
 20
200.861087
 30
0.0
  0
VERTEX
  8
0
  6
CONTINUOUS
 10
60.969634
 20
201.020099
 30
0.0
  0
SEQEND
  8
0
  6
CONTINUOUS
  0
POLYLINE
  8
0
  6
CONTINUOUS
 66
     1
 10
0.0
 20
0.0
 30
0.0
  0
VERTEX
  8
0
  6
CONTINUOUS
 10
73.55266
 20
207.459614
 30
0.0
  0
VERTEX
  8
0
  6
CONTINUOUS
 10
73.437904
 20
207.577296
 30
0.0
  0
SEQEND
  8
0
  6
CONTINUOUS
  0
POLYLINE
  8
0
  6
CONTINUOUS
 66
     1
 10
0.0
 20
0.0
 30
0.0
  0
VERTEX
  8
0
  6
CONTINUOUS
 10
73.437904
 20
207.577296
 30
0.0
  0
VERTEX
  8
0
  6
CONTINUOUS
 10
73.377597
 20
207.736306
 30
0.0
  0
SEQEND
  8
0
  6
CONTINUOUS
  0
POLYLINE
  8
0
  6
CONTINUOUS
 66
     1
 10
0.0
 20
0.0
 30
0.0
  0
VERTEX
  8
0
  6
CONTINUOUS
 10
61.669859
 20
201.020115
 30
0.0
  0
VERTEX
  8
0
  6
CONTINUOUS
 10
61.730166
 20
200.861106
 30
0.0
  0
SEQEND
  8
0
  6
CONTINUOUS
  0
POLYLINE
  8
0
  6
CONTINUOUS
 66
     1
 10
0.0
 20
0.0
 30
0.0
  0
VERTEX
  8
0
  6
CONTINUOUS
 10
61.730166
 20
200.861106
 30
0.0
  0
VERTEX
  8
0
  6
CONTINUOUS
 10
61.844922
 20
200.743423
 30
0.0
  0
SEQEND
  8
0
  6
CONTINUOUS
  0
POLYLINE
  8
0
  6
CONTINUOUS
 66
     1
 10
0.0
 20
0.0
 30
0.0
  0
VERTEX
  8
0
  6
CONTINUOUS
 10
72.779555
 20
210.993768
 30
0.0
  0
VERTEX
  8
0
  6
CONTINUOUS
 10
72.784446
 20
210.952213
 30
0.0
  0
SEQEND
  8
0
  6
CONTINUOUS
  0
POLYLINE
  8
0
  6
CONTINUOUS
 66
     1
 10
0.0
 20
0.0
 30
0.0
  0
VERTEX
  8
0
  6
CONTINUOUS
 10
72.784446
 20
210.952213
 30
0.0
  0
VERTEX
  8
0
  6
CONTINUOUS
 10
72.651272
 20
210.729699
 30
0.0
  0
SEQEND
  8
0
  6
CONTINUOUS
  0
POLYLINE
  8
0
  6
CONTINUOUS
 66
     1
 10
0.0
 20
0.0
 30
0.0
  0
VERTEX
  8
0
  6
CONTINUOUS
 10
73.377597
 20
207.736306
 30
0.0
  0
VERTEX
  8
0
  6
CONTINUOUS
 10
73.510772
 20
207.95882
 30
0.0
  0
SEQEND
  8
0
  6
CONTINUOUS
  0
POLYLINE
  8
0
  6
CONTINUOUS
 66
     1
 10
0.0
 20
0.0
 30
0.0
  0
VERTEX
  8
0
  6
CONTINUOUS
 10
73.510772
 20
207.95882
 30
0.0
  0
VERTEX
  8
0
  6
CONTINUOUS
 10
73.50588
 20
208.000375
 30
0.0
  0
SEQEND
  8
0
  6
CONTINUOUS
  0
POLYLINE
  8
0
  6
CONTINUOUS
 66
     1
 10
0.0
 20
0.0
 30
0.0
  0
VERTEX
  8
0
  6
CONTINUOUS
 10
73.495944
 20
208.041487
 30
0.0
  0
VERTEX
  8
0
  6
CONTINUOUS
 10
73.552619
 20
208.062097
 30
0.0
  0
SEQEND
  8
0
  6
CONTINUOUS
  0
POLYLINE
  8
0
  6
CONTINUOUS
 66
     1
 10
0.0
 20
0.0
 30
0.0
  0
VERTEX
  8
0
  6
CONTINUOUS
 10
72.301145
 20
211.283083
 30
0.0
  0
VERTEX
  8
0
  6
CONTINUOUS
 10
72.53064
 20
211.311008
 30
0.0
  0
SEQEND
  8
0
  6
CONTINUOUS
  0
POLYLINE
  8
0
  6
CONTINUOUS
 66
     1
 10
0.0
 20
0.0
 30
0.0
  0
VERTEX
  8
0
  6
CONTINUOUS
 10
72.53064
 20
211.311008
 30
0.0
  0
VERTEX
  8
0
  6
CONTINUOUS
 10
72.548812
 20
211.301903
 30
0.0
  0
SEQEND
  8
0
  6
CONTINUOUS
  0
POLYLINE
  8
0
  6
CONTINUOUS
 66
     1
 10
0.0
 20
0.0
 30
0.0
  0
VERTEX
  8
0
  6
CONTINUOUS
 10
72.651272
 20
210.729699
 30
0.0
  0
VERTEX
  8
0
  6
CONTINUOUS
 10
72.530658
 20
211.047718
 30
0.0
  0
SEQEND
  8
0
  6
CONTINUOUS
  0
POLYLINE
  8
0
  6
CONTINUOUS
 66
     1
 10
0.0
 20
0.0
 30
0.0
  0
VERTEX
  8
0
  6
CONTINUOUS
 10
72.530658
 20
211.047718
 30
0.0
  0
VERTEX
  8
0
  6
CONTINUOUS
 10
72.301145
 20
211.283083
 30
0.0
  0
SEQEND
  8
0
  6
CONTINUOUS
  0
POLYLINE
  8
0
  6
CONTINUOUS
 66
     1
 10
0.0
 20
0.0
 30
0.0
  0
VERTEX
  8
0
  6
CONTINUOUS
 10
61.319704
 20
204.983536
 30
0.0
  0
VERTEX
  8
0
  6
CONTINUOUS
 10
61.549216
 20
204.74817
 30
0.0
  0
SEQEND
  8
0
  6
CONTINUOUS
  0
POLYLINE
  8
0
  6
CONTINUOUS
 66
     1
 10
0.0
 20
0.0
 30
0.0
  0
VERTEX
  8
0
  6
CONTINUOUS
 10
61.549216
 20
204.74817
 30
0.0
  0
VERTEX
  8
0
  6
CONTINUOUS
 10
61.66983
 20
204.430152
 30
0.0
  0
SEQEND
  8
0
  6
CONTINUOUS
  0
POLYLINE
  8
0
  6
CONTINUOUS
 66
     1
 10
0.0
 20
0.0
 30
0.0
  0
VERTEX
  8
0
  6
CONTINUOUS
 10
60.969634
 20
201.020099
 30
0.0
  0
VERTEX
  8
0
  6
CONTINUOUS
 10
61.319751
 20
200.965393
 30
0.0
  0
SEQEND
  8
0
  6
CONTINUOUS
  0
POLYLINE
  8
0
  6
CONTINUOUS
 66
     1
 10
0.0
 20
0.0
 30
0.0
  0
VERTEX
  8
0
  6
CONTINUOUS
 10
61.319751
 20
200.965393
 30
0.0
  0
VERTEX
  8
0
  6
CONTINUOUS
 10
61.669859
 20
201.020115
 30
0.0
  0
SEQEND
  8
0
  6
CONTINUOUS
  0
POLYLINE
  8
0
  6
CONTINUOUS
 66
     1
 10
0.0
 20
0.0
 30
0.0
  0
VERTEX
  8
0
  6
CONTINUOUS
 10
61.66983
 20
204.430152
 30
0.0
  0
VERTEX
  8
0
  6
CONTINUOUS
 10
61.319723
 20
204.37543
 30
0.0
  0
SEQEND
  8
0
  6
CONTINUOUS
  0
POLYLINE
  8
0
  6
CONTINUOUS
 66
     1
 10
0.0
 20
0.0
 30
0.0
  0
VERTEX
  8
0
  6
CONTINUOUS
 10
61.319723
 20
204.37543
 30
0.0
  0
VERTEX
  8
0
  6
CONTINUOUS
 10
60.969605
 20
204.430136
 30
0.0
  0
SEQEND
  8
0
  6
CONTINUOUS
  0
POLYLINE
  8
0
  6
CONTINUOUS
 66
     1
 10
0.0
 20
0.0
 30
0.0
  0
VERTEX
  8
0
  6
CONTINUOUS
 10
61.09021
 20
204.74816
 30
0.0
  0
VERTEX
  8
0
  6
CONTINUOUS
 10
61.320099
 20
204.632173
 30
0.0
  0
SEQEND
  8
0
  6
CONTINUOUS
  0
POLYLINE
  8
0
  6
CONTINUOUS
 66
     1
 10
0.0
 20
0.0
 30
0.0
  0
VERTEX
  8
0
  6
CONTINUOUS
 10
61.549216
 20
204.74817
 30
0.0
  0
VERTEX
  8
0
  6
CONTINUOUS
 10
61.320099
 20
204.632173
 30
0.0
  0
SEQEND
  8
0
  6
CONTINUOUS
  0
POLYLINE
  8
0
  6
CONTINUOUS
 66
     1
 10
0.0
 20
0.0
 30
0.0
  0
VERTEX
  8
0
  6
CONTINUOUS
 10
61.320099
 20
204.632173
 30
0.0
  0
VERTEX
  8
0
  6
CONTINUOUS
 10
61.319723
 20
204.37543
 30
0.0
  0
SEQEND
  8
0
  6
CONTINUOUS
  0
POLYLINE
  8
0
  6
CONTINUOUS
 66
     1
 10
0.0
 20
0.0
 30
0.0
  0
VERTEX
  8
0
  6
CONTINUOUS
 10
60.909331
 20
200.861087
 30
0.0
  0
VERTEX
  8
0
  6
CONTINUOUS
 10
61.318918
 20
200.775619
 30
0.0
  0
SEQEND
  8
0
  6
CONTINUOUS
  0
POLYLINE
  8
0
  6
CONTINUOUS
 66
     1
 10
0.0
 20
0.0
 30
0.0
  0
VERTEX
  8
0
  6
CONTINUOUS
 10
61.319751
 20
200.965393
 30
0.0
  0
VERTEX
  8
0
  6
CONTINUOUS
 10
61.318918
 20
200.775619
 30
0.0
  0
SEQEND
  8
0
  6
CONTINUOUS
  0
POLYLINE
  8
0
  6
CONTINUOUS
 66
     1
 10
0.0
 20
0.0
 30
0.0
  0
VERTEX
  8
0
  6
CONTINUOUS
 10
61.318918
 20
200.775619
 30
0.0
  0
VERTEX
  8
0
  6
CONTINUOUS
 10
61.730166
 20
200.861106
 30
0.0
  0
SEQEND
  8
0
  6
CONTINUOUS
  0
POLYLINE
  8
0
  6
CONTINUOUS
 66
     1
 10
0.0
 20
0.0
 30
0.0
  0
VERTEX
  8
0
  6
CONTINUOUS
 10
61.319761
 20
200.625114
 30
0.0
  0
VERTEX
  8
0
  6
CONTINUOUS
 10
61.318918
 20
200.775619
 30
0.0
  0
SEQEND
  8
0
  6
CONTINUOUS
  0
POLYLINE
  8
0
  6
CONTINUOUS
 66
     1
 10
0.0
 20
0.0
 30
0.0
  0
VERTEX
  8
0
  6
CONTINUOUS
 10
73.437904
 20
207.577296
 30
0.0
  0
VERTEX
  8
0
  6
CONTINUOUS
 10
73.602764
 20
207.821336
 30
0.0
  0
SEQEND
  8
0
  6
CONTINUOUS
  0
POLYLINE
  8
0
  6
CONTINUOUS
 66
     1
 10
0.0
 20
0.0
 30
0.0
  0
VERTEX
  8
0
  6
CONTINUOUS
 10
73.510772
 20
207.95882
 30
0.0
  0
VERTEX
  8
0
  6
CONTINUOUS
 10
73.602764
 20
207.821336
 30
0.0
  0
SEQEND
  8
0
  6
CONTINUOUS
  0
POLYLINE
  8
0
  6
CONTINUOUS
 66
     1
 10
0.0
 20
0.0
 30
0.0
  0
VERTEX
  8
0
  6
CONTINUOUS
 10
73.602764
 20
207.821336
 30
0.0
  0
VERTEX
  8
0
  6
CONTINUOUS
 10
73.504942
 20
208.003281
 30
0.0
  0
SEQEND
  8
0
  6
CONTINUOUS
  0
POLYLINE
  8
0
  6
CONTINUOUS
 66
     1
 10
0.0
 20
0.0
 30
0.0
  0
VERTEX
  8
0
  6
CONTINUOUS
 10
73.758873
 20
207.76086
 30
0.0
  0
VERTEX
  8
0
  6
CONTINUOUS
 10
73.602764
 20
207.821336
 30
0.0
  0
SEQEND
  8
0
  6
CONTINUOUS
  0
POLYLINE
  8
0
  6
CONTINUOUS
 66
     1
 10
0.0
 20
0.0
 30
0.0
  0
VERTEX
  8
0
  6
CONTINUOUS
 10
72.671579
 20
211.14443
 30
0.0
  0
VERTEX
  8
0
  6
CONTINUOUS
 10
72.53064
 20
211.311008
 30
0.0
  0
SEQEND
  8
0
  6
CONTINUOUS
  0
POLYLINE
  8
0
  6
CONTINUOUS
 66
     1
 10
0.0
 20
0.0
 30
0.0
  0
VERTEX
  8
0
  6
CONTINUOUS
 10
72.784446
 20
210.952213
 30
0.0
  0
VERTEX
  8
0
  6
CONTINUOUS
 10
72.671579
 20
211.14443
 30
0.0
  0
SEQEND
  8
0
  6
CONTINUOUS
  0
POLYLINE
  8
0
  6
CONTINUOUS
 66
     1
 10
0.0
 20
0.0
 30
0.0
  0
VERTEX
  8
0
  6
CONTINUOUS
 10
72.530658
 20
211.047718
 30
0.0
  0
VERTEX
  8
0
  6
CONTINUOUS
 10
72.671579
 20
211.14443
 30
0.0
  0
SEQEND
  8
0
  6
CONTINUOUS
  0
POLYLINE
  8
0
  6
CONTINUOUS
 66
     1
 10
0.0
 20
0.0
 30
0.0
  0
VERTEX
  8
0
  6
CONTINUOUS
 10
61.138041
 20
246.259447
 30
0.0
  0
VERTEX
  8
0
  6
CONTINUOUS
 10
61.314821
 20
246.217449
 30
0.0
  0
VERTEX
  8
0
  6
CONTINUOUS
 10
61.491594
 20
246.259455
 30
0.0
  0
SEQEND
  8
0
  6
CONTINUOUS
  0
POLYLINE
  8
0
  6
CONTINUOUS
 66
     1
 10
0.0
 20
0.0
 30
0.0
  0
VERTEX
  8
0
  6
CONTINUOUS
 10
59.759115
 20
247.253142
 30
0.0
  0
VERTEX
  8
0
  6
CONTINUOUS
 10
59.694414
 20
247.188855
 30
0.0
  0
VERTEX
  8
0
  6
CONTINUOUS
 10
59.694419
 20
247.114625
 30
0.0
  0
VERTEX
  8
0
  6
CONTINUOUS
 10
59.759129
 20
247.050341
 30
0.0
  0
SEQEND
  8
0
  6
CONTINUOUS
  0
POLYLINE
  8
0
  6
CONTINUOUS
 66
     1
 10
0.0
 20
0.0
 30
0.0
  0
VERTEX
  8
0
  6
CONTINUOUS
 10
60.978862
 20
247.425551
 30
0.0
  0
VERTEX
  8
0
  6
CONTINUOUS
 10
61.070044
 20
247.528211
 30
0.0
  0
VERTEX
  8
0
  6
CONTINUOUS
 10
61.038615
 20
247.642007
 30
0.0
  0
VERTEX
  8
0
  6
CONTINUOUS
 10
60.896579
 20
247.723474
 30
0.0
  0
VERTEX
  8
0
  6
CONTINUOUS
 10
60.69819
 20
247.741493
 30
0.0
  0
VERTEX
  8
0
  6
CONTINUOUS
 10
60.519225
 20
247.689182
 30
0.0
  0
SEQEND
  8
0
  6
CONTINUOUS
  0
POLYLINE
  8
0
  6
CONTINUOUS
 66
     1
 10
0.0
 20
0.0
 30
0.0
  0
VERTEX
  8
0
  6
CONTINUOUS
 10
60.589969
 20
247.202461
 30
0.0
  0
VERTEX
  8
0
  6
CONTINUOUS
 10
60.557619
 20
247.170317
 30
0.0
  0
VERTEX
  8
0
  6
CONTINUOUS
 10
60.557621
 20
247.133202
 30
0.0
  0
VERTEX
  8
0
  6
CONTINUOUS
 10
60.589976
 20
247.10106
 30
0.0
  0
SEQEND
  8
0
  6
CONTINUOUS
  0
POLYLINE
  8
0
  6
CONTINUOUS
 66
     1
 10
0.0
 20
0.0
 30
0.0
  0
VERTEX
  8
0
  6
CONTINUOUS
 10
61.138005
 20
246.78673
 30
0.0
  0
VERTEX
  8
0
  6
CONTINUOUS
 10
61.250079
 20
246.749617
 30
0.0
  0
VERTEX
  8
0
  6
CONTINUOUS
 10
61.379489
 20
246.74962
 30
0.0
  0
VERTEX
  8
0
  6
CONTINUOUS
 10
61.491558
 20
246.786738
 30
0.0
  0
SEQEND
  8
0
  6
CONTINUOUS
  0
POLYLINE
  8
0
  6
CONTINUOUS
 66
     1
 10
0.0
 20
0.0
 30
0.0
  0
VERTEX
  8
0
  6
CONTINUOUS
 10
70.825001
 20
252.140905
 30
0.0
  0
VERTEX
  8
0
  6
CONTINUOUS
 10
70.898218
 20
252.242307
 30
0.0
  0
VERTEX
  8
0
  6
CONTINUOUS
 10
70.824987
 20
252.343706
 30
0.0
  0
SEQEND
  8
0
  6
CONTINUOUS
  0
POLYLINE
  8
0
  6
CONTINUOUS
 66
     1
 10
0.0
 20
0.0
 30
0.0
  0
VERTEX
  8
0
  6
CONTINUOUS
 10
70.36535
 20
252.607337
 30
0.0
  0
VERTEX
  8
0
  6
CONTINUOUS
 10
70.253276
 20
252.64445
 30
0.0
  0
VERTEX
  8
0
  6
CONTINUOUS
 10
70.123866
 20
252.644447
 30
0.0
  0
VERTEX
  8
0
  6
CONTINUOUS
 10
70.011797
 20
252.607329
 30
0.0
  0
SEQEND
  8
0
  6
CONTINUOUS
  0
POLYLINE
  8
0
  6
CONTINUOUS
 66
     1
 10
0.0
 20
0.0
 30
0.0
  0
VERTEX
  8
0
  6
CONTINUOUS
 10
69.375389
 20
252.769556
 30
0.0
  0
VERTEX
  8
0
  6
CONTINUOUS
 10
69.291279
 20
252.685983
 30
0.0
  0
VERTEX
  8
0
  6
CONTINUOUS
 10
69.291286
 20
252.589484
 30
0.0
  0
VERTEX
  8
0
  6
CONTINUOUS
 10
69.375407
 20
252.505914
 30
0.0
  0
VERTEX
  8
0
  6
CONTINUOUS
 10
69.521104
 20
252.457668
 30
0.0
  0
VERTEX
  8
0
  6
CONTINUOUS
 10
69.689337
 20
252.457672
 30
0.0
  0
VERTEX
  8
0
  6
CONTINUOUS
 10
69.835027
 20
252.505925
 30
0.0
  0
SEQEND
  8
0
  6
CONTINUOUS
  0
POLYLINE
  8
0
  6
CONTINUOUS
 66
     1
 10
0.0
 20
0.0
 30
0.0
  0
VERTEX
  8
0
  6
CONTINUOUS
 10
70.365314
 20
253.134621
 30
0.0
  0
VERTEX
  8
0
  6
CONTINUOUS
 10
70.253239
 20
253.171734
 30
0.0
  0
VERTEX
  8
0
  6
CONTINUOUS
 10
70.12383
 20
253.171731
 30
0.0
  0
VERTEX
  8
0
  6
CONTINUOUS
 10
70.011761
 20
253.134613
 30
0.0
  0
SEQEND
  8
0
  6
CONTINUOUS
  0
POLYLINE
  8
0
  6
CONTINUOUS
 66
     1
 10
0.0
 20
0.0
 30
0.0
  0
VERTEX
  8
0
  6
CONTINUOUS
 10
71.74424
 20
252.140925
 30
0.0
  0
VERTEX
  8
0
  6
CONTINUOUS
 10
71.817457
 20
252.242328
 30
0.0
  0
VERTEX
  8
0
  6
CONTINUOUS
 10
71.744226
 20
252.343727
 30
0.0
  0
SEQEND
  8
0
  6
CONTINUOUS
  0
POLYLINE
  8
0
  6
CONTINUOUS
 66
     1
 10
0.0
 20
0.0
 30
0.0
  0
VERTEX
  8
0
  6
CONTINUOUS
 10
71.74424
 20
211.18446
 30
0.0
  0
VERTEX
  8
0
  6
CONTINUOUS
 10
71.79843
 20
211.230984
 30
0.0
  0
VERTEX
  8
0
  6
CONTINUOUS
 10
71.817457
 20
211.285862
 30
0.0
  0
SEQEND
  8
0
  6
CONTINUOUS
  0
POLYLINE
  8
0
  6
CONTINUOUS
 66
     1
 10
0.0
 20
0.0
 30
0.0
  0
VERTEX
  8
0
  6
CONTINUOUS
 10
62.179147
 20
252.151248
 30
0.0
  0
VERTEX
  8
0
  6
CONTINUOUS
 10
61.953845
 20
252.232757
 30
0.0
  0
VERTEX
  8
0
  6
CONTINUOUS
 10
61.687548
 20
252.236337
 30
0.0
  0
VERTEX
  8
0
  6
CONTINUOUS
 10
61.455835
 20
252.160974
 30
0.0
  0
VERTEX
  8
0
  6
CONTINUOUS
 10
61.324469
 20
252.028055
 30
0.0
  0
VERTEX
  8
0
  6
CONTINUOUS
 10
61.330732
 20
251.875305
 30
0.0
  0
VERTEX
  8
0
  6
CONTINUOUS
 10
61.472847
 20
251.746076
 30
0.0
  0
SEQEND
  8
0
  6
CONTINUOUS
  0
POLYLINE
  8
0
  6
CONTINUOUS
 66
     1
 10
0.0
 20
0.0
 30
0.0
  0
VERTEX
  8
0
  6
CONTINUOUS
 10
65.415844
 20
249.078482
 30
0.0
  0
VERTEX
  8
0
  6
CONTINUOUS
 10
65.612894
 20
249.27786
 30
0.0
  0
VERTEX
  8
0
  6
CONTINUOUS
 10
65.603499
 20
249.506985
 30
0.0
  0
VERTEX
  8
0
  6
CONTINUOUS
 10
65.390326
 20
249.700828
 30
0.0
  0
SEQEND
  8
0
  6
CONTINUOUS
  0
POLYLINE
  8
0
  6
CONTINUOUS
 66
     1
 10
0.0
 20
0.0
 30
0.0
  0
VERTEX
  8
0
  6
CONTINUOUS
 10
64.655053
 20
249.169355
 30
0.0
  0
VERTEX
  8
0
  6
CONTINUOUS
 10
64.570942
 20
249.085782
 30
0.0
  0
VERTEX
  8
0
  6
CONTINUOUS
 10
64.570949
 20
248.989283
 30
0.0
  0
VERTEX
  8
0
  6
CONTINUOUS
 10
64.655071
 20
248.905714
 30
0.0
  0
VERTEX
  8
0
  6
CONTINUOUS
 10
64.800768
 20
248.857467
 30
0.0
  0
VERTEX
  8
0
  6
CONTINUOUS
 10
64.969
 20
248.857471
 30
0.0
  0
VERTEX
  8
0
  6
CONTINUOUS
 10
65.11469
 20
248.905724
 30
0.0
  0
SEQEND
  8
0
  6
CONTINUOUS
  0
POLYLINE
  8
0
  6
CONTINUOUS
 66
     1
 10
0.0
 20
0.0
 30
0.0
  0
VERTEX
  8
0
  6
CONTINUOUS
 10
64.845044
 20
249.278345
 30
0.0
  0
VERTEX
  8
0
  6
CONTINUOUS
 10
64.910728
 20
249.344804
 30
0.0
  0
VERTEX
  8
0
  6
CONTINUOUS
 10
64.907596
 20
249.421179
 30
0.0
  0
VERTEX
  8
0
  6
CONTINUOUS
 10
64.836538
 20
249.485793
 30
0.0
  0
SEQEND
  8
0
  6
CONTINUOUS
  0
POLYLINE
  8
0
  6
CONTINUOUS
 66
     1
 10
0.0
 20
0.0
 30
0.0
  0
VERTEX
  8
0
  6
CONTINUOUS
 10
60.801588
 20
251.592372
 30
0.0
  0
VERTEX
  8
0
  6
CONTINUOUS
 10
60.627432
 20
251.629682
 30
0.0
  0
VERTEX
  8
0
  6
CONTINUOUS
 10
60.456527
 20
251.587716
 30
0.0
  0
SEQEND
  8
0
  6
CONTINUOUS
  0
POLYLINE
  8
0
  6
CONTINUOUS
 66
     1
 10
0.0
 20
0.0
 30
0.0
  0
VERTEX
  8
0
  6
CONTINUOUS
 10
56.965883
 20
249.585295
 30
0.0
  0
VERTEX
  8
0
  6
CONTINUOUS
 10
56.819451
 20
249.382491
 30
0.0
  0
VERTEX
  8
0
  6
CONTINUOUS
 10
56.965911
 20
249.179692
 30
0.0
  0
SEQEND
  8
0
  6
CONTINUOUS
  0
POLYLINE
  8
0
  6
CONTINUOUS
 66
     1
 10
0.0
 20
0.0
 30
0.0
  0
VERTEX
  8
0
  6
CONTINUOUS
 10
59.228742
 20
247.881815
 30
0.0
  0
VERTEX
  8
0
  6
CONTINUOUS
 10
59.582301
 20
247.797819
 30
0.0
  0
VERTEX
  8
0
  6
CONTINUOUS
 10
59.935848
 20
247.881831
 30
0.0
  0
SEQEND
  8
0
  6
CONTINUOUS
  0
POLYLINE
  8
0
  6
CONTINUOUS
 66
     1
 10
0.0
 20
0.0
 30
0.0
  0
VERTEX
  8
0
  6
CONTINUOUS
 10
61.102557
 20
248.145499
 30
0.0
  0
VERTEX
  8
0
  6
CONTINUOUS
 10
60.748997
 20
248.229494
 30
0.0
  0
VERTEX
  8
0
  6
CONTINUOUS
 10
60.39545
 20
248.145483
 30
0.0
  0
SEQEND
  8
0
  6
CONTINUOUS
  0
POLYLINE
  8
0
  6
CONTINUOUS
 66
     1
 10
0.0
 20
0.0
 30
0.0
  0
VERTEX
  8
0
  6
CONTINUOUS
 10
61.758368
 20
247.039293
 30
0.0
  0
VERTEX
  8
0
  6
CONTINUOUS
 10
62.027334
 20
247.128375
 30
0.0
  0
VERTEX
  8
0
  6
CONTINUOUS
 10
62.182615
 20
247.282664
 30
0.0
  0
VERTEX
  8
0
  6
CONTINUOUS
 10
62.182603
 20
247.460817
 30
0.0
  0
VERTEX
  8
0
  6
CONTINUOUS
 10
62.027301
 20
247.615099
 30
0.0
  0
SEQEND
  8
0
  6
CONTINUOUS
  0
POLYLINE
  8
0
  6
CONTINUOUS
 66
     1
 10
0.0
 20
0.0
 30
0.0
  0
VERTEX
  8
0
  6
CONTINUOUS
 10
60.81978
 20
247.172046
 30
0.0
  0
VERTEX
  8
0
  6
CONTINUOUS
 10
60.75508
 20
247.107759
 30
0.0
  0
VERTEX
  8
0
  6
CONTINUOUS
 10
60.755085
 20
247.033528
 30
0.0
  0
VERTEX
  8
0
  6
CONTINUOUS
 10
60.819794
 20
246.969244
 30
0.0
  0
VERTEX
  8
0
  6
CONTINUOUS
 10
60.931869
 20
246.932132
 30
0.0
  0
VERTEX
  8
0
  6
CONTINUOUS
 10
61.061278
 20
246.932134
 30
0.0
  0
SEQEND
  8
0
  6
CONTINUOUS
  0
POLYLINE
  8
0
  6
CONTINUOUS
 66
     1
 10
0.0
 20
0.0
 30
0.0
  0
VERTEX
  8
0
  6
CONTINUOUS
 10
61.279382
 20
247.435698
 30
0.0
  0
VERTEX
  8
0
  6
CONTINUOUS
 10
61.305262
 20
247.461413
 30
0.0
  0
VERTEX
  8
0
  6
CONTINUOUS
 10
61.30526
 20
247.491105
 30
0.0
  0
VERTEX
  8
0
  6
CONTINUOUS
 10
61.279376
 20
247.516818
 30
0.0
  0
SEQEND
  8
0
  6
CONTINUOUS
  0
POLYLINE
  8
0
  6
CONTINUOUS
 66
     1
 10
0.0
 20
0.0
 30
0.0
  0
VERTEX
  8
0
  6
CONTINUOUS
 10
60.819739
 20
247.78045
 30
0.0
  0
VERTEX
  8
0
  6
CONTINUOUS
 10
60.749027
 20
247.797249
 30
0.0
  0
VERTEX
  8
0
  6
CONTINUOUS
 10
60.678317
 20
247.780447
 30
0.0
  0
SEQEND
  8
0
  6
CONTINUOUS
  0
POLYLINE
  8
0
  6
CONTINUOUS
 66
     1
 10
0.0
 20
0.0
 30
0.0
  0
VERTEX
  8
0
  6
CONTINUOUS
 10
59.405561
 20
247.253134
 30
0.0
  0
VERTEX
  8
0
  6
CONTINUOUS
 10
59.517636
 20
247.216022
 30
0.0
  0
VERTEX
  8
0
  6
CONTINUOUS
 10
59.647045
 20
247.216025
 30
0.0
  0
VERTEX
  8
0
  6
CONTINUOUS
 10
59.759115
 20
247.253142
 30
0.0
  0
SEQEND
  8
0
  6
CONTINUOUS
  0
POLYLINE
  8
0
  6
CONTINUOUS
 66
     1
 10
0.0
 20
0.0
 30
0.0
  0
VERTEX
  8
0
  6
CONTINUOUS
 10
55.869875
 20
249.48387
 30
0.0
  0
VERTEX
  8
0
  6
CONTINUOUS
 10
55.796658
 20
249.382467
 30
0.0
  0
VERTEX
  8
0
  6
CONTINUOUS
 10
55.869889
 20
249.281068
 30
0.0
  0
SEQEND
  8
0
  6
CONTINUOUS
  0
POLYLINE
  8
0
  6
CONTINUOUS
 66
     1
 10
0.0
 20
0.0
 30
0.0
  0
VERTEX
  8
0
  6
CONTINUOUS
 10
55.796658
 20
208.426002
 30
0.0
  0
VERTEX
  8
0
  6
CONTINUOUS
 10
55.815692
 20
208.371125
 30
0.0
  0
VERTEX
  8
0
  6
CONTINUOUS
 10
55.869889
 20
208.324603
 30
0.0
  0
SEQEND
  8
0
  6
CONTINUOUS
  0
POLYLINE
  8
0
  6
CONTINUOUS
 66
     1
 10
0.0
 20
0.0
 30
0.0
  0
VERTEX
  8
0
  6
CONTINUOUS
 10
66.476074
 20
255.365349
 30
0.0
  0
VERTEX
  8
0
  6
CONTINUOUS
 10
66.363999
 20
255.402461
 30
0.0
  0
VERTEX
  8
0
  6
CONTINUOUS
 10
66.23459
 20
255.402458
 30
0.0
  0
VERTEX
  8
0
  6
CONTINUOUS
 10
66.122521
 20
255.365341
 30
0.0
  0
SEQEND
  8
0
  6
CONTINUOUS
  0
POLYLINE
  8
0
  6
CONTINUOUS
 66
     1
 10
0.0
 20
0.0
 30
0.0
  0
VERTEX
  8
0
  6
CONTINUOUS
 10
70.011761
 20
253.134613
 30
0.0
  0
VERTEX
  8
0
  6
CONTINUOUS
 10
70.084977
 20
253.236015
 30
0.0
  0
VERTEX
  8
0
  6
CONTINUOUS
 10
70.011747
 20
253.337414
 30
0.0
  0
SEQEND
  8
0
  6
CONTINUOUS
  0
POLYLINE
  8
0
  6
CONTINUOUS
 66
     1
 10
0.0
 20
0.0
 30
0.0
  0
VERTEX
  8
0
  6
CONTINUOUS
 10
69.092558
 20
252.607309
 30
0.0
  0
VERTEX
  8
0
  6
CONTINUOUS
 10
69.066678
 20
252.581594
 30
0.0
  0
VERTEX
  8
0
  6
CONTINUOUS
 10
69.06668
 20
252.551902
 30
0.0
  0
VERTEX
  8
0
  6
CONTINUOUS
 10
69.092563
 20
252.526188
 30
0.0
  0
SEQEND
  8
0
  6
CONTINUOUS
  0
POLYLINE
  8
0
  6
CONTINUOUS
 66
     1
 10
0.0
 20
0.0
 30
0.0
  0
VERTEX
  8
0
  6
CONTINUOUS
 10
69.552201
 20
252.262557
 30
0.0
  0
VERTEX
  8
0
  6
CONTINUOUS
 10
69.597031
 20
252.247712
 30
0.0
  0
VERTEX
  8
0
  6
CONTINUOUS
 10
69.648794
 20
252.247713
 30
0.0
  0
VERTEX
  8
0
  6
CONTINUOUS
 10
69.693622
 20
252.26256
 30
0.0
  0
SEQEND
  8
0
  6
CONTINUOUS
  0
POLYLINE
  8
0
  6
CONTINUOUS
 66
     1
 10
0.0
 20
0.0
 30
0.0
  0
VERTEX
  8
0
  6
CONTINUOUS
 10
70.571491
 20
252.387706
 30
0.0
  0
VERTEX
  8
0
  6
CONTINUOUS
 10
70.571486
 20
252.461936
 30
0.0
  0
VERTEX
  8
0
  6
CONTINUOUS
 10
70.506777
 20
252.52622
 30
0.0
  0
VERTEX
  8
0
  6
CONTINUOUS
 10
70.394702
 20
252.563333
 30
0.0
  0
VERTEX
  8
0
  6
CONTINUOUS
 10
70.265293
 20
252.56333
 30
0.0
  0
VERTEX
  8
0
  6
CONTINUOUS
 10
70.153224
 20
252.526212
 30
0.0
  0
SEQEND
  8
0
  6
CONTINUOUS
  0
POLYLINE
  8
0
  6
CONTINUOUS
 66
     1
 10
0.0
 20
0.0
 30
0.0
  0
VERTEX
  8
0
  6
CONTINUOUS
 10
69.380923
 20
251.833533
 30
0.0
  0
VERTEX
  8
0
  6
CONTINUOUS
 10
69.649902
 20
251.744462
 30
0.0
  0
VERTEX
  8
0
  6
CONTINUOUS
 10
69.960485
 20
251.744469
 30
0.0
  0
VERTEX
  8
0
  6
CONTINUOUS
 10
70.229451
 20
251.833552
 30
0.0
  0
VERTEX
  8
0
  6
CONTINUOUS
 10
70.384732
 20
251.98784
 30
0.0
  0
SEQEND
  8
0
  6
CONTINUOUS
  0
POLYLINE
  8
0
  6
CONTINUOUS
 66
     1
 10
0.0
 20
0.0
 30
0.0
  0
VERTEX
  8
0
  6
CONTINUOUS
 10
68.456151
 20
252.769536
 30
0.0
  0
VERTEX
  8
0
  6
CONTINUOUS
 10
68.32675
 20
252.640962
 30
0.0
  0
VERTEX
  8
0
  6
CONTINUOUS
 10
68.32676
 20
252.492501
 30
0.0
  0
VERTEX
  8
0
  6
CONTINUOUS
 10
68.456178
 20
252.363933
 30
0.0
  0
SEQEND
  8
0
  6
CONTINUOUS
  0
POLYLINE
  8
0
  6
CONTINUOUS
 66
     1
 10
0.0
 20
0.0
 30
0.0
  0
VERTEX
  8
0
  6
CONTINUOUS
 10
68.915752
 20
253.033188
 30
0.0
  0
VERTEX
  8
0
  6
CONTINUOUS
 10
69.045153
 20
253.161762
 30
0.0
  0
VERTEX
  8
0
  6
CONTINUOUS
 10
69.045143
 20
253.310222
 30
0.0
  0
VERTEX
  8
0
  6
CONTINUOUS
 10
68.915724
 20
253.43879
 30
0.0
  0
SEQEND
  8
0
  6
CONTINUOUS
  0
POLYLINE
  8
0
  6
CONTINUOUS
 66
     1
 10
0.0
 20
0.0
 30
0.0
  0
VERTEX
  8
0
  6
CONTINUOUS
 10
66.652894
 20
254.736668
 30
0.0
  0
VERTEX
  8
0
  6
CONTINUOUS
 10
66.299335
 20
254.820663
 30
0.0
  0
VERTEX
  8
0
  6
CONTINUOUS
 10
65.945787
 20
254.736652
 30
0.0
  0
SEQEND
  8
0
  6
CONTINUOUS
  0
POLYLINE
  8
0
  6
CONTINUOUS
 66
     1
 10
0.0
 20
0.0
 30
0.0
  0
VERTEX
  8
0
  6
CONTINUOUS
 10
62.455144
 20
252.734231
 30
0.0
  0
VERTEX
  8
0
  6
CONTINUOUS
 10
62.381996
 20
252.636195
 30
0.0
  0
VERTEX
  8
0
  6
CONTINUOUS
 10
62.447055
 20
252.536301
 30
0.0
  0
SEQEND
  8
0
  6
CONTINUOUS
  0
POLYLINE
  8
0
  6
CONTINUOUS
 66
     1
 10
0.0
 20
0.0
 30
0.0
  0
VERTEX
  8
0
  6
CONTINUOUS
 10
66.119871
 20
250.221982
 30
0.0
  0
VERTEX
  8
0
  6
CONTINUOUS
 10
66.232522
 20
250.181228
 30
0.0
  0
VERTEX
  8
0
  6
CONTINUOUS
 10
66.365671
 20
250.179438
 30
0.0
  0
VERTEX
  8
0
  6
CONTINUOUS
 10
66.481527
 20
250.21712
 30
0.0
  0
SEQEND
  8
0
  6
CONTINUOUS
  0
POLYLINE
  8
0
  6
CONTINUOUS
 66
     1
 10
0.0
 20
0.0
 30
0.0
  0
VERTEX
  8
0
  6
CONTINUOUS
 10
67.137692
 20
250.066227
 30
0.0
  0
VERTEX
  8
0
  6
CONTINUOUS
 10
67.228874
 20
250.168887
 30
0.0
  0
VERTEX
  8
0
  6
CONTINUOUS
 10
67.197444
 20
250.282683
 30
0.0
  0
VERTEX
  8
0
  6
CONTINUOUS
 10
67.055409
 20
250.36415
 30
0.0
  0
VERTEX
  8
0
  6
CONTINUOUS
 10
66.857019
 20
250.382169
 30
0.0
  0
VERTEX
  8
0
  6
CONTINUOUS
 10
66.678054
 20
250.329858
 30
0.0
  0
SEQEND
  8
0
  6
CONTINUOUS
  0
POLYLINE
  8
0
  6
CONTINUOUS
 66
     1
 10
0.0
 20
0.0
 30
0.0
  0
VERTEX
  8
0
  6
CONTINUOUS
 10
65.745034
 20
249.904308
 30
0.0
  0
VERTEX
  8
0
  6
CONTINUOUS
 10
66.082988
 20
249.782045
 30
0.0
  0
VERTEX
  8
0
  6
CONTINUOUS
 10
66.482433
 20
249.776674
 30
0.0
  0
VERTEX
  8
0
  6
CONTINUOUS
 10
66.830002
 20
249.889719
 30
0.0
  0
SEQEND
  8
0
  6
CONTINUOUS
  0
POLYLINE
  8
0
  6
CONTINUOUS
 66
     1
 10
0.0
 20
0.0
 30
0.0
  0
VERTEX
  8
0
  6
CONTINUOUS
 10
79.505455
 20
206.538767
 30
0.0
  0
VERTEX
  8
0
  6
CONTINUOUS
 10
79.52367
 20
206.527776
 30
0.0
  0
VERTEX
  8
0
  6
CONTINUOUS
 10
79.646326
 20
206.40964
 30
0.0
  0
VERTEX
  8
0
  6
CONTINUOUS
 10
79.699831
 20
206.274854
 30
0.0
  0
VERTEX
  8
0
  6
CONTINUOUS
 10
79.704302
 20
206.2205
 30
0.0
  0
SEQEND
  8
0
  6
CONTINUOUS
  0
POLYLINE
  8
0
  6
CONTINUOUS
 66
     1
 10
0.0
 20
0.0
 30
0.0
  0
VERTEX
  8
0
  6
CONTINUOUS
 10
73.505844
 20
208.000523
 30
0.0
  0
VERTEX
  8
0
  6
CONTINUOUS
 10
73.142682
 20
209.49722
 30
0.0
  0
VERTEX
  8
0
  6
CONTINUOUS
 10
72.779519
 20
210.993916
 30
0.0
  0
SEQEND
  8
0
  6
CONTINUOUS
  0
POLYLINE
  8
0
  6
CONTINUOUS
 66
     1
 10
0.0
 20
0.0
 30
0.0
  0
VERTEX
  8
0
  6
CONTINUOUS
 10
72.548893
 20
211.301856
 30
0.0
  0
VERTEX
  8
0
  6
CONTINUOUS
 10
71.817426
 20
211.7214
 30
0.0
  0
SEQEND
  8
0
  6
CONTINUOUS
  0
POLYLINE
  8
0
  6
CONTINUOUS
 66
     1
 10
0.0
 20
0.0
 30
0.0
  0
VERTEX
  8
0
  6
CONTINUOUS
 10
73.506532
 20
207.997575
 30
0.0
  0
VERTEX
  8
0
  6
CONTINUOUS
 10
73.507365
 20
207.99372
 30
0.0
  0
VERTEX
  8
0
  6
CONTINUOUS
 10
73.507609
 20
207.99254
 30
0.0
  0
VERTEX
  8
0
  6
CONTINUOUS
 10
73.507765
 20
207.991777
 30
0.0
  0
VERTEX
  8
0
  6
CONTINUOUS
 10
73.507884
 20
207.991189
 30
0.0
  0
VERTEX
  8
0
  6
CONTINUOUS
 10
73.507995
 20
207.990643
 30
0.0
  0
VERTEX
  8
0
  6
CONTINUOUS
 10
73.508117
 20
207.990049
 30
0.0
  0
VERTEX
  8
0
  6
CONTINUOUS
 10
73.508233
 20
207.98949
 30
0.0
  0
VERTEX
  8
0
  6
CONTINUOUS
 10
73.507455
 20
207.992273
 30
0.0
  0
VERTEX
  8
0
  6
CONTINUOUS
 10
73.504611
 20
207.997821
 30
0.0
  0
VERTEX
  8
0
  6
CONTINUOUS
 10
73.48319
 20
208.017423
 30
0.0
  0
VERTEX
  8
0
  6
CONTINUOUS
 10
73.4706
 20
208.0266
 30
0.0
  0
VERTEX
  8
0
  6
CONTINUOUS
 10
73.447359
 20
208.041764
 30
0.0
  0
VERTEX
  8
0
  6
CONTINUOUS
 10
73.429134
 20
208.052488
 30
0.0
  0
SEQEND
  8
0
  6
CONTINUOUS
  0
POLYLINE
  8
0
  6
CONTINUOUS
 66
     1
 10
0.0
 20
0.0
 30
0.0
  0
VERTEX
  8
0
  6
CONTINUOUS
 10
69.70125
 20
181.984347
 30
0.0
  0
VERTEX
  8
0
  6
CONTINUOUS
 10
69.81751
 20
181.951174
 30
0.0
  0
VERTEX
  8
0
  6
CONTINUOUS
 10
69.925506
 20
181.910321
 30
0.0
  0
SEQEND
  8
0
  6
CONTINUOUS
  0
POLYLINE
  8
0
  6
CONTINUOUS
 66
     1
 10
0.0
 20
0.0
 30
0.0
  0
VERTEX
  8
0
  6
CONTINUOUS
 10
72.008316
 20
188.859387
 30
0.0
  0
VERTEX
  8
0
  6
CONTINUOUS
 10
72.20955
 20
188.194688
 30
0.0
  0
VERTEX
  8
0
  6
CONTINUOUS
 10
72.707515
 20
187.70288
 30
0.0
  0
SEQEND
  8
0
  6
CONTINUOUS
  0
POLYLINE
  8
0
  6
CONTINUOUS
 66
     1
 10
0.0
 20
0.0
 30
0.0
  0
VERTEX
  8
0
  6
CONTINUOUS
 10
73.209843
 20
187.99323
 30
0.0
  0
VERTEX
  8
0
  6
CONTINUOUS
 10
72.711878
 20
188.485037
 30
0.0
  0
VERTEX
  8
0
  6
CONTINUOUS
 10
72.510644
 20
189.149736
 30
0.0
  0
SEQEND
  8
0
  6
CONTINUOUS
  0
POLYLINE
  8
0
  6
CONTINUOUS
 66
     1
 10
0.0
 20
0.0
 30
0.0
  0
VERTEX
  8
0
  6
CONTINUOUS
 10
69.70125
 20
182.624358
 30
0.0
  0
VERTEX
  8
0
  6
CONTINUOUS
 10
69.81751
 20
182.591185
 30
0.0
  0
VERTEX
  8
0
  6
CONTINUOUS
 10
69.925506
 20
182.550332
 30
0.0
  0
SEQEND
  8
0
  6
CONTINUOUS
  0
POLYLINE
  8
0
  6
CONTINUOUS
 66
     1
 10
0.0
 20
0.0
 30
0.0
  0
VERTEX
  8
0
  6
CONTINUOUS
 10
77.370295
 20
179.61783
 30
0.0
  0
VERTEX
  8
0
  6
CONTINUOUS
 10
77.299907
 20
179.703026
 30
0.0
  0
VERTEX
  8
0
  6
CONTINUOUS
 10
77.248379
 20
179.822557
 30
0.0
  0
VERTEX
  8
0
  6
CONTINUOUS
 10
77.229519
 20
179.944395
 30
0.0
  0
SEQEND
  8
0
  6
CONTINUOUS
  0
POLYLINE
  8
0
  6
CONTINUOUS
 66
     1
 10
0.0
 20
0.0
 30
0.0
  0
VERTEX
  8
0
  6
CONTINUOUS
 10
77.838557
 20
179.82553
 30
0.0
  0
VERTEX
  8
0
  6
CONTINUOUS
 10
77.882543
 20
179.831426
 30
0.0
  0
VERTEX
  8
0
  6
CONTINUOUS
 10
77.933398
 20
179.804929
 30
0.0
  0
SEQEND
  8
0
  6
CONTINUOUS
  0
POLYLINE
  8
0
  6
CONTINUOUS
 66
     1
 10
0.0
 20
0.0
 30
0.0
  0
VERTEX
  8
0
  6
CONTINUOUS
 10
77.229519
 20
180.157732
 30
0.0
  0
VERTEX
  8
0
  6
CONTINUOUS
 10
77.270751
 20
180.27542
 30
0.0
  0
VERTEX
  8
0
  6
CONTINUOUS
 10
77.370295
 20
180.257841
 30
0.0
  0
SEQEND
  8
0
  6
CONTINUOUS
  0
POLYLINE
  8
0
  6
CONTINUOUS
 66
     1
 10
0.0
 20
0.0
 30
0.0
  0
VERTEX
  8
0
  6
CONTINUOUS
 10
79.425637
 20
187.137753
 30
0.0
  0
VERTEX
  8
0
  6
CONTINUOUS
 10
79.447192
 20
187.065549
 30
0.0
  0
VERTEX
  8
0
  6
CONTINUOUS
 10
79.508194
 20
186.998474
 30
0.0
  0
SEQEND
  8
0
  6
CONTINUOUS
  0
POLYLINE
  8
0
  6
CONTINUOUS
 66
     1
 10
0.0
 20
0.0
 30
0.0
  0
VERTEX
  8
0
  6
CONTINUOUS
 10
79.425637
 20
192.044501
 30
0.0
  0
VERTEX
  8
0
  6
CONTINUOUS
 10
79.447192
 20
191.972296
 30
0.0
  0
VERTEX
  8
0
  6
CONTINUOUS
 10
79.508194
 20
191.905222
 30
0.0
  0
SEQEND
  8
0
  6
CONTINUOUS
  0
POLYLINE
  8
0
  6
CONTINUOUS
 66
     1
 10
0.0
 20
0.0
 30
0.0
  0
VERTEX
  8
0
  6
CONTINUOUS
 10
79.657438
 20
189.439233
 30
0.0
  0
VERTEX
  8
0
  6
CONTINUOUS
 10
79.766031
 20
189.483588
 30
0.0
  0
VERTEX
  8
0
  6
CONTINUOUS
 10
79.895268
 20
189.507984
 30
0.0
  0
VERTEX
  8
0
  6
CONTINUOUS
 10
80.010523
 20
189.505885
 30
0.0
  0
SEQEND
  8
0
  6
CONTINUOUS
  0
POLYLINE
  8
0
  6
CONTINUOUS
 66
     1
 10
0.0
 20
0.0
 30
0.0
  0
VERTEX
  8
0
  6
CONTINUOUS
 10
79.508194
 20
189.215536
 30
0.0
  0
VERTEX
  8
0
  6
CONTINUOUS
 10
79.425969
 20
189.265189
 30
0.0
  0
VERTEX
  8
0
  6
CONTINUOUS
 10
79.489995
 20
189.34245
 30
0.0
  0
SEQEND
  8
0
  6
CONTINUOUS
  0
POLYLINE
  8
0
  6
CONTINUOUS
 66
     1
 10
0.0
 20
0.0
 30
0.0
  0
VERTEX
  8
0
  6
CONTINUOUS
 10
80.250762
 20
189.095009
 30
0.0
  0
VERTEX
  8
0
  6
CONTINUOUS
 10
80.18976
 20
189.115613
 30
0.0
  0
VERTEX
  8
0
  6
CONTINUOUS
 10
80.168205
 20
189.149371
 30
0.0
  0
SEQEND
  8
0
  6
CONTINUOUS
  0
POLYLINE
  8
0
  6
CONTINUOUS
 66
     1
 10
0.0
 20
0.0
 30
0.0
  0
VERTEX
  8
0
  6
CONTINUOUS
 10
79.657438
 20
184.532486
 30
0.0
  0
VERTEX
  8
0
  6
CONTINUOUS
 10
79.766031
 20
184.57684
 30
0.0
  0
VERTEX
  8
0
  6
CONTINUOUS
 10
79.895268
 20
184.601237
 30
0.0
  0
VERTEX
  8
0
  6
CONTINUOUS
 10
80.010523
 20
184.599137
 30
0.0
  0
SEQEND
  8
0
  6
CONTINUOUS
  0
POLYLINE
  8
0
  6
CONTINUOUS
 66
     1
 10
0.0
 20
0.0
 30
0.0
  0
VERTEX
  8
0
  6
CONTINUOUS
 10
79.508194
 20
184.308788
 30
0.0
  0
VERTEX
  8
0
  6
CONTINUOUS
 10
79.437807
 20
184.33682
 30
0.0
  0
VERTEX
  8
0
  6
CONTINUOUS
 10
79.431145
 20
184.383274
 30
0.0
  0
VERTEX
  8
0
  6
CONTINUOUS
 10
79.489995
 20
184.435703
 30
0.0
  0
SEQEND
  8
0
  6
CONTINUOUS
  0
POLYLINE
  8
0
  6
CONTINUOUS
 66
     1
 10
0.0
 20
0.0
 30
0.0
  0
VERTEX
  8
0
  6
CONTINUOUS
 10
80.250762
 20
184.188262
 30
0.0
  0
VERTEX
  8
0
  6
CONTINUOUS
 10
80.18976
 20
184.208865
 30
0.0
  0
VERTEX
  8
0
  6
CONTINUOUS
 10
80.168205
 20
184.242623
 30
0.0
  0
SEQEND
  8
0
  6
CONTINUOUS
  0
POLYLINE
  8
0
  6
CONTINUOUS
 66
     1
 10
0.0
 20
0.0
 30
0.0
  0
VERTEX
  8
0
  6
CONTINUOUS
 10
79.657438
 20
194.345981
 30
0.0
  0
VERTEX
  8
0
  6
CONTINUOUS
 10
79.766031
 20
194.390336
 30
0.0
  0
VERTEX
  8
0
  6
CONTINUOUS
 10
79.895268
 20
194.414732
 30
0.0
  0
VERTEX
  8
0
  6
CONTINUOUS
 10
80.010523
 20
194.412632
 30
0.0
  0
SEQEND
  8
0
  6
CONTINUOUS
  0
POLYLINE
  8
0
  6
CONTINUOUS
 66
     1
 10
0.0
 20
0.0
 30
0.0
  0
VERTEX
  8
0
  6
CONTINUOUS
 10
79.508194
 20
194.122283
 30
0.0
  0
VERTEX
  8
0
  6
CONTINUOUS
 10
79.437807
 20
194.150315
 30
0.0
  0
VERTEX
  8
0
  6
CONTINUOUS
 10
79.431145
 20
194.196769
 30
0.0
  0
VERTEX
  8
0
  6
CONTINUOUS
 10
79.489995
 20
194.249198
 30
0.0
  0
SEQEND
  8
0
  6
CONTINUOUS
  0
POLYLINE
  8
0
  6
CONTINUOUS
 66
     1
 10
0.0
 20
0.0
 30
0.0
  0
VERTEX
  8
0
  6
CONTINUOUS
 10
80.250762
 20
194.001757
 30
0.0
  0
VERTEX
  8
0
  6
CONTINUOUS
 10
80.18976
 20
194.02236
 30
0.0
  0
VERTEX
  8
0
  6
CONTINUOUS
 10
80.168205
 20
194.056119
 30
0.0
  0
SEQEND
  8
0
  6
CONTINUOUS
  0
POLYLINE
  8
0
  6
CONTINUOUS
 66
     1
 10
0.0
 20
0.0
 30
0.0
  0
VERTEX
  8
0
  6
CONTINUOUS
 10
81.885142
 20
181.848706
 30
0.0
  0
VERTEX
  8
0
  6
CONTINUOUS
 10
81.667956
 20
181.86368
 30
0.0
  0
VERTEX
  8
0
  6
CONTINUOUS
 10
81.40948
 20
181.921424
 30
0.0
  0
VERTEX
  8
0
  6
CONTINUOUS
 10
81.178972
 20
182.006464
 30
0.0
  0
SEQEND
  8
0
  6
CONTINUOUS
  0
POLYLINE
  8
0
  6
CONTINUOUS
 66
     1
 10
0.0
 20
0.0
 30
0.0
  0
VERTEX
  8
0
  6
CONTINUOUS
 10
80.669766
 20
179.597714
 30
0.0
  0
VERTEX
  8
0
  6
CONTINUOUS
 10
80.462934
 20
179.89386
 30
0.0
  0
VERTEX
  8
0
  6
CONTINUOUS
 10
80.159768
 20
180.1188
 30
0.0
  0
SEQEND
  8
0
  6
CONTINUOUS
  0
POLYLINE
  8
0
  6
CONTINUOUS
 66
     1
 10
0.0
 20
0.0
 30
0.0
  0
VERTEX
  8
0
  6
CONTINUOUS
 10
78.381999
 20
180.918034
 30
0.0
  0
VERTEX
  8
0
  6
CONTINUOUS
 10
78.42659
 20
180.924293
 30
0.0
  0
VERTEX
  8
0
  6
CONTINUOUS
 10
78.48899
 20
180.904455
 30
0.0
  0
SEQEND
  8
0
  6
CONTINUOUS
  0
POLYLINE
  8
0
  6
CONTINUOUS
 66
     1
 10
0.0
 20
0.0
 30
0.0
  0
VERTEX
  8
0
  6
CONTINUOUS
 10
79.425637
 20
182.859721
 30
0.0
  0
VERTEX
  8
0
  6
CONTINUOUS
 10
79.447207
 20
182.828317
 30
0.0
  0
VERTEX
  8
0
  6
CONTINUOUS
 10
79.508194
 20
182.792119
 30
0.0
  0
SEQEND
  8
0
  6
CONTINUOUS
  0
POLYLINE
  8
0
  6
CONTINUOUS
 66
     1
 10
0.0
 20
0.0
 30
0.0
  0
VERTEX
  8
0
  6
CONTINUOUS
 10
69.869293
 20
189.548387
 30
0.0
  0
VERTEX
  8
0
  6
CONTINUOUS
 10
69.785572
 20
189.471414
 30
0.0
  0
VERTEX
  8
0
  6
CONTINUOUS
 10
69.724283
 20
189.357902
 30
0.0
  0
VERTEX
  8
0
  6
CONTINUOUS
 10
69.70185
 20
189.238267
 30
0.0
  0
SEQEND
  8
0
  6
CONTINUOUS
  0
POLYLINE
  8
0
  6
CONTINUOUS
 66
     1
 10
0.0
 20
0.0
 30
0.0
  0
VERTEX
  8
0
  6
CONTINUOUS
 10
85.106578
 20
198.142312
 30
0.0
  0
VERTEX
  8
0
  6
CONTINUOUS
 10
85.057535
 20
198.264817
 30
0.0
  0
VERTEX
  8
0
  6
CONTINUOUS
 10
84.939135
 20
198.258866
 30
0.0
  0
SEQEND
  8
0
  6
CONTINUOUS
  0
POLYLINE
  8
0
  6
CONTINUOUS
 66
     1
 10
0.0
 20
0.0
 30
0.0
  0
VERTEX
  8
0
  6
CONTINUOUS
 10
84.939135
 20
178.631876
 30
0.0
  0
VERTEX
  8
0
  6
CONTINUOUS
 10
85.022856
 20
178.708849
 30
0.0
  0
VERTEX
  8
0
  6
CONTINUOUS
 10
85.084144
 20
178.822361
 30
0.0
  0
VERTEX
  8
0
  6
CONTINUOUS
 10
85.106578
 20
178.941995
 30
0.0
  0
SEQEND
  8
0
  6
CONTINUOUS
  0
POLYLINE
  8
0
  6
CONTINUOUS
 66
     1
 10
0.0
 20
0.0
 30
0.0
  0
VERTEX
  8
0
  6
CONTINUOUS
 10
69.70185
 20
170.037951
 30
0.0
  0
VERTEX
  8
0
  6
CONTINUOUS
 10
69.750893
 20
169.915446
 30
0.0
  0
VERTEX
  8
0
  6
CONTINUOUS
 10
69.869293
 20
169.921397
 30
0.0
  0
SEQEND
  8
0
  6
CONTINUOUS
  0
POLYLINE
  8
0
  6
CONTINUOUS
 66
     1
 10
0.0
 20
0.0
 30
0.0
  0
VERTEX
  8
0
  6
CONTINUOUS
 10
82.413001
 20
180.227953
 30
0.0
  0
VERTEX
  8
0
  6
CONTINUOUS
 10
82.413009
 20
180.226836
 30
0.0
  0
SEQEND
  8
0
  6
CONTINUOUS
  0
POLYLINE
  8
0
  6
CONTINUOUS
 66
     1
 10
0.0
 20
0.0
 30
0.0
  0
VERTEX
  8
0
  6
CONTINUOUS
 10
82.413009
 20
180.226836
 30
0.0
  0
VERTEX
  8
0
  6
CONTINUOUS
 10
82.476977
 20
180.139042
 30
0.0
  0
SEQEND
  8
0
  6
CONTINUOUS
  0
POLYLINE
  8
0
  6
CONTINUOUS
 66
     1
 10
0.0
 20
0.0
 30
0.0
  0
VERTEX
  8
0
  6
CONTINUOUS
 10
82.476977
 20
196.835356
 30
0.0
  0
VERTEX
  8
0
  6
CONTINUOUS
 10
82.476977
 20
189.958147
 30
0.0
  0
VERTEX
  8
0
  6
CONTINUOUS
 10
82.476977
 20
180.139042
 30
0.0
  0
SEQEND
  8
0
  6
CONTINUOUS
  0
POLYLINE
  8
0
  6
CONTINUOUS
 66
     1
 10
0.0
 20
0.0
 30
0.0
  0
VERTEX
  8
0
  6
CONTINUOUS
 10
82.476977
 20
180.139042
 30
0.0
  0
VERTEX
  8
0
  6
CONTINUOUS
 10
82.432197
 20
179.959105
 30
0.0
  0
SEQEND
  8
0
  6
CONTINUOUS
  0
POLYLINE
  8
0
  6
CONTINUOUS
 66
     1
 10
0.0
 20
0.0
 30
0.0
  0
VERTEX
  8
0
  6
CONTINUOUS
 10
82.351662
 20
179.988248
 30
0.0
  0
VERTEX
  8
0
  6
CONTINUOUS
 10
82.413009
 20
180.226836
 30
0.0
  0
SEQEND
  8
0
  6
CONTINUOUS
  0
POLYLINE
  8
0
  6
CONTINUOUS
 66
     1
 10
0.0
 20
0.0
 30
0.0
  0
VERTEX
  8
0
  6
CONTINUOUS
 10
82.432197
 20
179.959105
 30
0.0
  0
VERTEX
  8
0
  6
CONTINUOUS
 10
82.351662
 20
179.988248
 30
0.0
  0
SEQEND
  8
0
  6
CONTINUOUS
  0
POLYLINE
  8
0
  6
CONTINUOUS
 66
     1
 10
0.0
 20
0.0
 30
0.0
  0
VERTEX
  8
0
  6
CONTINUOUS
 10
84.475395
 20
179.238799
 30
0.0
  0
VERTEX
  8
0
  6
CONTINUOUS
 10
84.475398
 20
179.238391
 30
0.0
  0
VERTEX
  8
0
  6
CONTINUOUS
 10
84.475409
 20
179.23798
 30
0.0
  0
SEQEND
  8
0
  6
CONTINUOUS
  0
POLYLINE
  8
0
  6
CONTINUOUS
 66
     1
 10
0.0
 20
0.0
 30
0.0
  0
VERTEX
  8
0
  6
CONTINUOUS
 10
84.308603
 20
178.929041
 30
0.0
  0
VERTEX
  8
0
  6
CONTINUOUS
 10
84.36169
 20
178.987078
 30
0.0
  0
VERTEX
  8
0
  6
CONTINUOUS
 10
84.407196
 20
179.068783
 30
0.0
  0
VERTEX
  8
0
  6
CONTINUOUS
 10
84.452165
 20
179.15467
 30
0.0
  0
VERTEX
  8
0
  6
CONTINUOUS
 10
84.475409
 20
179.23798
 30
0.0
  0
SEQEND
  8
0
  6
CONTINUOUS
  0
POLYLINE
  8
0
  6
CONTINUOUS
 66
     1
 10
0.0
 20
0.0
 30
0.0
  0
VERTEX
  8
0
  6
CONTINUOUS
 10
84.307952
 20
178.928679
 30
0.0
  0
VERTEX
  8
0
  6
CONTINUOUS
 10
84.308274
 20
178.928861
 30
0.0
  0
VERTEX
  8
0
  6
CONTINUOUS
 10
84.308603
 20
178.929041
 30
0.0
  0
SEQEND
  8
0
  6
CONTINUOUS
  0
POLYLINE
  8
0
  6
CONTINUOUS
 66
     1
 10
0.0
 20
0.0
 30
0.0
  0
VERTEX
  8
0
  6
CONTINUOUS
 10
82.310172
 20
179.830102
 30
0.0
  0
VERTEX
  8
0
  6
CONTINUOUS
 10
81.150808
 20
179.159981
 30
0.0
  0
VERTEX
  8
0
  6
CONTINUOUS
 10
79.797894
 20
178.377987
 30
0.0
  0
SEQEND
  8
0
  6
CONTINUOUS
  0
POLYLINE
  8
0
  6
CONTINUOUS
 66
     1
 10
0.0
 20
0.0
 30
0.0
  0
VERTEX
  8
0
  6
CONTINUOUS
 10
84.308603
 20
178.929041
 30
0.0
  0
VERTEX
  8
0
  6
CONTINUOUS
 10
83.216657
 20
179.421382
 30
0.0
  0
VERTEX
  8
0
  6
CONTINUOUS
 10
82.310172
 20
179.830102
 30
0.0
  0
SEQEND
  8
0
  6
CONTINUOUS
  0
POLYLINE
  8
0
  6
CONTINUOUS
 66
     1
 10
0.0
 20
0.0
 30
0.0
  0
VERTEX
  8
0
  6
CONTINUOUS
 10
79.797894
 20
177.846642
 30
0.0
  0
VERTEX
  8
0
  6
CONTINUOUS
 10
79.743594
 20
177.924067
 30
0.0
  0
VERTEX
  8
0
  6
CONTINUOUS
 10
79.730875
 20
178.00989
 30
0.0
  0
SEQEND
  8
0
  6
CONTINUOUS
  0
POLYLINE
  8
0
  6
CONTINUOUS
 66
     1
 10
0.0
 20
0.0
 30
0.0
  0
VERTEX
  8
0
  6
CONTINUOUS
 10
79.730875
 20
178.393235
 30
0.0
  0
VERTEX
  8
0
  6
CONTINUOUS
 10
79.74351
 20
178.396748
 30
0.0
  0
VERTEX
  8
0
  6
CONTINUOUS
 10
79.797894
 20
178.377987
 30
0.0
  0
SEQEND
  8
0
  6
CONTINUOUS
  0
POLYLINE
  8
0
  6
CONTINUOUS
 66
     1
 10
0.0
 20
0.0
 30
0.0
  0
VERTEX
  8
0
  6
CONTINUOUS
 10
79.809813
 20
177.83911
 30
0.0
  0
VERTEX
  8
0
  6
CONTINUOUS
 10
79.806835
 20
177.84088
 30
0.0
  0
VERTEX
  8
0
  6
CONTINUOUS
 10
79.803854
 20
177.842726
 30
0.0
  0
VERTEX
  8
0
  6
CONTINUOUS
 10
79.800874
 20
177.844647
 30
0.0
  0
VERTEX
  8
0
  6
CONTINUOUS
 10
79.797894
 20
177.846642
 30
0.0
  0
SEQEND
  8
0
  6
CONTINUOUS
  0
POLYLINE
  8
0
  6
CONTINUOUS
 66
     1
 10
0.0
 20
0.0
 30
0.0
  0
VERTEX
  8
0
  6
CONTINUOUS
 10
82.310172
 20
179.830102
 30
0.0
  0
VERTEX
  8
0
  6
CONTINUOUS
 10
82.203953
 20
179.824588
 30
0.0
  0
SEQEND
  8
0
  6
CONTINUOUS
  0
POLYLINE
  8
0
  6
CONTINUOUS
 66
     1
 10
0.0
 20
0.0
 30
0.0
  0
VERTEX
  8
0
  6
CONTINUOUS
 10
84.475409
 20
179.23798
 30
0.0
  0
VERTEX
  8
0
  6
CONTINUOUS
 10
83.383463
 20
179.730322
 30
0.0
  0
VERTEX
  8
0
  6
CONTINUOUS
 10
82.476977
 20
180.139042
 30
0.0
  0
SEQEND
  8
0
  6
CONTINUOUS
  0
POLYLINE
  8
0
  6
CONTINUOUS
 66
     1
 10
0.0
 20
0.0
 30
0.0
  0
VERTEX
  8
0
  6
CONTINUOUS
 10
82.432197
 20
179.959105
 30
0.0
  0
VERTEX
  8
0
  6
CONTINUOUS
 10
82.310172
 20
179.830102
 30
0.0
  0
SEQEND
  8
0
  6
CONTINUOUS
  0
POLYLINE
  8
0
  6
CONTINUOUS
 66
     1
 10
0.0
 20
0.0
 30
0.0
  0
VERTEX
  8
0
  6
CONTINUOUS
 10
82.228912
 20
179.840473
 30
0.0
  0
VERTEX
  8
0
  6
CONTINUOUS
 10
82.351662
 20
179.988248
 30
0.0
  0
SEQEND
  8
0
  6
CONTINUOUS
  0
POLYLINE
  8
0
  6
CONTINUOUS
 66
     1
 10
0.0
 20
0.0
 30
0.0
  0
VERTEX
  8
0
  6
CONTINUOUS
 10
82.345219
 20
179.987099
 30
0.0
  0
VERTEX
  8
0
  6
CONTINUOUS
 10
82.351662
 20
179.988248
 30
0.0
  0
SEQEND
  8
0
  6
CONTINUOUS
  0
POLYLINE
  8
0
  6
CONTINUOUS
 66
     1
 10
0.0
 20
0.0
 30
0.0
  0
VERTEX
  8
0
  6
CONTINUOUS
 10
82.413001
 20
180.227956
 30
0.0
  0
VERTEX
  8
0
  6
CONTINUOUS
 10
82.413001
 20
190.047061
 30
0.0
  0
VERTEX
  8
0
  6
CONTINUOUS
 10
82.413001
 20
196.798357
 30
0.0
  0
SEQEND
  8
0
  6
CONTINUOUS
  0
POLYLINE
  8
0
  6
CONTINUOUS
 66
     1
 10
0.0
 20
0.0
 30
0.0
  0
VERTEX
  8
0
  6
CONTINUOUS
 10
79.732591
 20
178.396123
 30
0.0
  0
VERTEX
  8
0
  6
CONTINUOUS
 10
80.947352
 20
179.098263
 30
0.0
  0
VERTEX
  8
0
  6
CONTINUOUS
 10
82.203971
 20
179.824598
 30
0.0
  0
SEQEND
  8
0
  6
CONTINUOUS
  0
POLYLINE
  8
0
  6
CONTINUOUS
 66
     1
 10
0.0
 20
0.0
 30
0.0
  0
VERTEX
  8
0
  6
CONTINUOUS
 10
82.204535
 20
179.824922
 30
0.0
  0
VERTEX
  8
0
  6
CONTINUOUS
 10
82.205309
 20
179.825363
 30
0.0
  0
VERTEX
  8
0
  6
CONTINUOUS
 10
82.207429
 20
179.826581
 30
0.0
  0
VERTEX
  8
0
  6
CONTINUOUS
 10
82.217657
 20
179.832822
 30
0.0
  0
VERTEX
  8
0
  6
CONTINUOUS
 10
82.22893
 20
179.840485
 30
0.0
  0
SEQEND
  8
0
  6
CONTINUOUS
  0
POLYLINE
  8
0
  6
CONTINUOUS
 66
     1
 10
0.0
 20
0.0
 30
0.0
  0
VERTEX
  8
0
  6
CONTINUOUS
 10
82.22893
 20
179.840485
 30
0.0
  0
VERTEX
  8
0
  6
CONTINUOUS
 10
82.275834
 20
179.882948
 30
0.0
  0
VERTEX
  8
0
  6
CONTINUOUS
 10
82.313203
 20
179.931705
 30
0.0
  0
VERTEX
  8
0
  6
CONTINUOUS
 10
82.345219
 20
179.987098
 30
0.0
  0
SEQEND
  8
0
  6
CONTINUOUS
  0
POLYLINE
  8
0
  6
CONTINUOUS
 66
     1
 10
0.0
 20
0.0
 30
0.0
  0
VERTEX
  8
0
  6
CONTINUOUS
 10
82.345219
 20
179.987098
 30
0.0
  0
VERTEX
  8
0
  6
CONTINUOUS
 10
82.374316
 20
180.045013
 30
0.0
  0
VERTEX
  8
0
  6
CONTINUOUS
 10
82.397805
 20
180.111912
 30
0.0
  0
VERTEX
  8
0
  6
CONTINUOUS
 10
82.411035
 20
180.185209
 30
0.0
  0
VERTEX
  8
0
  6
CONTINUOUS
 10
82.412775
 20
180.211415
 30
0.0
  0
VERTEX
  8
0
  6
CONTINUOUS
 10
82.412984
 20
180.220927
 30
0.0
  0
VERTEX
  8
0
  6
CONTINUOUS
 10
82.413003
 20
180.224701
 30
0.0
  0
VERTEX
  8
0
  6
CONTINUOUS
 10
82.413002
 20
180.226369
 30
0.0
  0
VERTEX
  8
0
  6
CONTINUOUS
 10
82.413002
 20
180.227166
 30
0.0
  0
VERTEX
  8
0
  6
CONTINUOUS
 10
82.413001
 20
180.227955
 30
0.0
  0
SEQEND
  8
0
  6
CONTINUOUS
  0
POLYLINE
  8
0
  6
CONTINUOUS
 66
     1
 10
0.0
 20
0.0
 30
0.0
  0
VERTEX
  8
0
  6
CONTINUOUS
 10
88.528856
 20
201.411007
 30
0.0
  0
VERTEX
  8
0
  6
CONTINUOUS
 10
88.326075
 20
201.111079
 30
0.0
  0
SEQEND
  8
0
  6
CONTINUOUS
  0
POLYLINE
  8
0
  6
CONTINUOUS
 66
     1
 10
0.0
 20
0.0
 30
0.0
  0
VERTEX
  8
0
  6
CONTINUOUS
 10
87.815793
 20
202.80486
 30
0.0
  0
VERTEX
  8
0
  6
CONTINUOUS
 10
88.185668
 20
201.933179
 30
0.0
  0
VERTEX
  8
0
  6
CONTINUOUS
 10
88.326075
 20
201.111079
 30
0.0
  0
SEQEND
  8
0
  6
CONTINUOUS
  0
POLYLINE
  8
0
  6
CONTINUOUS
 66
     1
 10
0.0
 20
0.0
 30
0.0
  0
VERTEX
  8
0
  6
CONTINUOUS
 10
88.038675
 20
203.001891
 30
0.0
  0
VERTEX
  8
0
  6
CONTINUOUS
 10
87.815793
 20
202.80486
 30
0.0
  0
SEQEND
  8
0
  6
CONTINUOUS
  0
POLYLINE
  8
0
  6
CONTINUOUS
 66
     1
 10
0.0
 20
0.0
 30
0.0
  0
VERTEX
  8
0
  6
CONTINUOUS
 10
88.528856
 20
201.411007
 30
0.0
  0
VERTEX
  8
0
  6
CONTINUOUS
 10
88.408013
 20
202.119877
 30
0.0
  0
VERTEX
  8
0
  6
CONTINUOUS
 10
88.038675
 20
203.001891
 30
0.0
  0
SEQEND
  8
0
  6
CONTINUOUS
  0
POLYLINE
  8
0
  6
CONTINUOUS
 66
     1
 10
0.0
 20
0.0
 30
0.0
  0
VERTEX
  8
0
  6
CONTINUOUS
 10
86.648383
 20
204.201666
 30
0.0
  0
VERTEX
  8
0
  6
CONTINUOUS
 10
87.280682
 20
203.601737
 30
0.0
  0
VERTEX
  8
0
  6
CONTINUOUS
 10
87.815793
 20
202.80486
 30
0.0
  0
SEQEND
  8
0
  6
CONTINUOUS
  0
POLYLINE
  8
0
  6
CONTINUOUS
 66
     1
 10
0.0
 20
0.0
 30
0.0
  0
VERTEX
  8
0
  6
CONTINUOUS
 10
86.648383
 20
204.201666
 30
0.0
  0
VERTEX
  8
0
  6
CONTINUOUS
 10
86.955869
 20
204.314339
 30
0.0
  0
SEQEND
  8
0
  6
CONTINUOUS
  0
POLYLINE
  8
0
  6
CONTINUOUS
 66
     1
 10
0.0
 20
0.0
 30
0.0
  0
VERTEX
  8
0
  6
CONTINUOUS
 10
88.038675
 20
203.001891
 30
0.0
  0
VERTEX
  8
0
  6
CONTINUOUS
 10
87.496083
 20
203.801808
 30
0.0
  0
VERTEX
  8
0
  6
CONTINUOUS
 10
86.955869
 20
204.314339
 30
0.0
  0
SEQEND
  8
0
  6
CONTINUOUS
  0
POLYLINE
  8
0
  6
CONTINUOUS
 66
     1
 10
0.0
 20
0.0
 30
0.0
  0
VERTEX
  8
0
  6
CONTINUOUS
 10
88.52943
 20
201.428489
 30
0.0
  0
VERTEX
  8
0
  6
CONTINUOUS
 10
88.528856
 20
201.411007
 30
0.0
  0
SEQEND
  8
0
  6
CONTINUOUS
  0
POLYLINE
  8
0
  6
CONTINUOUS
 66
     1
 10
0.0
 20
0.0
 30
0.0
  0
VERTEX
  8
0
  6
CONTINUOUS
 10
88.038675
 20
203.001891
 30
0.0
  0
VERTEX
  8
0
  6
CONTINUOUS
 10
88.046927
 20
203.013312
 30
0.0
  0
SEQEND
  8
0
  6
CONTINUOUS
  0
POLYLINE
  8
0
  6
CONTINUOUS
 66
     1
 10
0.0
 20
0.0
 30
0.0
  0
VERTEX
  8
0
  6
CONTINUOUS
 10
88.350429
 20
179.897878
 30
0.0
  0
VERTEX
  8
0
  6
CONTINUOUS
 10
88.236829
 20
179.302404
 30
0.0
  0
VERTEX
  8
0
  6
CONTINUOUS
 10
87.917087
 20
178.939726
 30
0.0
  0
SEQEND
  8
0
  6
CONTINUOUS
  0
POLYLINE
  8
0
  6
CONTINUOUS
 66
     1
 10
0.0
 20
0.0
 30
0.0
  0
VERTEX
  8
0
  6
CONTINUOUS
 10
88.528283
 20
180.334786
 30
0.0
  0
VERTEX
  8
0
  6
CONTINUOUS
 10
88.373564
 20
179.930967
 30
0.0
  0
VERTEX
  8
0
  6
CONTINUOUS
 10
88.350429
 20
179.897878
 30
0.0
  0
SEQEND
  8
0
  6
CONTINUOUS
  0
POLYLINE
  8
0
  6
CONTINUOUS
 66
     1
 10
0.0
 20
0.0
 30
0.0
  0
VERTEX
  8
0
  6
CONTINUOUS
 10
88.502538
 20
180.121533
 30
0.0
  0
VERTEX
  8
0
  6
CONTINUOUS
 10
88.528283
 20
180.334786
 30
0.0
  0
SEQEND
  8
0
  6
CONTINUOUS
  0
POLYLINE
  8
0
  6
CONTINUOUS
 66
     1
 10
0.0
 20
0.0
 30
0.0
  0
VERTEX
  8
0
  6
CONTINUOUS
 10
64.553465
 20
166.408136
 30
0.0
  0
VERTEX
  8
0
  6
CONTINUOUS
 10
65.40772
 20
166.356622
 30
0.0
  0
SEQEND
  8
0
  6
CONTINUOUS
  0
POLYLINE
  8
0
  6
CONTINUOUS
 66
     1
 10
0.0
 20
0.0
 30
0.0
  0
VERTEX
  8
0
  6
CONTINUOUS
 10
65.40772
 20
166.356622
 30
0.0
  0
VERTEX
  8
0
  6
CONTINUOUS
 10
65.743559
 20
166.360549
 30
0.0
  0
SEQEND
  8
0
  6
CONTINUOUS
  0
POLYLINE
  8
0
  6
CONTINUOUS
 66
     1
 10
0.0
 20
0.0
 30
0.0
  0
VERTEX
  8
0
  6
CONTINUOUS
 10
88.528283
 20
180.334786
 30
0.0
  0
VERTEX
  8
0
  6
CONTINUOUS
 10
88.528858
 20
180.352189
 30
0.0
  0
SEQEND
  8
0
  6
CONTINUOUS
  0
POLYLINE
  8
0
  6
CONTINUOUS
 66
     1
 10
0.0
 20
0.0
 30
0.0
  0
VERTEX
  8
0
  6
CONTINUOUS
 10
88.350429
 20
179.897878
 30
0.0
  0
VERTEX
  8
0
  6
CONTINUOUS
 10
88.349157
 20
179.89713
 30
0.0
  0
VERTEX
  8
0
  6
CONTINUOUS
 10
77.126161
 20
173.522069
 30
0.0
  0
VERTEX
  8
0
  6
CONTINUOUS
 10
66.251657
 20
167.358976
 30
0.0
  0
VERTEX
  8
0
  6
CONTINUOUS
 10
66.250384
 20
167.358228
 30
0.0
  0
SEQEND
  8
0
  6
CONTINUOUS
  0
POLYLINE
  8
0
  6
CONTINUOUS
 66
     1
 10
0.0
 20
0.0
 30
0.0
  0
VERTEX
  8
0
  6
CONTINUOUS
 10
66.318073
 20
188.670994
 30
0.0
  0
VERTEX
  8
0
  6
CONTINUOUS
 10
66.319347
 20
188.671742
 30
0.0
  0
VERTEX
  8
0
  6
CONTINUOUS
 10
79.295141
 20
195.931148
 30
0.0
  0
VERTEX
  8
0
  6
CONTINUOUS
 10
88.324802
 20
201.110332
 30
0.0
  0
VERTEX
  8
0
  6
CONTINUOUS
 10
88.326075
 20
201.111079
 30
0.0
  0
SEQEND
  8
0
  6
CONTINUOUS
  0
POLYLINE
  8
0
  6
CONTINUOUS
 66
     1
 10
0.0
 20
0.0
 30
0.0
  0
VERTEX
  8
0
  6
CONTINUOUS
 10
48.089673
 20
173.313887
 30
0.0
  0
VERTEX
  8
0
  6
CONTINUOUS
 10
48.031748
 20
173.375998
 30
0.0
  0
VERTEX
  8
0
  6
CONTINUOUS
 10
48.000254
 20
173.504156
 30
0.0
  0
SEQEND
  8
0
  6
CONTINUOUS
  0
POLYLINE
  8
0
  6
CONTINUOUS
 66
     1
 10
0.0
 20
0.0
 30
0.0
  0
VERTEX
  8
0
  6
CONTINUOUS
 10
65.614553
 20
167.136675
 30
0.0
  0
VERTEX
  8
0
  6
CONTINUOUS
 10
65.439271
 20
166.866295
 30
0.0
  0
VERTEX
  8
0
  6
CONTINUOUS
 10
65.143685
 20
166.57496
 30
0.0
  0
SEQEND
  8
0
  6
CONTINUOUS
  0
POLYLINE
  8
0
  6
CONTINUOUS
 66
     1
 10
0.0
 20
0.0
 30
0.0
  0
VERTEX
  8
0
  6
CONTINUOUS
 10
65.143685
 20
166.57496
 30
0.0
  0
VERTEX
  8
0
  6
CONTINUOUS
 10
64.713581
 20
166.523107
 30
0.0
  0
VERTEX
  8
0
  6
CONTINUOUS
 10
64.202433
 20
166.736018
 30
0.0
  0
SEQEND
  8
0
  6
CONTINUOUS
  0
POLYLINE
  8
0
  6
CONTINUOUS
 66
     1
 10
0.0
 20
0.0
 30
0.0
  0
VERTEX
  8
0
  6
CONTINUOUS
 10
48.000254
 20
173.504156
 30
0.0
  0
VERTEX
  8
0
  6
CONTINUOUS
 10
56.714525
 20
169.547505
 30
0.0
  0
VERTEX
  8
0
  6
CONTINUOUS
 10
64.202433
 20
166.736018
 30
0.0
  0
SEQEND
  8
0
  6
CONTINUOUS
  0
POLYLINE
  8
0
  6
CONTINUOUS
 66
     1
 10
0.0
 20
0.0
 30
0.0
  0
VERTEX
  8
0
  6
CONTINUOUS
 10
64.248467
 20
191.14301
 30
0.0
  0
VERTEX
  8
0
  6
CONTINUOUS
 10
64.761454
 20
190.667275
 30
0.0
  0
VERTEX
  8
0
  6
CONTINUOUS
 10
65.196355
 20
190.033777
 30
0.0
  0
SEQEND
  8
0
  6
CONTINUOUS
  0
POLYLINE
  8
0
  6
CONTINUOUS
 66
     1
 10
0.0
 20
0.0
 30
0.0
  0
VERTEX
  8
0
  6
CONTINUOUS
 10
65.196355
 20
190.033777
 30
0.0
  0
VERTEX
  8
0
  6
CONTINUOUS
 10
65.498834
 20
189.340292
 30
0.0
  0
VERTEX
  8
0
  6
CONTINUOUS
 10
65.614553
 20
188.684598
 30
0.0
  0
SEQEND
  8
0
  6
CONTINUOUS
  0
POLYLINE
  8
0
  6
CONTINUOUS
 66
     1
 10
0.0
 20
0.0
 30
0.0
  0
VERTEX
  8
0
  6
CONTINUOUS
 10
64.613648
 20
191.745879
 30
0.0
  0
VERTEX
  8
0
  6
CONTINUOUS
 10
64.627651
 20
191.754104
 30
0.0
  0
VERTEX
  8
0
  6
CONTINUOUS
 10
77.603446
 20
199.01351
 30
0.0
  0
VERTEX
  8
0
  6
CONTINUOUS
 10
86.634379
 20
204.193441
 30
0.0
  0
VERTEX
  8
0
  6
CONTINUOUS
 10
86.648383
 20
204.201666
 30
0.0
  0
SEQEND
  8
0
  6
CONTINUOUS
  0
POLYLINE
  8
0
  6
CONTINUOUS
 66
     1
 10
0.0
 20
0.0
 30
0.0
  0
VERTEX
  8
0
  6
CONTINUOUS
 10
86.955869
 20
204.314339
 30
0.0
  0
VERTEX
  8
0
  6
CONTINUOUS
 10
86.984564
 20
204.297816
 30
0.0
  0
SEQEND
  8
0
  6
CONTINUOUS
  0
POLYLINE
  8
0
  6
CONTINUOUS
 66
     1
 10
0.0
 20
0.0
 30
0.0
  0
VERTEX
  8
0
  6
CONTINUOUS
 10
65.893525
 20
167.27796
 30
0.0
  0
VERTEX
  8
0
  6
CONTINUOUS
 10
66.250384
 20
167.358228
 30
0.0
  0
SEQEND
  8
0
  6
CONTINUOUS
  0
POLYLINE
  8
0
  6
CONTINUOUS
 66
     1
 10
0.0
 20
0.0
 30
0.0
  0
VERTEX
  8
0
  6
CONTINUOUS
 10
65.614553
 20
167.136675
 30
0.0
  0
VERTEX
  8
0
  6
CONTINUOUS
 10
65.893525
 20
167.27796
 30
0.0
  0
SEQEND
  8
0
  6
CONTINUOUS
  0
POLYLINE
  8
0
  6
CONTINUOUS
 66
     1
 10
0.0
 20
0.0
 30
0.0
  0
VERTEX
  8
0
  6
CONTINUOUS
 10
65.961215
 20
188.590726
 30
0.0
  0
VERTEX
  8
0
  6
CONTINUOUS
 10
65.614553
 20
188.684598
 30
0.0
  0
SEQEND
  8
0
  6
CONTINUOUS
  0
POLYLINE
  8
0
  6
CONTINUOUS
 66
     1
 10
0.0
 20
0.0
 30
0.0
  0
VERTEX
  8
0
  6
CONTINUOUS
 10
66.318073
 20
188.670994
 30
0.0
  0
VERTEX
  8
0
  6
CONTINUOUS
 10
65.961215
 20
188.590726
 30
0.0
  0
SEQEND
  8
0
  6
CONTINUOUS
  0
POLYLINE
  8
0
  6
CONTINUOUS
 66
     1
 10
0.0
 20
0.0
 30
0.0
  0
VERTEX
  8
0
  6
CONTINUOUS
 10
66.318073
 20
188.670994
 30
0.0
  0
VERTEX
  8
0
  6
CONTINUOUS
 10
66.171807
 20
189.489652
 30
0.0
  0
VERTEX
  8
0
  6
CONTINUOUS
 10
65.793788
 20
190.35655
 30
0.0
  0
SEQEND
  8
0
  6
CONTINUOUS
  0
POLYLINE
  8
0
  6
CONTINUOUS
 66
     1
 10
0.0
 20
0.0
 30
0.0
  0
VERTEX
  8
0
  6
CONTINUOUS
 10
65.793788
 20
190.35655
 30
0.0
  0
VERTEX
  8
0
  6
CONTINUOUS
 10
65.251805
 20
191.14939
 30
0.0
  0
VERTEX
  8
0
  6
CONTINUOUS
 10
64.613648
 20
191.745879
 30
0.0
  0
SEQEND
  8
0
  6
CONTINUOUS
  0
POLYLINE
  8
0
  6
CONTINUOUS
 66
     1
 10
0.0
 20
0.0
 30
0.0
  0
VERTEX
  8
0
  6
CONTINUOUS
 10
65.804292
 20
166.392588
 30
0.0
  0
VERTEX
  8
0
  6
CONTINUOUS
 10
66.131089
 20
166.759001
 30
0.0
  0
VERTEX
  8
0
  6
CONTINUOUS
 10
66.250384
 20
167.358228
 30
0.0
  0
SEQEND
  8
0
  6
CONTINUOUS
  0
POLYLINE
  8
0
  6
CONTINUOUS
 66
     1
 10
0.0
 20
0.0
 30
0.0
  0
VERTEX
  8
0
  6
CONTINUOUS
 10
64.359461
 20
191.477161
 30
0.0
  0
VERTEX
  8
0
  6
CONTINUOUS
 10
64.613648
 20
191.745879
 30
0.0
  0
SEQEND
  8
0
  6
CONTINUOUS
  0
POLYLINE
  8
0
  6
CONTINUOUS
 66
     1
 10
0.0
 20
0.0
 30
0.0
  0
VERTEX
  8
0
  6
CONTINUOUS
 10
64.248467
 20
191.14301
 30
0.0
  0
VERTEX
  8
0
  6
CONTINUOUS
 10
64.359461
 20
191.477161
 30
0.0
  0
SEQEND
  8
0
  6
CONTINUOUS
  0
POLYLINE
  8
0
  6
CONTINUOUS
 66
     1
 10
0.0
 20
0.0
 30
0.0
  0
VERTEX
  8
0
  6
CONTINUOUS
 10
64.292941
 20
166.545012
 30
0.0
  0
VERTEX
  8
0
  6
CONTINUOUS
 10
64.202433
 20
166.736018
 30
0.0
  0
SEQEND
  8
0
  6
CONTINUOUS
  0
POLYLINE
  8
0
  6
CONTINUOUS
 66
     1
 10
0.0
 20
0.0
 30
0.0
  0
VERTEX
  8
0
  6
CONTINUOUS
 10
65.961215
 20
188.590726
 30
0.0
  0
VERTEX
  8
0
  6
CONTINUOUS
 10
65.841638
 20
189.292264
 30
0.0
  0
VERTEX
  8
0
  6
CONTINUOUS
 10
65.462816
 20
190.164993
 30
0.0
  0
SEQEND
  8
0
  6
CONTINUOUS
  0
POLYLINE
  8
0
  6
CONTINUOUS
 66
     1
 10
0.0
 20
0.0
 30
0.0
  0
VERTEX
  8
0
  6
CONTINUOUS
 10
65.462816
 20
190.164993
 30
0.0
  0
VERTEX
  8
0
  6
CONTINUOUS
 10
65.793788
 20
190.35655
 30
0.0
  0
SEQEND
  8
0
  6
CONTINUOUS
  0
POLYLINE
  8
0
  6
CONTINUOUS
 66
     1
 10
0.0
 20
0.0
 30
0.0
  0
VERTEX
  8
0
  6
CONTINUOUS
 10
65.462816
 20
190.164993
 30
0.0
  0
VERTEX
  8
0
  6
CONTINUOUS
 10
64.915059
 20
190.965249
 30
0.0
  0
VERTEX
  8
0
  6
CONTINUOUS
 10
64.359461
 20
191.477161
 30
0.0
  0
SEQEND
  8
0
  6
CONTINUOUS
  0
POLYLINE
  8
0
  6
CONTINUOUS
 66
     1
 10
0.0
 20
0.0
 30
0.0
  0
VERTEX
  8
0
  6
CONTINUOUS
 10
65.462816
 20
190.164993
 30
0.0
  0
VERTEX
  8
0
  6
CONTINUOUS
 10
65.196355
 20
190.033777
 30
0.0
  0
SEQEND
  8
0
  6
CONTINUOUS
  0
POLYLINE
  8
0
  6
CONTINUOUS
 66
     1
 10
0.0
 20
0.0
 30
0.0
  0
VERTEX
  8
0
  6
CONTINUOUS
 10
65.893525
 20
167.27796
 30
0.0
  0
VERTEX
  8
0
  6
CONTINUOUS
 10
65.780732
 20
166.728981
 30
0.0
  0
VERTEX
  8
0
  6
CONTINUOUS
 10
65.40772
 20
166.356622
 30
0.0
  0
SEQEND
  8
0
  6
CONTINUOUS
  0
POLYLINE
  8
0
  6
CONTINUOUS
 66
     1
 10
0.0
 20
0.0
 30
0.0
  0
VERTEX
  8
0
  6
CONTINUOUS
 10
65.40772
 20
166.356622
 30
0.0
  0
VERTEX
  8
0
  6
CONTINUOUS
 10
65.143685
 20
166.57496
 30
0.0
  0
SEQEND
  8
0
  6
CONTINUOUS
  0
POLYLINE
  8
0
  6
CONTINUOUS
 66
     1
 10
0.0
 20
0.0
 30
0.0
  0
VERTEX
  8
0
  6
CONTINUOUS
 10
88.52943
 20
201.42857
 30
0.0
  0
VERTEX
  8
0
  6
CONTINUOUS
 10
88.529198
 20
201.440515
 30
0.0
  0
VERTEX
  8
0
  6
CONTINUOUS
 10
88.528269
 20
201.462214
 30
0.0
  0
VERTEX
  8
0
  6
CONTINUOUS
 10
88.520926
 20
201.555086
 30
0.0
  0
VERTEX
  8
0
  6
CONTINUOUS
 10
88.433427
 20
202.058415
 30
0.0
  0
VERTEX
  8
0
  6
CONTINUOUS
 10
88.270933
 20
202.557346
 30
0.0
  0
VERTEX
  8
0
  6
CONTINUOUS
 10
88.046936
 20
203.013294
 30
0.0
  0
SEQEND
  8
0
  6
CONTINUOUS
  0
POLYLINE
  8
0
  6
CONTINUOUS
 66
     1
 10
0.0
 20
0.0
 30
0.0
  0
VERTEX
  8
0
  6
CONTINUOUS
 10
87.91806
 20
178.940299
 30
0.0
  0
VERTEX
  8
0
  6
CONTINUOUS
 10
88.023965
 20
179.015492
 30
0.0
  0
VERTEX
  8
0
  6
CONTINUOUS
 10
88.087643
 20
179.074154
 30
0.0
  0
VERTEX
  8
0
  6
CONTINUOUS
 10
88.207964
 20
179.211797
 30
0.0
  0
VERTEX
  8
0
  6
CONTINUOUS
 10
88.290276
 20
179.330484
 30
0.0
  0
VERTEX
  8
0
  6
CONTINUOUS
 10
88.413819
 20
179.601664
 30
0.0
  0
VERTEX
  8
0
  6
CONTINUOUS
 10
88.473611
 20
179.844693
 30
0.0
  0
VERTEX
  8
0
  6
CONTINUOUS
 10
88.502538
 20
180.121533
 30
0.0
  0
SEQEND
  8
0
  6
CONTINUOUS
  0
POLYLINE
  8
0
  6
CONTINUOUS
 66
     1
 10
0.0
 20
0.0
 30
0.0
  0
VERTEX
  8
0
  6
CONTINUOUS
 10
64.556313
 20
166.406862
 30
0.0
  0
VERTEX
  8
0
  6
CONTINUOUS
 10
64.827557
 20
166.305905
 30
0.0
  0
VERTEX
  8
0
  6
CONTINUOUS
 10
65.192273
 20
166.250766
 30
0.0
  0
VERTEX
  8
0
  6
CONTINUOUS
 10
65.398096
 20
166.267322
 30
0.0
  0
VERTEX
  8
0
  6
CONTINUOUS
 10
65.53405
 20
166.291861
 30
0.0
  0
VERTEX
  8
0
  6
CONTINUOUS
 10
65.613636
 20
166.311905
 30
0.0
  0
VERTEX
  8
0
  6
CONTINUOUS
 10
65.67739
 20
166.332798
 30
0.0
  0
VERTEX
  8
0
  6
CONTINUOUS
 10
65.743567
 20
166.360553
 30
0.0
  0
SEQEND
  8
0
  6
CONTINUOUS
  0
POLYLINE
  8
0
  6
CONTINUOUS
 66
     1
 10
0.0
 20
0.0
 30
0.0
  0
VERTEX
  8
0
  6
CONTINUOUS
 10
88.502538
 20
180.121533
 30
0.0
  0
VERTEX
  8
0
  6
CONTINUOUS
 10
88.528262
 20
180.322666
 30
0.0
  0
VERTEX
  8
0
  6
CONTINUOUS
 10
88.528764
 20
180.339163
 30
0.0
  0
VERTEX
  8
0
  6
CONTINUOUS
 10
88.528856
 20
180.352304
 30
0.0
  0
SEQEND
  8
0
  6
CONTINUOUS
  0
POLYLINE
  8
0
  6
CONTINUOUS
 66
     1
 10
0.0
 20
0.0
 30
0.0
  0
VERTEX
  8
0
  6
CONTINUOUS
 10
88.046936
 20
203.013294
 30
0.0
  0
VERTEX
  8
0
  6
CONTINUOUS
 10
87.77812
 20
203.461103
 30
0.0
  0
VERTEX
  8
0
  6
CONTINUOUS
 10
87.34612
 20
203.978547
 30
0.0
  0
VERTEX
  8
0
  6
CONTINUOUS
 10
87.12373
 20
204.185776
 30
0.0
  0
VERTEX
  8
0
  6
CONTINUOUS
 10
87.038313
 20
204.25679
 30
0.0
  0
VERTEX
  8
0
  6
CONTINUOUS
 10
87.006843
 20
204.28137
 30
0.0
  0
VERTEX
  8
0
  6
CONTINUOUS
 10
86.994533
 20
204.290603
 30
0.0
  0
VERTEX
  8
0
  6
CONTINUOUS
 10
86.984701
 20
204.297719
 30
0.0
  0
SEQEND
  8
0
  6
CONTINUOUS
  0
POLYLINE
  8
0
  6
CONTINUOUS
 66
     1
 10
0.0
 20
0.0
 30
0.0
  0
VERTEX
  8
0
  6
CONTINUOUS
 10
65.80525
 20
166.39315
 30
0.0
  0
VERTEX
  8
0
  6
CONTINUOUS
 10
76.686923
 20
172.560454
 30
0.0
  0
VERTEX
  8
0
  6
CONTINUOUS
 10
87.917087
 20
178.939726
 30
0.0
  0
SEQEND
  8
0
  6
CONTINUOUS
  0
POLYLINE
  8
0
  6
CONTINUOUS
 66
     1
 10
0.0
 20
0.0
 30
0.0
  0
VERTEX
  8
0
  6
CONTINUOUS
 10
48.089477
 20
173.314002
 30
0.0
  0
VERTEX
  8
0
  6
CONTINUOUS
 10
55.96031
 20
169.755602
 30
0.0
  0
VERTEX
  8
0
  6
CONTINUOUS
 10
64.292809
 20
166.5451
 30
0.0
  0
SEQEND
  8
0
  6
CONTINUOUS
  0
POLYLINE
  8
0
  6
CONTINUOUS
 66
     1
 10
0.0
 20
0.0
 30
0.0
  0
VERTEX
  8
0
  6
CONTINUOUS
 10
65.804292
 20
166.392588
 30
0.0
  0
VERTEX
  8
0
  6
CONTINUOUS
 10
65.743567
 20
166.360553
 30
0.0
  0
SEQEND
  8
0
  6
CONTINUOUS
  0
POLYLINE
  8
0
  6
CONTINUOUS
 66
     1
 10
0.0
 20
0.0
 30
0.0
  0
VERTEX
  8
0
  6
CONTINUOUS
 10
64.29286
 20
166.545066
 30
0.0
  0
VERTEX
  8
0
  6
CONTINUOUS
 10
64.303109
 20
166.538458
 30
0.0
  0
VERTEX
  8
0
  6
CONTINUOUS
 10
64.321263
 20
166.527347
 30
0.0
  0
VERTEX
  8
0
  6
CONTINUOUS
 10
64.395448
 20
166.485634
 30
0.0
  0
VERTEX
  8
0
  6
CONTINUOUS
 10
64.556313
 20
166.406862
 30
0.0
  0
SEQEND
  8
0
  6
CONTINUOUS
  0
LINE
  8
0
  6
CONTINUOUS
 10
52.829432
 20
202.728158
 30
0.0
 11
62.997143
 21
196.895337
 31
0.0
  0
LINE
  8
0
  6
CONTINUOUS
 10
60.254317
 20
198.469453
 30
0.0
 11
60.254317
 21
198.468741
 31
0.0
  0
LINE
  8
0
  6
CONTINUOUS
 10
79.557869
 20
205.6491
 30
0.0
 11
64.00213
 21
196.725489
 31
0.0
  0
LINE
  8
0
  6
CONTINUOUS
 10
52.829432
 20
202.728158
 30
0.0
 11
63.295023
 21
196.725473
 31
0.0
  0
LINE
  8
0
  6
CONTINUOUS
 10
55.834726
 20
201.00437
 30
0.0
 11
55.834726
 21
201.004082
 31
0.0
  0
LINE
  8
0
  6
CONTINUOUS
 10
58.132914
 20
199.685705
 30
0.0
 11
58.132914
 21
199.686213
 31
0.0
  0
LINE
  8
0
  6
CONTINUOUS
 10
54.06689
 20
202.018338
 30
0.0
 11
54.06689
 21
202.018219
 31
0.0
  0
LINE
  8
0
  6
CONTINUOUS
 10
55.481159
 20
201.20691
 30
0.0
 11
55.481159
 21
201.207164
 31
0.0
  0
LINE
  8
0
  6
CONTINUOUS
 10
58.486481
 20
199.48342
 30
0.0
 11
58.486481
 21
199.482878
 31
0.0
  0
LINE
  8
0
  6
CONTINUOUS
 10
59.90075
 20
198.671568
 30
0.0
 11
59.90075
 21
198.672246
 31
0.0
  0
LINE
  8
0
  6
CONTINUOUS
 10
79.557869
 20
205.6491
 30
0.0
 11
79.557869
 21
206.017708
 31
0.0
  0
LINE
  8
0
  6
CONTINUOUS
 10
71.92101
 20
211.285865
 30
0.0
 11
71.817453
 21
211.345261
 31
0.0
  0
LINE
  8
0
  6
CONTINUOUS
 10
79.381085
 20
206.323887
 30
0.0
 11
63.825347
 21
197.400276
 31
0.0
  0
LINE
  8
0
  6
CONTINUOUS
 10
79.557869
 20
206.017708
 30
0.0
 11
64.00213
 21
197.094097
 31
0.0
  0
LINE
  8
0
  6
CONTINUOUS
 10
63.295023
 20
196.725473
 30
0.0
 11
63.295023
 21
197.094081
 31
0.0
  0
LINE
  8
0
  6
CONTINUOUS
 10
64.00213
 20
196.725489
 30
0.0
 11
64.00213
 21
197.094097
 31
0.0
  0
LINE
  8
0
  6
CONTINUOUS
 10
52.829432
 20
202.728158
 30
0.0
 11
52.829432
 21
203.096766
 31
0.0
  0
LINE
  8
0
  6
CONTINUOUS
 10
52.829432
 20
203.096766
 30
0.0
 11
63.295023
 21
197.094081
 31
0.0
  0
LINE
  8
0
  6
CONTINUOUS
 10
53.006202
 20
203.402953
 30
0.0
 11
63.471793
 21
197.400268
 31
0.0
  0
LINE
  8
0
  6
CONTINUOUS
 10
72.97119
 20
210.203164
 30
0.0
 11
79.381071
 21
206.526688
 31
0.0
  0
LINE
  8
0
  6
CONTINUOUS
 10
61.314825
 20
205.201585
 30
0.0
 11
71.92101
 21
211.285865
 31
0.0
  0
LINE
  8
0
  6
CONTINUOUS
 10
59.759129
 20
206.093876
 30
0.0
 11
55.657748
 21
208.446279
 31
0.0
  0
LINE
  8
0
  6
CONTINUOUS
 10
61.314825
 20
205.201585
 30
0.0
 11
61.138041
 21
205.302981
 31
0.0
  0
LINE
  8
0
  6
CONTINUOUS
 10
55.657748
 20
208.446279
 30
0.0
 11
55.47012
 21
208.338646
 31
0.0
  0
LINE
  8
0
  6
CONTINUOUS
 10
54.581823
 20
204.306815
 30
0.0
 11
53.006202
 21
203.402953
 31
0.0
  0
LINE
  8
0
  6
CONTINUOUS
 10
55.120021
 20
207.785246
 30
0.0
 11
54.756873
 21
204.583515
 31
0.0
  0
LINE
  8
0
  6
CONTINUOUS
 10
71.74424
 20
252.140925
 30
0.0
 11
61.491594
 21
246.259455
 31
0.0
  0
LINE
  8
0
  6
CONTINUOUS
 10
61.491594
 20
205.302989
 30
0.0
 11
61.491594
 21
246.259455
 31
0.0
  0
LINE
  8
0
  6
CONTINUOUS
 10
71.74424
 20
211.18446
 30
0.0
 11
71.74424
 21
252.140925
 31
0.0
  0
LINE
  8
0
  6
CONTINUOUS
 10
61.138041
 20
205.302981
 30
0.0
 11
61.138041
 21
246.259447
 31
0.0
  0
LINE
  8
0
  6
CONTINUOUS
 10
61.138041
 20
246.259447
 30
0.0
 11
59.759129
 21
247.050341
 31
0.0
  0
LINE
  8
0
  6
CONTINUOUS
 10
59.759129
 20
206.093876
 30
0.0
 11
59.759129
 21
247.050341
 31
0.0
  0
LINE
  8
0
  6
CONTINUOUS
 10
59.759129
 20
206.093876
 30
0.0
 11
61.138041
 21
205.302981
 31
0.0
  0
LINE
  8
0
  6
CONTINUOUS
 10
59.759115
 20
247.253142
 30
0.0
 11
60.519225
 21
247.689182
 31
0.0
  0
LINE
  8
0
  6
CONTINUOUS
 10
60.978862
 20
247.26329
 30
0.0
 11
60.978862
 21
247.425551
 31
0.0
  0
LINE
  8
0
  6
CONTINUOUS
 10
60.978862
 20
247.425551
 30
0.0
 11
60.589969
 21
247.202461
 31
0.0
  0
LINE
  8
0
  6
CONTINUOUS
 10
60.589969
 20
247.101049
 30
0.0
 11
60.589969
 21
247.202461
 31
0.0
  0
LINE
  8
0
  6
CONTINUOUS
 10
60.589976
 20
247.10106
 30
0.0
 11
61.138005
 21
246.78673
 31
0.0
  0
LINE
  8
0
  6
CONTINUOUS
 10
61.491558
 20
246.786738
 30
0.0
 11
70.825001
 21
252.140905
 31
0.0
  0
LINE
  8
0
  6
CONTINUOUS
 10
70.824987
 20
252.14088
 30
0.0
 11
70.824987
 21
252.343706
 31
0.0
  0
LINE
  8
0
  6
CONTINUOUS
 10
70.824987
 20
252.343706
 30
0.0
 11
70.36535
 21
252.607337
 31
0.0
  0
LINE
  8
0
  6
CONTINUOUS
 10
70.36535
 20
252.566761
 30
0.0
 11
70.36535
 21
252.607337
 31
0.0
  0
LINE
  8
0
  6
CONTINUOUS
 10
70.011797
 20
252.445069
 30
0.0
 11
70.011797
 21
252.607329
 31
0.0
  0
LINE
  8
0
  6
CONTINUOUS
 10
70.011797
 20
252.607329
 30
0.0
 11
69.835027
 21
252.505925
 31
0.0
  0
LINE
  8
0
  6
CONTINUOUS
 10
69.835027
 20
252.343664
 30
0.0
 11
69.835027
 21
252.505925
 31
0.0
  0
LINE
  8
0
  6
CONTINUOUS
 10
69.375389
 20
252.769556
 30
0.0
 11
70.011761
 21
253.134613
 31
0.0
  0
LINE
  8
0
  6
CONTINUOUS
 10
70.365314
 20
253.134621
 30
0.0
 11
71.744226
 21
252.343727
 31
0.0
  0
LINE
  8
0
  6
CONTINUOUS
 10
62.179147
 20
251.377218
 30
0.0
 11
62.179147
 21
252.151248
 31
0.0
  0
LINE
  8
0
  6
CONTINUOUS
 10
61.472847
 20
251.746076
 30
0.0
 11
65.390326
 21
249.700828
 31
0.0
  0
LINE
  8
0
  6
CONTINUOUS
 10
65.415844
 20
249.037917
 30
0.0
 11
65.415844
 21
249.078482
 31
0.0
  0
LINE
  8
0
  6
CONTINUOUS
 10
65.415844
 20
249.078482
 30
0.0
 11
65.11469
 21
248.905724
 31
0.0
  0
LINE
  8
0
  6
CONTINUOUS
 10
65.11469
 20
248.865159
 30
0.0
 11
65.11469
 21
248.905724
 31
0.0
  0
LINE
  8
0
  6
CONTINUOUS
 10
64.655053
 20
249.169355
 30
0.0
 11
64.845044
 21
249.278345
 31
0.0
  0
LINE
  8
0
  6
CONTINUOUS
 10
64.836538
 20
249.273448
 30
0.0
 11
64.836538
 21
249.485793
 31
0.0
  0
LINE
  8
0
  6
CONTINUOUS
 10
64.836538
 20
249.485793
 30
0.0
 11
60.801588
 21
251.592372
 31
0.0
  0
LINE
  8
0
  6
CONTINUOUS
 10
60.801588
 20
248.227512
 30
0.0
 11
60.801588
 21
251.592372
 31
0.0
  0
LINE
  8
0
  6
CONTINUOUS
 10
60.456527
 20
248.175025
 30
0.0
 11
60.456527
 21
251.587716
 31
0.0
  0
LINE
  8
0
  6
CONTINUOUS
 10
60.456527
 20
251.587716
 30
0.0
 11
56.965883
 21
249.585295
 31
0.0
  0
LINE
  8
0
  6
CONTINUOUS
 10
56.965883
 20
249.179649
 30
0.0
 11
56.965883
 21
249.585295
 31
0.0
  0
LINE
  8
0
  6
CONTINUOUS
 10
56.965911
 20
249.179692
 30
0.0
 11
59.228742
 21
247.881815
 31
0.0
  0
LINE
  8
0
  6
CONTINUOUS
 10
59.935848
 20
247.881831
 30
0.0
 11
60.39545
 21
248.145483
 31
0.0
  0
LINE
  8
0
  6
CONTINUOUS
 10
61.102557
 20
248.145499
 30
0.0
 11
62.027301
 21
247.615099
 31
0.0
  0
LINE
  8
0
  6
CONTINUOUS
 10
61.758368
 20
246.939786
 30
0.0
 11
61.758368
 21
247.039293
 31
0.0
  0
LINE
  8
0
  6
CONTINUOUS
 10
61.758368
 20
247.039293
 30
0.0
 11
61.061278
 21
246.932134
 31
0.0
  0
LINE
  8
0
  6
CONTINUOUS
 10
61.061278
 20
246.830723
 30
0.0
 11
61.061278
 21
246.932134
 31
0.0
  0
LINE
  8
0
  6
CONTINUOUS
 10
60.81978
 20
247.172046
 30
0.0
 11
61.279382
 21
247.435698
 31
0.0
  0
LINE
  8
0
  6
CONTINUOUS
 10
61.279376
 20
247.435688
 30
0.0
 11
61.279376
 21
247.516818
 31
0.0
  0
LINE
  8
0
  6
CONTINUOUS
 10
61.279376
 20
247.516818
 30
0.0
 11
60.819739
 21
247.78045
 31
0.0
  0
LINE
  8
0
  6
CONTINUOUS
 10
60.819739
 20
247.739305
 30
0.0
 11
60.819739
 21
247.78045
 31
0.0
  0
LINE
  8
0
  6
CONTINUOUS
 10
60.678317
 20
247.739301
 30
0.0
 11
60.678317
 21
247.780447
 31
0.0
  0
LINE
  8
0
  6
CONTINUOUS
 10
60.678317
 20
247.780447
 30
0.0
 11
60.519225
 21
247.689182
 31
0.0
  0
LINE
  8
0
  6
CONTINUOUS
 10
59.405561
 20
206.296669
 30
0.0
 11
59.405561
 21
247.253134
 31
0.0
  0
LINE
  8
0
  6
CONTINUOUS
 10
59.405561
 20
247.253134
 30
0.0
 11
55.869889
 21
249.281068
 31
0.0
  0
LINE
  8
0
  6
CONTINUOUS
 10
55.869889
 20
208.324603
 30
0.0
 11
55.869889
 21
249.281068
 31
0.0
  0
LINE
  8
0
  6
CONTINUOUS
 10
55.869889
 20
208.324603
 30
0.0
 11
59.405561
 21
206.296669
 31
0.0
  0
LINE
  8
0
  6
CONTINUOUS
 10
55.869875
 20
249.48387
 30
0.0
 11
66.122521
 21
255.365341
 31
0.0
  0
LINE
  8
0
  6
CONTINUOUS
 10
66.476074
 20
255.365349
 30
0.0
 11
70.011747
 21
253.337414
 31
0.0
  0
LINE
  8
0
  6
CONTINUOUS
 10
69.375389
 20
252.769556
 30
0.0
 11
69.092558
 21
252.607309
 31
0.0
  0
LINE
  8
0
  6
CONTINUOUS
 10
69.092558
 20
252.52618
 30
0.0
 11
69.092558
 21
252.607309
 31
0.0
  0
LINE
  8
0
  6
CONTINUOUS
 10
69.092563
 20
252.526188
 30
0.0
 11
69.552201
 21
252.262557
 31
0.0
  0
LINE
  8
0
  6
CONTINUOUS
 10
69.693622
 20
252.26256
 30
0.0
 11
70.153224
 21
252.526212
 31
0.0
  0
LINE
  8
0
  6
CONTINUOUS
 10
70.571491
 20
251.995445
 30
0.0
 11
70.571491
 21
252.387706
 31
0.0
  0
LINE
  8
0
  6
CONTINUOUS
 10
70.571491
 20
252.387706
 30
0.0
 11
70.384732
 21
251.98784
 31
0.0
  0
LINE
  8
0
  6
CONTINUOUS
 10
70.384732
 20
251.888334
 30
0.0
 11
70.384732
 21
251.98784
 31
0.0
  0
LINE
  8
0
  6
CONTINUOUS
 10
69.380923
 20
251.31246
 30
0.0
 11
69.380923
 21
251.833533
 31
0.0
  0
LINE
  8
0
  6
CONTINUOUS
 10
69.380923
 20
251.833533
 30
0.0
 11
68.456178
 21
252.363933
 31
0.0
  0
LINE
  8
0
  6
CONTINUOUS
 10
68.456178
 20
250.781889
 30
0.0
 11
68.456178
 21
252.363933
 31
0.0
  0
LINE
  8
0
  6
CONTINUOUS
 10
68.456151
 20
252.769536
 30
0.0
 11
68.915752
 21
253.033188
 31
0.0
  0
LINE
  8
0
  6
CONTINUOUS
 10
68.915724
 20
253.033138
 30
0.0
 11
68.915724
 21
253.43879
 31
0.0
  0
LINE
  8
0
  6
CONTINUOUS
 10
68.915724
 20
253.43879
 30
0.0
 11
66.652894
 21
254.736668
 31
0.0
  0
LINE
  8
0
  6
CONTINUOUS
 10
66.652894
 20
250.315057
 30
0.0
 11
66.652894
 21
254.736668
 31
0.0
  0
LINE
  8
0
  6
CONTINUOUS
 10
65.945787
 20
250.331018
 30
0.0
 11
65.945787
 21
254.736652
 31
0.0
  0
LINE
  8
0
  6
CONTINUOUS
 10
65.945787
 20
254.736652
 30
0.0
 11
62.455144
 21
252.734231
 31
0.0
  0
LINE
  8
0
  6
CONTINUOUS
 10
62.455144
 20
252.531173
 30
0.0
 11
62.455144
 21
252.734231
 31
0.0
  0
LINE
  8
0
  6
CONTINUOUS
 10
62.447055
 20
252.536301
 30
0.0
 11
66.119871
 21
250.221982
 31
0.0
  0
LINE
  8
0
  6
CONTINUOUS
 10
66.481527
 20
250.21712
 30
0.0
 11
66.678054
 21
250.329858
 31
0.0
  0
LINE
  8
0
  6
CONTINUOUS
 10
67.137692
 20
250.025662
 30
0.0
 11
67.137692
 21
250.066227
 31
0.0
  0
LINE
  8
0
  6
CONTINUOUS
 10
67.137692
 20
250.066227
 30
0.0
 11
66.830002
 21
249.889719
 31
0.0
  0
LINE
  8
0
  6
CONTINUOUS
 10
66.830002
 20
249.849154
 30
0.0
 11
66.830002
 21
249.889719
 31
0.0
  0
LINE
  8
0
  6
CONTINUOUS
 10
65.745034
 20
249.226705
 30
0.0
 11
65.745034
 21
249.904308
 31
0.0
  0
LINE
  8
0
  6
CONTINUOUS
 10
65.745034
 20
249.904308
 30
0.0
 11
62.179147
 21
252.151248
 31
0.0
  0
LINE
  8
0
  6
CONTINUOUS
 10
53.716253
 20
202.21939
 30
0.0
 11
53.716253
 21
202.219305
 31
0.0
  0
LINE
  8
0
  6
CONTINUOUS
 10
79.704301
 20
205.851893
 30
0.0
 11
79.704301
 21
206.220501
 31
0.0
  0
LINE
  8
0
  6
CONTINUOUS
 10
79.505455
 20
206.538767
 30
0.0
 11
72.947661
 21
210.300081
 31
0.0
  0
LINE
  8
0
  6
CONTINUOUS
 10
59.685898
 20
247.151746
 30
0.0
 11
59.685898
 21
206.135878
 31
0.0
  0
LINE
  8
0
  6
CONTINUOUS
 10
61.074043
 20
247.317885
 30
0.0
 11
61.074043
 21
247.557367
 31
0.0
  0
LINE
  8
0
  6
CONTINUOUS
 10
69.280208
 20
252.637741
 30
0.0
 11
69.280208
 21
252.41853
 31
0.0
  0
LINE
  8
0
  6
CONTINUOUS
 10
71.817457
 20
211.285857
 30
0.0
 11
71.817457
 21
252.242322
 31
0.0
  0
LINE
  8
0
  6
CONTINUOUS
 10
65.635493
 20
249.163905
 30
0.0
 11
65.635493
 21
249.382672
 31
0.0
  0
LINE
  8
0
  6
CONTINUOUS
 10
64.559871
 20
249.03754
 30
0.0
 11
64.559871
 21
248.546847
 31
0.0
  0
LINE
  8
0
  6
CONTINUOUS
 10
62.203054
 20
247.194876
 30
0.0
 11
62.203054
 21
247.371727
 31
0.0
  0
LINE
  8
0
  6
CONTINUOUS
 10
60.746564
 20
247.070649
 30
0.0
 11
60.746564
 21
247.011238
 31
0.0
  0
LINE
  8
0
  6
CONTINUOUS
 10
55.796658
 20
249.382473
 30
0.0
 11
55.796658
 21
208.426008
 31
0.0
  0
LINE
  8
0
  6
CONTINUOUS
 10
70.084977
 20
253.163606
 30
0.0
 11
70.084977
 21
253.23601
 31
0.0
  0
LINE
  8
0
  6
CONTINUOUS
 10
70.580007
 20
252.000327
 30
0.0
 11
70.580007
 21
252.424815
 31
0.0
  0
LINE
  8
0
  6
CONTINUOUS
 10
68.309718
 20
252.566742
 30
0.0
 11
68.309718
 21
250.697847
 31
0.0
  0
LINE
  8
0
  6
CONTINUOUS
 10
67.232873
 20
250.080256
 30
0.0
 11
67.232873
 21
250.198042
 31
0.0
  0
LINE
  8
0
  6
CONTINUOUS
 10
52.829432
 20
202.728158
 30
0.0
 11
48.417337
 21
200.224715
 31
0.0
  0
LINE
  8
0
  6
CONTINUOUS
 10
87.006843
 20
204.28137
 30
0.0
 11
71.817457
 21
212.79281
 31
0.0
  0
LINE
  8
0
  6
CONTINUOUS
 10
86.634379
 20
204.193441
 30
0.0
 11
71.817457
 21
212.539864
 31
0.0
  0
LINE
  8
0
  6
CONTINUOUS
 10
64.627651
 20
191.754104
 30
0.0
 11
48.417337
 21
200.224715
 31
0.0
  0
LINE
  8
0
  6
CONTINUOUS
 10
64.248467
 20
191.14301
 30
0.0
 11
48.000254
 21
199.65668
 31
0.0
  0
LINE
  8
0
  6
CONTINUOUS
 10
69.925506
 20
181.910321
 30
0.0
 11
76.5267
 21
179.066791
 31
0.0
  0
LINE
  8
0
  6
CONTINUOUS
 10
79.663983
 20
184.535778
 30
0.0
 11
73.209843
 21
187.99323
 31
0.0
  0
LINE
  8
0
  6
CONTINUOUS
 10
72.707515
 20
187.70288
 30
0.0
 11
73.209843
 21
187.99323
 31
0.0
  0
LINE
  8
0
  6
CONTINUOUS
 10
72.707515
 20
187.70288
 30
0.0
 11
79.425485
 21
184.104097
 31
0.0
  0
LINE
  8
0
  6
CONTINUOUS
 10
69.700814
 20
186.019353
 30
0.0
 11
78.78843
 21
181.683383
 31
0.0
  0
LINE
  8
0
  6
CONTINUOUS
 10
72.008316
 20
190.782823
 30
0.0
 11
72.008316
 21
188.859387
 31
0.0
  0
LINE
  8
0
  6
CONTINUOUS
 10
77.161072
 20
179.433539
 30
0.0
 11
69.925506
 21
182.550332
 31
0.0
  0
LINE
  8
0
  6
CONTINUOUS
 10
69.925506
 20
182.550332
 30
0.0
 11
69.925506
 21
181.910321
 31
0.0
  0
LINE
  8
0
  6
CONTINUOUS
 10
69.700833
 20
185.239796
 30
0.0
 11
78.453749
 21
181.06352
 31
0.0
  0
LINE
  8
0
  6
CONTINUOUS
 10
72.510644
 20
189.149736
 30
0.0
 11
72.510644
 21
191.073172
 31
0.0
  0
LINE
  8
0
  6
CONTINUOUS
 10
72.008316
 20
188.859387
 30
0.0
 11
72.510644
 21
189.149736
 31
0.0
  0
LINE
  8
0
  6
CONTINUOUS
 10
77.229519
 20
180.157732
 30
0.0
 11
77.229519
 21
179.944395
 31
0.0
  0
LINE
  8
0
  6
CONTINUOUS
 10
77.370295
 20
179.61783
 30
0.0
 11
77.415893
 21
179.581155
 31
0.0
  0
LINE
  8
0
  6
CONTINUOUS
 10
77.933398
 20
179.804929
 30
0.0
 11
77.370295
 21
180.257841
 31
0.0
  0
LINE
  8
0
  6
CONTINUOUS
 10
81.178972
 20
182.006464
 30
0.0
 11
80.159768
 21
180.1188
 31
0.0
  0
LINE
  8
0
  6
CONTINUOUS
 10
81.178972
 20
182.006464
 30
0.0
 11
79.508194
 21
182.792119
 31
0.0
  0
LINE
  8
0
  6
CONTINUOUS
 10
78.48899
 20
180.904455
 30
0.0
 11
79.508194
 21
182.792119
 31
0.0
  0
LINE
  8
0
  6
CONTINUOUS
 10
78.48899
 20
180.904455
 30
0.0
 11
80.159768
 21
180.1188
 31
0.0
  0
LINE
  8
0
  6
CONTINUOUS
 10
71.586912
 20
171.718526
 30
0.0
 11
80.988845
 21
177.152912
 31
0.0
  0
LINE
  8
0
  6
CONTINUOUS
 10
80.250762
 20
186.42064
 30
0.0
 11
79.508194
 21
186.998474
 31
0.0
  0
LINE
  8
0
  6
CONTINUOUS
 10
80.250762
 20
194.001757
 30
0.0
 11
80.250762
 21
195.548396
 31
0.0
  0
LINE
  8
0
  6
CONTINUOUS
 10
79.508194
 20
194.122283
 30
0.0
 11
80.250762
 21
194.001757
 31
0.0
  0
LINE
  8
0
  6
CONTINUOUS
 10
79.508194
 20
194.122283
 30
0.0
 11
79.508194
 21
191.905222
 31
0.0
  0
LINE
  8
0
  6
CONTINUOUS
 10
80.250762
 20
191.327388
 30
0.0
 11
79.508194
 21
191.905222
 31
0.0
  0
LINE
  8
0
  6
CONTINUOUS
 10
80.250762
 20
189.095009
 30
0.0
 11
80.250762
 21
191.327388
 31
0.0
  0
LINE
  8
0
  6
CONTINUOUS
 10
79.508194
 20
189.215536
 30
0.0
 11
80.250762
 21
189.095009
 31
0.0
  0
LINE
  8
0
  6
CONTINUOUS
 10
79.508194
 20
189.215536
 30
0.0
 11
79.508194
 21
186.998474
 31
0.0
  0
LINE
  8
0
  6
CONTINUOUS
 10
80.250762
 20
184.188262
 30
0.0
 11
80.250762
 21
186.42064
 31
0.0
  0
LINE
  8
0
  6
CONTINUOUS
 10
79.508194
 20
184.308788
 30
0.0
 11
80.250762
 21
184.188262
 31
0.0
  0
LINE
  8
0
  6
CONTINUOUS
 10
79.508194
 20
182.792119
 30
0.0
 11
79.508194
 21
184.308788
 31
0.0
  0
LINE
  8
0
  6
CONTINUOUS
 10
81.178972
 20
196.085029
 30
0.0
 11
81.178972
 21
182.006464
 31
0.0
  0
LINE
  8
0
  6
CONTINUOUS
 10
80.159768
 20
180.1188
 30
0.0
 11
69.701648
 21
174.07393
 31
0.0
  0
LINE
  8
0
  6
CONTINUOUS
 10
77.370295
 20
180.257841
 30
0.0
 11
78.48899
 21
180.904455
 31
0.0
  0
LINE
  8
0
  6
CONTINUOUS
 10
69.701591
 20
175.046884
 30
0.0
 11
77.933398
 21
179.804929
 31
0.0
  0
LINE
  8
0
  6
CONTINUOUS
 10
80.168178
 20
189.480296
 30
0.0
 11
80.010523
 21
189.505885
 31
0.0
  0
LINE
  8
0
  6
CONTINUOUS
 10
79.657438
 20
189.439233
 30
0.0
 11
79.489995
 21
189.34245
 31
0.0
  0
LINE
  8
0
  6
CONTINUOUS
 10
80.168178
 20
184.573548
 30
0.0
 11
80.010523
 21
184.599137
 31
0.0
  0
LINE
  8
0
  6
CONTINUOUS
 10
79.657438
 20
184.532486
 30
0.0
 11
79.489995
 21
184.435703
 31
0.0
  0
LINE
  8
0
  6
CONTINUOUS
 10
80.168178
 20
194.387043
 30
0.0
 11
80.010523
 21
194.412632
 31
0.0
  0
LINE
  8
0
  6
CONTINUOUS
 10
79.657438
 20
194.345981
 30
0.0
 11
79.489995
 21
194.249198
 31
0.0
  0
LINE
  8
0
  6
CONTINUOUS
 10
81.885142
 20
196.493248
 30
0.0
 11
81.885142
 21
181.848706
 31
0.0
  0
LINE
  8
0
  6
CONTINUOUS
 10
81.885142
 20
181.848706
 30
0.0
 11
80.669766
 21
179.597714
 31
0.0
  0
LINE
  8
0
  6
CONTINUOUS
 10
80.669766
 20
179.597714
 30
0.0
 11
69.70167
 21
173.258074
 31
0.0
  0
LINE
  8
0
  6
CONTINUOUS
 10
70.658186
 20
171.997584
 30
0.0
 11
80.28547
 21
177.562225
 31
0.0
  0
LINE
  8
0
  6
CONTINUOUS
 10
69.70185
 20
189.238267
 30
0.0
 11
69.70185
 21
170.037951
 31
0.0
  0
LINE
  8
0
  6
CONTINUOUS
 10
69.869293
 20
189.548387
 30
0.0
 11
84.939135
 21
198.258866
 31
0.0
  0
LINE
  8
0
  6
CONTINUOUS
 10
85.106578
 20
198.142312
 30
0.0
 11
85.106578
 21
178.941995
 31
0.0
  0
LINE
  8
0
  6
CONTINUOUS
 10
69.869293
 20
169.921397
 30
0.0
 11
84.939135
 21
178.631876
 31
0.0
  0
LINE
  8
0
  6
CONTINUOUS
 10
85.106578
 20
178.941995
 30
0.0
 11
84.475395
 21
179.238799
 31
0.0
  0
LINE
  8
0
  6
CONTINUOUS
 10
84.903084
 20
198.238001
 30
0.0
 11
85.106578
 21
198.142312
 31
0.0
  0
LINE
  8
0
  6
CONTINUOUS
 10
84.475395
 20
197.990738
 30
0.0
 11
84.475395
 21
179.238799
 31
0.0
  0
LINE
  8
0
  6
CONTINUOUS
 10
71.749751
 20
171.669946
 30
0.0
 11
81.796312
 21
177.476932
 31
0.0
  0
LINE
  8
0
  6
CONTINUOUS
 10
72.511063
 20
189.122847
 30
0.0
 11
80.168007
 21
185.458619
 31
0.0
  0
LINE
  8
0
  6
CONTINUOUS
 10
72.551451
 20
188.855832
 30
0.0
 11
80.168021
 21
185.210925
 31
0.0
  0
LINE
  8
0
  6
CONTINUOUS
 10
75.798558
 20
178.645913
 30
0.0
 11
69.700989
 21
181.452041
 31
0.0
  0
LINE
  8
0
  6
CONTINUOUS
 10
75.510904
 20
178.47961
 30
0.0
 11
69.700989
 21
181.153358
 31
0.0
  0
LINE
  8
0
  6
CONTINUOUS
 10
74.789366
 20
178.062566
 30
0.0
 11
69.701038
 21
180.404237
 31
0.0
  0
LINE
  8
0
  6
CONTINUOUS
 10
69.701119
 20
179.013472
 30
0.0
 11
73.449825
 21
177.288301
 31
0.0
  0
LINE
  8
0
  6
CONTINUOUS
 10
73.367638
 20
177.240786
 30
0.0
 11
69.701119
 21
178.928134
 31
0.0
  0
LINE
  8
0
  6
CONTINUOUS
 10
84.939135
 20
178.631876
 30
0.0
 11
84.307952
 21
178.928679
 31
0.0
  0
LINE
  8
0
  6
CONTINUOUS
 10
81.796312
 20
177.476932
 30
0.0
 11
79.797894
 21
178.377987
 31
0.0
  0
LINE
  8
0
  6
CONTINUOUS
 10
81.796312
 20
177.476932
 30
0.0
 11
84.307952
 21
178.928679
 31
0.0
  0
LINE
  8
0
  6
CONTINUOUS
 10
79.797894
 20
177.846642
 30
0.0
 11
79.797894
 21
178.377987
 31
0.0
  0
LINE
  8
0
  6
CONTINUOUS
 10
79.809813
 20
177.83911
 30
0.0
 11
81.112154
 21
177.081387
 31
0.0
  0
LINE
  8
0
  6
CONTINUOUS
 10
71.749751
 20
171.669946
 30
0.0
 11
69.701812
 21
170.486223
 31
0.0
  0
LINE
  8
0
  6
CONTINUOUS
 10
69.869293
 20
169.921397
 30
0.0
 11
69.705156
 21
169.998579
 31
0.0
  0
LINE
  8
0
  6
CONTINUOUS
 10
71.749751
 20
171.669946
 30
0.0
 11
69.701697
 21
172.285136
 31
0.0
  0
LINE
  8
0
  6
CONTINUOUS
 10
79.425636
 20
182.863714
 30
0.0
 11
78.371978
 21
180.912238
 31
0.0
  0
LINE
  8
0
  6
CONTINUOUS
 10
78.381999
 20
180.918034
 30
0.0
 11
77.275424
 21
180.278425
 31
0.0
  0
LINE
  8
0
  6
CONTINUOUS
 10
79.425637
 20
194.176618
 30
0.0
 11
79.425637
 21
192.044452
 31
0.0
  0
LINE
  8
0
  6
CONTINUOUS
 10
79.425637
 20
189.269871
 30
0.0
 11
79.425637
 21
187.137705
 31
0.0
  0
LINE
  8
0
  6
CONTINUOUS
 10
80.168205
 20
186.484871
 30
0.0
 11
80.168205
 21
184.242597
 31
0.0
  0
LINE
  8
0
  6
CONTINUOUS
 10
80.168205
 20
191.391618
 30
0.0
 11
80.168205
 21
189.149345
 31
0.0
  0
LINE
  8
0
  6
CONTINUOUS
 10
80.168205
 20
195.500659
 30
0.0
 11
80.168205
 21
194.056092
 31
0.0
  0
LINE
  8
0
  6
CONTINUOUS
 10
79.425637
 20
184.363123
 30
0.0
 11
79.425637
 21
182.859721
 31
0.0
  0
LINE
  8
0
  6
CONTINUOUS
 10
77.838527
 20
179.825513
 30
0.0
 11
69.701584
 21
175.1223
 31
0.0
  0
LINE
  8
0
  6
CONTINUOUS
 10
79.730879
 20
178.39326
 30
0.0
 11
79.730879
 21
178.009632
 31
0.0
  0
LINE
  8
0
  6
CONTINUOUS
 10
88.324802
 20
201.110332
 30
0.0
 11
88.324802
 21
179.89713
 31
0.0
  0
LINE
  8
0
  6
CONTINUOUS
 10
88.528856
 20
201.411007
 30
0.0
 11
88.528262
 21
180.322666
 31
0.0
  0
LINE
  8
0
  6
CONTINUOUS
 10
66.251657
 20
167.358976
 30
0.0
 11
66.251657
 21
188.671742
 31
0.0
  0
LINE
  8
0
  6
CONTINUOUS
 10
65.614553
 20
188.684598
 30
0.0
 11
65.614553
 21
167.136675
 31
0.0
  0
LINE
  8
0
  6
CONTINUOUS
 10
47.983916
 20
187.41303
 30
0.0
 11
48.000254
 21
199.65668
 31
0.0
  0
LINE
  8
0
  6
CONTINUOUS
 10
47.983916
 20
187.41303
 30
0.0
 11
48.342004
 21
187.165207
 31
0.0
  0
LINE
  8
0
  6
CONTINUOUS
 10
48.342004
 20
184.855691
 30
0.0
 11
48.342004
 21
187.165207
 31
0.0
  0
LINE
  8
0
  6
CONTINUOUS
 10
48.339091
 20
185.277797
 30
0.0
 11
48.000254
 21
185.07877
 31
0.0
  0
LINE
  8
0
  6
CONTINUOUS
 10
48.000254
 20
185.07877
 30
0.0
 11
48.000254
 21
173.504156
 31
0.0
  0
LINE
  8
0
  6
CONTINUOUS
 10
48.000254
 20
185.07877
 30
0.0
 11
48.342004
 21
184.855691
 31
0.0
  0
ARC
  8
0
  6
CONTINUOUS
 10
48.962946
 20
199.386676
 30
0.0
 40
1.0
 50
123.066334
 51
164.301007
  0
ENDSEC
  0
EOF
