  0
SECTION
  2
HEADER
  9
$ACADVER
  1
AC1009
  9
$INSBASE
 10
0.0
 20
0.0
 30
0.0
  9
$EXTMIN
 10
25.0
 20
112.451197
 30
0.0
  9
$EXTMAX
 10
101.224952
 20
169.829615
 30
0.0
  9
$LIMMIN
 10
25.0
 20
112.451197
  9
$LIMMAX
 10
101.224952
 20
169.829615
  9
$ORTHOMODE
 70
     0
  9
$REGENMODE
 70
     1
  9
$FILLMODE
 70
     1
  9
$QTEXTMODE
 70
     0
  9
$MIRRTEXT
 70
     1
  9
$DRAGMODE
 70
     2
  9
$LTSCALE
 40
1.0
  9
$OSMODE
 70
     0
  9
$ATTMODE
 70
     1
  9
$TEXTSIZE
 40
3.5
  9
$TRACEWID
 40
0.5
  9
$TEXTSTYLE
  7
STANDARD
  9
$CLAYER
  8
0
  9
$CELTYPE
  6
BYLAYER
  9
$CECOLOR
 62
   256
  9
$DIMSCALE
 40
1.0
  9
$DIMASZ
 40
0.18
  9
$DIMEXO
 40
0.0625
  9
$DIMDLI
 40
0.38
  9
$DIMRND
 40
0.0
  9
$DIMDLE
 40
0.0
  9
$DIMEXE
 40
0.18
  9
$DIMTP
 40
0.0
  9
$DIMTM
 40
0.0
  9
$DIMTXT
 40
0.18
  9
$DIMCEN
 40
0.09
  9
$DIMTSZ
 40
0.0
  9
$DIMTOL
 70
     0
  9
$DIMLIM
 70
     0
  9
$DIMTIH
 70
     1
  9
$DIMTOH
 70
     1
  9
$DIMSE1
 70
     0
  9
$DIMSE2
 70
     0
  9
$DIMTAD
 70
     0
  9
$DIMZIN
 70
     0
  9
$DIMBLK
  1

  9
$DIMASO
 70
     1
  9
$DIMSHO
 70
     1
  9
$DIMPOST
  1

  9
$DIMAPOST
  1

  9
$DIMALT
 70
     0
  9
$DIMALTD
 70
     2
  9
$DIMALTF
 40
25.4
  9
$DIMLFAC
 40
1.0
  9
$DIMTOFL
 70
     0
  9
$DIMTVP
 40
0.0
  9
$DIMTIX
 70
     0
  9
$DIMSOXD
 70
     0
  9
$DIMSAH
 70
     0
  9
$DIMBLK1
  1

  9
$DIMBLK2
  1

  9
$DIMSTYLE
  2
*UNNAMED
  9
$DIMCLRD
 70
     0
  9
$DIMCLRE
 70
     0
  9
$DIMCLRT
 70
     0
  9
$DIMTFAC
 40
1.0
  9
$DIMGAP
 40
0.09
  9
$LUNITS
 70
     2
  9
$LUPREC
 70
     4
  9
$SKETCHINC
 40
0.1
  9
$FILLETRAD
 40
2.0
  9
$AUNITS
 70
     0
  9
$AUPREC
 70
     0
  9
$MENU
  1
ACAD
  9
$ELEVATION
 40
0.0
  9
$PELEVATION
 40
0.0
  9
$THICKNESS
 40
0.0
  9
$LIMCHECK
 70
     0
  9
$BLIPMODE
 70
     1
  9
$CHAMFERA
 40
0.0
  9
$CHAMFERB
 40
0.0
  9
$SKPOLY
 70
     0
  9
$TDCREATE
 40
2450954.729556712
  9
$TDUPDATE
 40
2450954.729760764
  9
$TDINDWG
 40
0.0001119213
  9
$TDUSRTIMER
 40
0.0001119213
  9
$USRTIMER
 70
     1
  9
$ANGBASE
 50
0.0
  9
$ANGDIR
 70
     0
  9
$PDMODE
 70
     0
  9
$PDSIZE
 40
0.0
  9
$PLINEWID
 40
0.0
  9
$COORDS
 70
     2
  9
$SPLFRAME
 70
     0
  9
$SPLINETYPE
 70
     6
  9
$SPLINESEGS
 70
     8
  9
$ATTDIA
 70
     0
  9
$ATTREQ
 70
     1
  9
$HANDLING
 70
     0
  9
$HANDSEED
  5
0
  9
$SURFTAB1
 70
     6
  9
$SURFTAB2
 70
     6
  9
$SURFTYPE
 70
     6
  9
$SURFU
 70
     6
  9
$SURFV
 70
     6
  9
$UCSNAME
  2

  9
$UCSORG
 10
0.0
 20
0.0
 30
0.0
  9
$UCSXDIR
 10
1.0
 20
0.0
 30
0.0
  9
$UCSYDIR
 10
0.0
 20
1.0
 30
0.0
  9
$PUCSNAME
  2

  9
$PUCSORG
 10
0.0
 20
0.0
 30
0.0
  9
$PUCSXDIR
 10
1.0
 20
0.0
 30
0.0
  9
$PUCSYDIR
 10
0.0
 20
1.0
 30
0.0
  9
$USERI1
 70
     0
  9
$USERI2
 70
     0
  9
$USERI3
 70
     0
  9
$USERI4
 70
     0
  9
$USERI5
 70
     0
  9
$USERR1
 40
0.0
  9
$USERR2
 40
0.0
  9
$USERR3
 40
0.0
  9
$USERR4
 40
0.0
  9
$USERR5
 40
0.0
  9
$WORLDVIEW
 70
     1
  9
$SHADEDGE
 70
     3
  9
$SHADEDIF
 70
    70
  9
$TILEMODE
 70
     1
  9
$MAXACTVP
 70
    16
  9
$PINSBASE
 10
0.0
 20
0.0
 30
0.0
  9
$PLIMCHECK
 70
     0
  9
$PEXTMIN
 10
1.000000E+20
 20
1.000000E+20
 30
1.000000E+20
  9
$PEXTMAX
 10
-1.000000E+20
 20
-1.000000E+20
 30
-1.000000E+20
  9
$PLIMMIN
 10
0.0
 20
0.0
  9
$PLIMMAX
 10
420.0
 20
297.0
  9
$UNITMODE
 70
     0
  9
$VISRETAIN
 70
     0
  9
$PLINEGEN
 70
     0
  9
$PSLTSCALE
 70
     1
  9
$TREEDEPTH
 70
  3020
  9
$DWGCODEPAGE
  3
iso8859-1
  0
ENDSEC
  0
SECTION
  2
TABLES
  0
TABLE
  2
VPORT
 70
     2
  0
VPORT
  2
*ACTIVE
 70
     0
 10
0.0
 20
0.0
 11
1.0
 21
1.0
 12
78.787194
 22
142.714064
 13
0.0
 23
0.0
 14
1.0
 24
1.0
 15
0.0
 25
0.0
 16
0.0
 26
0.0
 36
1.0
 17
0.0
 27
0.0
 37
0.0
 40
90.926105
 41
1.748359
 42
50.0
 43
0.0
 44
0.0
 50
0.0
 51
0.0
 71
     0
 72
   100
 73
     1
 74
     0
 75
     0
 76
     0
 77
     0
 78
     0
  0
ENDTAB
  0
TABLE
  2
LTYPE
 70
     1
  0
LTYPE
  2
CONTINUOUS
 70
    64
  3
Solid line
 72
    65
 73
     0
 40
0.0
  0
ENDTAB
  0
TABLE
  2
LAYER
 70
     1
  0
LAYER
  2
0
 70
    64
 62
     7
  6
CONTINUOUS
  0
ENDTAB
  0
TABLE
  2
STYLE
 70
     1
  0
STYLE
  2
STANDARD
 70
     0
 40
0.0
 41
1.0
 50
0.0
 71
     0
 42
3.5
  3
txt
  4

  0
ENDTAB
  0
TABLE
  2
VIEW
 70
     0
  0
ENDTAB
  0
TABLE
  2
UCS
 70
     0
  0
ENDTAB
  0
TABLE
  2
APPID
 70
     1
  0
APPID
  2
ACAD
 70
    64
  0
ENDTAB
  0
TABLE
  2
DIMSTYLE
 70
     0
  0
ENDTAB
  0
ENDSEC
  0
SECTION
  2
BLOCKS
  0
ENDSEC
  0
SECTION
  2
ENTITIES
  0
POLYLINE
  8
0
  6
CONTINUOUS
 66
     1
 10
0.0
 20
0.0
 30
0.0
  0
VERTEX
  8
0
  6
CONTINUOUS
 10
67.890891
 20
131.929201
 30
0.0
  0
VERTEX
  8
0
  6
CONTINUOUS
 10
67.891443
 20
131.929372
 30
0.0
  0
VERTEX
  8
0
  6
CONTINUOUS
 10
67.891917
 20
131.92952
 30
0.0
  0
VERTEX
  8
0
  6
CONTINUOUS
 10
67.892396
 20
131.92967
 30
0.0
  0
VERTEX
  8
0
  6
CONTINUOUS
 10
67.892839
 20
131.929808
 30
0.0
  0
VERTEX
  8
0
  6
CONTINUOUS
 10
67.893127
 20
131.929898
 30
0.0
  0
VERTEX
  8
0
  6
CONTINUOUS
 10
67.893295
 20
131.92995
 30
0.0
  0
VERTEX
  8
0
  6
CONTINUOUS
 10
67.893305
 20
131.929953
 30
0.0
  0
SEQEND
  8
0
  6
CONTINUOUS
  0
POLYLINE
  8
0
  6
CONTINUOUS
 66
     1
 10
0.0
 20
0.0
 30
0.0
  0
VERTEX
  8
0
  6
CONTINUOUS
 10
64.718988
 20
131.159038
 30
0.0
  0
VERTEX
  8
0
  6
CONTINUOUS
 10
64.746133
 20
131.147055
 30
0.0
  0
VERTEX
  8
0
  6
CONTINUOUS
 10
64.780161
 20
131.135127
 30
0.0
  0
VERTEX
  8
0
  6
CONTINUOUS
 10
64.863795
 20
131.117114
 30
0.0
  0
VERTEX
  8
0
  6
CONTINUOUS
 10
64.990091
 20
131.117138
 30
0.0
  0
VERTEX
  8
0
  6
CONTINUOUS
 10
65.034064
 20
131.124745
 30
0.0
  0
VERTEX
  8
0
  6
CONTINUOUS
 10
65.06122
 20
131.131862
 30
0.0
  0
SEQEND
  8
0
  6
CONTINUOUS
  0
POLYLINE
  8
0
  6
CONTINUOUS
 66
     1
 10
0.0
 20
0.0
 30
0.0
  0
VERTEX
  8
0
  6
CONTINUOUS
 10
65.056749
 20
131.130546
 30
0.0
  0
VERTEX
  8
0
  6
CONTINUOUS
 10
66.471235
 20
131.529107
 30
0.0
  0
VERTEX
  8
0
  6
CONTINUOUS
 10
67.885721
 20
131.927669
 30
0.0
  0
SEQEND
  8
0
  6
CONTINUOUS
  0
POLYLINE
  8
0
  6
CONTINUOUS
 66
     1
 10
0.0
 20
0.0
 30
0.0
  0
VERTEX
  8
0
  6
CONTINUOUS
 10
63.874989
 20
131.555879
 30
0.0
  0
VERTEX
  8
0
  6
CONTINUOUS
 10
64.722027
 20
131.157573
 30
0.0
  0
SEQEND
  8
0
  6
CONTINUOUS
  0
POLYLINE
  8
0
  6
CONTINUOUS
 66
     1
 10
0.0
 20
0.0
 30
0.0
  0
VERTEX
  8
0
  6
CONTINUOUS
 10
72.739086
 20
127.703009
 30
0.0
  0
VERTEX
  8
0
  6
CONTINUOUS
 10
72.689711
 20
127.679402
 30
0.0
  0
VERTEX
  8
0
  6
CONTINUOUS
 10
72.60425
 20
127.65812
 30
0.0
  0
VERTEX
  8
0
  6
CONTINUOUS
 10
72.44161
 20
127.673413
 30
0.0
  0
VERTEX
  8
0
  6
CONTINUOUS
 10
72.382497
 20
127.696322
 30
0.0
  0
SEQEND
  8
0
  6
CONTINUOUS
  0
POLYLINE
  8
0
  6
CONTINUOUS
 66
     1
 10
0.0
 20
0.0
 30
0.0
  0
VERTEX
  8
0
  6
CONTINUOUS
 10
100.580575
 20
161.545456
 30
0.0
  0
VERTEX
  8
0
  6
CONTINUOUS
 10
100.43118
 20
161.644267
 30
0.0
  0
VERTEX
  8
0
  6
CONTINUOUS
 10
100.35764
 20
161.687107
 30
0.0
  0
VERTEX
  8
0
  6
CONTINUOUS
 10
100.338864
 20
161.697133
 30
0.0
  0
VERTEX
  8
0
  6
CONTINUOUS
 10
100.327976
 20
161.702623
 30
0.0
  0
SEQEND
  8
0
  6
CONTINUOUS
  0
POLYLINE
  8
0
  6
CONTINUOUS
 66
     1
 10
0.0
 20
0.0
 30
0.0
  0
VERTEX
  8
0
  6
CONTINUOUS
 10
101.221818
 20
160.545194
 30
0.0
  0
VERTEX
  8
0
  6
CONTINUOUS
 10
101.224951
 20
160.476609
 30
0.0
  0
SEQEND
  8
0
  6
CONTINUOUS
  0
POLYLINE
  8
0
  6
CONTINUOUS
 66
     1
 10
0.0
 20
0.0
 30
0.0
  0
VERTEX
  8
0
  6
CONTINUOUS
 10
100.327921
 20
161.70265
 30
0.0
  0
VERTEX
  8
0
  6
CONTINUOUS
 10
92.031111
 20
165.756953
 30
0.0
  0
VERTEX
  8
0
  6
CONTINUOUS
 10
83.734339
 20
169.811238
 30
0.0
  0
SEQEND
  8
0
  6
CONTINUOUS
  0
POLYLINE
  8
0
  6
CONTINUOUS
 66
     1
 10
0.0
 20
0.0
 30
0.0
  0
VERTEX
  8
0
  6
CONTINUOUS
 10
61.930833
 20
129.300456
 30
0.0
  0
VERTEX
  8
0
  6
CONTINUOUS
 10
70.359246
 20
125.490004
 30
0.0
  0
VERTEX
  8
0
  6
CONTINUOUS
 10
78.787706
 20
121.67953
 30
0.0
  0
SEQEND
  8
0
  6
CONTINUOUS
  0
POLYLINE
  8
0
  6
CONTINUOUS
 66
     1
 10
0.0
 20
0.0
 30
0.0
  0
VERTEX
  8
0
  6
CONTINUOUS
 10
101.224952
 20
133.573966
 30
0.0
  0
VERTEX
  8
0
  6
CONTINUOUS
 10
101.224952
 20
147.024732
 30
0.0
  0
VERTEX
  8
0
  6
CONTINUOUS
 10
101.224952
 20
160.475498
 30
0.0
  0
SEQEND
  8
0
  6
CONTINUOUS
  0
POLYLINE
  8
0
  6
CONTINUOUS
 66
     1
 10
0.0
 20
0.0
 30
0.0
  0
VERTEX
  8
0
  6
CONTINUOUS
 10
100.491889
 20
132.462184
 30
0.0
  0
VERTEX
  8
0
  6
CONTINUOUS
 10
91.267992
 20
127.130704
 30
0.0
  0
VERTEX
  8
0
  6
CONTINUOUS
 10
82.044096
 20
121.799225
 30
0.0
  0
SEQEND
  8
0
  6
CONTINUOUS
  0
POLYLINE
  8
0
  6
CONTINUOUS
 66
     1
 10
0.0
 20
0.0
 30
0.0
  0
VERTEX
  8
0
  6
CONTINUOUS
 10
78.787779
 20
121.679496
 30
0.0
  0
VERTEX
  8
0
  6
CONTINUOUS
 10
78.798895
 20
121.674622
 30
0.0
  0
VERTEX
  8
0
  6
CONTINUOUS
 10
78.813091
 20
121.668684
 30
0.0
  0
VERTEX
  8
0
  6
CONTINUOUS
 10
78.850223
 20
121.653998
 30
0.0
  0
VERTEX
  8
0
  6
CONTINUOUS
 10
78.954717
 20
121.616314
 30
0.0
  0
VERTEX
  8
0
  6
CONTINUOUS
 10
79.246036
 20
121.529512
 30
0.0
  0
VERTEX
  8
0
  6
CONTINUOUS
 10
79.911002
 20
121.41909
 30
0.0
  0
VERTEX
  8
0
  6
CONTINUOUS
 10
80.433276
 20
121.414105
 30
0.0
  0
SEQEND
  8
0
  6
CONTINUOUS
  0
POLYLINE
  8
0
  6
CONTINUOUS
 66
     1
 10
0.0
 20
0.0
 30
0.0
  0
VERTEX
  8
0
  6
CONTINUOUS
 10
96.403148
 20
136.965308
 30
0.0
  0
VERTEX
  8
0
  6
CONTINUOUS
 10
96.403148
 20
136.964519
 30
0.0
  0
VERTEX
  8
0
  6
CONTINUOUS
 10
96.403149
 20
136.963722
 30
0.0
  0
VERTEX
  8
0
  6
CONTINUOUS
 10
96.40315
 20
136.962054
 30
0.0
  0
VERTEX
  8
0
  6
CONTINUOUS
 10
96.403131
 20
136.95828
 30
0.0
  0
VERTEX
  8
0
  6
CONTINUOUS
 10
96.402921
 20
136.948768
 30
0.0
  0
VERTEX
  8
0
  6
CONTINUOUS
 10
96.401182
 20
136.922562
 30
0.0
  0
VERTEX
  8
0
  6
CONTINUOUS
 10
96.387952
 20
136.849265
 30
0.0
  0
VERTEX
  8
0
  6
CONTINUOUS
 10
96.364462
 20
136.782366
 30
0.0
  0
VERTEX
  8
0
  6
CONTINUOUS
 10
96.335366
 20
136.724451
 30
0.0
  0
SEQEND
  8
0
  6
CONTINUOUS
  0
POLYLINE
  8
0
  6
CONTINUOUS
 66
     1
 10
0.0
 20
0.0
 30
0.0
  0
VERTEX
  8
0
  6
CONTINUOUS
 10
96.335366
 20
136.724451
 30
0.0
  0
VERTEX
  8
0
  6
CONTINUOUS
 10
96.30335
 20
136.669058
 30
0.0
  0
VERTEX
  8
0
  6
CONTINUOUS
 10
96.265981
 20
136.620301
 30
0.0
  0
VERTEX
  8
0
  6
CONTINUOUS
 10
96.219076
 20
136.577838
 30
0.0
  0
SEQEND
  8
0
  6
CONTINUOUS
  0
POLYLINE
  8
0
  6
CONTINUOUS
 66
     1
 10
0.0
 20
0.0
 30
0.0
  0
VERTEX
  8
0
  6
CONTINUOUS
 10
96.219076
 20
136.577838
 30
0.0
  0
VERTEX
  8
0
  6
CONTINUOUS
 10
96.207804
 20
136.570175
 30
0.0
  0
VERTEX
  8
0
  6
CONTINUOUS
 10
96.197576
 20
136.563934
 30
0.0
  0
VERTEX
  8
0
  6
CONTINUOUS
 10
96.195455
 20
136.562716
 30
0.0
  0
VERTEX
  8
0
  6
CONTINUOUS
 10
96.194682
 20
136.562275
 30
0.0
  0
SEQEND
  8
0
  6
CONTINUOUS
  0
POLYLINE
  8
0
  6
CONTINUOUS
 66
     1
 10
0.0
 20
0.0
 30
0.0
  0
VERTEX
  8
0
  6
CONTINUOUS
 10
96.194117
 20
136.561951
 30
0.0
  0
VERTEX
  8
0
  6
CONTINUOUS
 10
94.937499
 20
135.835616
 30
0.0
  0
VERTEX
  8
0
  6
CONTINUOUS
 10
93.722738
 20
135.133476
 30
0.0
  0
SEQEND
  8
0
  6
CONTINUOUS
  0
POLYLINE
  8
0
  6
CONTINUOUS
 66
     1
 10
0.0
 20
0.0
 30
0.0
  0
VERTEX
  8
0
  6
CONTINUOUS
 10
96.403148
 20
153.535758
 30
0.0
  0
VERTEX
  8
0
  6
CONTINUOUS
 10
96.403148
 20
146.784414
 30
0.0
  0
VERTEX
  8
0
  6
CONTINUOUS
 10
96.403148
 20
136.965309
 30
0.0
  0
SEQEND
  8
0
  6
CONTINUOUS
  0
POLYLINE
  8
0
  6
CONTINUOUS
 66
     1
 10
0.0
 20
0.0
 30
0.0
  0
VERTEX
  8
0
  6
CONTINUOUS
 10
100.491914
 20
132.462199
 30
0.0
  0
VERTEX
  8
0
  6
CONTINUOUS
 10
100.503199
 20
132.468934
 30
0.0
  0
VERTEX
  8
0
  6
CONTINUOUS
 10
100.517169
 20
132.477722
 30
0.0
  0
VERTEX
  8
0
  6
CONTINUOUS
 10
100.552958
 20
132.50165
 30
0.0
  0
SEQEND
  8
0
  6
CONTINUOUS
  0
POLYLINE
  8
0
  6
CONTINUOUS
 66
     1
 10
0.0
 20
0.0
 30
0.0
  0
VERTEX
  8
0
  6
CONTINUOUS
 10
101.221818
 20
160.545194
 30
0.0
  0
VERTEX
  8
0
  6
CONTINUOUS
 10
101.212233
 20
160.616313
 30
0.0
  0
VERTEX
  8
0
  6
CONTINUOUS
 10
101.197957
 20
160.681867
 30
0.0
  0
VERTEX
  8
0
  6
CONTINUOUS
 10
101.174933
 20
160.760642
 30
0.0
  0
VERTEX
  8
0
  6
CONTINUOUS
 10
101.127235
 20
160.890297
 30
0.0
  0
VERTEX
  8
0
  6
CONTINUOUS
 10
101.037267
 20
161.076155
 30
0.0
  0
VERTEX
  8
0
  6
CONTINUOUS
 10
100.805004
 20
161.362707
 30
0.0
  0
VERTEX
  8
0
  6
CONTINUOUS
 10
100.580575
 20
161.545456
 30
0.0
  0
SEQEND
  8
0
  6
CONTINUOUS
  0
POLYLINE
  8
0
  6
CONTINUOUS
 66
     1
 10
0.0
 20
0.0
 30
0.0
  0
VERTEX
  8
0
  6
CONTINUOUS
 10
100.552958
 20
132.50165
 30
0.0
  0
VERTEX
  8
0
  6
CONTINUOUS
 10
100.726504
 20
132.635757
 30
0.0
  0
VERTEX
  8
0
  6
CONTINUOUS
 10
100.905774
 20
132.810401
 30
0.0
  0
VERTEX
  8
0
  6
CONTINUOUS
 10
101.077029
 20
133.054272
 30
0.0
  0
VERTEX
  8
0
  6
CONTINUOUS
 10
101.137679
 20
133.185358
 30
0.0
  0
VERTEX
  8
0
  6
CONTINUOUS
 10
101.195423
 20
133.358818
 30
0.0
  0
VERTEX
  8
0
  6
CONTINUOUS
 10
101.213753
 20
133.443437
 30
0.0
  0
VERTEX
  8
0
  6
CONTINUOUS
 10
101.224951
 20
133.572836
 30
0.0
  0
SEQEND
  8
0
  6
CONTINUOUS
  0
POLYLINE
  8
0
  6
CONTINUOUS
 66
     1
 10
0.0
 20
0.0
 30
0.0
  0
VERTEX
  8
0
  6
CONTINUOUS
 10
80.433276
 20
121.414105
 30
0.0
  0
VERTEX
  8
0
  6
CONTINUOUS
 10
80.939868
 20
121.451888
 30
0.0
  0
VERTEX
  8
0
  6
CONTINUOUS
 10
81.452373
 20
121.562996
 30
0.0
  0
VERTEX
  8
0
  6
CONTINUOUS
 10
81.930687
 20
121.742473
 30
0.0
  0
VERTEX
  8
0
  6
CONTINUOUS
 10
82.014485
 20
121.783179
 30
0.0
  0
VERTEX
  8
0
  6
CONTINUOUS
 10
82.033666
 20
121.793367
 30
0.0
  0
VERTEX
  8
0
  6
CONTINUOUS
 10
82.044083
 20
121.799218
 30
0.0
  0
SEQEND
  8
0
  6
CONTINUOUS
  0
POLYLINE
  8
0
  6
CONTINUOUS
 66
     1
 10
0.0
 20
0.0
 30
0.0
  0
VERTEX
  8
0
  6
CONTINUOUS
 10
93.498341
 20
139.529472
 30
0.0
  0
VERTEX
  8
0
  6
CONTINUOUS
 10
93.437354
 20
139.56567
 30
0.0
  0
VERTEX
  8
0
  6
CONTINUOUS
 10
93.415784
 20
139.597074
 30
0.0
  0
SEQEND
  8
0
  6
CONTINUOUS
  0
POLYLINE
  8
0
  6
CONTINUOUS
 66
     1
 10
0.0
 20
0.0
 30
0.0
  0
VERTEX
  8
0
  6
CONTINUOUS
 10
92.479137
 20
137.641808
 30
0.0
  0
VERTEX
  8
0
  6
CONTINUOUS
 10
92.416737
 20
137.661646
 30
0.0
  0
VERTEX
  8
0
  6
CONTINUOUS
 10
92.372146
 20
137.655387
 30
0.0
  0
SEQEND
  8
0
  6
CONTINUOUS
  0
POLYLINE
  8
0
  6
CONTINUOUS
 66
     1
 10
0.0
 20
0.0
 30
0.0
  0
VERTEX
  8
0
  6
CONTINUOUS
 10
94.149915
 20
136.856153
 30
0.0
  0
VERTEX
  8
0
  6
CONTINUOUS
 10
94.453081
 20
136.631213
 30
0.0
  0
VERTEX
  8
0
  6
CONTINUOUS
 10
94.659913
 20
136.335067
 30
0.0
  0
SEQEND
  8
0
  6
CONTINUOUS
  0
POLYLINE
  8
0
  6
CONTINUOUS
 66
     1
 10
0.0
 20
0.0
 30
0.0
  0
VERTEX
  8
0
  6
CONTINUOUS
 10
95.169119
 20
138.743817
 30
0.0
  0
VERTEX
  8
0
  6
CONTINUOUS
 10
95.399627
 20
138.658777
 30
0.0
  0
VERTEX
  8
0
  6
CONTINUOUS
 10
95.658103
 20
138.601033
 30
0.0
  0
VERTEX
  8
0
  6
CONTINUOUS
 10
95.875289
 20
138.586059
 30
0.0
  0
SEQEND
  8
0
  6
CONTINUOUS
  0
POLYLINE
  8
0
  6
CONTINUOUS
 66
     1
 10
0.0
 20
0.0
 30
0.0
  0
VERTEX
  8
0
  6
CONTINUOUS
 10
94.158352
 20
150.793472
 30
0.0
  0
VERTEX
  8
0
  6
CONTINUOUS
 10
94.179907
 20
150.759714
 30
0.0
  0
VERTEX
  8
0
  6
CONTINUOUS
 10
94.240909
 20
150.73911
 30
0.0
  0
SEQEND
  8
0
  6
CONTINUOUS
  0
POLYLINE
  8
0
  6
CONTINUOUS
 66
     1
 10
0.0
 20
0.0
 30
0.0
  0
VERTEX
  8
0
  6
CONTINUOUS
 10
93.480142
 20
150.986551
 30
0.0
  0
VERTEX
  8
0
  6
CONTINUOUS
 10
93.421292
 20
150.934122
 30
0.0
  0
VERTEX
  8
0
  6
CONTINUOUS
 10
93.427953
 20
150.887668
 30
0.0
  0
VERTEX
  8
0
  6
CONTINUOUS
 10
93.498341
 20
150.859636
 30
0.0
  0
SEQEND
  8
0
  6
CONTINUOUS
  0
POLYLINE
  8
0
  6
CONTINUOUS
 66
     1
 10
0.0
 20
0.0
 30
0.0
  0
VERTEX
  8
0
  6
CONTINUOUS
 10
94.000669
 20
151.149985
 30
0.0
  0
VERTEX
  8
0
  6
CONTINUOUS
 10
93.885415
 20
151.152085
 30
0.0
  0
VERTEX
  8
0
  6
CONTINUOUS
 10
93.756177
 20
151.127689
 30
0.0
  0
VERTEX
  8
0
  6
CONTINUOUS
 10
93.647585
 20
151.083334
 30
0.0
  0
SEQEND
  8
0
  6
CONTINUOUS
  0
POLYLINE
  8
0
  6
CONTINUOUS
 66
     1
 10
0.0
 20
0.0
 30
0.0
  0
VERTEX
  8
0
  6
CONTINUOUS
 10
94.158352
 20
140.979977
 30
0.0
  0
VERTEX
  8
0
  6
CONTINUOUS
 10
94.179907
 20
140.946219
 30
0.0
  0
VERTEX
  8
0
  6
CONTINUOUS
 10
94.240909
 20
140.925615
 30
0.0
  0
SEQEND
  8
0
  6
CONTINUOUS
  0
POLYLINE
  8
0
  6
CONTINUOUS
 66
     1
 10
0.0
 20
0.0
 30
0.0
  0
VERTEX
  8
0
  6
CONTINUOUS
 10
93.480142
 20
141.173056
 30
0.0
  0
VERTEX
  8
0
  6
CONTINUOUS
 10
93.421292
 20
141.120627
 30
0.0
  0
VERTEX
  8
0
  6
CONTINUOUS
 10
93.427953
 20
141.074173
 30
0.0
  0
VERTEX
  8
0
  6
CONTINUOUS
 10
93.498341
 20
141.046141
 30
0.0
  0
SEQEND
  8
0
  6
CONTINUOUS
  0
POLYLINE
  8
0
  6
CONTINUOUS
 66
     1
 10
0.0
 20
0.0
 30
0.0
  0
VERTEX
  8
0
  6
CONTINUOUS
 10
94.000669
 20
141.33649
 30
0.0
  0
VERTEX
  8
0
  6
CONTINUOUS
 10
93.885415
 20
141.33859
 30
0.0
  0
VERTEX
  8
0
  6
CONTINUOUS
 10
93.756177
 20
141.314194
 30
0.0
  0
VERTEX
  8
0
  6
CONTINUOUS
 10
93.647585
 20
141.269839
 30
0.0
  0
SEQEND
  8
0
  6
CONTINUOUS
  0
POLYLINE
  8
0
  6
CONTINUOUS
 66
     1
 10
0.0
 20
0.0
 30
0.0
  0
VERTEX
  8
0
  6
CONTINUOUS
 10
94.158352
 20
145.886724
 30
0.0
  0
VERTEX
  8
0
  6
CONTINUOUS
 10
94.179907
 20
145.852966
 30
0.0
  0
VERTEX
  8
0
  6
CONTINUOUS
 10
94.240909
 20
145.832362
 30
0.0
  0
SEQEND
  8
0
  6
CONTINUOUS
  0
POLYLINE
  8
0
  6
CONTINUOUS
 66
     1
 10
0.0
 20
0.0
 30
0.0
  0
VERTEX
  8
0
  6
CONTINUOUS
 10
93.480142
 20
146.079803
 30
0.0
  0
VERTEX
  8
0
  6
CONTINUOUS
 10
93.416115
 20
146.002542
 30
0.0
  0
VERTEX
  8
0
  6
CONTINUOUS
 10
93.498341
 20
145.952889
 30
0.0
  0
SEQEND
  8
0
  6
CONTINUOUS
  0
POLYLINE
  8
0
  6
CONTINUOUS
 66
     1
 10
0.0
 20
0.0
 30
0.0
  0
VERTEX
  8
0
  6
CONTINUOUS
 10
94.000669
 20
146.243238
 30
0.0
  0
VERTEX
  8
0
  6
CONTINUOUS
 10
93.885415
 20
146.245337
 30
0.0
  0
VERTEX
  8
0
  6
CONTINUOUS
 10
93.756177
 20
146.220941
 30
0.0
  0
VERTEX
  8
0
  6
CONTINUOUS
 10
93.647585
 20
146.176586
 30
0.0
  0
SEQEND
  8
0
  6
CONTINUOUS
  0
POLYLINE
  8
0
  6
CONTINUOUS
 66
     1
 10
0.0
 20
0.0
 30
0.0
  0
VERTEX
  8
0
  6
CONTINUOUS
 10
93.498341
 20
148.642575
 30
0.0
  0
VERTEX
  8
0
  6
CONTINUOUS
 10
93.437339
 20
148.709649
 30
0.0
  0
VERTEX
  8
0
  6
CONTINUOUS
 10
93.415784
 20
148.781854
 30
0.0
  0
SEQEND
  8
0
  6
CONTINUOUS
  0
POLYLINE
  8
0
  6
CONTINUOUS
 66
     1
 10
0.0
 20
0.0
 30
0.0
  0
VERTEX
  8
0
  6
CONTINUOUS
 10
93.498341
 20
143.735827
 30
0.0
  0
VERTEX
  8
0
  6
CONTINUOUS
 10
93.437339
 20
143.802902
 30
0.0
  0
VERTEX
  8
0
  6
CONTINUOUS
 10
93.415784
 20
143.875106
 30
0.0
  0
SEQEND
  8
0
  6
CONTINUOUS
  0
POLYLINE
  8
0
  6
CONTINUOUS
 66
     1
 10
0.0
 20
0.0
 30
0.0
  0
VERTEX
  8
0
  6
CONTINUOUS
 10
91.360442
 20
136.995194
 30
0.0
  0
VERTEX
  8
0
  6
CONTINUOUS
 10
91.260898
 20
137.012773
 30
0.0
  0
VERTEX
  8
0
  6
CONTINUOUS
 10
91.219666
 20
136.895085
 30
0.0
  0
SEQEND
  8
0
  6
CONTINUOUS
  0
POLYLINE
  8
0
  6
CONTINUOUS
 66
     1
 10
0.0
 20
0.0
 30
0.0
  0
VERTEX
  8
0
  6
CONTINUOUS
 10
91.923545
 20
136.542282
 30
0.0
  0
VERTEX
  8
0
  6
CONTINUOUS
 10
91.87269
 20
136.568779
 30
0.0
  0
VERTEX
  8
0
  6
CONTINUOUS
 10
91.828704
 20
136.562883
 30
0.0
  0
SEQEND
  8
0
  6
CONTINUOUS
  0
POLYLINE
  8
0
  6
CONTINUOUS
 66
     1
 10
0.0
 20
0.0
 30
0.0
  0
VERTEX
  8
0
  6
CONTINUOUS
 10
91.219666
 20
136.681748
 30
0.0
  0
VERTEX
  8
0
  6
CONTINUOUS
 10
91.238526
 20
136.55991
 30
0.0
  0
VERTEX
  8
0
  6
CONTINUOUS
 10
91.290054
 20
136.440379
 30
0.0
  0
VERTEX
  8
0
  6
CONTINUOUS
 10
91.360442
 20
136.355183
 30
0.0
  0
SEQEND
  8
0
  6
CONTINUOUS
  0
POLYLINE
  8
0
  6
CONTINUOUS
 66
     1
 10
0.0
 20
0.0
 30
0.0
  0
VERTEX
  8
0
  6
CONTINUOUS
 10
64.919931
 20
144.60287
 30
0.0
  0
VERTEX
  8
0
  6
CONTINUOUS
 10
64.901968
 20
144.865199
 30
0.0
  0
SEQEND
  8
0
  6
CONTINUOUS
  0
POLYLINE
  8
0
  6
CONTINUOUS
 66
     1
 10
0.0
 20
0.0
 30
0.0
  0
VERTEX
  8
0
  6
CONTINUOUS
 10
65.118424
 20
144.995855
 30
0.0
  0
VERTEX
  8
0
  6
CONTINUOUS
 10
64.901968
 20
144.865199
 30
0.0
  0
SEQEND
  8
0
  6
CONTINUOUS
  0
POLYLINE
  8
0
  6
CONTINUOUS
 66
     1
 10
0.0
 20
0.0
 30
0.0
  0
VERTEX
  8
0
  6
CONTINUOUS
 10
64.901968
 20
144.865199
 30
0.0
  0
VERTEX
  8
0
  6
CONTINUOUS
 10
64.678919
 20
144.99317
 30
0.0
  0
SEQEND
  8
0
  6
CONTINUOUS
  0
POLYLINE
  8
0
  6
CONTINUOUS
 66
     1
 10
0.0
 20
0.0
 30
0.0
  0
VERTEX
  8
0
  6
CONTINUOUS
 10
68.239536
 20
146.851529
 30
0.0
  0
VERTEX
  8
0
  6
CONTINUOUS
 10
68.108163
 20
146.766354
 30
0.0
  0
SEQEND
  8
0
  6
CONTINUOUS
  0
POLYLINE
  8
0
  6
CONTINUOUS
 66
     1
 10
0.0
 20
0.0
 30
0.0
  0
VERTEX
  8
0
  6
CONTINUOUS
 10
68.108163
 20
146.766354
 30
0.0
  0
VERTEX
  8
0
  6
CONTINUOUS
 10
67.813089
 20
147.061571
 30
0.0
  0
SEQEND
  8
0
  6
CONTINUOUS
  0
POLYLINE
  8
0
  6
CONTINUOUS
 66
     1
 10
0.0
 20
0.0
 30
0.0
  0
VERTEX
  8
0
  6
CONTINUOUS
 10
67.947395
 20
146.669519
 30
0.0
  0
VERTEX
  8
0
  6
CONTINUOUS
 10
68.108163
 20
146.766354
 30
0.0
  0
SEQEND
  8
0
  6
CONTINUOUS
  0
POLYLINE
  8
0
  6
CONTINUOUS
 66
     1
 10
0.0
 20
0.0
 30
0.0
  0
VERTEX
  8
0
  6
CONTINUOUS
 10
68.244089
 20
146.363602
 30
0.0
  0
VERTEX
  8
0
  6
CONTINUOUS
 10
68.108163
 20
146.766354
 30
0.0
  0
SEQEND
  8
0
  6
CONTINUOUS
  0
POLYLINE
  8
0
  6
CONTINUOUS
 66
     1
 10
0.0
 20
0.0
 30
0.0
  0
VERTEX
  8
0
  6
CONTINUOUS
 10
68.239536
 20
131.839227
 30
0.0
  0
VERTEX
  8
0
  6
CONTINUOUS
 10
68.107284
 20
131.94286
 30
0.0
  0
SEQEND
  8
0
  6
CONTINUOUS
  0
POLYLINE
  8
0
  6
CONTINUOUS
 66
     1
 10
0.0
 20
0.0
 30
0.0
  0
VERTEX
  8
0
  6
CONTINUOUS
 10
68.107284
 20
131.94286
 30
0.0
  0
VERTEX
  8
0
  6
CONTINUOUS
 10
68.244089
 20
132.233968
 30
0.0
  0
SEQEND
  8
0
  6
CONTINUOUS
  0
POLYLINE
  8
0
  6
CONTINUOUS
 66
     1
 10
0.0
 20
0.0
 30
0.0
  0
VERTEX
  8
0
  6
CONTINUOUS
 10
67.947395
 20
131.95663
 30
0.0
  0
VERTEX
  8
0
  6
CONTINUOUS
 10
68.107284
 20
131.94286
 30
0.0
  0
SEQEND
  8
0
  6
CONTINUOUS
  0
POLYLINE
  8
0
  6
CONTINUOUS
 66
     1
 10
0.0
 20
0.0
 30
0.0
  0
VERTEX
  8
0
  6
CONTINUOUS
 10
67.862294
 20
131.9213
 30
0.0
  0
VERTEX
  8
0
  6
CONTINUOUS
 10
68.107284
 20
131.94286
 30
0.0
  0
SEQEND
  8
0
  6
CONTINUOUS
  0
POLYLINE
  8
0
  6
CONTINUOUS
 66
     1
 10
0.0
 20
0.0
 30
0.0
  0
VERTEX
  8
0
  6
CONTINUOUS
 10
64.902367
 20
131.164872
 30
0.0
  0
VERTEX
  8
0
  6
CONTINUOUS
 10
65.118424
 20
131.159506
 30
0.0
  0
SEQEND
  8
0
  6
CONTINUOUS
  0
POLYLINE
  8
0
  6
CONTINUOUS
 66
     1
 10
0.0
 20
0.0
 30
0.0
  0
VERTEX
  8
0
  6
CONTINUOUS
 10
64.919931
 20
131.349776
 30
0.0
  0
VERTEX
  8
0
  6
CONTINUOUS
 10
64.902367
 20
131.164872
 30
0.0
  0
SEQEND
  8
0
  6
CONTINUOUS
  0
POLYLINE
  8
0
  6
CONTINUOUS
 66
     1
 10
0.0
 20
0.0
 30
0.0
  0
VERTEX
  8
0
  6
CONTINUOUS
 10
64.678919
 20
131.18614
 30
0.0
  0
VERTEX
  8
0
  6
CONTINUOUS
 10
64.902367
 20
131.164872
 30
0.0
  0
SEQEND
  8
0
  6
CONTINUOUS
  0
POLYLINE
  8
0
  6
CONTINUOUS
 66
     1
 10
0.0
 20
0.0
 30
0.0
  0
VERTEX
  8
0
  6
CONTINUOUS
 10
65.118424
 20
131.159506
 30
0.0
  0
VERTEX
  8
0
  6
CONTINUOUS
 10
65.056915
 20
131.130593
 30
0.0
  0
SEQEND
  8
0
  6
CONTINUOUS
  0
POLYLINE
  8
0
  6
CONTINUOUS
 66
     1
 10
0.0
 20
0.0
 30
0.0
  0
VERTEX
  8
0
  6
CONTINUOUS
 10
65.250055
 20
131.407822
 30
0.0
  0
VERTEX
  8
0
  6
CONTINUOUS
 10
65.118424
 20
131.159506
 30
0.0
  0
SEQEND
  8
0
  6
CONTINUOUS
  0
POLYLINE
  8
0
  6
CONTINUOUS
 66
     1
 10
0.0
 20
0.0
 30
0.0
  0
VERTEX
  8
0
  6
CONTINUOUS
 10
67.947395
 20
131.95663
 30
0.0
  0
VERTEX
  8
0
  6
CONTINUOUS
 10
68.079027
 20
132.204945
 30
0.0
  0
SEQEND
  8
0
  6
CONTINUOUS
  0
POLYLINE
  8
0
  6
CONTINUOUS
 66
     1
 10
0.0
 20
0.0
 30
0.0
  0
VERTEX
  8
0
  6
CONTINUOUS
 10
67.885887
 20
131.927716
 30
0.0
  0
VERTEX
  8
0
  6
CONTINUOUS
 10
67.947395
 20
131.95663
 30
0.0
  0
SEQEND
  8
0
  6
CONTINUOUS
  0
POLYLINE
  8
0
  6
CONTINUOUS
 66
     1
 10
0.0
 20
0.0
 30
0.0
  0
VERTEX
  8
0
  6
CONTINUOUS
 10
64.919931
 20
131.349776
 30
0.0
  0
VERTEX
  8
0
  6
CONTINUOUS
 10
65.250055
 20
131.407822
 30
0.0
  0
SEQEND
  8
0
  6
CONTINUOUS
  0
POLYLINE
  8
0
  6
CONTINUOUS
 66
     1
 10
0.0
 20
0.0
 30
0.0
  0
VERTEX
  8
0
  6
CONTINUOUS
 10
64.594106
 20
131.414086
 30
0.0
  0
VERTEX
  8
0
  6
CONTINUOUS
 10
64.919931
 20
131.349776
 30
0.0
  0
SEQEND
  8
0
  6
CONTINUOUS
  0
POLYLINE
  8
0
  6
CONTINUOUS
 66
     1
 10
0.0
 20
0.0
 30
0.0
  0
VERTEX
  8
0
  6
CONTINUOUS
 10
64.919931
 20
144.60287
 30
0.0
  0
VERTEX
  8
0
  6
CONTINUOUS
 10
64.594106
 20
144.667179
 30
0.0
  0
SEQEND
  8
0
  6
CONTINUOUS
  0
POLYLINE
  8
0
  6
CONTINUOUS
 66
     1
 10
0.0
 20
0.0
 30
0.0
  0
VERTEX
  8
0
  6
CONTINUOUS
 10
65.250055
 20
144.660915
 30
0.0
  0
VERTEX
  8
0
  6
CONTINUOUS
 10
64.919931
 20
144.60287
 30
0.0
  0
SEQEND
  8
0
  6
CONTINUOUS
  0
POLYLINE
  8
0
  6
CONTINUOUS
 66
     1
 10
0.0
 20
0.0
 30
0.0
  0
VERTEX
  8
0
  6
CONTINUOUS
 10
64.678919
 20
144.99317
 30
0.0
  0
VERTEX
  8
0
  6
CONTINUOUS
 10
64.882384
 20
145.256328
 30
0.0
  0
SEQEND
  8
0
  6
CONTINUOUS
  0
POLYLINE
  8
0
  6
CONTINUOUS
 66
     1
 10
0.0
 20
0.0
 30
0.0
  0
VERTEX
  8
0
  6
CONTINUOUS
 10
64.594106
 20
144.667179
 30
0.0
  0
VERTEX
  8
0
  6
CONTINUOUS
 10
64.678919
 20
144.99317
 30
0.0
  0
SEQEND
  8
0
  6
CONTINUOUS
  0
POLYLINE
  8
0
  6
CONTINUOUS
 66
     1
 10
0.0
 20
0.0
 30
0.0
  0
VERTEX
  8
0
  6
CONTINUOUS
 10
67.813089
 20
147.061571
 30
0.0
  0
VERTEX
  8
0
  6
CONTINUOUS
 10
67.855495
 20
147.224566
 30
0.0
  0
SEQEND
  8
0
  6
CONTINUOUS
  0
POLYLINE
  8
0
  6
CONTINUOUS
 66
     1
 10
0.0
 20
0.0
 30
0.0
  0
VERTEX
  8
0
  6
CONTINUOUS
 10
67.711356
 20
146.929992
 30
0.0
  0
VERTEX
  8
0
  6
CONTINUOUS
 10
67.813089
 20
147.061571
 30
0.0
  0
SEQEND
  8
0
  6
CONTINUOUS
  0
POLYLINE
  8
0
  6
CONTINUOUS
 66
     1
 10
0.0
 20
0.0
 30
0.0
  0
VERTEX
  8
0
  6
CONTINUOUS
 10
67.947395
 20
146.669519
 30
0.0
  0
VERTEX
  8
0
  6
CONTINUOUS
 10
67.711356
 20
146.929992
 30
0.0
  0
SEQEND
  8
0
  6
CONTINUOUS
  0
POLYLINE
  8
0
  6
CONTINUOUS
 66
     1
 10
0.0
 20
0.0
 30
0.0
  0
VERTEX
  8
0
  6
CONTINUOUS
 10
68.079027
 20
146.334579
 30
0.0
  0
VERTEX
  8
0
  6
CONTINUOUS
 10
67.947395
 20
146.669519
 30
0.0
  0
SEQEND
  8
0
  6
CONTINUOUS
  0
POLYLINE
  8
0
  6
CONTINUOUS
 66
     1
 10
0.0
 20
0.0
 30
0.0
  0
VERTEX
  8
0
  6
CONTINUOUS
 10
65.118424
 20
144.995855
 30
0.0
  0
VERTEX
  8
0
  6
CONTINUOUS
 10
65.250055
 20
144.660915
 30
0.0
  0
SEQEND
  8
0
  6
CONTINUOUS
  0
POLYLINE
  8
0
  6
CONTINUOUS
 66
     1
 10
0.0
 20
0.0
 30
0.0
  0
VERTEX
  8
0
  6
CONTINUOUS
 10
64.882384
 20
145.256328
 30
0.0
  0
VERTEX
  8
0
  6
CONTINUOUS
 10
65.118424
 20
144.995855
 30
0.0
  0
SEQEND
  8
0
  6
CONTINUOUS
  0
POLYLINE
  8
0
  6
CONTINUOUS
 66
     1
 10
0.0
 20
0.0
 30
0.0
  0
VERTEX
  8
0
  6
CONTINUOUS
 10
68.244089
 20
132.233968
 30
0.0
  0
VERTEX
  8
0
  6
CONTINUOUS
 10
68.407001
 20
132.201813
 30
0.0
  0
SEQEND
  8
0
  6
CONTINUOUS
  0
POLYLINE
  8
0
  6
CONTINUOUS
 66
     1
 10
0.0
 20
0.0
 30
0.0
  0
VERTEX
  8
0
  6
CONTINUOUS
 10
68.079027
 20
132.204945
 30
0.0
  0
VERTEX
  8
0
  6
CONTINUOUS
 10
68.244089
 20
132.233968
 30
0.0
  0
SEQEND
  8
0
  6
CONTINUOUS
  0
POLYLINE
  8
0
  6
CONTINUOUS
 66
     1
 10
0.0
 20
0.0
 30
0.0
  0
VERTEX
  8
0
  6
CONTINUOUS
 10
68.244089
 20
146.363602
 30
0.0
  0
VERTEX
  8
0
  6
CONTINUOUS
 10
68.079027
 20
146.334579
 30
0.0
  0
SEQEND
  8
0
  6
CONTINUOUS
  0
POLYLINE
  8
0
  6
CONTINUOUS
 66
     1
 10
0.0
 20
0.0
 30
0.0
  0
VERTEX
  8
0
  6
CONTINUOUS
 10
68.407001
 20
146.331447
 30
0.0
  0
VERTEX
  8
0
  6
CONTINUOUS
 10
68.244089
 20
146.363602
 30
0.0
  0
SEQEND
  8
0
  6
CONTINUOUS
  0
POLYLINE
  8
0
  6
CONTINUOUS
 66
     1
 10
0.0
 20
0.0
 30
0.0
  0
VERTEX
  8
0
  6
CONTINUOUS
 10
67.855495
 20
131.827367
 30
0.0
  0
VERTEX
  8
0
  6
CONTINUOUS
 10
67.835304
 20
131.913495
 30
0.0
  0
SEQEND
  8
0
  6
CONTINUOUS
  0
POLYLINE
  8
0
  6
CONTINUOUS
 66
     1
 10
0.0
 20
0.0
 30
0.0
  0
VERTEX
  8
0
  6
CONTINUOUS
 10
64.678919
 20
131.18614
 30
0.0
  0
VERTEX
  8
0
  6
CONTINUOUS
 10
64.594106
 20
131.414086
 30
0.0
  0
SEQEND
  8
0
  6
CONTINUOUS
  0
POLYLINE
  8
0
  6
CONTINUOUS
 66
     1
 10
0.0
 20
0.0
 30
0.0
  0
VERTEX
  8
0
  6
CONTINUOUS
 10
64.72202
 20
131.157577
 30
0.0
  0
VERTEX
  8
0
  6
CONTINUOUS
 10
64.678919
 20
131.18614
 30
0.0
  0
SEQEND
  8
0
  6
CONTINUOUS
  0
POLYLINE
  8
0
  6
CONTINUOUS
 66
     1
 10
0.0
 20
0.0
 30
0.0
  0
VERTEX
  8
0
  6
CONTINUOUS
 10
65.250055
 20
144.660915
 30
0.0
  0
VERTEX
  8
0
  6
CONTINUOUS
 10
65.250055
 20
138.034369
 30
0.0
  0
VERTEX
  8
0
  6
CONTINUOUS
 10
65.250055
 20
131.407822
 30
0.0
  0
SEQEND
  8
0
  6
CONTINUOUS
  0
POLYLINE
  8
0
  6
CONTINUOUS
 66
     1
 10
0.0
 20
0.0
 30
0.0
  0
VERTEX
  8
0
  6
CONTINUOUS
 10
68.079027
 20
146.334579
 30
0.0
  0
VERTEX
  8
0
  6
CONTINUOUS
 10
66.633064
 20
145.479125
 30
0.0
  0
VERTEX
  8
0
  6
CONTINUOUS
 10
65.250055
 20
144.660915
 30
0.0
  0
SEQEND
  8
0
  6
CONTINUOUS
  0
POLYLINE
  8
0
  6
CONTINUOUS
 66
     1
 10
0.0
 20
0.0
 30
0.0
  0
VERTEX
  8
0
  6
CONTINUOUS
 10
68.079027
 20
146.334579
 30
0.0
  0
VERTEX
  8
0
  6
CONTINUOUS
 10
68.079027
 20
139.269762
 30
0.0
  0
VERTEX
  8
0
  6
CONTINUOUS
 10
68.079027
 20
132.204945
 30
0.0
  0
SEQEND
  8
0
  6
CONTINUOUS
  0
POLYLINE
  8
0
  6
CONTINUOUS
 66
     1
 10
0.0
 20
0.0
 30
0.0
  0
VERTEX
  8
0
  6
CONTINUOUS
 10
65.250055
 20
131.407822
 30
0.0
  0
VERTEX
  8
0
  6
CONTINUOUS
 10
66.633064
 20
131.797514
 30
0.0
  0
VERTEX
  8
0
  6
CONTINUOUS
 10
68.079027
 20
132.204945
 30
0.0
  0
SEQEND
  8
0
  6
CONTINUOUS
  0
POLYLINE
  8
0
  6
CONTINUOUS
 66
     1
 10
0.0
 20
0.0
 30
0.0
  0
VERTEX
  8
0
  6
CONTINUOUS
 10
61.331423
 20
150.292401
 30
0.0
  0
VERTEX
  8
0
  6
CONTINUOUS
 10
64.788524
 20
148.666757
 30
0.0
  0
VERTEX
  8
0
  6
CONTINUOUS
 10
67.855495
 20
147.224566
 30
0.0
  0
SEQEND
  8
0
  6
CONTINUOUS
  0
POLYLINE
  8
0
  6
CONTINUOUS
 66
     1
 10
0.0
 20
0.0
 30
0.0
  0
VERTEX
  8
0
  6
CONTINUOUS
 10
67.855495
 20
131.827367
 30
0.0
  0
VERTEX
  8
0
  6
CONTINUOUS
 10
67.733499
 20
131.884734
 30
0.0
  0
SEQEND
  8
0
  6
CONTINUOUS
  0
POLYLINE
  8
0
  6
CONTINUOUS
 66
     1
 10
0.0
 20
0.0
 30
0.0
  0
VERTEX
  8
0
  6
CONTINUOUS
 10
68.239536
 20
131.839227
 30
0.0
  0
VERTEX
  8
0
  6
CONTINUOUS
 10
67.855495
 20
131.827367
 30
0.0
  0
SEQEND
  8
0
  6
CONTINUOUS
  0
POLYLINE
  8
0
  6
CONTINUOUS
 66
     1
 10
0.0
 20
0.0
 30
0.0
  0
VERTEX
  8
0
  6
CONTINUOUS
 10
68.407001
 20
132.201813
 30
0.0
  0
VERTEX
  8
0
  6
CONTINUOUS
 10
68.239536
 20
131.839227
 30
0.0
  0
SEQEND
  8
0
  6
CONTINUOUS
  0
POLYLINE
  8
0
  6
CONTINUOUS
 66
     1
 10
0.0
 20
0.0
 30
0.0
  0
VERTEX
  8
0
  6
CONTINUOUS
 10
68.407001
 20
146.331447
 30
0.0
  0
VERTEX
  8
0
  6
CONTINUOUS
 10
68.407001
 20
139.26663
 30
0.0
  0
VERTEX
  8
0
  6
CONTINUOUS
 10
68.407001
 20
132.201813
 30
0.0
  0
SEQEND
  8
0
  6
CONTINUOUS
  0
POLYLINE
  8
0
  6
CONTINUOUS
 66
     1
 10
0.0
 20
0.0
 30
0.0
  0
VERTEX
  8
0
  6
CONTINUOUS
 10
68.239536
 20
146.851529
 30
0.0
  0
VERTEX
  8
0
  6
CONTINUOUS
 10
68.407001
 20
146.331447
 30
0.0
  0
SEQEND
  8
0
  6
CONTINUOUS
  0
POLYLINE
  8
0
  6
CONTINUOUS
 66
     1
 10
0.0
 20
0.0
 30
0.0
  0
VERTEX
  8
0
  6
CONTINUOUS
 10
67.855495
 20
147.224566
 30
0.0
  0
VERTEX
  8
0
  6
CONTINUOUS
 10
68.239536
 20
146.851529
 30
0.0
  0
SEQEND
  8
0
  6
CONTINUOUS
  0
POLYLINE
  8
0
  6
CONTINUOUS
 66
     1
 10
0.0
 20
0.0
 30
0.0
  0
VERTEX
  8
0
  6
CONTINUOUS
 10
72.507071
 20
127.95182
 30
0.0
  0
VERTEX
  8
0
  6
CONTINUOUS
 10
72.482199
 20
127.856847
 30
0.0
  0
VERTEX
  8
0
  6
CONTINUOUS
 10
72.41425
 20
127.810712
 30
0.0
  0
VERTEX
  8
0
  6
CONTINUOUS
 10
72.321429
 20
127.825778
 30
0.0
  0
SEQEND
  8
0
  6
CONTINUOUS
  0
POLYLINE
  8
0
  6
CONTINUOUS
 66
     1
 10
0.0
 20
0.0
 30
0.0
  0
VERTEX
  8
0
  6
CONTINUOUS
 10
64.594106
 20
144.667179
 30
0.0
  0
VERTEX
  8
0
  6
CONTINUOUS
 10
64.594106
 20
138.040633
 30
0.0
  0
VERTEX
  8
0
  6
CONTINUOUS
 10
64.594106
 20
131.414086
 30
0.0
  0
SEQEND
  8
0
  6
CONTINUOUS
  0
POLYLINE
  8
0
  6
CONTINUOUS
 66
     1
 10
0.0
 20
0.0
 30
0.0
  0
VERTEX
  8
0
  6
CONTINUOUS
 10
64.594106
 20
131.414086
 30
0.0
  0
VERTEX
  8
0
  6
CONTINUOUS
 10
64.062273
 20
131.664171
 30
0.0
  0
SEQEND
  8
0
  6
CONTINUOUS
  0
POLYLINE
  8
0
  6
CONTINUOUS
 66
     1
 10
0.0
 20
0.0
 30
0.0
  0
VERTEX
  8
0
  6
CONTINUOUS
 10
58.451409
 20
147.55568
 30
0.0
  0
VERTEX
  8
0
  6
CONTINUOUS
 10
61.684134
 20
146.035545
 30
0.0
  0
VERTEX
  8
0
  6
CONTINUOUS
 10
64.594106
 20
144.667179
 30
0.0
  0
SEQEND
  8
0
  6
CONTINUOUS
  0
POLYLINE
  8
0
  6
CONTINUOUS
 66
     1
 10
0.0
 20
0.0
 30
0.0
  0
VERTEX
  8
0
  6
CONTINUOUS
 10
67.711356
 20
146.929992
 30
0.0
  0
VERTEX
  8
0
  6
CONTINUOUS
 10
66.265393
 20
146.074537
 30
0.0
  0
VERTEX
  8
0
  6
CONTINUOUS
 10
64.882384
 20
145.256328
 30
0.0
  0
SEQEND
  8
0
  6
CONTINUOUS
  0
POLYLINE
  8
0
  6
CONTINUOUS
 66
     1
 10
0.0
 20
0.0
 30
0.0
  0
VERTEX
  8
0
  6
CONTINUOUS
 10
58.739687
 20
148.144828
 30
0.0
  0
VERTEX
  8
0
  6
CONTINUOUS
 10
61.972412
 20
146.624693
 30
0.0
  0
VERTEX
  8
0
  6
CONTINUOUS
 10
64.882384
 20
145.256328
 30
0.0
  0
SEQEND
  8
0
  6
CONTINUOUS
  0
POLYLINE
  8
0
  6
CONTINUOUS
 66
     1
 10
0.0
 20
0.0
 30
0.0
  0
VERTEX
  8
0
  6
CONTINUOUS
 10
61.187284
 20
149.997827
 30
0.0
  0
VERTEX
  8
0
  6
CONTINUOUS
 10
64.644385
 20
148.372183
 30
0.0
  0
VERTEX
  8
0
  6
CONTINUOUS
 10
67.711356
 20
146.929992
 30
0.0
  0
SEQEND
  8
0
  6
CONTINUOUS
  0
POLYLINE
  8
0
  6
CONTINUOUS
 66
     1
 10
0.0
 20
0.0
 30
0.0
  0
VERTEX
  8
0
  6
CONTINUOUS
 10
72.382511
 20
127.696315
 30
0.0
  0
VERTEX
  8
0
  6
CONTINUOUS
 10
72.337467
 20
127.743937
 30
0.0
  0
VERTEX
  8
0
  6
CONTINUOUS
 10
72.321429
 20
127.825778
 30
0.0
  0
SEQEND
  8
0
  6
CONTINUOUS
  0
POLYLINE
  8
0
  6
CONTINUOUS
 66
     1
 10
0.0
 20
0.0
 30
0.0
  0
VERTEX
  8
0
  6
CONTINUOUS
 10
72.860155
 20
127.961308
 30
0.0
  0
VERTEX
  8
0
  6
CONTINUOUS
 10
72.828521
 20
127.803844
 30
0.0
  0
VERTEX
  8
0
  6
CONTINUOUS
 10
72.739007
 20
127.702964
 30
0.0
  0
SEQEND
  8
0
  6
CONTINUOUS
  0
POLYLINE
  8
0
  6
CONTINUOUS
 66
     1
 10
0.0
 20
0.0
 30
0.0
  0
VERTEX
  8
0
  6
CONTINUOUS
 10
72.860155
 20
127.961308
 30
0.0
  0
VERTEX
  8
0
  6
CONTINUOUS
 10
72.751563
 20
127.924612
 30
0.0
  0
VERTEX
  8
0
  6
CONTINUOUS
 10
72.622325
 20
127.921139
 30
0.0
  0
VERTEX
  8
0
  6
CONTINUOUS
 10
72.507071
 20
127.95182
 30
0.0
  0
SEQEND
  8
0
  6
CONTINUOUS
  0
POLYLINE
  8
0
  6
CONTINUOUS
 66
     1
 10
0.0
 20
0.0
 30
0.0
  0
VERTEX
  8
0
  6
CONTINUOUS
 10
58.739687
 20
148.144828
 30
0.0
  0
VERTEX
  8
0
  6
CONTINUOUS
 10
58.627998
 20
148.030995
 30
0.0
  0
VERTEX
  8
0
  6
CONTINUOUS
 10
58.53632
 20
147.881872
 30
0.0
  0
VERTEX
  8
0
  6
CONTINUOUS
 10
58.474275
 20
147.717029
 30
0.0
  0
VERTEX
  8
0
  6
CONTINUOUS
 10
58.451409
 20
147.55568
 30
0.0
  0
SEQEND
  8
0
  6
CONTINUOUS
  0
POLYLINE
  8
0
  6
CONTINUOUS
 66
     1
 10
0.0
 20
0.0
 30
0.0
  0
VERTEX
  8
0
  6
CONTINUOUS
 10
61.331423
 20
152.19396
 30
0.0
  0
VERTEX
  8
0
  6
CONTINUOUS
 10
61.353856
 20
152.313595
 30
0.0
  0
VERTEX
  8
0
  6
CONTINUOUS
 10
61.415144
 20
152.427107
 30
0.0
  0
VERTEX
  8
0
  6
CONTINUOUS
 10
61.498866
 20
152.50408
 30
0.0
  0
SEQEND
  8
0
  6
CONTINUOUS
  0
POLYLINE
  8
0
  6
CONTINUOUS
 66
     1
 10
0.0
 20
0.0
 30
0.0
  0
VERTEX
  8
0
  6
CONTINUOUS
 10
61.331423
 20
150.292401
 30
0.0
  0
VERTEX
  8
0
  6
CONTINUOUS
 10
61.320046
 20
150.211937
 30
0.0
  0
VERTEX
  8
0
  6
CONTINUOUS
 10
61.289066
 20
150.129507
 30
0.0
  0
VERTEX
  8
0
  6
CONTINUOUS
 10
61.24326
 20
150.054914
 30
0.0
  0
VERTEX
  8
0
  6
CONTINUOUS
 10
61.187284
 20
149.997827
 30
0.0
  0
SEQEND
  8
0
  6
CONTINUOUS
  0
POLYLINE
  8
0
  6
CONTINUOUS
 66
     1
 10
0.0
 20
0.0
 30
0.0
  0
VERTEX
  8
0
  6
CONTINUOUS
 10
72.860155
 20
146.734951
 30
0.0
  0
VERTEX
  8
0
  6
CONTINUOUS
 10
72.687382
 20
146.692083
 30
0.0
  0
VERTEX
  8
0
  6
CONTINUOUS
 10
72.507071
 20
146.725463
 30
0.0
  0
SEQEND
  8
0
  6
CONTINUOUS
  0
POLYLINE
  8
0
  6
CONTINUOUS
 66
     1
 10
0.0
 20
0.0
 30
0.0
  0
VERTEX
  8
0
  6
CONTINUOUS
 10
72.321429
 20
147.026095
 30
0.0
  0
VERTEX
  8
0
  6
CONTINUOUS
 10
72.41425
 20
146.953866
 30
0.0
  0
VERTEX
  8
0
  6
CONTINUOUS
 10
72.482199
 20
146.843827
 30
0.0
  0
VERTEX
  8
0
  6
CONTINUOUS
 10
72.507071
 20
146.725463
 30
0.0
  0
SEQEND
  8
0
  6
CONTINUOUS
  0
POLYLINE
  8
0
  6
CONTINUOUS
 66
     1
 10
0.0
 20
0.0
 30
0.0
  0
VERTEX
  8
0
  6
CONTINUOUS
 10
72.321429
 20
147.026095
 30
0.0
  0
VERTEX
  8
0
  6
CONTINUOUS
 10
72.343862
 20
147.14573
 30
0.0
  0
VERTEX
  8
0
  6
CONTINUOUS
 10
72.40515
 20
147.259241
 30
0.0
  0
VERTEX
  8
0
  6
CONTINUOUS
 10
72.488871
 20
147.336215
 30
0.0
  0
SEQEND
  8
0
  6
CONTINUOUS
  0
POLYLINE
  8
0
  6
CONTINUOUS
 66
     1
 10
0.0
 20
0.0
 30
0.0
  0
VERTEX
  8
0
  6
CONTINUOUS
 10
72.488871
 20
147.336215
 30
0.0
  0
VERTEX
  8
0
  6
CONTINUOUS
 10
72.674513
 20
147.191756
 30
0.0
  0
VERTEX
  8
0
  6
CONTINUOUS
 10
72.810413
 20
146.971678
 30
0.0
  0
VERTEX
  8
0
  6
CONTINUOUS
 10
72.860155
 20
146.734951
 30
0.0
  0
SEQEND
  8
0
  6
CONTINUOUS
  0
POLYLINE
  8
0
  6
CONTINUOUS
 66
     1
 10
0.0
 20
0.0
 30
0.0
  0
VERTEX
  8
0
  6
CONTINUOUS
 10
73.161552
 20
128.135518
 30
0.0
  0
VERTEX
  8
0
  6
CONTINUOUS
 10
73.129917
 20
127.978053
 30
0.0
  0
VERTEX
  8
0
  6
CONTINUOUS
 10
73.040404
 20
127.877174
 30
0.0
  0
SEQEND
  8
0
  6
CONTINUOUS
  0
POLYLINE
  8
0
  6
CONTINUOUS
 66
     1
 10
0.0
 20
0.0
 30
0.0
  0
VERTEX
  8
0
  6
CONTINUOUS
 10
72.790268
 20
147.510424
 30
0.0
  0
VERTEX
  8
0
  6
CONTINUOUS
 10
72.97591
 20
147.365966
 30
0.0
  0
VERTEX
  8
0
  6
CONTINUOUS
 10
73.11181
 20
147.145888
 30
0.0
  0
VERTEX
  8
0
  6
CONTINUOUS
 10
73.161552
 20
146.909161
 30
0.0
  0
SEQEND
  8
0
  6
CONTINUOUS
  0
POLYLINE
  8
0
  6
CONTINUOUS
 66
     1
 10
0.0
 20
0.0
 30
0.0
  0
VERTEX
  8
0
  6
CONTINUOUS
 10
30.383618
 20
119.876846
 30
0.0
  0
VERTEX
  8
0
  6
CONTINUOUS
 10
30.304587
 20
119.585369
 30
0.0
  0
VERTEX
  8
0
  6
CONTINUOUS
 10
30.089924
 20
119.450942
 30
0.0
  0
VERTEX
  8
0
  6
CONTINUOUS
 10
29.800552
 20
119.511718
 30
0.0
  0
SEQEND
  8
0
  6
CONTINUOUS
  0
POLYLINE
  8
0
  6
CONTINUOUS
 66
     1
 10
0.0
 20
0.0
 30
0.0
  0
VERTEX
  8
0
  6
CONTINUOUS
 10
29.900948
 20
120.475153
 30
0.0
  0
VERTEX
  8
0
  6
CONTINUOUS
 10
29.933281
 20
120.598618
 30
0.0
  0
VERTEX
  8
0
  6
CONTINUOUS
 10
30.021616
 20
120.658592
 30
0.0
  0
VERTEX
  8
0
  6
CONTINUOUS
 10
30.142283
 20
120.639007
 30
0.0
  0
VERTEX
  8
0
  6
CONTINUOUS
 10
30.26295
 20
120.545109
 30
0.0
  0
VERTEX
  8
0
  6
CONTINUOUS
 10
30.351285
 20
120.402058
 30
0.0
  0
VERTEX
  8
0
  6
CONTINUOUS
 10
30.383618
 20
120.248186
 30
0.0
  0
SEQEND
  8
0
  6
CONTINUOUS
  0
POLYLINE
  8
0
  6
CONTINUOUS
 66
     1
 10
0.0
 20
0.0
 30
0.0
  0
VERTEX
  8
0
  6
CONTINUOUS
 10
29.900948
 20
120.237971
 30
0.0
  0
VERTEX
  8
0
  6
CONTINUOUS
 10
29.874605
 20
120.140812
 30
0.0
  0
VERTEX
  8
0
  6
CONTINUOUS
 10
29.80305
 20
120.096003
 30
0.0
  0
VERTEX
  8
0
  6
CONTINUOUS
 10
29.706593
 20
120.116262
 30
0.0
  0
SEQEND
  8
0
  6
CONTINUOUS
  0
POLYLINE
  8
0
  6
CONTINUOUS
 66
     1
 10
0.0
 20
0.0
 30
0.0
  0
VERTEX
  8
0
  6
CONTINUOUS
 10
25.659598
 20
122.237816
 30
0.0
  0
VERTEX
  8
0
  6
CONTINUOUS
 10
25.533997
 20
122.362711
 30
0.0
  0
VERTEX
  8
0
  6
CONTINUOUS
 10
25.482669
 20
122.534116
 30
0.0
  0
SEQEND
  8
0
  6
CONTINUOUS
  0
POLYLINE
  8
0
  6
CONTINUOUS
 66
     1
 10
0.0
 20
0.0
 30
0.0
  0
VERTEX
  8
0
  6
CONTINUOUS
 10
25.482669
 20
126.746844
 30
0.0
  0
VERTEX
  8
0
  6
CONTINUOUS
 10
25.532412
 20
126.93679
 30
0.0
  0
VERTEX
  8
0
  6
CONTINUOUS
 10
25.668311
 20
127.029059
 30
0.0
  0
VERTEX
  8
0
  6
CONTINUOUS
 10
25.853953
 20
126.998927
 30
0.0
  0
SEQEND
  8
0
  6
CONTINUOUS
  0
POLYLINE
  8
0
  6
CONTINUOUS
 66
     1
 10
0.0
 20
0.0
 30
0.0
  0
VERTEX
  8
0
  6
CONTINUOUS
 10
28.230171
 20
125.881551
 30
0.0
  0
VERTEX
  8
0
  6
CONTINUOUS
 10
28.415813
 20
125.737092
 30
0.0
  0
VERTEX
  8
0
  6
CONTINUOUS
 10
28.551712
 20
125.517015
 30
0.0
  0
VERTEX
  8
0
  6
CONTINUOUS
 10
28.601455
 20
125.280287
 30
0.0
  0
SEQEND
  8
0
  6
CONTINUOUS
  0
POLYLINE
  8
0
  6
CONTINUOUS
 66
     1
 10
0.0
 20
0.0
 30
0.0
  0
VERTEX
  8
0
  6
CONTINUOUS
 10
28.972738
 20
124.124348
 30
0.0
  0
VERTEX
  8
0
  6
CONTINUOUS
 10
28.710201
 20
124.372771
 30
0.0
  0
VERTEX
  8
0
  6
CONTINUOUS
 10
28.601455
 20
124.725611
 30
0.0
  0
SEQEND
  8
0
  6
CONTINUOUS
  0
POLYLINE
  8
0
  6
CONTINUOUS
 66
     1
 10
0.0
 20
0.0
 30
0.0
  0
VERTEX
  8
0
  6
CONTINUOUS
 10
30.32967
 20
124.254286
 30
0.0
  0
VERTEX
  8
0
  6
CONTINUOUS
 10
30.389361
 20
123.970213
 30
0.0
  0
VERTEX
  8
0
  6
CONTINUOUS
 10
30.32967
 20
123.742278
 30
0.0
  0
VERTEX
  8
0
  6
CONTINUOUS
 10
30.166591
 20
123.631555
 30
0.0
  0
VERTEX
  8
0
  6
CONTINUOUS
 10
29.943821
 20
123.667713
 30
0.0
  0
SEQEND
  8
0
  6
CONTINUOUS
  0
POLYLINE
  8
0
  6
CONTINUOUS
 66
     1
 10
0.0
 20
0.0
 30
0.0
  0
VERTEX
  8
0
  6
CONTINUOUS
 10
29.715306
 20
124.969854
 30
0.0
  0
VERTEX
  8
0
  6
CONTINUOUS
 10
29.740178
 20
125.064827
 30
0.0
  0
VERTEX
  8
0
  6
CONTINUOUS
 10
29.808127
 20
125.110962
 30
0.0
  0
VERTEX
  8
0
  6
CONTINUOUS
 10
29.900948
 20
125.095896
 30
0.0
  0
VERTEX
  8
0
  6
CONTINUOUS
 10
29.993769
 20
125.023666
 30
0.0
  0
VERTEX
  8
0
  6
CONTINUOUS
 10
30.061719
 20
124.913628
 30
0.0
  0
SEQEND
  8
0
  6
CONTINUOUS
  0
POLYLINE
  8
0
  6
CONTINUOUS
 66
     1
 10
0.0
 20
0.0
 30
0.0
  0
VERTEX
  8
0
  6
CONTINUOUS
 10
29.715306
 20
124.415178
 30
0.0
  0
VERTEX
  8
0
  6
CONTINUOUS
 10
29.705358
 20
124.377189
 30
0.0
  0
VERTEX
  8
0
  6
CONTINUOUS
 10
29.678178
 20
124.358735
 30
0.0
  0
VERTEX
  8
0
  6
CONTINUOUS
 10
29.64105
 20
124.364761
 30
0.0
  0
SEQEND
  8
0
  6
CONTINUOUS
  0
POLYLINE
  8
0
  6
CONTINUOUS
 66
     1
 10
0.0
 20
0.0
 30
0.0
  0
VERTEX
  8
0
  6
CONTINUOUS
 10
29.15838
 20
124.591728
 30
0.0
  0
VERTEX
  8
0
  6
CONTINUOUS
 10
29.121252
 20
124.62062
 30
0.0
  0
VERTEX
  8
0
  6
CONTINUOUS
 10
29.094072
 20
124.664636
 30
0.0
  0
VERTEX
  8
0
  6
CONTINUOUS
 10
29.084124
 20
124.711981
 30
0.0
  0
SEQEND
  8
0
  6
CONTINUOUS
  0
POLYLINE
  8
0
  6
CONTINUOUS
 66
     1
 10
0.0
 20
0.0
 30
0.0
  0
VERTEX
  8
0
  6
CONTINUOUS
 10
28.898482
 20
126.121965
 30
0.0
  0
VERTEX
  8
0
  6
CONTINUOUS
 10
28.991303
 20
126.049735
 30
0.0
  0
VERTEX
  8
0
  6
CONTINUOUS
 10
29.059252
 20
125.939697
 30
0.0
  0
VERTEX
  8
0
  6
CONTINUOUS
 10
29.084124
 20
125.821333
 30
0.0
  0
SEQEND
  8
0
  6
CONTINUOUS
  0
POLYLINE
  8
0
  6
CONTINUOUS
 66
     1
 10
0.0
 20
0.0
 30
0.0
  0
VERTEX
  8
0
  6
CONTINUOUS
 10
25.0
 20
127.741823
 30
0.0
  0
VERTEX
  8
0
  6
CONTINUOUS
 10
25.024871
 20
127.836796
 30
0.0
  0
VERTEX
  8
0
  6
CONTINUOUS
 10
25.092821
 20
127.882931
 30
0.0
  0
VERTEX
  8
0
  6
CONTINUOUS
 10
25.185642
 20
127.867865
 30
0.0
  0
SEQEND
  8
0
  6
CONTINUOUS
  0
POLYLINE
  8
0
  6
CONTINUOUS
 66
     1
 10
0.0
 20
0.0
 30
0.0
  0
VERTEX
  8
0
  6
CONTINUOUS
 10
25.185642
 20
115.067654
 30
0.0
  0
VERTEX
  8
0
  6
CONTINUOUS
 10
25.054373
 20
115.191866
 30
0.0
  0
VERTEX
  8
0
  6
CONTINUOUS
 10
25.0
 20
115.368286
 30
0.0
  0
SEQEND
  8
0
  6
CONTINUOUS
  0
POLYLINE
  8
0
  6
CONTINUOUS
 66
     1
 10
0.0
 20
0.0
 30
0.0
  0
VERTEX
  8
0
  6
CONTINUOUS
 10
29.084124
 20
113.447795
 30
0.0
  0
VERTEX
  8
0
  6
CONTINUOUS
 10
29.02975
 20
113.322512
 30
0.0
  0
VERTEX
  8
0
  6
CONTINUOUS
 10
28.898482
 20
113.321754
 30
0.0
  0
SEQEND
  8
0
  6
CONTINUOUS
  0
POLYLINE
  8
0
  6
CONTINUOUS
 66
     1
 10
0.0
 20
0.0
 30
0.0
  0
VERTEX
  8
0
  6
CONTINUOUS
 10
29.084124
 20
114.557147
 30
0.0
  0
VERTEX
  8
0
  6
CONTINUOUS
 10
29.105873
 20
114.607261
 30
0.0
  0
VERTEX
  8
0
  6
CONTINUOUS
 10
29.15838
 20
114.607564
 30
0.0
  0
SEQEND
  8
0
  6
CONTINUOUS
  0
POLYLINE
  8
0
  6
CONTINUOUS
 66
     1
 10
0.0
 20
0.0
 30
0.0
  0
VERTEX
  8
0
  6
CONTINUOUS
 10
29.64105
 20
114.380597
 30
0.0
  0
VERTEX
  8
0
  6
CONTINUOUS
 10
29.693557
 20
114.330912
 30
0.0
  0
VERTEX
  8
0
  6
CONTINUOUS
 10
29.715306
 20
114.260344
 30
0.0
  0
SEQEND
  8
0
  6
CONTINUOUS
  0
POLYLINE
  8
0
  6
CONTINUOUS
 66
     1
 10
0.0
 20
0.0
 30
0.0
  0
VERTEX
  8
0
  6
CONTINUOUS
 10
30.061719
 20
113.436105
 30
0.0
  0
VERTEX
  8
0
  6
CONTINUOUS
 10
29.971991
 20
113.387869
 30
0.0
  0
VERTEX
  8
0
  6
CONTINUOUS
 10
29.852901
 20
113.434899
 30
0.0
  0
VERTEX
  8
0
  6
CONTINUOUS
 10
29.753669
 20
113.557758
 30
0.0
  0
VERTEX
  8
0
  6
CONTINUOUS
 10
29.715306
 20
113.705668
 30
0.0
  0
SEQEND
  8
0
  6
CONTINUOUS
  0
POLYLINE
  8
0
  6
CONTINUOUS
 66
     1
 10
0.0
 20
0.0
 30
0.0
  0
VERTEX
  8
0
  6
CONTINUOUS
 10
29.943821
 20
114.7929
 30
0.0
  0
VERTEX
  8
0
  6
CONTINUOUS
 10
30.166591
 20
114.619549
 30
0.0
  0
VERTEX
  8
0
  6
CONTINUOUS
 10
30.32967
 20
114.355456
 30
0.0
  0
VERTEX
  8
0
  6
CONTINUOUS
 10
30.389361
 20
114.071383
 30
0.0
  0
VERTEX
  8
0
  6
CONTINUOUS
 10
30.32967
 20
113.843448
 30
0.0
  0
SEQEND
  8
0
  6
CONTINUOUS
  0
POLYLINE
  8
0
  6
CONTINUOUS
 66
     1
 10
0.0
 20
0.0
 30
0.0
  0
VERTEX
  8
0
  6
CONTINUOUS
 10
28.601455
 20
114.997451
 30
0.0
  0
VERTEX
  8
0
  6
CONTINUOUS
 10
28.651197
 20
115.187397
 30
0.0
  0
VERTEX
  8
0
  6
CONTINUOUS
 10
28.787097
 20
115.279666
 30
0.0
  0
VERTEX
  8
0
  6
CONTINUOUS
 10
28.972738
 20
115.249535
 30
0.0
  0
SEQEND
  8
0
  6
CONTINUOUS
  0
POLYLINE
  8
0
  6
CONTINUOUS
 66
     1
 10
0.0
 20
0.0
 30
0.0
  0
VERTEX
  8
0
  6
CONTINUOUS
 10
28.601455
 20
114.442775
 30
0.0
  0
VERTEX
  8
0
  6
CONTINUOUS
 10
28.551712
 20
114.252829
 30
0.0
  0
VERTEX
  8
0
  6
CONTINUOUS
 10
28.415813
 20
114.16056
 30
0.0
  0
VERTEX
  8
0
  6
CONTINUOUS
 10
28.230171
 20
114.190692
 30
0.0
  0
SEQEND
  8
0
  6
CONTINUOUS
  0
POLYLINE
  8
0
  6
CONTINUOUS
 66
     1
 10
0.0
 20
0.0
 30
0.0
  0
VERTEX
  8
0
  6
CONTINUOUS
 10
25.853953
 20
115.308068
 30
0.0
  0
VERTEX
  8
0
  6
CONTINUOUS
 10
25.591416
 20
115.556491
 30
0.0
  0
VERTEX
  8
0
  6
CONTINUOUS
 10
25.482669
 20
115.909332
 30
0.0
  0
SEQEND
  8
0
  6
CONTINUOUS
  0
POLYLINE
  8
0
  6
CONTINUOUS
 66
     1
 10
0.0
 20
0.0
 30
0.0
  0
VERTEX
  8
0
  6
CONTINUOUS
 10
25.482669
 20
120.122059
 30
0.0
  0
VERTEX
  8
0
  6
CONTINUOUS
 10
25.533997
 20
120.245192
 30
0.0
  0
VERTEX
  8
0
  6
CONTINUOUS
 10
25.659598
 20
120.251963
 30
0.0
  0
SEQEND
  8
0
  6
CONTINUOUS
  0
POLYLINE
  8
0
  6
CONTINUOUS
 66
     1
 10
0.0
 20
0.0
 30
0.0
  0
VERTEX
  8
0
  6
CONTINUOUS
 10
29.706593
 20
118.567455
 30
0.0
  0
VERTEX
  8
0
  6
CONTINUOUS
 10
29.80305
 20
118.496999
 30
0.0
  0
VERTEX
  8
0
  6
CONTINUOUS
 10
29.874605
 20
118.384895
 30
0.0
  0
VERTEX
  8
0
  6
CONTINUOUS
 10
29.900948
 20
118.262961
 30
0.0
  0
SEQEND
  8
0
  6
CONTINUOUS
  0
POLYLINE
  8
0
  6
CONTINUOUS
 66
     1
 10
0.0
 20
0.0
 30
0.0
  0
VERTEX
  8
0
  6
CONTINUOUS
 10
30.383618
 20
117.8067
 30
0.0
  0
VERTEX
  8
0
  6
CONTINUOUS
 10
30.351285
 20
117.683235
 30
0.0
  0
VERTEX
  8
0
  6
CONTINUOUS
 10
30.26295
 20
117.62326
 30
0.0
  0
VERTEX
  8
0
  6
CONTINUOUS
 10
30.142283
 20
117.642846
 30
0.0
  0
VERTEX
  8
0
  6
CONTINUOUS
 10
30.021616
 20
117.736744
 30
0.0
  0
VERTEX
  8
0
  6
CONTINUOUS
 10
29.933281
 20
117.879794
 30
0.0
  0
VERTEX
  8
0
  6
CONTINUOUS
 10
29.900948
 20
118.033667
 30
0.0
  0
SEQEND
  8
0
  6
CONTINUOUS
  0
POLYLINE
  8
0
  6
CONTINUOUS
 66
     1
 10
0.0
 20
0.0
 30
0.0
  0
VERTEX
  8
0
  6
CONTINUOUS
 10
29.800552
 20
119.083633
 30
0.0
  0
VERTEX
  8
0
  6
CONTINUOUS
 10
30.089924
 20
118.872265
 30
0.0
  0
VERTEX
  8
0
  6
CONTINUOUS
 10
30.304587
 20
118.535955
 30
0.0
  0
VERTEX
  8
0
  6
CONTINUOUS
 10
30.383618
 20
118.170152
 30
0.0
  0
SEQEND
  8
0
  6
CONTINUOUS
  0
POLYLINE
  8
0
  6
CONTINUOUS
 66
     1
 10
0.0
 20
0.0
 30
0.0
  0
VERTEX
  8
0
  6
CONTINUOUS
 10
25.871379
 20
120.7191
 30
0.0
  0
VERTEX
  8
0
  6
CONTINUOUS
 10
25.678465
 20
120.860012
 30
0.0
  0
VERTEX
  8
0
  6
CONTINUOUS
 10
25.535356
 20
121.084219
 30
0.0
  0
VERTEX
  8
0
  6
CONTINUOUS
 10
25.482669
 20
121.328088
 30
0.0
  0
VERTEX
  8
0
  6
CONTINUOUS
 10
25.535356
 20
121.522406
 30
0.0
  0
VERTEX
  8
0
  6
CONTINUOUS
 10
25.678465
 20
121.612024
 30
0.0
  0
VERTEX
  8
0
  6
CONTINUOUS
 10
25.871379
 20
121.571507
 30
0.0
  0
SEQEND
  8
0
  6
CONTINUOUS
  0
POLYLINE
  8
0
  6
CONTINUOUS
 66
     1
 10
0.0
 20
0.0
 30
0.0
  0
VERTEX
  8
0
  6
CONTINUOUS
 10
30.717773
 20
125.266473
 30
0.0
  0
VERTEX
  8
0
  6
CONTINUOUS
 10
30.810594
 20
125.194244
 30
0.0
  0
VERTEX
  8
0
  6
CONTINUOUS
 10
30.878544
 20
125.084205
 30
0.0
  0
VERTEX
  8
0
  6
CONTINUOUS
 10
30.903415
 20
124.965842
 30
0.0
  0
SEQEND
  8
0
  6
CONTINUOUS
  0
POLYLINE
  8
0
  6
CONTINUOUS
 66
     1
 10
0.0
 20
0.0
 30
0.0
  0
VERTEX
  8
0
  6
CONTINUOUS
 10
29.084124
 20
125.821333
 30
0.0
  0
VERTEX
  8
0
  6
CONTINUOUS
 10
29.108995
 20
125.916306
 30
0.0
  0
VERTEX
  8
0
  6
CONTINUOUS
 10
29.176945
 20
125.96244
 30
0.0
  0
VERTEX
  8
0
  6
CONTINUOUS
 10
29.269766
 20
125.947375
 30
0.0
  0
SEQEND
  8
0
  6
CONTINUOUS
  0
POLYLINE
  8
0
  6
CONTINUOUS
 66
     1
 10
0.0
 20
0.0
 30
0.0
  0
VERTEX
  8
0
  6
CONTINUOUS
 10
29.566793
 20
124.826353
 30
0.0
  0
VERTEX
  8
0
  6
CONTINUOUS
 10
29.520702
 20
124.685011
 30
0.0
  0
VERTEX
  8
0
  6
CONTINUOUS
 10
29.400035
 20
124.641004
 30
0.0
  0
VERTEX
  8
0
  6
CONTINUOUS
 10
29.250882
 20
124.711141
 30
0.0
  0
VERTEX
  8
0
  6
CONTINUOUS
 10
29.130214
 20
124.868632
 30
0.0
  0
VERTEX
  8
0
  6
CONTINUOUS
 10
29.084124
 20
125.05332
 30
0.0
  0
SEQEND
  8
0
  6
CONTINUOUS
  0
POLYLINE
  8
0
  6
CONTINUOUS
 66
     1
 10
0.0
 20
0.0
 30
0.0
  0
VERTEX
  8
0
  6
CONTINUOUS
 10
29.566793
 20
125.03969
 30
0.0
  0
VERTEX
  8
0
  6
CONTINUOUS
 10
29.591664
 20
125.134663
 30
0.0
  0
VERTEX
  8
0
  6
CONTINUOUS
 10
29.659614
 20
125.180798
 30
0.0
  0
VERTEX
  8
0
  6
CONTINUOUS
 10
29.752435
 20
125.165732
 30
0.0
  0
SEQEND
  8
0
  6
CONTINUOUS
  0
POLYLINE
  8
0
  6
CONTINUOUS
 66
     1
 10
0.0
 20
0.0
 30
0.0
  0
VERTEX
  8
0
  6
CONTINUOUS
 10
30.235104
 20
124.938765
 30
0.0
  0
VERTEX
  8
0
  6
CONTINUOUS
 10
30.327925
 20
124.866535
 30
0.0
  0
VERTEX
  8
0
  6
CONTINUOUS
 10
30.395875
 20
124.756497
 30
0.0
  0
VERTEX
  8
0
  6
CONTINUOUS
 10
30.420746
 20
124.638133
 30
0.0
  0
SEQEND
  8
0
  6
CONTINUOUS
  0
POLYLINE
  8
0
  6
CONTINUOUS
 66
     1
 10
0.0
 20
0.0
 30
0.0
  0
VERTEX
  8
0
  6
CONTINUOUS
 10
30.420746
 20
113.373947
 30
0.0
  0
VERTEX
  8
0
  6
CONTINUOUS
 10
30.395875
 20
113.278974
 30
0.0
  0
VERTEX
  8
0
  6
CONTINUOUS
 10
30.327925
 20
113.23284
 30
0.0
  0
VERTEX
  8
0
  6
CONTINUOUS
 10
30.235104
 20
113.247905
 30
0.0
  0
SEQEND
  8
0
  6
CONTINUOUS
  0
POLYLINE
  8
0
  6
CONTINUOUS
 66
     1
 10
0.0
 20
0.0
 30
0.0
  0
VERTEX
  8
0
  6
CONTINUOUS
 10
29.659614
 20
113.51852
 30
0.0
  0
VERTEX
  8
0
  6
CONTINUOUS
 10
29.593979
 20
113.580626
 30
0.0
  0
VERTEX
  8
0
  6
CONTINUOUS
 10
29.566793
 20
113.668836
 30
0.0
  0
SEQEND
  8
0
  6
CONTINUOUS
  0
POLYLINE
  8
0
  6
CONTINUOUS
 66
     1
 10
0.0
 20
0.0
 30
0.0
  0
VERTEX
  8
0
  6
CONTINUOUS
 10
29.084124
 20
114.365144
 30
0.0
  0
VERTEX
  8
0
  6
CONTINUOUS
 10
29.116456
 20
114.488609
 30
0.0
  0
VERTEX
  8
0
  6
CONTINUOUS
 10
29.204791
 20
114.548584
 30
0.0
  0
VERTEX
  8
0
  6
CONTINUOUS
 10
29.325458
 20
114.528998
 30
0.0
  0
VERTEX
  8
0
  6
CONTINUOUS
 10
29.446126
 20
114.4351
 30
0.0
  0
VERTEX
  8
0
  6
CONTINUOUS
 10
29.53446
 20
114.29205
 30
0.0
  0
VERTEX
  8
0
  6
CONTINUOUS
 10
29.566793
 20
114.138177
 30
0.0
  0
SEQEND
  8
0
  6
CONTINUOUS
  0
POLYLINE
  8
0
  6
CONTINUOUS
 66
     1
 10
0.0
 20
0.0
 30
0.0
  0
VERTEX
  8
0
  6
CONTINUOUS
 10
29.269766
 20
113.147164
 30
0.0
  0
VERTEX
  8
0
  6
CONTINUOUS
 10
29.138497
 20
113.271375
 30
0.0
  0
VERTEX
  8
0
  6
CONTINUOUS
 10
29.084124
 20
113.447795
 30
0.0
  0
SEQEND
  8
0
  6
CONTINUOUS
  0
POLYLINE
  8
0
  6
CONTINUOUS
 66
     1
 10
0.0
 20
0.0
 30
0.0
  0
VERTEX
  8
0
  6
CONTINUOUS
 10
30.903415
 20
112.592304
 30
0.0
  0
VERTEX
  8
0
  6
CONTINUOUS
 10
30.878544
 20
112.497331
 30
0.0
  0
VERTEX
  8
0
  6
CONTINUOUS
 10
30.810594
 20
112.451197
 30
0.0
  0
VERTEX
  8
0
  6
CONTINUOUS
 10
30.717773
 20
112.466262
 30
0.0
  0
SEQEND
  8
0
  6
CONTINUOUS
  0
POLYLINE
  8
0
  6
CONTINUOUS
 66
     1
 10
0.0
 20
0.0
 30
0.0
  0
VERTEX
  8
0
  6
CONTINUOUS
 10
100.733119
 20
160.953854
 30
0.0
  0
VERTEX
  8
0
  6
CONTINUOUS
 10
101.05511
 20
160.836771
 30
0.0
  0
SEQEND
  8
0
  6
CONTINUOUS
  0
POLYLINE
  8
0
  6
CONTINUOUS
 66
     1
 10
0.0
 20
0.0
 30
0.0
  0
VERTEX
  8
0
  6
CONTINUOUS
 10
101.05511
 20
160.836771
 30
0.0
  0
VERTEX
  8
0
  6
CONTINUOUS
 10
100.922962
 20
160.326549
 30
0.0
  0
VERTEX
  8
0
  6
CONTINUOUS
 10
100.690983
 20
160.086571
 30
0.0
  0
VERTEX
  8
0
  6
CONTINUOUS
 10
100.506729
 20
159.951251
 30
0.0
  0
SEQEND
  8
0
  6
CONTINUOUS
  0
POLYLINE
  8
0
  6
CONTINUOUS
 66
     1
 10
0.0
 20
0.0
 30
0.0
  0
VERTEX
  8
0
  6
CONTINUOUS
 10
80.427277
 20
149.216928
 30
0.0
  0
VERTEX
  8
0
  6
CONTINUOUS
 10
80.44909
 20
148.920713
 30
0.0
  0
SEQEND
  8
0
  6
CONTINUOUS
  0
POLYLINE
  8
0
  6
CONTINUOUS
 66
     1
 10
0.0
 20
0.0
 30
0.0
  0
VERTEX
  8
0
  6
CONTINUOUS
 10
78.758846
 20
149.207509
 30
0.0
  0
VERTEX
  8
0
  6
CONTINUOUS
 10
79.020672
 20
149.109997
 30
0.0
  0
VERTEX
  8
0
  6
CONTINUOUS
 10
79.481641
 20
148.987711
 30
0.0
  0
VERTEX
  8
0
  6
CONTINUOUS
 10
80.44909
 20
148.920713
 30
0.0
  0
SEQEND
  8
0
  6
CONTINUOUS
  0
POLYLINE
  8
0
  6
CONTINUOUS
 66
     1
 10
0.0
 20
0.0
 30
0.0
  0
VERTEX
  8
0
  6
CONTINUOUS
 10
80.451548
 20
148.538312
 30
0.0
  0
VERTEX
  8
0
  6
CONTINUOUS
 10
80.44909
 20
148.920713
 30
0.0
  0
SEQEND
  8
0
  6
CONTINUOUS
  0
POLYLINE
  8
0
  6
CONTINUOUS
 66
     1
 10
0.0
 20
0.0
 30
0.0
  0
VERTEX
  8
0
  6
CONTINUOUS
 10
80.44909
 20
148.920713
 30
0.0
  0
VERTEX
  8
0
  6
CONTINUOUS
 10
81.393469
 20
149.036086
 30
0.0
  0
VERTEX
  8
0
  6
CONTINUOUS
 10
81.822167
 20
149.179659
 30
0.0
  0
VERTEX
  8
0
  6
CONTINUOUS
 10
82.058936
 20
149.288292
 30
0.0
  0
SEQEND
  8
0
  6
CONTINUOUS
  0
POLYLINE
  8
0
  6
CONTINUOUS
 66
     1
 10
0.0
 20
0.0
 30
0.0
  0
VERTEX
  8
0
  6
CONTINUOUS
 10
100.117528
 20
161.683882
 30
0.0
  0
VERTEX
  8
0
  6
CONTINUOUS
 10
100.328063
 20
161.702581
 30
0.0
  0
SEQEND
  8
0
  6
CONTINUOUS
  0
POLYLINE
  8
0
  6
CONTINUOUS
 66
     1
 10
0.0
 20
0.0
 30
0.0
  0
VERTEX
  8
0
  6
CONTINUOUS
 10
78.758846
 20
149.207509
 30
0.0
  0
VERTEX
  8
0
  6
CONTINUOUS
 10
78.990754
 20
149.472452
 30
0.0
  0
SEQEND
  8
0
  6
CONTINUOUS
  0
POLYLINE
  8
0
  6
CONTINUOUS
 66
     1
 10
0.0
 20
0.0
 30
0.0
  0
VERTEX
  8
0
  6
CONTINUOUS
 10
78.655881
 20
148.852236
 30
0.0
  0
VERTEX
  8
0
  6
CONTINUOUS
 10
78.758846
 20
149.207509
 30
0.0
  0
SEQEND
  8
0
  6
CONTINUOUS
  0
POLYLINE
  8
0
  6
CONTINUOUS
 66
     1
 10
0.0
 20
0.0
 30
0.0
  0
VERTEX
  8
0
  6
CONTINUOUS
 10
100.618257
 20
159.602893
 30
0.0
  0
VERTEX
  8
0
  6
CONTINUOUS
 10
101.074523
 20
160.009248
 30
0.0
  0
VERTEX
  8
0
  6
CONTINUOUS
 10
101.224951
 20
160.476609
 30
0.0
  0
SEQEND
  8
0
  6
CONTINUOUS
  0
POLYLINE
  8
0
  6
CONTINUOUS
 66
     1
 10
0.0
 20
0.0
 30
0.0
  0
VERTEX
  8
0
  6
CONTINUOUS
 10
78.655881
 20
148.852236
 30
0.0
  0
VERTEX
  8
0
  6
CONTINUOUS
 10
79.493417
 20
148.604087
 30
0.0
  0
VERTEX
  8
0
  6
CONTINUOUS
 10
80.451548
 20
148.538312
 30
0.0
  0
SEQEND
  8
0
  6
CONTINUOUS
  0
POLYLINE
  8
0
  6
CONTINUOUS
 66
     1
 10
0.0
 20
0.0
 30
0.0
  0
VERTEX
  8
0
  6
CONTINUOUS
 10
80.451548
 20
148.538312
 30
0.0
  0
VERTEX
  8
0
  6
CONTINUOUS
 10
81.390492
 20
148.651424
 30
0.0
  0
VERTEX
  8
0
  6
CONTINUOUS
 10
82.170464
 20
148.939934
 30
0.0
  0
SEQEND
  8
0
  6
CONTINUOUS
  0
POLYLINE
  8
0
  6
CONTINUOUS
 66
     1
 10
0.0
 20
0.0
 30
0.0
  0
VERTEX
  8
0
  6
CONTINUOUS
 10
82.058936
 20
149.288292
 30
0.0
  0
VERTEX
  8
0
  6
CONTINUOUS
 10
82.170464
 20
148.939934
 30
0.0
  0
SEQEND
  8
0
  6
CONTINUOUS
  0
POLYLINE
  8
0
  6
CONTINUOUS
 66
     1
 10
0.0
 20
0.0
 30
0.0
  0
VERTEX
  8
0
  6
CONTINUOUS
 10
81.80242
 20
149.539658
 30
0.0
  0
VERTEX
  8
0
  6
CONTINUOUS
 10
82.058936
 20
149.288292
 30
0.0
  0
SEQEND
  8
0
  6
CONTINUOUS
  0
POLYLINE
  8
0
  6
CONTINUOUS
 66
     1
 10
0.0
 20
0.0
 30
0.0
  0
VERTEX
  8
0
  6
CONTINUOUS
 10
100.506729
 20
159.951251
 30
0.0
  0
VERTEX
  8
0
  6
CONTINUOUS
 10
100.250213
 20
160.202617
 30
0.0
  0
SEQEND
  8
0
  6
CONTINUOUS
  0
POLYLINE
  8
0
  6
CONTINUOUS
 66
     1
 10
0.0
 20
0.0
 30
0.0
  0
VERTEX
  8
0
  6
CONTINUOUS
 10
100.618257
 20
159.602893
 30
0.0
  0
VERTEX
  8
0
  6
CONTINUOUS
 10
100.506729
 20
159.951251
 30
0.0
  0
SEQEND
  8
0
  6
CONTINUOUS
  0
POLYLINE
  8
0
  6
CONTINUOUS
 66
     1
 10
0.0
 20
0.0
 30
0.0
  0
VERTEX
  8
0
  6
CONTINUOUS
 10
78.787626
 20
121.679566
 30
0.0
  0
VERTEX
  8
0
  6
CONTINUOUS
 10
78.758846
 20
121.695939
 30
0.0
  0
SEQEND
  8
0
  6
CONTINUOUS
  0
POLYLINE
  8
0
  6
CONTINUOUS
 66
     1
 10
0.0
 20
0.0
 30
0.0
  0
VERTEX
  8
0
  6
CONTINUOUS
 10
78.655881
 20
121.93485
 30
0.0
  0
VERTEX
  8
0
  6
CONTINUOUS
 10
78.655881
 20
121.951091
 30
0.0
  0
VERTEX
  8
0
  6
CONTINUOUS
 10
78.655881
 20
135.393543
 30
0.0
  0
VERTEX
  8
0
  6
CONTINUOUS
 10
78.655881
 20
148.835996
 30
0.0
  0
VERTEX
  8
0
  6
CONTINUOUS
 10
78.655881
 20
148.852236
 30
0.0
  0
SEQEND
  8
0
  6
CONTINUOUS
  0
POLYLINE
  8
0
  6
CONTINUOUS
 66
     1
 10
0.0
 20
0.0
 30
0.0
  0
VERTEX
  8
0
  6
CONTINUOUS
 10
78.655881
 20
121.93485
 30
0.0
  0
VERTEX
  8
0
  6
CONTINUOUS
 10
71.152159
 20
125.327254
 30
0.0
  0
VERTEX
  8
0
  6
CONTINUOUS
 10
61.800263
 20
129.55521
 30
0.0
  0
SEQEND
  8
0
  6
CONTINUOUS
  0
POLYLINE
  8
0
  6
CONTINUOUS
 66
     1
 10
0.0
 20
0.0
 30
0.0
  0
VERTEX
  8
0
  6
CONTINUOUS
 10
61.800263
 20
156.808038
 30
0.0
  0
VERTEX
  8
0
  6
CONTINUOUS
 10
71.152159
 20
152.393971
 30
0.0
  0
VERTEX
  8
0
  6
CONTINUOUS
 10
78.655881
 20
148.852236
 30
0.0
  0
SEQEND
  8
0
  6
CONTINUOUS
  0
POLYLINE
  8
0
  6
CONTINUOUS
 66
     1
 10
0.0
 20
0.0
 30
0.0
  0
VERTEX
  8
0
  6
CONTINUOUS
 10
96.335366
 20
136.724452
 30
0.0
  0
VERTEX
  8
0
  6
CONTINUOUS
 10
96.341809
 20
136.725601
 30
0.0
  0
SEQEND
  8
0
  6
CONTINUOUS
  0
POLYLINE
  8
0
  6
CONTINUOUS
 66
     1
 10
0.0
 20
0.0
 30
0.0
  0
VERTEX
  8
0
  6
CONTINUOUS
 10
96.219059
 20
136.577826
 30
0.0
  0
VERTEX
  8
0
  6
CONTINUOUS
 10
96.341809
 20
136.725601
 30
0.0
  0
SEQEND
  8
0
  6
CONTINUOUS
  0
POLYLINE
  8
0
  6
CONTINUOUS
 66
     1
 10
0.0
 20
0.0
 30
0.0
  0
VERTEX
  8
0
  6
CONTINUOUS
 10
96.422343
 20
136.696458
 30
0.0
  0
VERTEX
  8
0
  6
CONTINUOUS
 10
96.300318
 20
136.567455
 30
0.0
  0
SEQEND
  8
0
  6
CONTINUOUS
  0
POLYLINE
  8
0
  6
CONTINUOUS
 66
     1
 10
0.0
 20
0.0
 30
0.0
  0
VERTEX
  8
0
  6
CONTINUOUS
 10
96.467124
 20
136.876395
 30
0.0
  0
VERTEX
  8
0
  6
CONTINUOUS
 10
97.37361
 20
136.467675
 30
0.0
  0
VERTEX
  8
0
  6
CONTINUOUS
 10
98.465556
 20
135.975333
 30
0.0
  0
SEQEND
  8
0
  6
CONTINUOUS
  0
POLYLINE
  8
0
  6
CONTINUOUS
 66
     1
 10
0.0
 20
0.0
 30
0.0
  0
VERTEX
  8
0
  6
CONTINUOUS
 10
96.300318
 20
136.567455
 30
0.0
  0
VERTEX
  8
0
  6
CONTINUOUS
 10
96.1941
 20
136.561941
 30
0.0
  0
SEQEND
  8
0
  6
CONTINUOUS
  0
POLYLINE
  8
0
  6
CONTINUOUS
 66
     1
 10
0.0
 20
0.0
 30
0.0
  0
VERTEX
  8
0
  6
CONTINUOUS
 10
93.788041
 20
134.583995
 30
0.0
  0
VERTEX
  8
0
  6
CONTINUOUS
 10
93.791021
 20
134.582
 30
0.0
  0
VERTEX
  8
0
  6
CONTINUOUS
 10
93.794001
 20
134.580079
 30
0.0
  0
VERTEX
  8
0
  6
CONTINUOUS
 10
93.796981
 20
134.578233
 30
0.0
  0
VERTEX
  8
0
  6
CONTINUOUS
 10
93.79996
 20
134.576463
 30
0.0
  0
SEQEND
  8
0
  6
CONTINUOUS
  0
POLYLINE
  8
0
  6
CONTINUOUS
 66
     1
 10
0.0
 20
0.0
 30
0.0
  0
VERTEX
  8
0
  6
CONTINUOUS
 10
93.788041
 20
135.11534
 30
0.0
  0
VERTEX
  8
0
  6
CONTINUOUS
 10
93.733657
 20
135.134101
 30
0.0
  0
VERTEX
  8
0
  6
CONTINUOUS
 10
93.721022
 20
135.130588
 30
0.0
  0
SEQEND
  8
0
  6
CONTINUOUS
  0
POLYLINE
  8
0
  6
CONTINUOUS
 66
     1
 10
0.0
 20
0.0
 30
0.0
  0
VERTEX
  8
0
  6
CONTINUOUS
 10
93.721022
 20
134.747243
 30
0.0
  0
VERTEX
  8
0
  6
CONTINUOUS
 10
93.733741
 20
134.66142
 30
0.0
  0
VERTEX
  8
0
  6
CONTINUOUS
 10
93.788041
 20
134.583995
 30
0.0
  0
SEQEND
  8
0
  6
CONTINUOUS
  0
POLYLINE
  8
0
  6
CONTINUOUS
 66
     1
 10
0.0
 20
0.0
 30
0.0
  0
VERTEX
  8
0
  6
CONTINUOUS
 10
96.300318
 20
136.567455
 30
0.0
  0
VERTEX
  8
0
  6
CONTINUOUS
 10
97.206804
 20
136.158735
 30
0.0
  0
VERTEX
  8
0
  6
CONTINUOUS
 10
98.29875
 20
135.666394
 30
0.0
  0
SEQEND
  8
0
  6
CONTINUOUS
  0
POLYLINE
  8
0
  6
CONTINUOUS
 66
     1
 10
0.0
 20
0.0
 30
0.0
  0
VERTEX
  8
0
  6
CONTINUOUS
 10
93.788041
 20
135.11534
 30
0.0
  0
VERTEX
  8
0
  6
CONTINUOUS
 10
95.140955
 20
135.897335
 30
0.0
  0
VERTEX
  8
0
  6
CONTINUOUS
 10
96.300318
 20
136.567455
 30
0.0
  0
SEQEND
  8
0
  6
CONTINUOUS
  0
POLYLINE
  8
0
  6
CONTINUOUS
 66
     1
 10
0.0
 20
0.0
 30
0.0
  0
VERTEX
  8
0
  6
CONTINUOUS
 10
98.29875
 20
135.666394
 30
0.0
  0
VERTEX
  8
0
  6
CONTINUOUS
 10
98.298421
 20
135.666214
 30
0.0
  0
VERTEX
  8
0
  6
CONTINUOUS
 10
98.298099
 20
135.666032
 30
0.0
  0
SEQEND
  8
0
  6
CONTINUOUS
  0
POLYLINE
  8
0
  6
CONTINUOUS
 66
     1
 10
0.0
 20
0.0
 30
0.0
  0
VERTEX
  8
0
  6
CONTINUOUS
 10
98.465556
 20
135.975333
 30
0.0
  0
VERTEX
  8
0
  6
CONTINUOUS
 10
98.442312
 20
135.892023
 30
0.0
  0
VERTEX
  8
0
  6
CONTINUOUS
 10
98.397343
 20
135.806136
 30
0.0
  0
VERTEX
  8
0
  6
CONTINUOUS
 10
98.351837
 20
135.724431
 30
0.0
  0
VERTEX
  8
0
  6
CONTINUOUS
 10
98.29875
 20
135.666394
 30
0.0
  0
SEQEND
  8
0
  6
CONTINUOUS
  0
POLYLINE
  8
0
  6
CONTINUOUS
 66
     1
 10
0.0
 20
0.0
 30
0.0
  0
VERTEX
  8
0
  6
CONTINUOUS
 10
98.465556
 20
135.975333
 30
0.0
  0
VERTEX
  8
0
  6
CONTINUOUS
 10
98.465545
 20
135.975745
 30
0.0
  0
VERTEX
  8
0
  6
CONTINUOUS
 10
98.465542
 20
135.976152
 30
0.0
  0
SEQEND
  8
0
  6
CONTINUOUS
  0
POLYLINE
  8
0
  6
CONTINUOUS
 66
     1
 10
0.0
 20
0.0
 30
0.0
  0
VERTEX
  8
0
  6
CONTINUOUS
 10
100.250213
 20
160.202617
 30
0.0
  0
VERTEX
  8
0
  6
CONTINUOUS
 10
91.026317
 20
154.871137
 30
0.0
  0
VERTEX
  8
0
  6
CONTINUOUS
 10
81.80242
 20
149.539658
 30
0.0
  0
SEQEND
  8
0
  6
CONTINUOUS
  0
POLYLINE
  8
0
  6
CONTINUOUS
 66
     1
 10
0.0
 20
0.0
 30
0.0
  0
VERTEX
  8
0
  6
CONTINUOUS
 10
81.80242
 20
149.539658
 30
0.0
  0
VERTEX
  8
0
  6
CONTINUOUS
 10
81.178434
 20
149.307346
 30
0.0
  0
VERTEX
  8
0
  6
CONTINUOUS
 10
80.427277
 20
149.216928
 30
0.0
  0
SEQEND
  8
0
  6
CONTINUOUS
  0
POLYLINE
  8
0
  6
CONTINUOUS
 66
     1
 10
0.0
 20
0.0
 30
0.0
  0
VERTEX
  8
0
  6
CONTINUOUS
 10
80.427277
 20
149.216928
 30
0.0
  0
VERTEX
  8
0
  6
CONTINUOUS
 10
79.660774
 20
149.271074
 30
0.0
  0
VERTEX
  8
0
  6
CONTINUOUS
 10
78.990754
 20
149.472452
 30
0.0
  0
SEQEND
  8
0
  6
CONTINUOUS
  0
POLYLINE
  8
0
  6
CONTINUOUS
 66
     1
 10
0.0
 20
0.0
 30
0.0
  0
VERTEX
  8
0
  6
CONTINUOUS
 10
62.135135
 20
157.428255
 30
0.0
  0
VERTEX
  8
0
  6
CONTINUOUS
 10
71.487032
 20
153.014187
 30
0.0
  0
VERTEX
  8
0
  6
CONTINUOUS
 10
78.990754
 20
149.472452
 30
0.0
  0
SEQEND
  8
0
  6
CONTINUOUS
  0
POLYLINE
  8
0
  6
CONTINUOUS
 66
     1
 10
0.0
 20
0.0
 30
0.0
  0
VERTEX
  8
0
  6
CONTINUOUS
 10
100.117528
 20
161.683882
 30
0.0
  0
VERTEX
  8
0
  6
CONTINUOUS
 10
92.731012
 20
165.293363
 30
0.0
  0
VERTEX
  8
0
  6
CONTINUOUS
 10
83.525189
 20
169.791862
 30
0.0
  0
SEQEND
  8
0
  6
CONTINUOUS
  0
POLYLINE
  8
0
  6
CONTINUOUS
 66
     1
 10
0.0
 20
0.0
 30
0.0
  0
VERTEX
  8
0
  6
CONTINUOUS
 10
100.117528
 20
161.683882
 30
0.0
  0
VERTEX
  8
0
  6
CONTINUOUS
 10
100.559993
 20
161.350976
 30
0.0
  0
VERTEX
  8
0
  6
CONTINUOUS
 10
100.733119
 20
160.953854
 30
0.0
  0
SEQEND
  8
0
  6
CONTINUOUS
  0
POLYLINE
  8
0
  6
CONTINUOUS
 66
     1
 10
0.0
 20
0.0
 30
0.0
  0
VERTEX
  8
0
  6
CONTINUOUS
 10
100.733119
 20
160.953854
 30
0.0
  0
VERTEX
  8
0
  6
CONTINUOUS
 10
100.631621
 20
160.55143
 30
0.0
  0
VERTEX
  8
0
  6
CONTINUOUS
 10
100.250213
 20
160.202617
 30
0.0
  0
SEQEND
  8
0
  6
CONTINUOUS
  0
POLYLINE
  8
0
  6
CONTINUOUS
 66
     1
 10
0.0
 20
0.0
 30
0.0
  0
VERTEX
  8
0
  6
CONTINUOUS
 10
83.525189
 20
169.791862
 30
0.0
  0
VERTEX
  8
0
  6
CONTINUOUS
 10
83.651644
 20
169.829615
 30
0.0
  0
VERTEX
  8
0
  6
CONTINUOUS
 10
83.734538
 20
169.811126
 30
0.0
  0
SEQEND
  8
0
  6
CONTINUOUS
  0
POLYLINE
  8
0
  6
CONTINUOUS
 66
     1
 10
0.0
 20
0.0
 30
0.0
  0
VERTEX
  8
0
  6
CONTINUOUS
 10
96.422343
 20
136.696458
 30
0.0
  0
VERTEX
  8
0
  6
CONTINUOUS
 10
96.341809
 20
136.725601
 30
0.0
  0
SEQEND
  8
0
  6
CONTINUOUS
  0
POLYLINE
  8
0
  6
CONTINUOUS
 66
     1
 10
0.0
 20
0.0
 30
0.0
  0
VERTEX
  8
0
  6
CONTINUOUS
 10
96.341809
 20
136.725601
 30
0.0
  0
VERTEX
  8
0
  6
CONTINUOUS
 10
96.403156
 20
136.964189
 30
0.0
  0
SEQEND
  8
0
  6
CONTINUOUS
  0
POLYLINE
  8
0
  6
CONTINUOUS
 66
     1
 10
0.0
 20
0.0
 30
0.0
  0
VERTEX
  8
0
  6
CONTINUOUS
 10
96.467124
 20
136.876395
 30
0.0
  0
VERTEX
  8
0
  6
CONTINUOUS
 10
96.422343
 20
136.696458
 30
0.0
  0
SEQEND
  8
0
  6
CONTINUOUS
  0
POLYLINE
  8
0
  6
CONTINUOUS
 66
     1
 10
0.0
 20
0.0
 30
0.0
  0
VERTEX
  8
0
  6
CONTINUOUS
 10
96.467124
 20
136.876395
 30
0.0
  0
VERTEX
  8
0
  6
CONTINUOUS
 10
96.467124
 20
146.695501
 30
0.0
  0
VERTEX
  8
0
  6
CONTINUOUS
 10
96.467124
 20
153.572709
 30
0.0
  0
SEQEND
  8
0
  6
CONTINUOUS
  0
POLYLINE
  8
0
  6
CONTINUOUS
 66
     1
 10
0.0
 20
0.0
 30
0.0
  0
VERTEX
  8
0
  6
CONTINUOUS
 10
96.403156
 20
136.964189
 30
0.0
  0
VERTEX
  8
0
  6
CONTINUOUS
 10
96.467124
 20
136.876395
 30
0.0
  0
SEQEND
  8
0
  6
CONTINUOUS
  0
POLYLINE
  8
0
  6
CONTINUOUS
 66
     1
 10
0.0
 20
0.0
 30
0.0
  0
VERTEX
  8
0
  6
CONTINUOUS
 10
96.403148
 20
136.965306
 30
0.0
  0
VERTEX
  8
0
  6
CONTINUOUS
 10
96.403156
 20
136.964189
 30
0.0
  0
SEQEND
  8
0
  6
CONTINUOUS
  0
POLYLINE
  8
0
  6
CONTINUOUS
 66
     1
 10
0.0
 20
0.0
 30
0.0
  0
VERTEX
  8
0
  6
CONTINUOUS
 10
83.85944
 20
126.65875
 30
0.0
  0
VERTEX
  8
0
  6
CONTINUOUS
 10
83.775719
 20
126.63894
 30
0.0
  0
VERTEX
  8
0
  6
CONTINUOUS
 10
83.71443
 20
126.681602
 30
0.0
  0
VERTEX
  8
0
  6
CONTINUOUS
 10
83.691997
 20
126.775304
 30
0.0
  0
SEQEND
  8
0
  6
CONTINUOUS
  0
POLYLINE
  8
0
  6
CONTINUOUS
 66
     1
 10
0.0
 20
0.0
 30
0.0
  0
VERTEX
  8
0
  6
CONTINUOUS
 10
99.096724
 20
135.679349
 30
0.0
  0
VERTEX
  8
0
  6
CONTINUOUS
 10
99.074291
 20
135.559714
 30
0.0
  0
VERTEX
  8
0
  6
CONTINUOUS
 10
99.013003
 20
135.446202
 30
0.0
  0
VERTEX
  8
0
  6
CONTINUOUS
 10
98.929282
 20
135.369229
 30
0.0
  0
SEQEND
  8
0
  6
CONTINUOUS
  0
POLYLINE
  8
0
  6
CONTINUOUS
 66
     1
 10
0.0
 20
0.0
 30
0.0
  0
VERTEX
  8
0
  6
CONTINUOUS
 10
98.929282
 20
154.996219
 30
0.0
  0
VERTEX
  8
0
  6
CONTINUOUS
 10
99.047682
 20
155.00217
 30
0.0
  0
VERTEX
  8
0
  6
CONTINUOUS
 10
99.096724
 20
154.879665
 30
0.0
  0
SEQEND
  8
0
  6
CONTINUOUS
  0
POLYLINE
  8
0
  6
CONTINUOUS
 66
     1
 10
0.0
 20
0.0
 30
0.0
  0
VERTEX
  8
0
  6
CONTINUOUS
 10
82.170464
 20
122.052076
 30
0.0
  0
VERTEX
  8
0
  6
CONTINUOUS
 10
82.170464
 20
122.053553
 30
0.0
  0
VERTEX
  8
0
  6
CONTINUOUS
 10
82.170464
 20
135.496005
 30
0.0
  0
VERTEX
  8
0
  6
CONTINUOUS
 10
82.170464
 20
148.938457
 30
0.0
  0
VERTEX
  8
0
  6
CONTINUOUS
 10
82.170464
 20
148.939934
 30
0.0
  0
SEQEND
  8
0
  6
CONTINUOUS
  0
POLYLINE
  8
0
  6
CONTINUOUS
 66
     1
 10
0.0
 20
0.0
 30
0.0
  0
VERTEX
  8
0
  6
CONTINUOUS
 10
100.618257
 20
159.602893
 30
0.0
  0
VERTEX
  8
0
  6
CONTINUOUS
 10
91.394361
 20
154.271413
 30
0.0
  0
VERTEX
  8
0
  6
CONTINUOUS
 10
82.170464
 20
148.939934
 30
0.0
  0
SEQEND
  8
0
  6
CONTINUOUS
  0
POLYLINE
  8
0
  6
CONTINUOUS
 66
     1
 10
0.0
 20
0.0
 30
0.0
  0
VERTEX
  8
0
  6
CONTINUOUS
 10
100.618257
 20
159.602893
 30
0.0
  0
VERTEX
  8
0
  6
CONTINUOUS
 10
100.618257
 20
159.601416
 30
0.0
  0
VERTEX
  8
0
  6
CONTINUOUS
 10
100.618257
 20
146.158964
 30
0.0
  0
VERTEX
  8
0
  6
CONTINUOUS
 10
100.618257
 20
132.716512
 30
0.0
  0
VERTEX
  8
0
  6
CONTINUOUS
 10
100.618257
 20
132.715035
 30
0.0
  0
SEQEND
  8
0
  6
CONTINUOUS
  0
POLYLINE
  8
0
  6
CONTINUOUS
 66
     1
 10
0.0
 20
0.0
 30
0.0
  0
VERTEX
  8
0
  6
CONTINUOUS
 10
100.618257
 20
132.715035
 30
0.0
  0
VERTEX
  8
0
  6
CONTINUOUS
 10
91.394361
 20
127.383556
 30
0.0
  0
VERTEX
  8
0
  6
CONTINUOUS
 10
82.170464
 20
122.052076
 30
0.0
  0
SEQEND
  8
0
  6
CONTINUOUS
  0
POLYLINE
  8
0
  6
CONTINUOUS
 66
     1
 10
0.0
 20
0.0
 30
0.0
  0
VERTEX
  8
0
  6
CONTINUOUS
 10
83.691997
 20
145.97562
 30
0.0
  0
VERTEX
  8
0
  6
CONTINUOUS
 10
83.74104
 20
146.154819
 30
0.0
  0
VERTEX
  8
0
  6
CONTINUOUS
 10
83.85944
 20
146.28574
 30
0.0
  0
SEQEND
  8
0
  6
CONTINUOUS
  0
POLYLINE
  8
0
  6
CONTINUOUS
 66
     1
 10
0.0
 20
0.0
 30
0.0
  0
VERTEX
  8
0
  6
CONTINUOUS
 10
100.492014
 20
132.462256
 30
0.0
  0
VERTEX
  8
0
  6
CONTINUOUS
 10
100.506729
 20
132.471566
 30
0.0
  0
SEQEND
  8
0
  6
CONTINUOUS
  0
POLYLINE
  8
0
  6
CONTINUOUS
 66
     1
 10
0.0
 20
0.0
 30
0.0
  0
VERTEX
  8
0
  6
CONTINUOUS
 10
101.221817
 20
160.545203
 30
0.0
  0
VERTEX
  8
0
  6
CONTINUOUS
 10
101.05511
 20
160.836771
 30
0.0
  0
SEQEND
  8
0
  6
CONTINUOUS
  0
POLYLINE
  8
0
  6
CONTINUOUS
 66
     1
 10
0.0
 20
0.0
 30
0.0
  0
VERTEX
  8
0
  6
CONTINUOUS
 10
100.578034
 20
161.547266
 30
0.0
  0
VERTEX
  8
0
  6
CONTINUOUS
 10
100.940153
 20
161.198027
 30
0.0
  0
VERTEX
  8
0
  6
CONTINUOUS
 10
101.05511
 20
160.836771
 30
0.0
  0
SEQEND
  8
0
  6
CONTINUOUS
  0
POLYLINE
  8
0
  6
CONTINUOUS
 66
     1
 10
0.0
 20
0.0
 30
0.0
  0
VERTEX
  8
0
  6
CONTINUOUS
 10
61.800263
 20
129.55521
 30
0.0
  0
VERTEX
  8
0
  6
CONTINUOUS
 10
61.828023
 20
129.410074
 30
0.0
  0
VERTEX
  8
0
  6
CONTINUOUS
 10
61.902005
 20
129.316837
 30
0.0
  0
VERTEX
  8
0
  6
CONTINUOUS
 10
61.93062
 20
129.300569
 30
0.0
  0
SEQEND
  8
0
  6
CONTINUOUS
  0
POLYLINE
  8
0
  6
CONTINUOUS
 66
     1
 10
0.0
 20
0.0
 30
0.0
  0
VERTEX
  8
0
  6
CONTINUOUS
 10
100.506729
 20
132.471566
 30
0.0
  0
VERTEX
  8
0
  6
CONTINUOUS
 10
100.552958
 20
132.50165
 30
0.0
  0
SEQEND
  8
0
  6
CONTINUOUS
  0
POLYLINE
  8
0
  6
CONTINUOUS
 66
     1
 10
0.0
 20
0.0
 30
0.0
  0
VERTEX
  8
0
  6
CONTINUOUS
 10
100.506729
 20
132.471566
 30
0.0
  0
VERTEX
  8
0
  6
CONTINUOUS
 10
100.618257
 20
132.715035
 30
0.0
  0
SEQEND
  8
0
  6
CONTINUOUS
  0
POLYLINE
  8
0
  6
CONTINUOUS
 66
     1
 10
0.0
 20
0.0
 30
0.0
  0
VERTEX
  8
0
  6
CONTINUOUS
 10
101.224952
 20
133.573966
 30
0.0
  0
VERTEX
  8
0
  6
CONTINUOUS
 10
101.074172
 20
133.114579
 30
0.0
  0
VERTEX
  8
0
  6
CONTINUOUS
 10
100.618257
 20
132.715035
 30
0.0
  0
SEQEND
  8
0
  6
CONTINUOUS
  0
POLYLINE
  8
0
  6
CONTINUOUS
 66
     1
 10
0.0
 20
0.0
 30
0.0
  0
VERTEX
  8
0
  6
CONTINUOUS
 10
80.433255
 20
121.414104
 30
0.0
  0
VERTEX
  8
0
  6
CONTINUOUS
 10
80.438924
 20
121.427004
 30
0.0
  0
SEQEND
  8
0
  6
CONTINUOUS
  0
POLYLINE
  8
0
  6
CONTINUOUS
 66
     1
 10
0.0
 20
0.0
 30
0.0
  0
VERTEX
  8
0
  6
CONTINUOUS
 10
82.058936
 20
121.808607
 30
0.0
  0
VERTEX
  8
0
  6
CONTINUOUS
 10
82.044153
 20
121.799258
 30
0.0
  0
SEQEND
  8
0
  6
CONTINUOUS
  0
POLYLINE
  8
0
  6
CONTINUOUS
 66
     1
 10
0.0
 20
0.0
 30
0.0
  0
VERTEX
  8
0
  6
CONTINUOUS
 10
78.758846
 20
121.695939
 30
0.0
  0
VERTEX
  8
0
  6
CONTINUOUS
 10
79.017417
 20
121.604563
 30
0.0
  0
VERTEX
  8
0
  6
CONTINUOUS
 10
79.474383
 20
121.48972
 30
0.0
  0
VERTEX
  8
0
  6
CONTINUOUS
 10
80.438924
 20
121.427004
 30
0.0
  0
SEQEND
  8
0
  6
CONTINUOUS
  0
POLYLINE
  8
0
  6
CONTINUOUS
 66
     1
 10
0.0
 20
0.0
 30
0.0
  0
VERTEX
  8
0
  6
CONTINUOUS
 10
78.758846
 20
121.695939
 30
0.0
  0
VERTEX
  8
0
  6
CONTINUOUS
 10
78.655881
 20
121.93485
 30
0.0
  0
SEQEND
  8
0
  6
CONTINUOUS
  0
POLYLINE
  8
0
  6
CONTINUOUS
 66
     1
 10
0.0
 20
0.0
 30
0.0
  0
VERTEX
  8
0
  6
CONTINUOUS
 10
80.451548
 20
121.63569
 30
0.0
  0
VERTEX
  8
0
  6
CONTINUOUS
 10
79.493417
 20
121.693496
 30
0.0
  0
VERTEX
  8
0
  6
CONTINUOUS
 10
78.655881
 20
121.93485
 30
0.0
  0
SEQEND
  8
0
  6
CONTINUOUS
  0
POLYLINE
  8
0
  6
CONTINUOUS
 66
     1
 10
0.0
 20
0.0
 30
0.0
  0
VERTEX
  8
0
  6
CONTINUOUS
 10
61.800263
 20
156.808038
 30
0.0
  0
VERTEX
  8
0
  6
CONTINUOUS
 10
61.827999
 20
156.985185
 30
0.0
  0
VERTEX
  8
0
  6
CONTINUOUS
 10
61.901885
 20
157.163806
 30
0.0
  0
VERTEX
  8
0
  6
CONTINUOUS
 10
62.008628
 20
157.319764
 30
0.0
  0
VERTEX
  8
0
  6
CONTINUOUS
 10
62.135135
 20
157.428255
 30
0.0
  0
SEQEND
  8
0
  6
CONTINUOUS
  0
POLYLINE
  8
0
  6
CONTINUOUS
 66
     1
 10
0.0
 20
0.0
 30
0.0
  0
VERTEX
  8
0
  6
CONTINUOUS
 10
80.438924
 20
121.427004
 30
0.0
  0
VERTEX
  8
0
  6
CONTINUOUS
 10
81.386505
 20
121.553781
 30
0.0
  0
VERTEX
  8
0
  6
CONTINUOUS
 10
81.819111
 20
121.699418
 30
0.0
  0
VERTEX
  8
0
  6
CONTINUOUS
 10
82.058936
 20
121.808607
 30
0.0
  0
SEQEND
  8
0
  6
CONTINUOUS
  0
POLYLINE
  8
0
  6
CONTINUOUS
 66
     1
 10
0.0
 20
0.0
 30
0.0
  0
VERTEX
  8
0
  6
CONTINUOUS
 10
80.451548
 20
121.63569
 30
0.0
  0
VERTEX
  8
0
  6
CONTINUOUS
 10
80.438924
 20
121.427004
 30
0.0
  0
SEQEND
  8
0
  6
CONTINUOUS
  0
POLYLINE
  8
0
  6
CONTINUOUS
 66
     1
 10
0.0
 20
0.0
 30
0.0
  0
VERTEX
  8
0
  6
CONTINUOUS
 10
82.170464
 20
122.052076
 30
0.0
  0
VERTEX
  8
0
  6
CONTINUOUS
 10
81.390492
 20
121.756771
 30
0.0
  0
VERTEX
  8
0
  6
CONTINUOUS
 10
80.451548
 20
121.63569
 30
0.0
  0
SEQEND
  8
0
  6
CONTINUOUS
  0
POLYLINE
  8
0
  6
CONTINUOUS
 66
     1
 10
0.0
 20
0.0
 30
0.0
  0
VERTEX
  8
0
  6
CONTINUOUS
 10
82.170464
 20
122.052076
 30
0.0
  0
VERTEX
  8
0
  6
CONTINUOUS
 10
82.058936
 20
121.808607
 30
0.0
  0
SEQEND
  8
0
  6
CONTINUOUS
  0
POLYLINE
  8
0
  6
CONTINUOUS
 66
     1
 10
0.0
 20
0.0
 30
0.0
  0
VERTEX
  8
0
  6
CONTINUOUS
 10
83.915652
 20
139.287685
 30
0.0
  0
VERTEX
  8
0
  6
CONTINUOUS
 10
83.807657
 20
139.328538
 30
0.0
  0
VERTEX
  8
0
  6
CONTINUOUS
 10
83.691397
 20
139.361711
 30
0.0
  0
SEQEND
  8
0
  6
CONTINUOUS
  0
POLYLINE
  8
0
  6
CONTINUOUS
 66
     1
 10
0.0
 20
0.0
 30
0.0
  0
VERTEX
  8
0
  6
CONTINUOUS
 10
86.500791
 20
145.887089
 30
0.0
  0
VERTEX
  8
0
  6
CONTINUOUS
 10
86.702025
 20
145.22239
 30
0.0
  0
VERTEX
  8
0
  6
CONTINUOUS
 10
87.19999
 20
144.730583
 30
0.0
  0
SEQEND
  8
0
  6
CONTINUOUS
  0
POLYLINE
  8
0
  6
CONTINUOUS
 66
     1
 10
0.0
 20
0.0
 30
0.0
  0
VERTEX
  8
0
  6
CONTINUOUS
 10
86.697662
 20
144.440234
 30
0.0
  0
VERTEX
  8
0
  6
CONTINUOUS
 10
86.199697
 20
144.932041
 30
0.0
  0
VERTEX
  8
0
  6
CONTINUOUS
 10
85.998463
 20
145.59674
 30
0.0
  0
SEQEND
  8
0
  6
CONTINUOUS
  0
POLYLINE
  8
0
  6
CONTINUOUS
 66
     1
 10
0.0
 20
0.0
 30
0.0
  0
VERTEX
  8
0
  6
CONTINUOUS
 10
83.915652
 20
138.647674
 30
0.0
  0
VERTEX
  8
0
  6
CONTINUOUS
 10
83.807657
 20
138.688527
 30
0.0
  0
VERTEX
  8
0
  6
CONTINUOUS
 10
83.691397
 20
138.7217
 30
0.0
  0
SEQEND
  8
0
  6
CONTINUOUS
  0
LINE
  8
0
  6
CONTINUOUS
 10
91.828674
 20
136.562866
 30
0.0
 11
83.691731
 21
131.859654
 31
0.0
  0
LINE
  8
0
  6
CONTINUOUS
 10
93.415784
 20
141.100476
 30
0.0
 11
93.415784
 21
139.597074
 31
0.0
  0
LINE
  8
0
  6
CONTINUOUS
 10
94.158352
 20
152.238012
 30
0.0
 11
94.158352
 21
150.793445
 31
0.0
  0
LINE
  8
0
  6
CONTINUOUS
 10
94.158352
 20
148.128971
 30
0.0
 11
94.158352
 21
145.886698
 31
0.0
  0
LINE
  8
0
  6
CONTINUOUS
 10
94.158352
 20
143.222224
 30
0.0
 11
94.158352
 21
140.97995
 31
0.0
  0
LINE
  8
0
  6
CONTINUOUS
 10
93.415784
 20
146.007224
 30
0.0
 11
93.415784
 21
143.875058
 31
0.0
  0
LINE
  8
0
  6
CONTINUOUS
 10
93.415784
 20
150.913972
 30
0.0
 11
93.415784
 21
148.781805
 31
0.0
  0
LINE
  8
0
  6
CONTINUOUS
 10
92.372146
 20
137.655387
 30
0.0
 11
91.265571
 21
137.015778
 31
0.0
  0
LINE
  8
0
  6
CONTINUOUS
 10
93.415783
 20
139.601067
 30
0.0
 11
92.362125
 21
137.649591
 31
0.0
  0
LINE
  8
0
  6
CONTINUOUS
 10
65.071349
 20
131.134266
 30
0.0
 11
72.382488
 21
127.696326
 31
0.0
  0
LINE
  8
0
  6
CONTINUOUS
 10
72.739085
 20
127.703009
 30
0.0
 11
73.040481
 21
127.877218
 31
0.0
  0
LINE
  8
0
  6
CONTINUOUS
 10
30.202012
 20
119.489397
 30
0.0
 11
30.420733
 21
119.61582
 31
0.0
  0
LINE
  8
0
  6
CONTINUOUS
 10
30.420719
 20
120.897992
 30
0.0
 11
29.979644
 21
120.643047
 31
0.0
  0
LINE
  8
0
  6
CONTINUOUS
 10
30.244077
 20
123.660254
 30
0.0
 11
30.420735
 21
123.762364
 31
0.0
  0
LINE
  8
0
  6
CONTINUOUS
 10
29.828989
 20
125.129723
 30
0.0
 11
29.775842
 21
125.099004
 31
0.0
  0
LINE
  8
0
  6
CONTINUOUS
 10
58.60223
 20
147.258317
 30
0.0
 11
25.060535
 21
127.870973
 31
0.0
  0
LINE
  8
0
  6
CONTINUOUS
 10
29.023588
 20
113.318646
 30
0.0
 11
29.097747
 21
113.36151
 31
0.0
  0
LINE
  8
0
  6
CONTINUOUS
 10
30.026055
 20
113.401928
 30
0.0
 11
30.420722
 21
113.630049
 31
0.0
  0
LINE
  8
0
  6
CONTINUOUS
 10
30.420643
 20
116.237275
 30
0.0
 11
28.722525
 21
115.25575
 31
0.0
  0
LINE
  8
0
  6
CONTINUOUS
 10
30.304922
 20
117.638805
 30
0.0
 11
30.420739
 21
117.705749
 31
0.0
  0
LINE
  8
0
  6
CONTINUOUS
 10
62.686353
 20
145.337827
 30
0.0
 11
29.144659
 21
125.950482
 31
0.0
  0
LINE
  8
0
  6
CONTINUOUS
 10
29.488097
 20
124.658458
 30
0.0
 11
29.715293
 21
124.789779
 31
0.0
  0
LINE
  8
0
  6
CONTINUOUS
 10
29.231911
 20
114.572974
 30
0.0
 11
29.16282
 21
114.533039
 31
0.0
  0
LINE
  8
0
  6
CONTINUOUS
 10
30.84288
 20
112.463155
 30
0.0
 11
64.391952
 21
131.854763
 31
0.0
  0
LINE
  8
0
  6
CONTINUOUS
 10
93.721026
 20
135.130613
 30
0.0
 11
93.721026
 21
134.746985
 31
0.0
  0
LINE
  8
0
  6
CONTINUOUS
 10
84.648333
 20
128.734937
 30
0.0
 11
94.275617
 21
134.299578
 31
0.0
  0
LINE
  8
0
  6
CONTINUOUS
 10
94.659913
 20
136.335067
 30
0.0
 11
83.691817
 21
129.995427
 31
0.0
  0
LINE
  8
0
  6
CONTINUOUS
 10
95.875289
 20
138.586059
 30
0.0
 11
94.659913
 21
136.335067
 31
0.0
  0
LINE
  8
0
  6
CONTINUOUS
 10
95.875289
 20
153.230602
 30
0.0
 11
95.875289
 21
138.586059
 31
0.0
  0
LINE
  8
0
  6
CONTINUOUS
 10
93.647585
 20
151.083334
 30
0.0
 11
93.480142
 21
150.986551
 31
0.0
  0
LINE
  8
0
  6
CONTINUOUS
 10
94.158325
 20
151.124396
 30
0.0
 11
94.000669
 21
151.149985
 31
0.0
  0
LINE
  8
0
  6
CONTINUOUS
 10
93.647585
 20
141.269839
 30
0.0
 11
93.480142
 21
141.173056
 31
0.0
  0
LINE
  8
0
  6
CONTINUOUS
 10
94.158325
 20
141.310901
 30
0.0
 11
94.000669
 21
141.33649
 31
0.0
  0
LINE
  8
0
  6
CONTINUOUS
 10
93.647585
 20
146.176586
 30
0.0
 11
93.480142
 21
146.079803
 31
0.0
  0
LINE
  8
0
  6
CONTINUOUS
 10
94.158325
 20
146.217649
 30
0.0
 11
94.000669
 21
146.243238
 31
0.0
  0
LINE
  8
0
  6
CONTINUOUS
 10
83.691738
 20
131.784237
 30
0.0
 11
91.923545
 21
136.542282
 31
0.0
  0
LINE
  8
0
  6
CONTINUOUS
 10
91.360442
 20
136.995194
 30
0.0
 11
92.479137
 21
137.641808
 31
0.0
  0
LINE
  8
0
  6
CONTINUOUS
 10
94.149915
 20
136.856153
 30
0.0
 11
83.691794
 21
130.811283
 31
0.0
  0
LINE
  8
0
  6
CONTINUOUS
 10
95.169119
 20
152.822382
 30
0.0
 11
95.169119
 21
138.743817
 31
0.0
  0
LINE
  8
0
  6
CONTINUOUS
 10
93.498341
 20
139.529472
 30
0.0
 11
93.498341
 21
141.046141
 31
0.0
  0
LINE
  8
0
  6
CONTINUOUS
 10
93.498341
 20
141.046141
 30
0.0
 11
94.240909
 21
140.925615
 31
0.0
  0
LINE
  8
0
  6
CONTINUOUS
 10
94.240909
 20
140.925615
 30
0.0
 11
94.240909
 21
143.157993
 31
0.0
  0
LINE
  8
0
  6
CONTINUOUS
 10
93.498341
 20
145.952889
 30
0.0
 11
93.498341
 21
143.735827
 31
0.0
  0
LINE
  8
0
  6
CONTINUOUS
 10
93.498341
 20
145.952889
 30
0.0
 11
94.240909
 21
145.832362
 31
0.0
  0
LINE
  8
0
  6
CONTINUOUS
 10
94.240909
 20
145.832362
 30
0.0
 11
94.240909
 21
148.064741
 31
0.0
  0
LINE
  8
0
  6
CONTINUOUS
 10
94.240909
 20
148.064741
 30
0.0
 11
93.498341
 21
148.642575
 31
0.0
  0
LINE
  8
0
  6
CONTINUOUS
 10
93.498341
 20
150.859636
 30
0.0
 11
93.498341
 21
148.642575
 31
0.0
  0
LINE
  8
0
  6
CONTINUOUS
 10
93.498341
 20
150.859636
 30
0.0
 11
94.240909
 21
150.73911
 31
0.0
  0
LINE
  8
0
  6
CONTINUOUS
 10
94.240909
 20
150.73911
 30
0.0
 11
94.240909
 21
152.285749
 31
0.0
  0
LINE
  8
0
  6
CONTINUOUS
 10
94.240909
 20
143.157993
 30
0.0
 11
93.498341
 21
143.735827
 31
0.0
  0
LINE
  8
0
  6
CONTINUOUS
 10
85.577059
 20
128.455879
 30
0.0
 11
94.978991
 21
133.890265
 31
0.0
  0
LINE
  8
0
  6
CONTINUOUS
 10
92.479137
 20
137.641808
 30
0.0
 11
94.149915
 21
136.856153
 31
0.0
  0
LINE
  8
0
  6
CONTINUOUS
 10
92.479137
 20
137.641808
 30
0.0
 11
93.498341
 21
139.529472
 31
0.0
  0
LINE
  8
0
  6
CONTINUOUS
 10
95.169119
 20
138.743817
 30
0.0
 11
93.498341
 21
139.529472
 31
0.0
  0
LINE
  8
0
  6
CONTINUOUS
 10
95.169119
 20
138.743817
 30
0.0
 11
94.149915
 21
136.856153
 31
0.0
  0
LINE
  8
0
  6
CONTINUOUS
 10
91.923545
 20
136.542282
 30
0.0
 11
91.360442
 21
136.995194
 31
0.0
  0
LINE
  8
0
  6
CONTINUOUS
 10
91.360442
 20
136.355183
 30
0.0
 11
91.40604
 21
136.318508
 31
0.0
  0
LINE
  8
0
  6
CONTINUOUS
 10
91.219666
 20
136.895085
 30
0.0
 11
91.219666
 21
136.681748
 31
0.0
  0
LINE
  8
0
  6
CONTINUOUS
 10
64.391952
 20
131.735586
 30
0.0
 11
64.278267
 21
131.789045
 31
0.0
  0
LINE
  8
0
  6
CONTINUOUS
 10
64.391952
 20
131.735586
 30
0.0
 11
64.391952
 21
144.535797
 31
0.0
  0
LINE
  8
0
  6
CONTINUOUS
 10
61.331423
 20
152.19396
 30
0.0
 11
72.321429
 21
147.026095
 31
0.0
  0
LINE
  8
0
  6
CONTINUOUS
 10
61.498866
 20
152.50408
 30
0.0
 11
72.488871
 21
147.336215
 31
0.0
  0
LINE
  8
0
  6
CONTINUOUS
 10
65.205277
 20
131.172029
 30
0.0
 11
72.321429
 21
127.825778
 31
0.0
  0
LINE
  8
0
  6
CONTINUOUS
 10
73.161552
 20
128.135518
 30
0.0
 11
72.860155
 21
127.961308
 31
0.0
  0
LINE
  8
0
  6
CONTINUOUS
 10
72.860155
 20
146.734951
 30
0.0
 11
72.860155
 21
127.961308
 31
0.0
  0
LINE
  8
0
  6
CONTINUOUS
 10
72.507071
 20
146.725463
 30
0.0
 11
72.507071
 21
127.95182
 31
0.0
  0
LINE
  8
0
  6
CONTINUOUS
 10
64.391952
 20
144.535797
 30
0.0
 11
58.451409
 21
147.329238
 31
0.0
  0
LINE
  8
0
  6
CONTINUOUS
 10
58.451409
 20
147.329238
 30
0.0
 11
58.451409
 21
147.55568
 31
0.0
  0
LINE
  8
0
  6
CONTINUOUS
 10
61.800263
 20
152.67829
 30
0.0
 11
61.498866
 21
152.50408
 31
0.0
  0
LINE
  8
0
  6
CONTINUOUS
 10
61.331423
 20
150.292401
 30
0.0
 11
61.331423
 21
152.19396
 31
0.0
  0
LINE
  8
0
  6
CONTINUOUS
 10
58.739687
 20
148.144828
 30
0.0
 11
61.187284
 21
149.997827
 31
0.0
  0
LINE
  8
0
  6
CONTINUOUS
 10
72.790268
 20
147.510424
 30
0.0
 11
72.488871
 21
147.336215
 31
0.0
  0
LINE
  8
0
  6
CONTINUOUS
 10
73.161552
 20
146.909161
 30
0.0
 11
72.860155
 21
146.734951
 31
0.0
  0
LINE
  8
0
  6
CONTINUOUS
 10
73.161552
 20
146.909161
 30
0.0
 11
73.161552
 21
128.135518
 31
0.0
  0
LINE
  8
0
  6
CONTINUOUS
 10
61.800263
 20
152.67829
 30
0.0
 11
72.790268
 21
147.510424
 31
0.0
  0
LINE
  8
0
  6
CONTINUOUS
 10
29.800552
 20
119.511718
 30
0.0
 11
25.871379
 21
121.571507
 31
0.0
  0
LINE
  8
0
  6
CONTINUOUS
 10
30.420744
 20
119.898306
 30
0.0
 11
30.383618
 21
119.876846
 31
0.0
  0
LINE
  8
0
  6
CONTINUOUS
 10
30.383618
 20
120.248186
 30
0.0
 11
30.383618
 21
119.876846
 31
0.0
  0
LINE
  8
0
  6
CONTINUOUS
 10
30.420744
 20
120.269645
 30
0.0
 11
30.383618
 21
120.248186
 31
0.0
  0
LINE
  8
0
  6
CONTINUOUS
 10
29.900948
 20
120.237971
 30
0.0
 11
29.900948
 21
120.475153
 31
0.0
  0
LINE
  8
0
  6
CONTINUOUS
 10
29.90056
 20
120.228376
 30
0.0
 11
29.706593
 21
120.116262
 31
0.0
  0
LINE
  8
0
  6
CONTINUOUS
 10
25.659598
 20
122.237816
 30
0.0
 11
29.706593
 21
120.116262
 31
0.0
  0
LINE
  8
0
  6
CONTINUOUS
 10
28.946054
 20
124.137412
 30
0.0
 11
25.659598
 21
122.237816
 31
0.0
  0
LINE
  8
0
  6
CONTINUOUS
 10
28.697885
 20
124.392534
 30
0.0
 11
25.482669
 21
122.534116
 31
0.0
  0
LINE
  8
0
  6
CONTINUOUS
 10
25.482669
 20
126.746844
 30
0.0
 11
25.482669
 21
122.534116
 31
0.0
  0
LINE
  8
0
  6
CONTINUOUS
 10
25.889632
 20
126.982071
 30
0.0
 11
25.482669
 21
126.746844
 31
0.0
  0
LINE
  8
0
  6
CONTINUOUS
 10
28.230171
 20
125.881551
 30
0.0
 11
25.853953
 21
126.998927
 31
0.0
  0
LINE
  8
0
  6
CONTINUOUS
 10
28.601455
 20
124.725611
 30
0.0
 11
28.601455
 21
125.280287
 31
0.0
  0
LINE
  8
0
  6
CONTINUOUS
 10
29.943821
 20
123.667713
 30
0.0
 11
28.972738
 21
124.124348
 31
0.0
  0
LINE
  8
0
  6
CONTINUOUS
 10
30.42074
 20
124.306925
 30
0.0
 11
30.32967
 21
124.254286
 31
0.0
  0
LINE
  8
0
  6
CONTINUOUS
 10
30.061719
 20
124.913628
 30
0.0
 11
30.32967
 21
124.254286
 31
0.0
  0
LINE
  8
0
  6
CONTINUOUS
 10
30.16346
 20
124.972434
 30
0.0
 11
30.061719
 21
124.913628
 31
0.0
  0
LINE
  8
0
  6
CONTINUOUS
 10
29.715306
 20
124.415178
 30
0.0
 11
29.715306
 21
124.969854
 31
0.0
  0
LINE
  8
0
  6
CONTINUOUS
 10
29.714847
 20
124.407417
 30
0.0
 11
29.64105
 21
124.364761
 31
0.0
  0
LINE
  8
0
  6
CONTINUOUS
 10
29.15838
 20
124.591728
 30
0.0
 11
29.64105
 21
124.364761
 31
0.0
  0
LINE
  8
0
  6
CONTINUOUS
 10
29.302379
 20
124.674961
 30
0.0
 11
29.15838
 21
124.591728
 31
0.0
  0
LINE
  8
0
  6
CONTINUOUS
 10
29.190445
 20
124.773436
 30
0.0
 11
29.084124
 21
124.711981
 31
0.0
  0
LINE
  8
0
  6
CONTINUOUS
 10
29.084124
 20
125.821333
 30
0.0
 11
29.084124
 21
124.711981
 31
0.0
  0
LINE
  8
0
  6
CONTINUOUS
 10
62.387019
 20
145.478584
 30
0.0
 11
28.898482
 21
126.121965
 31
0.0
  0
LINE
  8
0
  6
CONTINUOUS
 10
25.185642
 20
127.867865
 30
0.0
 11
28.898482
 21
126.121965
 31
0.0
  0
LINE
  8
0
  6
CONTINUOUS
 10
58.674179
 20
147.224484
 30
0.0
 11
25.185642
 21
127.867865
 31
0.0
  0
LINE
  8
0
  6
CONTINUOUS
 10
25.0
 20
115.368286
 30
0.0
 11
25.0
 21
127.741823
 31
0.0
  0
LINE
  8
0
  6
CONTINUOUS
 10
28.898482
 20
113.321754
 30
0.0
 11
25.185642
 21
115.067654
 31
0.0
  0
LINE
  8
0
  6
CONTINUOUS
 10
29.084124
 20
114.557147
 30
0.0
 11
29.084124
 21
114.365144
 31
0.0
  0
LINE
  8
0
  6
CONTINUOUS
 10
29.165516
 20
114.604193
 30
0.0
 11
29.084124
 21
114.557147
 31
0.0
  0
LINE
  8
0
  6
CONTINUOUS
 10
29.64105
 20
114.380597
 30
0.0
 11
29.15838
 21
114.607564
 31
0.0
  0
LINE
  8
0
  6
CONTINUOUS
 10
29.715306
 20
113.705668
 30
0.0
 11
29.715306
 21
114.260344
 31
0.0
  0
LINE
  8
0
  6
CONTINUOUS
 10
30.420724
 20
113.643613
 30
0.0
 11
30.061719
 21
113.436105
 31
0.0
  0
LINE
  8
0
  6
CONTINUOUS
 10
30.32967
 20
113.843448
 30
0.0
 11
30.061719
 21
113.436105
 31
0.0
  0
LINE
  8
0
  6
CONTINUOUS
 10
30.42074
 20
113.896087
 30
0.0
 11
30.32967
 21
113.843448
 31
0.0
  0
LINE
  8
0
  6
CONTINUOUS
 10
30.420717
 20
115.068549
 30
0.0
 11
29.943821
 21
114.7929
 31
0.0
  0
LINE
  8
0
  6
CONTINUOUS
 10
28.972738
 20
115.249535
 30
0.0
 11
29.943821
 21
114.7929
 31
0.0
  0
LINE
  8
0
  6
CONTINUOUS
 10
30.420658
 20
116.086443
 30
0.0
 11
28.972738
 21
115.249535
 31
0.0
  0
LINE
  8
0
  6
CONTINUOUS
 10
28.601455
 20
114.442775
 30
0.0
 11
28.601455
 21
114.997451
 31
0.0
  0
LINE
  8
0
  6
CONTINUOUS
 10
28.599159
 20
114.40397
 30
0.0
 11
28.230171
 21
114.190692
 31
0.0
  0
LINE
  8
0
  6
CONTINUOUS
 10
25.853953
 20
115.308068
 30
0.0
 11
28.230171
 21
114.190692
 31
0.0
  0
LINE
  8
0
  6
CONTINUOUS
 10
30.032831
 20
117.72349
 30
0.0
 11
25.853953
 21
115.308068
 31
0.0
  0
LINE
  8
0
  6
CONTINUOUS
 10
29.849506
 20
118.433395
 30
0.0
 11
25.482669
 21
115.909332
 31
0.0
  0
LINE
  8
0
  6
CONTINUOUS
 10
25.482669
 20
120.122059
 30
0.0
 11
25.482669
 21
115.909332
 31
0.0
  0
LINE
  8
0
  6
CONTINUOUS
 10
25.687357
 20
120.24037
 30
0.0
 11
25.482669
 21
120.122059
 31
0.0
  0
LINE
  8
0
  6
CONTINUOUS
 10
29.706593
 20
118.567455
 30
0.0
 11
25.659598
 21
120.251963
 31
0.0
  0
LINE
  8
0
  6
CONTINUOUS
 10
29.900948
 20
118.033667
 30
0.0
 11
29.900948
 21
118.262961
 31
0.0
  0
LINE
  8
0
  6
CONTINUOUS
 10
30.420744
 20
117.828159
 30
0.0
 11
30.383618
 21
117.8067
 31
0.0
  0
LINE
  8
0
  6
CONTINUOUS
 10
30.383618
 20
118.170152
 30
0.0
 11
30.383618
 21
117.8067
 31
0.0
  0
LINE
  8
0
  6
CONTINUOUS
 10
30.420744
 20
118.191611
 30
0.0
 11
30.383618
 21
118.170152
 31
0.0
  0
LINE
  8
0
  6
CONTINUOUS
 10
30.420708
 20
119.442088
 30
0.0
 11
29.800552
 21
119.083633
 31
0.0
  0
LINE
  8
0
  6
CONTINUOUS
 10
25.871379
 20
120.7191
 30
0.0
 11
29.800552
 21
119.083633
 31
0.0
  0
LINE
  8
0
  6
CONTINUOUS
 10
26.644584
 20
121.166018
 30
0.0
 11
25.871379
 21
120.7191
 31
0.0
  0
LINE
  8
0
  6
CONTINUOUS
 10
64.20631
 20
144.623092
 30
0.0
 11
30.717773
 21
125.266473
 31
0.0
  0
LINE
  8
0
  6
CONTINUOUS
 10
29.269766
 20
125.947375
 30
0.0
 11
30.717773
 21
125.266473
 31
0.0
  0
LINE
  8
0
  6
CONTINUOUS
 10
62.758303
 20
145.303994
 30
0.0
 11
29.269766
 21
125.947375
 31
0.0
  0
LINE
  8
0
  6
CONTINUOUS
 10
29.715297
 20
124.91219
 30
0.0
 11
29.566793
 21
124.826353
 31
0.0
  0
LINE
  8
0
  6
CONTINUOUS
 10
29.566793
 20
125.03969
 30
0.0
 11
29.566793
 21
124.826353
 31
0.0
  0
LINE
  8
0
  6
CONTINUOUS
 10
29.770274
 20
125.157304
 30
0.0
 11
29.566793
 21
125.03969
 31
0.0
  0
LINE
  8
0
  6
CONTINUOUS
 10
30.235104
 20
124.938765
 30
0.0
 11
29.752435
 21
125.165732
 31
0.0
  0
LINE
  8
0
  6
CONTINUOUS
 10
30.420746
 20
113.373947
 30
0.0
 11
30.420746
 21
124.638133
 31
0.0
  0
LINE
  8
0
  6
CONTINUOUS
 10
30.419598
 20
113.354544
 30
0.0
 11
30.235104
 21
113.247905
 31
0.0
  0
LINE
  8
0
  6
CONTINUOUS
 10
29.659614
 20
113.51852
 30
0.0
 11
30.235104
 21
113.247905
 31
0.0
  0
LINE
  8
0
  6
CONTINUOUS
 10
29.747911
 20
113.569557
 30
0.0
 11
29.659614
 21
113.51852
 31
0.0
  0
LINE
  8
0
  6
CONTINUOUS
 10
29.715297
 20
113.754673
 30
0.0
 11
29.566793
 21
113.668836
 31
0.0
  0
LINE
  8
0
  6
CONTINUOUS
 10
29.566793
 20
114.138177
 30
0.0
 11
29.566793
 21
113.668836
 31
0.0
  0
LINE
  8
0
  6
CONTINUOUS
 10
29.715297
 20
114.224014
 30
0.0
 11
29.566793
 21
114.138177
 31
0.0
  0
LINE
  8
0
  6
CONTINUOUS
 10
29.084124
 20
113.447795
 30
0.0
 11
29.084124
 21
114.365144
 31
0.0
  0
LINE
  8
0
  6
CONTINUOUS
 10
30.717773
 20
112.466262
 30
0.0
 11
29.269766
 21
113.147164
 31
0.0
  0
LINE
  8
0
  6
CONTINUOUS
 10
64.391952
 20
144.322461
 30
0.0
 11
30.903415
 21
124.965842
 31
0.0
  0
LINE
  8
0
  6
CONTINUOUS
 10
64.391952
 20
131.948923
 30
0.0
 11
30.903415
 21
112.592304
 31
0.0
  0
LINE
  8
0
  6
CONTINUOUS
 10
30.903415
 20
124.965842
 30
0.0
 11
30.903415
 21
112.592304
 31
0.0
  0
LINE
  8
0
  6
CONTINUOUS
 10
85.739897
 20
128.4073
 30
0.0
 11
83.691844
 21
129.022489
 31
0.0
  0
LINE
  8
0
  6
CONTINUOUS
 10
83.85944
 20
126.65875
 30
0.0
 11
83.695303
 21
126.735933
 31
0.0
  0
LINE
  8
0
  6
CONTINUOUS
 10
85.739897
 20
128.4073
 30
0.0
 11
83.691959
 21
127.223576
 31
0.0
  0
LINE
  8
0
  6
CONTINUOUS
 10
93.79996
 20
134.576463
 30
0.0
 11
95.102301
 21
133.81874
 31
0.0
  0
LINE
  8
0
  6
CONTINUOUS
 10
93.788041
 20
134.583995
 30
0.0
 11
93.788041
 21
135.11534
 31
0.0
  0
LINE
  8
0
  6
CONTINUOUS
 10
95.786459
 20
134.214285
 30
0.0
 11
98.298099
 21
135.666032
 31
0.0
  0
LINE
  8
0
  6
CONTINUOUS
 10
95.786459
 20
134.214285
 30
0.0
 11
93.788041
 21
135.11534
 31
0.0
  0
LINE
  8
0
  6
CONTINUOUS
 10
98.929282
 20
135.369229
 30
0.0
 11
98.298099
 21
135.666032
 31
0.0
  0
LINE
  8
0
  6
CONTINUOUS
 10
74.206102
 20
164.012443
 30
0.0
 11
73.840664
 21
164.194136
 31
0.0
  0
LINE
  8
0
  6
CONTINUOUS
 10
87.357785
 20
133.978139
 30
0.0
 11
83.691266
 21
135.665487
 31
0.0
  0
LINE
  8
0
  6
CONTINUOUS
 10
83.691266
 20
135.750825
 30
0.0
 11
87.439972
 21
134.025654
 31
0.0
  0
LINE
  8
0
  6
CONTINUOUS
 10
88.779513
 20
134.799919
 30
0.0
 11
83.691184
 21
137.14159
 31
0.0
  0
LINE
  8
0
  6
CONTINUOUS
 10
89.501051
 20
135.216963
 30
0.0
 11
83.691136
 21
137.890712
 31
0.0
  0
LINE
  8
0
  6
CONTINUOUS
 10
89.788705
 20
135.383266
 30
0.0
 11
83.691136
 21
138.189394
 31
0.0
  0
LINE
  8
0
  6
CONTINUOUS
 10
86.59793
 20
145.566228
 30
0.0
 11
94.158168
 21
141.948278
 31
0.0
  0
LINE
  8
0
  6
CONTINUOUS
 10
83.525189
 20
169.791862
 30
0.0
 11
73.840664
 21
164.194136
 31
0.0
  0
LINE
  8
0
  6
CONTINUOUS
 10
73.840664
 20
164.194136
 30
0.0
 11
73.840664
 21
163.801169
 31
0.0
  0
LINE
  8
0
  6
CONTINUOUS
 10
86.50121
 20
145.8602
 30
0.0
 11
94.158154
 21
142.195972
 31
0.0
  0
LINE
  8
0
  6
CONTINUOUS
 10
85.739897
 20
128.4073
 30
0.0
 11
95.786459
 21
134.214285
 31
0.0
  0
LINE
  8
0
  6
CONTINUOUS
 10
72.19679
 20
162.851046
 30
0.0
 11
74.206102
 21
164.012443
 31
0.0
  0
LINE
  8
0
  6
CONTINUOUS
 10
72.19679
 20
162.851046
 30
0.0
 11
71.819661
 21
163.025981
 31
0.0
  0
LINE
  8
0
  6
CONTINUOUS
 10
98.465542
 20
154.728091
 30
0.0
 11
98.465542
 21
135.976152
 31
0.0
  0
LINE
  8
0
  6
CONTINUOUS
 10
98.893231
 20
154.975355
 30
0.0
 11
99.096724
 21
154.879665
 31
0.0
  0
LINE
  8
0
  6
CONTINUOUS
 10
99.096724
 20
135.679349
 30
0.0
 11
98.465542
 21
135.976152
 31
0.0
  0
LINE
  8
0
  6
CONTINUOUS
 10
83.85944
 20
126.65875
 30
0.0
 11
98.929282
 21
135.369229
 31
0.0
  0
LINE
  8
0
  6
CONTINUOUS
 10
99.096724
 20
154.879665
 30
0.0
 11
99.096724
 21
135.679349
 31
0.0
  0
LINE
  8
0
  6
CONTINUOUS
 10
83.85944
 20
146.28574
 30
0.0
 11
98.929282
 21
154.996219
 31
0.0
  0
LINE
  8
0
  6
CONTINUOUS
 10
83.691997
 20
145.97562
 30
0.0
 11
83.691997
 21
126.775304
 31
0.0
  0
LINE
  8
0
  6
CONTINUOUS
 10
61.800263
 20
129.55521
 30
0.0
 11
61.800263
 21
130.355982
 31
0.0
  0
LINE
  8
0
  6
CONTINUOUS
 10
62.135135
 20
157.428255
 30
0.0
 11
71.819661
 21
163.025981
 31
0.0
  0
LINE
  8
0
  6
CONTINUOUS
 10
61.800263
 20
152.67829
 30
0.0
 11
61.800263
 21
156.808038
 31
0.0
  0
LINE
  8
0
  6
CONTINUOUS
 10
85.998463
 20
145.59674
 30
0.0
 11
86.500791
 21
145.887089
 31
0.0
  0
LINE
  8
0
  6
CONTINUOUS
 10
86.500791
 20
145.887089
 30
0.0
 11
86.500791
 21
147.810525
 31
0.0
  0
LINE
  8
0
  6
CONTINUOUS
 10
83.69098
 20
141.977149
 30
0.0
 11
92.443896
 21
137.800874
 31
0.0
  0
LINE
  8
0
  6
CONTINUOUS
 10
83.915652
 20
139.287685
 30
0.0
 11
83.915652
 21
138.647674
 31
0.0
  0
LINE
  8
0
  6
CONTINUOUS
 10
91.151219
 20
136.170892
 30
0.0
 11
83.915652
 21
139.287685
 31
0.0
  0
LINE
  8
0
  6
CONTINUOUS
 10
85.998463
 20
147.520176
 30
0.0
 11
85.998463
 21
145.59674
 31
0.0
  0
LINE
  8
0
  6
CONTINUOUS
 10
83.69096
 20
142.756707
 30
0.0
 11
92.778577
 21
138.420736
 31
0.0
  0
LINE
  8
0
  6
CONTINUOUS
 10
86.697662
 20
144.440234
 30
0.0
 11
93.415632
 21
140.84145
 31
0.0
  0
LINE
  8
0
  6
CONTINUOUS
 10
86.697662
 20
144.440234
 30
0.0
 11
87.19999
 21
144.730583
 31
0.0
  0
LINE
  8
0
  6
CONTINUOUS
 10
93.65413
 20
141.273132
 30
0.0
 11
87.19999
 21
144.730583
 31
0.0
  0
LINE
  8
0
  6
CONTINUOUS
 10
83.915652
 20
138.647674
 30
0.0
 11
90.516847
 21
135.804144
 31
0.0
  0
ENDSEC
  0
EOF
