  0
SECTION
  2
HEADER
  9
$ACADVER
  1
AC1009
  9
$INSBASE
 10
0.0
 20
0.0
 30
0.0
  9
$EXTMIN
 10
22.971154
 20
134.886632
 30
0.0
  9
$EXTMAX
 10
110.840498
 20
213.145212
 30
0.0
  9
$LIMMIN
 10
22.971154
 20
128.465489
  9
$LIMMAX
 10
186.916325
 20
248.235737
  9
$ORTHOMODE
 70
     0
  9
$REGENMODE
 70
     1
  9
$FILLMODE
 70
     1
  9
$QTEXTMODE
 70
     0
  9
$MIRRTEXT
 70
     1
  9
$DRAGMODE
 70
     2
  9
$LTSCALE
 40
1.0
  9
$OSMODE
 70
     0
  9
$ATTMODE
 70
     1
  9
$TEXTSIZE
 40
3.5
  9
$TRACEWID
 40
0.5
  9
$TEXTSTYLE
  7
STANDARD
  9
$CLAYER
  8
0
  9
$CELTYPE
  6
BYLAYER
  9
$CECOLOR
 62
   256
  9
$DIMSCALE
 40
1.0
  9
$DIMASZ
 40
0.18
  9
$DIMEXO
 40
0.0625
  9
$DIMDLI
 40
0.38
  9
$DIMRND
 40
0.0
  9
$DIMDLE
 40
0.0
  9
$DIMEXE
 40
0.18
  9
$DIMTP
 40
0.0
  9
$DIMTM
 40
0.0
  9
$DIMTXT
 40
0.18
  9
$DIMCEN
 40
0.09
  9
$DIMTSZ
 40
0.0
  9
$DIMTOL
 70
     0
  9
$DIMLIM
 70
     0
  9
$DIMTIH
 70
     1
  9
$DIMTOH
 70
     1
  9
$DIMSE1
 70
     0
  9
$DIMSE2
 70
     0
  9
$DIMTAD
 70
     0
  9
$DIMZIN
 70
     0
  9
$DIMBLK
  1

  9
$DIMASO
 70
     1
  9
$DIMSHO
 70
     1
  9
$DIMPOST
  1

  9
$DIMAPOST
  1

  9
$DIMALT
 70
     0
  9
$DIMALTD
 70
     2
  9
$DIMALTF
 40
25.4
  9
$DIMLFAC
 40
1.0
  9
$DIMTOFL
 70
     0
  9
$DIMTVP
 40
0.0
  9
$DIMTIX
 70
     0
  9
$DIMSOXD
 70
     0
  9
$DIMSAH
 70
     0
  9
$DIMBLK1
  1

  9
$DIMBLK2
  1

  9
$DIMSTYLE
  2
*UNNAMED
  9
$DIMCLRD
 70
     0
  9
$DIMCLRE
 70
     0
  9
$DIMCLRT
 70
     0
  9
$DIMTFAC
 40
1.0
  9
$DIMGAP
 40
0.09
  9
$LUNITS
 70
     2
  9
$LUPREC
 70
     4
  9
$SKETCHINC
 40
0.1
  9
$FILLETRAD
 40
2.0
  9
$AUNITS
 70
     0
  9
$AUPREC
 70
     0
  9
$MENU
  1
ACAD
  9
$ELEVATION
 40
0.0
  9
$PELEVATION
 40
0.0
  9
$THICKNESS
 40
0.0
  9
$LIMCHECK
 70
     0
  9
$BLIPMODE
 70
     1
  9
$CHAMFERA
 40
0.0
  9
$CHAMFERB
 40
0.0
  9
$SKPOLY
 70
     0
  9
$TDCREATE
 40
2450954.728009374
  9
$TDUPDATE
 40
2450954.728217245
  9
$TDINDWG
 40
0.0001398148
  9
$TDUSRTIMER
 40
0.0001398148
  9
$USRTIMER
 70
     1
  9
$ANGBASE
 50
0.0
  9
$ANGDIR
 70
     0
  9
$PDMODE
 70
     0
  9
$PDSIZE
 40
0.0
  9
$PLINEWID
 40
0.0
  9
$COORDS
 70
     2
  9
$SPLFRAME
 70
     0
  9
$SPLINETYPE
 70
     6
  9
$SPLINESEGS
 70
     8
  9
$ATTDIA
 70
     0
  9
$ATTREQ
 70
     1
  9
$HANDLING
 70
     0
  9
$HANDSEED
  5
0
  9
$SURFTAB1
 70
     6
  9
$SURFTAB2
 70
     6
  9
$SURFTYPE
 70
     6
  9
$SURFU
 70
     6
  9
$SURFV
 70
     6
  9
$UCSNAME
  2

  9
$UCSORG
 10
0.0
 20
0.0
 30
0.0
  9
$UCSXDIR
 10
1.0
 20
0.0
 30
0.0
  9
$UCSYDIR
 10
0.0
 20
1.0
 30
0.0
  9
$PUCSNAME
  2

  9
$PUCSORG
 10
0.0
 20
0.0
 30
0.0
  9
$PUCSXDIR
 10
1.0
 20
0.0
 30
0.0
  9
$PUCSYDIR
 10
0.0
 20
1.0
 30
0.0
  9
$USERI1
 70
     0
  9
$USERI2
 70
     0
  9
$USERI3
 70
     0
  9
$USERI4
 70
     0
  9
$USERI5
 70
     0
  9
$USERR1
 40
0.0
  9
$USERR2
 40
0.0
  9
$USERR3
 40
0.0
  9
$USERR4
 40
0.0
  9
$USERR5
 40
0.0
  9
$WORLDVIEW
 70
     1
  9
$SHADEDGE
 70
     3
  9
$SHADEDIF
 70
    70
  9
$TILEMODE
 70
     1
  9
$MAXACTVP
 70
    16
  9
$PINSBASE
 10
0.0
 20
0.0
 30
0.0
  9
$PLIMCHECK
 70
     0
  9
$PEXTMIN
 10
1.000000E+20
 20
1.000000E+20
 30
1.000000E+20
  9
$PEXTMAX
 10
-1.000000E+20
 20
-1.000000E+20
 30
-1.000000E+20
  9
$PLIMMIN
 10
0.0
 20
0.0
  9
$PLIMMAX
 10
420.0
 20
297.0
  9
$UNITMODE
 70
     0
  9
$VISRETAIN
 70
     0
  9
$PLINEGEN
 70
     0
  9
$PSLTSCALE
 70
     1
  9
$TREEDEPTH
 70
  3020
  9
$DWGCODEPAGE
  3
iso8859-1
  0
ENDSEC
  0
SECTION
  2
TABLES
  0
TABLE
  2
VPORT
 70
     2
  0
VPORT
  2
*ACTIVE
 70
     0
 10
0.0
 20
0.0
 11
1.0
 21
1.0
 12
127.671841
 22
188.350613
 13
0.0
 23
0.0
 14
1.0
 24
1.0
 15
0.0
 25
0.0
 16
0.0
 26
0.0
 36
1.0
 17
0.0
 27
0.0
 37
0.0
 40
119.770248
 41
1.748359
 42
50.0
 43
0.0
 44
0.0
 50
0.0
 51
0.0
 71
     0
 72
   100
 73
     1
 74
     0
 75
     0
 76
     0
 77
     0
 78
     0
  0
ENDTAB
  0
TABLE
  2
LTYPE
 70
     1
  0
LTYPE
  2
CONTINUOUS
 70
    64
  3
Solid line
 72
    65
 73
     0
 40
0.0
  0
ENDTAB
  0
TABLE
  2
LAYER
 70
     1
  0
LAYER
  2
0
 70
    64
 62
     7
  6
CONTINUOUS
  0
ENDTAB
  0
TABLE
  2
STYLE
 70
     1
  0
STYLE
  2
STANDARD
 70
     0
 40
0.0
 41
1.0
 50
0.0
 71
     0
 42
3.5
  3
txt
  4

  0
ENDTAB
  0
TABLE
  2
VIEW
 70
     0
  0
ENDTAB
  0
TABLE
  2
UCS
 70
     0
  0
ENDTAB
  0
TABLE
  2
APPID
 70
     1
  0
APPID
  2
ACAD
 70
    64
  0
ENDTAB
  0
TABLE
  2
DIMSTYLE
 70
     0
  0
ENDTAB
  0
ENDSEC
  0
SECTION
  2
BLOCKS
  0
ENDSEC
  0
SECTION
  2
ENTITIES
  0
POLYLINE
  8
0
  6
CONTINUOUS
 66
     1
 10
0.0
 20
0.0
 30
0.0
  0
VERTEX
  8
0
  6
CONTINUOUS
 10
69.70125
 20
182.520476
 30
0.0
  0
VERTEX
  8
0
  6
CONTINUOUS
 10
69.81751
 20
182.487303
 30
0.0
  0
VERTEX
  8
0
  6
CONTINUOUS
 10
69.925506
 20
182.44645
 30
0.0
  0
SEQEND
  8
0
  6
CONTINUOUS
  0
POLYLINE
  8
0
  6
CONTINUOUS
 66
     1
 10
0.0
 20
0.0
 30
0.0
  0
VERTEX
  8
0
  6
CONTINUOUS
 10
72.008316
 20
189.395516
 30
0.0
  0
VERTEX
  8
0
  6
CONTINUOUS
 10
72.20955
 20
188.730817
 30
0.0
  0
VERTEX
  8
0
  6
CONTINUOUS
 10
72.707515
 20
188.239009
 30
0.0
  0
SEQEND
  8
0
  6
CONTINUOUS
  0
POLYLINE
  8
0
  6
CONTINUOUS
 66
     1
 10
0.0
 20
0.0
 30
0.0
  0
VERTEX
  8
0
  6
CONTINUOUS
 10
73.209843
 20
188.529359
 30
0.0
  0
VERTEX
  8
0
  6
CONTINUOUS
 10
72.711878
 20
189.021166
 30
0.0
  0
VERTEX
  8
0
  6
CONTINUOUS
 10
72.510644
 20
189.685865
 30
0.0
  0
SEQEND
  8
0
  6
CONTINUOUS
  0
POLYLINE
  8
0
  6
CONTINUOUS
 66
     1
 10
0.0
 20
0.0
 30
0.0
  0
VERTEX
  8
0
  6
CONTINUOUS
 10
69.70125
 20
183.160487
 30
0.0
  0
VERTEX
  8
0
  6
CONTINUOUS
 10
69.81751
 20
183.127314
 30
0.0
  0
VERTEX
  8
0
  6
CONTINUOUS
 10
69.925506
 20
183.086461
 30
0.0
  0
SEQEND
  8
0
  6
CONTINUOUS
  0
POLYLINE
  8
0
  6
CONTINUOUS
 66
     1
 10
0.0
 20
0.0
 30
0.0
  0
VERTEX
  8
0
  6
CONTINUOUS
 10
77.370295
 20
180.153959
 30
0.0
  0
VERTEX
  8
0
  6
CONTINUOUS
 10
77.299907
 20
180.239155
 30
0.0
  0
VERTEX
  8
0
  6
CONTINUOUS
 10
77.248379
 20
180.358686
 30
0.0
  0
VERTEX
  8
0
  6
CONTINUOUS
 10
77.229519
 20
180.480524
 30
0.0
  0
SEQEND
  8
0
  6
CONTINUOUS
  0
POLYLINE
  8
0
  6
CONTINUOUS
 66
     1
 10
0.0
 20
0.0
 30
0.0
  0
VERTEX
  8
0
  6
CONTINUOUS
 10
77.838557
 20
180.361659
 30
0.0
  0
VERTEX
  8
0
  6
CONTINUOUS
 10
77.882543
 20
180.367555
 30
0.0
  0
VERTEX
  8
0
  6
CONTINUOUS
 10
77.933398
 20
180.341058
 30
0.0
  0
SEQEND
  8
0
  6
CONTINUOUS
  0
POLYLINE
  8
0
  6
CONTINUOUS
 66
     1
 10
0.0
 20
0.0
 30
0.0
  0
VERTEX
  8
0
  6
CONTINUOUS
 10
77.229519
 20
180.693861
 30
0.0
  0
VERTEX
  8
0
  6
CONTINUOUS
 10
77.270751
 20
180.811549
 30
0.0
  0
VERTEX
  8
0
  6
CONTINUOUS
 10
77.370295
 20
180.79397
 30
0.0
  0
SEQEND
  8
0
  6
CONTINUOUS
  0
POLYLINE
  8
0
  6
CONTINUOUS
 66
     1
 10
0.0
 20
0.0
 30
0.0
  0
VERTEX
  8
0
  6
CONTINUOUS
 10
79.425637
 20
187.673882
 30
0.0
  0
VERTEX
  8
0
  6
CONTINUOUS
 10
79.447192
 20
187.601678
 30
0.0
  0
VERTEX
  8
0
  6
CONTINUOUS
 10
79.508194
 20
187.534603
 30
0.0
  0
SEQEND
  8
0
  6
CONTINUOUS
  0
POLYLINE
  8
0
  6
CONTINUOUS
 66
     1
 10
0.0
 20
0.0
 30
0.0
  0
VERTEX
  8
0
  6
CONTINUOUS
 10
79.425637
 20
192.58063
 30
0.0
  0
VERTEX
  8
0
  6
CONTINUOUS
 10
79.447192
 20
192.508425
 30
0.0
  0
VERTEX
  8
0
  6
CONTINUOUS
 10
79.508194
 20
192.441351
 30
0.0
  0
SEQEND
  8
0
  6
CONTINUOUS
  0
POLYLINE
  8
0
  6
CONTINUOUS
 66
     1
 10
0.0
 20
0.0
 30
0.0
  0
VERTEX
  8
0
  6
CONTINUOUS
 10
79.657438
 20
189.975362
 30
0.0
  0
VERTEX
  8
0
  6
CONTINUOUS
 10
79.766031
 20
190.019717
 30
0.0
  0
VERTEX
  8
0
  6
CONTINUOUS
 10
79.895268
 20
190.044113
 30
0.0
  0
VERTEX
  8
0
  6
CONTINUOUS
 10
80.010523
 20
190.042014
 30
0.0
  0
SEQEND
  8
0
  6
CONTINUOUS
  0
POLYLINE
  8
0
  6
CONTINUOUS
 66
     1
 10
0.0
 20
0.0
 30
0.0
  0
VERTEX
  8
0
  6
CONTINUOUS
 10
79.508194
 20
189.751665
 30
0.0
  0
VERTEX
  8
0
  6
CONTINUOUS
 10
79.425969
 20
189.801318
 30
0.0
  0
VERTEX
  8
0
  6
CONTINUOUS
 10
79.489995
 20
189.878579
 30
0.0
  0
SEQEND
  8
0
  6
CONTINUOUS
  0
POLYLINE
  8
0
  6
CONTINUOUS
 66
     1
 10
0.0
 20
0.0
 30
0.0
  0
VERTEX
  8
0
  6
CONTINUOUS
 10
80.250762
 20
189.631138
 30
0.0
  0
VERTEX
  8
0
  6
CONTINUOUS
 10
80.18976
 20
189.651742
 30
0.0
  0
VERTEX
  8
0
  6
CONTINUOUS
 10
80.168205
 20
189.6855
 30
0.0
  0
SEQEND
  8
0
  6
CONTINUOUS
  0
POLYLINE
  8
0
  6
CONTINUOUS
 66
     1
 10
0.0
 20
0.0
 30
0.0
  0
VERTEX
  8
0
  6
CONTINUOUS
 10
79.657438
 20
185.068615
 30
0.0
  0
VERTEX
  8
0
  6
CONTINUOUS
 10
79.766031
 20
185.112969
 30
0.0
  0
VERTEX
  8
0
  6
CONTINUOUS
 10
79.895268
 20
185.137366
 30
0.0
  0
VERTEX
  8
0
  6
CONTINUOUS
 10
80.010523
 20
185.135266
 30
0.0
  0
SEQEND
  8
0
  6
CONTINUOUS
  0
POLYLINE
  8
0
  6
CONTINUOUS
 66
     1
 10
0.0
 20
0.0
 30
0.0
  0
VERTEX
  8
0
  6
CONTINUOUS
 10
79.508194
 20
184.844917
 30
0.0
  0
VERTEX
  8
0
  6
CONTINUOUS
 10
79.437807
 20
184.872949
 30
0.0
  0
VERTEX
  8
0
  6
CONTINUOUS
 10
79.431145
 20
184.919403
 30
0.0
  0
VERTEX
  8
0
  6
CONTINUOUS
 10
79.489995
 20
184.971832
 30
0.0
  0
SEQEND
  8
0
  6
CONTINUOUS
  0
POLYLINE
  8
0
  6
CONTINUOUS
 66
     1
 10
0.0
 20
0.0
 30
0.0
  0
VERTEX
  8
0
  6
CONTINUOUS
 10
80.250762
 20
184.724391
 30
0.0
  0
VERTEX
  8
0
  6
CONTINUOUS
 10
80.18976
 20
184.744994
 30
0.0
  0
VERTEX
  8
0
  6
CONTINUOUS
 10
80.168205
 20
184.778752
 30
0.0
  0
SEQEND
  8
0
  6
CONTINUOUS
  0
POLYLINE
  8
0
  6
CONTINUOUS
 66
     1
 10
0.0
 20
0.0
 30
0.0
  0
VERTEX
  8
0
  6
CONTINUOUS
 10
79.657438
 20
194.88211
 30
0.0
  0
VERTEX
  8
0
  6
CONTINUOUS
 10
79.766031
 20
194.926465
 30
0.0
  0
VERTEX
  8
0
  6
CONTINUOUS
 10
79.895268
 20
194.950861
 30
0.0
  0
VERTEX
  8
0
  6
CONTINUOUS
 10
80.010523
 20
194.948761
 30
0.0
  0
SEQEND
  8
0
  6
CONTINUOUS
  0
POLYLINE
  8
0
  6
CONTINUOUS
 66
     1
 10
0.0
 20
0.0
 30
0.0
  0
VERTEX
  8
0
  6
CONTINUOUS
 10
79.508194
 20
194.658412
 30
0.0
  0
VERTEX
  8
0
  6
CONTINUOUS
 10
79.437807
 20
194.686444
 30
0.0
  0
VERTEX
  8
0
  6
CONTINUOUS
 10
79.431145
 20
194.732898
 30
0.0
  0
VERTEX
  8
0
  6
CONTINUOUS
 10
79.489995
 20
194.785327
 30
0.0
  0
SEQEND
  8
0
  6
CONTINUOUS
  0
POLYLINE
  8
0
  6
CONTINUOUS
 66
     1
 10
0.0
 20
0.0
 30
0.0
  0
VERTEX
  8
0
  6
CONTINUOUS
 10
80.250762
 20
194.537886
 30
0.0
  0
VERTEX
  8
0
  6
CONTINUOUS
 10
80.18976
 20
194.558489
 30
0.0
  0
VERTEX
  8
0
  6
CONTINUOUS
 10
80.168205
 20
194.592248
 30
0.0
  0
SEQEND
  8
0
  6
CONTINUOUS
  0
POLYLINE
  8
0
  6
CONTINUOUS
 66
     1
 10
0.0
 20
0.0
 30
0.0
  0
VERTEX
  8
0
  6
CONTINUOUS
 10
81.885142
 20
182.384835
 30
0.0
  0
VERTEX
  8
0
  6
CONTINUOUS
 10
81.667956
 20
182.399809
 30
0.0
  0
VERTEX
  8
0
  6
CONTINUOUS
 10
81.40948
 20
182.457553
 30
0.0
  0
VERTEX
  8
0
  6
CONTINUOUS
 10
81.178972
 20
182.542593
 30
0.0
  0
SEQEND
  8
0
  6
CONTINUOUS
  0
POLYLINE
  8
0
  6
CONTINUOUS
 66
     1
 10
0.0
 20
0.0
 30
0.0
  0
VERTEX
  8
0
  6
CONTINUOUS
 10
80.669766
 20
180.133843
 30
0.0
  0
VERTEX
  8
0
  6
CONTINUOUS
 10
80.462934
 20
180.429989
 30
0.0
  0
VERTEX
  8
0
  6
CONTINUOUS
 10
80.159768
 20
180.654929
 30
0.0
  0
SEQEND
  8
0
  6
CONTINUOUS
  0
POLYLINE
  8
0
  6
CONTINUOUS
 66
     1
 10
0.0
 20
0.0
 30
0.0
  0
VERTEX
  8
0
  6
CONTINUOUS
 10
78.381999
 20
181.454163
 30
0.0
  0
VERTEX
  8
0
  6
CONTINUOUS
 10
78.42659
 20
181.460422
 30
0.0
  0
VERTEX
  8
0
  6
CONTINUOUS
 10
78.48899
 20
181.440584
 30
0.0
  0
SEQEND
  8
0
  6
CONTINUOUS
  0
POLYLINE
  8
0
  6
CONTINUOUS
 66
     1
 10
0.0
 20
0.0
 30
0.0
  0
VERTEX
  8
0
  6
CONTINUOUS
 10
79.425637
 20
183.39585
 30
0.0
  0
VERTEX
  8
0
  6
CONTINUOUS
 10
79.447207
 20
183.364446
 30
0.0
  0
VERTEX
  8
0
  6
CONTINUOUS
 10
79.508194
 20
183.328248
 30
0.0
  0
SEQEND
  8
0
  6
CONTINUOUS
  0
POLYLINE
  8
0
  6
CONTINUOUS
 66
     1
 10
0.0
 20
0.0
 30
0.0
  0
VERTEX
  8
0
  6
CONTINUOUS
 10
69.869293
 20
190.084516
 30
0.0
  0
VERTEX
  8
0
  6
CONTINUOUS
 10
69.785572
 20
190.007543
 30
0.0
  0
VERTEX
  8
0
  6
CONTINUOUS
 10
69.724283
 20
189.894031
 30
0.0
  0
VERTEX
  8
0
  6
CONTINUOUS
 10
69.70185
 20
189.774396
 30
0.0
  0
SEQEND
  8
0
  6
CONTINUOUS
  0
POLYLINE
  8
0
  6
CONTINUOUS
 66
     1
 10
0.0
 20
0.0
 30
0.0
  0
VERTEX
  8
0
  6
CONTINUOUS
 10
85.106578
 20
198.678441
 30
0.0
  0
VERTEX
  8
0
  6
CONTINUOUS
 10
85.057535
 20
198.800946
 30
0.0
  0
VERTEX
  8
0
  6
CONTINUOUS
 10
84.939135
 20
198.794995
 30
0.0
  0
SEQEND
  8
0
  6
CONTINUOUS
  0
POLYLINE
  8
0
  6
CONTINUOUS
 66
     1
 10
0.0
 20
0.0
 30
0.0
  0
VERTEX
  8
0
  6
CONTINUOUS
 10
84.939135
 20
179.168005
 30
0.0
  0
VERTEX
  8
0
  6
CONTINUOUS
 10
85.022856
 20
179.244978
 30
0.0
  0
VERTEX
  8
0
  6
CONTINUOUS
 10
85.084144
 20
179.35849
 30
0.0
  0
VERTEX
  8
0
  6
CONTINUOUS
 10
85.106578
 20
179.478124
 30
0.0
  0
SEQEND
  8
0
  6
CONTINUOUS
  0
POLYLINE
  8
0
  6
CONTINUOUS
 66
     1
 10
0.0
 20
0.0
 30
0.0
  0
VERTEX
  8
0
  6
CONTINUOUS
 10
69.70185
 20
170.57408
 30
0.0
  0
VERTEX
  8
0
  6
CONTINUOUS
 10
69.750893
 20
170.451575
 30
0.0
  0
VERTEX
  8
0
  6
CONTINUOUS
 10
69.869293
 20
170.457526
 30
0.0
  0
SEQEND
  8
0
  6
CONTINUOUS
  0
POLYLINE
  8
0
  6
CONTINUOUS
 66
     1
 10
0.0
 20
0.0
 30
0.0
  0
VERTEX
  8
0
  6
CONTINUOUS
 10
82.413001
 20
180.764082
 30
0.0
  0
VERTEX
  8
0
  6
CONTINUOUS
 10
82.413009
 20
180.762965
 30
0.0
  0
SEQEND
  8
0
  6
CONTINUOUS
  0
POLYLINE
  8
0
  6
CONTINUOUS
 66
     1
 10
0.0
 20
0.0
 30
0.0
  0
VERTEX
  8
0
  6
CONTINUOUS
 10
82.413009
 20
180.762965
 30
0.0
  0
VERTEX
  8
0
  6
CONTINUOUS
 10
82.476977
 20
180.675171
 30
0.0
  0
SEQEND
  8
0
  6
CONTINUOUS
  0
POLYLINE
  8
0
  6
CONTINUOUS
 66
     1
 10
0.0
 20
0.0
 30
0.0
  0
VERTEX
  8
0
  6
CONTINUOUS
 10
82.476977
 20
197.371485
 30
0.0
  0
VERTEX
  8
0
  6
CONTINUOUS
 10
82.476977
 20
190.494276
 30
0.0
  0
VERTEX
  8
0
  6
CONTINUOUS
 10
82.476977
 20
180.675171
 30
0.0
  0
SEQEND
  8
0
  6
CONTINUOUS
  0
POLYLINE
  8
0
  6
CONTINUOUS
 66
     1
 10
0.0
 20
0.0
 30
0.0
  0
VERTEX
  8
0
  6
CONTINUOUS
 10
82.476977
 20
180.675171
 30
0.0
  0
VERTEX
  8
0
  6
CONTINUOUS
 10
82.432197
 20
180.495234
 30
0.0
  0
SEQEND
  8
0
  6
CONTINUOUS
  0
POLYLINE
  8
0
  6
CONTINUOUS
 66
     1
 10
0.0
 20
0.0
 30
0.0
  0
VERTEX
  8
0
  6
CONTINUOUS
 10
82.351662
 20
180.524377
 30
0.0
  0
VERTEX
  8
0
  6
CONTINUOUS
 10
82.413009
 20
180.762965
 30
0.0
  0
SEQEND
  8
0
  6
CONTINUOUS
  0
POLYLINE
  8
0
  6
CONTINUOUS
 66
     1
 10
0.0
 20
0.0
 30
0.0
  0
VERTEX
  8
0
  6
CONTINUOUS
 10
82.432197
 20
180.495234
 30
0.0
  0
VERTEX
  8
0
  6
CONTINUOUS
 10
82.351662
 20
180.524377
 30
0.0
  0
SEQEND
  8
0
  6
CONTINUOUS
  0
POLYLINE
  8
0
  6
CONTINUOUS
 66
     1
 10
0.0
 20
0.0
 30
0.0
  0
VERTEX
  8
0
  6
CONTINUOUS
 10
84.475395
 20
179.774928
 30
0.0
  0
VERTEX
  8
0
  6
CONTINUOUS
 10
84.475398
 20
179.77452
 30
0.0
  0
VERTEX
  8
0
  6
CONTINUOUS
 10
84.475409
 20
179.774109
 30
0.0
  0
SEQEND
  8
0
  6
CONTINUOUS
  0
POLYLINE
  8
0
  6
CONTINUOUS
 66
     1
 10
0.0
 20
0.0
 30
0.0
  0
VERTEX
  8
0
  6
CONTINUOUS
 10
84.308603
 20
179.46517
 30
0.0
  0
VERTEX
  8
0
  6
CONTINUOUS
 10
84.36169
 20
179.523207
 30
0.0
  0
VERTEX
  8
0
  6
CONTINUOUS
 10
84.407196
 20
179.604912
 30
0.0
  0
VERTEX
  8
0
  6
CONTINUOUS
 10
84.452165
 20
179.690799
 30
0.0
  0
VERTEX
  8
0
  6
CONTINUOUS
 10
84.475409
 20
179.774109
 30
0.0
  0
SEQEND
  8
0
  6
CONTINUOUS
  0
POLYLINE
  8
0
  6
CONTINUOUS
 66
     1
 10
0.0
 20
0.0
 30
0.0
  0
VERTEX
  8
0
  6
CONTINUOUS
 10
84.307952
 20
179.464808
 30
0.0
  0
VERTEX
  8
0
  6
CONTINUOUS
 10
84.308274
 20
179.46499
 30
0.0
  0
VERTEX
  8
0
  6
CONTINUOUS
 10
84.308603
 20
179.46517
 30
0.0
  0
SEQEND
  8
0
  6
CONTINUOUS
  0
POLYLINE
  8
0
  6
CONTINUOUS
 66
     1
 10
0.0
 20
0.0
 30
0.0
  0
VERTEX
  8
0
  6
CONTINUOUS
 10
82.310172
 20
180.366231
 30
0.0
  0
VERTEX
  8
0
  6
CONTINUOUS
 10
81.150808
 20
179.69611
 30
0.0
  0
VERTEX
  8
0
  6
CONTINUOUS
 10
79.797894
 20
178.914116
 30
0.0
  0
SEQEND
  8
0
  6
CONTINUOUS
  0
POLYLINE
  8
0
  6
CONTINUOUS
 66
     1
 10
0.0
 20
0.0
 30
0.0
  0
VERTEX
  8
0
  6
CONTINUOUS
 10
84.308603
 20
179.46517
 30
0.0
  0
VERTEX
  8
0
  6
CONTINUOUS
 10
83.216657
 20
179.957511
 30
0.0
  0
VERTEX
  8
0
  6
CONTINUOUS
 10
82.310172
 20
180.366231
 30
0.0
  0
SEQEND
  8
0
  6
CONTINUOUS
  0
POLYLINE
  8
0
  6
CONTINUOUS
 66
     1
 10
0.0
 20
0.0
 30
0.0
  0
VERTEX
  8
0
  6
CONTINUOUS
 10
79.797894
 20
178.382771
 30
0.0
  0
VERTEX
  8
0
  6
CONTINUOUS
 10
79.743594
 20
178.460196
 30
0.0
  0
VERTEX
  8
0
  6
CONTINUOUS
 10
79.730875
 20
178.546019
 30
0.0
  0
SEQEND
  8
0
  6
CONTINUOUS
  0
POLYLINE
  8
0
  6
CONTINUOUS
 66
     1
 10
0.0
 20
0.0
 30
0.0
  0
VERTEX
  8
0
  6
CONTINUOUS
 10
79.730875
 20
178.929364
 30
0.0
  0
VERTEX
  8
0
  6
CONTINUOUS
 10
79.74351
 20
178.932877
 30
0.0
  0
VERTEX
  8
0
  6
CONTINUOUS
 10
79.797894
 20
178.914116
 30
0.0
  0
SEQEND
  8
0
  6
CONTINUOUS
  0
POLYLINE
  8
0
  6
CONTINUOUS
 66
     1
 10
0.0
 20
0.0
 30
0.0
  0
VERTEX
  8
0
  6
CONTINUOUS
 10
79.809813
 20
178.375239
 30
0.0
  0
VERTEX
  8
0
  6
CONTINUOUS
 10
79.806835
 20
178.377009
 30
0.0
  0
VERTEX
  8
0
  6
CONTINUOUS
 10
79.803854
 20
178.378855
 30
0.0
  0
VERTEX
  8
0
  6
CONTINUOUS
 10
79.800874
 20
178.380776
 30
0.0
  0
VERTEX
  8
0
  6
CONTINUOUS
 10
79.797894
 20
178.382771
 30
0.0
  0
SEQEND
  8
0
  6
CONTINUOUS
  0
POLYLINE
  8
0
  6
CONTINUOUS
 66
     1
 10
0.0
 20
0.0
 30
0.0
  0
VERTEX
  8
0
  6
CONTINUOUS
 10
82.310172
 20
180.366231
 30
0.0
  0
VERTEX
  8
0
  6
CONTINUOUS
 10
82.203953
 20
180.360717
 30
0.0
  0
SEQEND
  8
0
  6
CONTINUOUS
  0
POLYLINE
  8
0
  6
CONTINUOUS
 66
     1
 10
0.0
 20
0.0
 30
0.0
  0
VERTEX
  8
0
  6
CONTINUOUS
 10
84.475409
 20
179.774109
 30
0.0
  0
VERTEX
  8
0
  6
CONTINUOUS
 10
83.383463
 20
180.266451
 30
0.0
  0
VERTEX
  8
0
  6
CONTINUOUS
 10
82.476977
 20
180.675171
 30
0.0
  0
SEQEND
  8
0
  6
CONTINUOUS
  0
POLYLINE
  8
0
  6
CONTINUOUS
 66
     1
 10
0.0
 20
0.0
 30
0.0
  0
VERTEX
  8
0
  6
CONTINUOUS
 10
82.432197
 20
180.495234
 30
0.0
  0
VERTEX
  8
0
  6
CONTINUOUS
 10
82.310172
 20
180.366231
 30
0.0
  0
SEQEND
  8
0
  6
CONTINUOUS
  0
POLYLINE
  8
0
  6
CONTINUOUS
 66
     1
 10
0.0
 20
0.0
 30
0.0
  0
VERTEX
  8
0
  6
CONTINUOUS
 10
82.228912
 20
180.376602
 30
0.0
  0
VERTEX
  8
0
  6
CONTINUOUS
 10
82.351662
 20
180.524377
 30
0.0
  0
SEQEND
  8
0
  6
CONTINUOUS
  0
POLYLINE
  8
0
  6
CONTINUOUS
 66
     1
 10
0.0
 20
0.0
 30
0.0
  0
VERTEX
  8
0
  6
CONTINUOUS
 10
82.345219
 20
180.523228
 30
0.0
  0
VERTEX
  8
0
  6
CONTINUOUS
 10
82.351662
 20
180.524377
 30
0.0
  0
SEQEND
  8
0
  6
CONTINUOUS
  0
POLYLINE
  8
0
  6
CONTINUOUS
 66
     1
 10
0.0
 20
0.0
 30
0.0
  0
VERTEX
  8
0
  6
CONTINUOUS
 10
82.413001
 20
180.764085
 30
0.0
  0
VERTEX
  8
0
  6
CONTINUOUS
 10
82.413001
 20
190.58319
 30
0.0
  0
VERTEX
  8
0
  6
CONTINUOUS
 10
82.413001
 20
197.334486
 30
0.0
  0
SEQEND
  8
0
  6
CONTINUOUS
  0
POLYLINE
  8
0
  6
CONTINUOUS
 66
     1
 10
0.0
 20
0.0
 30
0.0
  0
VERTEX
  8
0
  6
CONTINUOUS
 10
79.732591
 20
178.932252
 30
0.0
  0
VERTEX
  8
0
  6
CONTINUOUS
 10
80.947352
 20
179.634392
 30
0.0
  0
VERTEX
  8
0
  6
CONTINUOUS
 10
82.203971
 20
180.360727
 30
0.0
  0
SEQEND
  8
0
  6
CONTINUOUS
  0
POLYLINE
  8
0
  6
CONTINUOUS
 66
     1
 10
0.0
 20
0.0
 30
0.0
  0
VERTEX
  8
0
  6
CONTINUOUS
 10
82.204535
 20
180.361051
 30
0.0
  0
VERTEX
  8
0
  6
CONTINUOUS
 10
82.205309
 20
180.361492
 30
0.0
  0
VERTEX
  8
0
  6
CONTINUOUS
 10
82.207429
 20
180.36271
 30
0.0
  0
VERTEX
  8
0
  6
CONTINUOUS
 10
82.217657
 20
180.368951
 30
0.0
  0
VERTEX
  8
0
  6
CONTINUOUS
 10
82.22893
 20
180.376614
 30
0.0
  0
SEQEND
  8
0
  6
CONTINUOUS
  0
POLYLINE
  8
0
  6
CONTINUOUS
 66
     1
 10
0.0
 20
0.0
 30
0.0
  0
VERTEX
  8
0
  6
CONTINUOUS
 10
82.22893
 20
180.376614
 30
0.0
  0
VERTEX
  8
0
  6
CONTINUOUS
 10
82.275834
 20
180.419077
 30
0.0
  0
VERTEX
  8
0
  6
CONTINUOUS
 10
82.313203
 20
180.467834
 30
0.0
  0
VERTEX
  8
0
  6
CONTINUOUS
 10
82.345219
 20
180.523227
 30
0.0
  0
SEQEND
  8
0
  6
CONTINUOUS
  0
POLYLINE
  8
0
  6
CONTINUOUS
 66
     1
 10
0.0
 20
0.0
 30
0.0
  0
VERTEX
  8
0
  6
CONTINUOUS
 10
82.345219
 20
180.523227
 30
0.0
  0
VERTEX
  8
0
  6
CONTINUOUS
 10
82.374316
 20
180.581142
 30
0.0
  0
VERTEX
  8
0
  6
CONTINUOUS
 10
82.397805
 20
180.648041
 30
0.0
  0
VERTEX
  8
0
  6
CONTINUOUS
 10
82.411035
 20
180.721338
 30
0.0
  0
VERTEX
  8
0
  6
CONTINUOUS
 10
82.412775
 20
180.747544
 30
0.0
  0
VERTEX
  8
0
  6
CONTINUOUS
 10
82.412984
 20
180.757056
 30
0.0
  0
VERTEX
  8
0
  6
CONTINUOUS
 10
82.413003
 20
180.76083
 30
0.0
  0
VERTEX
  8
0
  6
CONTINUOUS
 10
82.413002
 20
180.762498
 30
0.0
  0
VERTEX
  8
0
  6
CONTINUOUS
 10
82.413002
 20
180.763295
 30
0.0
  0
VERTEX
  8
0
  6
CONTINUOUS
 10
82.413001
 20
180.764084
 30
0.0
  0
SEQEND
  8
0
  6
CONTINUOUS
  0
POLYLINE
  8
0
  6
CONTINUOUS
 66
     1
 10
0.0
 20
0.0
 30
0.0
  0
VERTEX
  8
0
  6
CONTINUOUS
 10
87.995217
 20
202.573804
 30
0.0
  0
VERTEX
  8
0
  6
CONTINUOUS
 10
87.841771
 20
202.354327
 30
0.0
  0
SEQEND
  8
0
  6
CONTINUOUS
  0
POLYLINE
  8
0
  6
CONTINUOUS
 66
     1
 10
0.0
 20
0.0
 30
0.0
  0
VERTEX
  8
0
  6
CONTINUOUS
 10
87.331489
 20
204.048108
 30
0.0
  0
VERTEX
  8
0
  6
CONTINUOUS
 10
87.701364
 20
203.176427
 30
0.0
  0
VERTEX
  8
0
  6
CONTINUOUS
 10
87.841771
 20
202.354327
 30
0.0
  0
SEQEND
  8
0
  6
CONTINUOUS
  0
POLYLINE
  8
0
  6
CONTINUOUS
 66
     1
 10
0.0
 20
0.0
 30
0.0
  0
VERTEX
  8
0
  6
CONTINUOUS
 10
87.505036
 20
204.164687
 30
0.0
  0
VERTEX
  8
0
  6
CONTINUOUS
 10
87.331489
 20
204.048108
 30
0.0
  0
SEQEND
  8
0
  6
CONTINUOUS
  0
POLYLINE
  8
0
  6
CONTINUOUS
 66
     1
 10
0.0
 20
0.0
 30
0.0
  0
VERTEX
  8
0
  6
CONTINUOUS
 10
87.995217
 20
202.573804
 30
0.0
  0
VERTEX
  8
0
  6
CONTINUOUS
 10
87.874374
 20
203.282673
 30
0.0
  0
VERTEX
  8
0
  6
CONTINUOUS
 10
87.505036
 20
204.164687
 30
0.0
  0
SEQEND
  8
0
  6
CONTINUOUS
  0
POLYLINE
  8
0
  6
CONTINUOUS
 66
     1
 10
0.0
 20
0.0
 30
0.0
  0
VERTEX
  8
0
  6
CONTINUOUS
 10
86.164079
 20
205.444914
 30
0.0
  0
VERTEX
  8
0
  6
CONTINUOUS
 10
86.796377
 20
204.844984
 30
0.0
  0
VERTEX
  8
0
  6
CONTINUOUS
 10
87.331489
 20
204.048108
 30
0.0
  0
SEQEND
  8
0
  6
CONTINUOUS
  0
POLYLINE
  8
0
  6
CONTINUOUS
 66
     1
 10
0.0
 20
0.0
 30
0.0
  0
VERTEX
  8
0
  6
CONTINUOUS
 10
86.164079
 20
205.444914
 30
0.0
  0
VERTEX
  8
0
  6
CONTINUOUS
 10
86.42223
 20
205.477135
 30
0.0
  0
SEQEND
  8
0
  6
CONTINUOUS
  0
POLYLINE
  8
0
  6
CONTINUOUS
 66
     1
 10
0.0
 20
0.0
 30
0.0
  0
VERTEX
  8
0
  6
CONTINUOUS
 10
87.505036
 20
204.164687
 30
0.0
  0
VERTEX
  8
0
  6
CONTINUOUS
 10
86.962444
 20
204.964604
 30
0.0
  0
VERTEX
  8
0
  6
CONTINUOUS
 10
86.42223
 20
205.477135
 30
0.0
  0
SEQEND
  8
0
  6
CONTINUOUS
  0
POLYLINE
  8
0
  6
CONTINUOUS
 66
     1
 10
0.0
 20
0.0
 30
0.0
  0
VERTEX
  8
0
  6
CONTINUOUS
 10
87.995791
 20
202.591285
 30
0.0
  0
VERTEX
  8
0
  6
CONTINUOUS
 10
87.995217
 20
202.573804
 30
0.0
  0
SEQEND
  8
0
  6
CONTINUOUS
  0
POLYLINE
  8
0
  6
CONTINUOUS
 66
     1
 10
0.0
 20
0.0
 30
0.0
  0
VERTEX
  8
0
  6
CONTINUOUS
 10
87.505036
 20
204.164687
 30
0.0
  0
VERTEX
  8
0
  6
CONTINUOUS
 10
87.513288
 20
204.176109
 30
0.0
  0
SEQEND
  8
0
  6
CONTINUOUS
  0
POLYLINE
  8
0
  6
CONTINUOUS
 66
     1
 10
0.0
 20
0.0
 30
0.0
  0
VERTEX
  8
0
  6
CONTINUOUS
 10
87.866125
 20
179.265382
 30
0.0
  0
VERTEX
  8
0
  6
CONTINUOUS
 10
87.752525
 20
178.669909
 30
0.0
  0
VERTEX
  8
0
  6
CONTINUOUS
 10
87.432783
 20
178.307231
 30
0.0
  0
SEQEND
  8
0
  6
CONTINUOUS
  0
POLYLINE
  8
0
  6
CONTINUOUS
 66
     1
 10
0.0
 20
0.0
 30
0.0
  0
VERTEX
  8
0
  6
CONTINUOUS
 10
88.043978
 20
179.702291
 30
0.0
  0
VERTEX
  8
0
  6
CONTINUOUS
 10
87.889259
 20
179.298472
 30
0.0
  0
VERTEX
  8
0
  6
CONTINUOUS
 10
87.866125
 20
179.265382
 30
0.0
  0
SEQEND
  8
0
  6
CONTINUOUS
  0
POLYLINE
  8
0
  6
CONTINUOUS
 66
     1
 10
0.0
 20
0.0
 30
0.0
  0
VERTEX
  8
0
  6
CONTINUOUS
 10
88.018233
 20
179.489038
 30
0.0
  0
VERTEX
  8
0
  6
CONTINUOUS
 10
88.043978
 20
179.702291
 30
0.0
  0
SEQEND
  8
0
  6
CONTINUOUS
  0
POLYLINE
  8
0
  6
CONTINUOUS
 66
     1
 10
0.0
 20
0.0
 30
0.0
  0
VERTEX
  8
0
  6
CONTINUOUS
 10
64.492295
 20
165.710965
 30
0.0
  0
VERTEX
  8
0
  6
CONTINUOUS
 10
65.346549
 20
165.659451
 30
0.0
  0
SEQEND
  8
0
  6
CONTINUOUS
  0
POLYLINE
  8
0
  6
CONTINUOUS
 66
     1
 10
0.0
 20
0.0
 30
0.0
  0
VERTEX
  8
0
  6
CONTINUOUS
 10
65.346549
 20
165.659451
 30
0.0
  0
VERTEX
  8
0
  6
CONTINUOUS
 10
65.682389
 20
165.663378
 30
0.0
  0
SEQEND
  8
0
  6
CONTINUOUS
  0
POLYLINE
  8
0
  6
CONTINUOUS
 66
     1
 10
0.0
 20
0.0
 30
0.0
  0
VERTEX
  8
0
  6
CONTINUOUS
 10
88.043978
 20
179.702291
 30
0.0
  0
VERTEX
  8
0
  6
CONTINUOUS
 10
88.044553
 20
179.719694
 30
0.0
  0
SEQEND
  8
0
  6
CONTINUOUS
  0
POLYLINE
  8
0
  6
CONTINUOUS
 66
     1
 10
0.0
 20
0.0
 30
0.0
  0
VERTEX
  8
0
  6
CONTINUOUS
 10
87.866125
 20
179.265382
 30
0.0
  0
VERTEX
  8
0
  6
CONTINUOUS
 10
87.864852
 20
179.264635
 30
0.0
  0
VERTEX
  8
0
  6
CONTINUOUS
 10
76.725313
 20
172.750999
 30
0.0
  0
VERTEX
  8
0
  6
CONTINUOUS
 10
66.190486
 20
166.661805
 30
0.0
  0
VERTEX
  8
0
  6
CONTINUOUS
 10
66.189213
 20
166.661057
 30
0.0
  0
SEQEND
  8
0
  6
CONTINUOUS
  0
POLYLINE
  8
0
  6
CONTINUOUS
 66
     1
 10
0.0
 20
0.0
 30
0.0
  0
VERTEX
  8
0
  6
CONTINUOUS
 10
66.256903
 20
189.833791
 30
0.0
  0
VERTEX
  8
0
  6
CONTINUOUS
 10
66.258176
 20
189.834539
 30
0.0
  0
VERTEX
  8
0
  6
CONTINUOUS
 10
79.23397
 20
197.093944
 30
0.0
  0
VERTEX
  8
0
  6
CONTINUOUS
 10
87.840498
 20
202.35358
 30
0.0
  0
VERTEX
  8
0
  6
CONTINUOUS
 10
87.841771
 20
202.354327
 30
0.0
  0
SEQEND
  8
0
  6
CONTINUOUS
  0
POLYLINE
  8
0
  6
CONTINUOUS
 66
     1
 10
0.0
 20
0.0
 30
0.0
  0
VERTEX
  8
0
  6
CONTINUOUS
 10
48.089673
 20
173.313887
 30
0.0
  0
VERTEX
  8
0
  6
CONTINUOUS
 10
48.031748
 20
173.375998
 30
0.0
  0
VERTEX
  8
0
  6
CONTINUOUS
 10
48.000254
 20
173.504156
 30
0.0
  0
SEQEND
  8
0
  6
CONTINUOUS
  0
POLYLINE
  8
0
  6
CONTINUOUS
 66
     1
 10
0.0
 20
0.0
 30
0.0
  0
VERTEX
  8
0
  6
CONTINUOUS
 10
65.553383
 20
166.439504
 30
0.0
  0
VERTEX
  8
0
  6
CONTINUOUS
 10
65.3781
 20
166.169124
 30
0.0
  0
VERTEX
  8
0
  6
CONTINUOUS
 10
65.082514
 20
165.877789
 30
0.0
  0
SEQEND
  8
0
  6
CONTINUOUS
  0
POLYLINE
  8
0
  6
CONTINUOUS
 66
     1
 10
0.0
 20
0.0
 30
0.0
  0
VERTEX
  8
0
  6
CONTINUOUS
 10
65.082514
 20
165.877789
 30
0.0
  0
VERTEX
  8
0
  6
CONTINUOUS
 10
64.65241
 20
165.825936
 30
0.0
  0
VERTEX
  8
0
  6
CONTINUOUS
 10
64.141263
 20
166.038847
 30
0.0
  0
SEQEND
  8
0
  6
CONTINUOUS
  0
POLYLINE
  8
0
  6
CONTINUOUS
 66
     1
 10
0.0
 20
0.0
 30
0.0
  0
VERTEX
  8
0
  6
CONTINUOUS
 10
48.000254
 20
173.504156
 30
0.0
  0
VERTEX
  8
0
  6
CONTINUOUS
 10
56.714525
 20
169.547505
 30
0.0
  0
VERTEX
  8
0
  6
CONTINUOUS
 10
64.141263
 20
166.038847
 30
0.0
  0
SEQEND
  8
0
  6
CONTINUOUS
  0
POLYLINE
  8
0
  6
CONTINUOUS
 66
     1
 10
0.0
 20
0.0
 30
0.0
  0
VERTEX
  8
0
  6
CONTINUOUS
 10
64.187297
 20
192.305807
 30
0.0
  0
VERTEX
  8
0
  6
CONTINUOUS
 10
56.820407
 20
195.650689
 30
0.0
  0
VERTEX
  8
0
  6
CONTINUOUS
 10
48.00025
 20
199.657259
 30
0.0
  0
SEQEND
  8
0
  6
CONTINUOUS
  0
POLYLINE
  8
0
  6
CONTINUOUS
 66
     1
 10
0.0
 20
0.0
 30
0.0
  0
VERTEX
  8
0
  6
CONTINUOUS
 10
64.187297
 20
192.305807
 30
0.0
  0
VERTEX
  8
0
  6
CONTINUOUS
 10
64.700283
 20
191.830071
 30
0.0
  0
VERTEX
  8
0
  6
CONTINUOUS
 10
65.135185
 20
191.196573
 30
0.0
  0
SEQEND
  8
0
  6
CONTINUOUS
  0
POLYLINE
  8
0
  6
CONTINUOUS
 66
     1
 10
0.0
 20
0.0
 30
0.0
  0
VERTEX
  8
0
  6
CONTINUOUS
 10
65.135185
 20
191.196573
 30
0.0
  0
VERTEX
  8
0
  6
CONTINUOUS
 10
65.437663
 20
190.503089
 30
0.0
  0
VERTEX
  8
0
  6
CONTINUOUS
 10
65.553383
 20
189.847394
 30
0.0
  0
SEQEND
  8
0
  6
CONTINUOUS
  0
POLYLINE
  8
0
  6
CONTINUOUS
 66
     1
 10
0.0
 20
0.0
 30
0.0
  0
VERTEX
  8
0
  6
CONTINUOUS
 10
71.188565
 20
213.145212
 30
0.0
  0
VERTEX
  8
0
  6
CONTINUOUS
 10
78.174279
 20
209.731587
 30
0.0
  0
VERTEX
  8
0
  6
CONTINUOUS
 10
86.164079
 20
205.444914
 30
0.0
  0
SEQEND
  8
0
  6
CONTINUOUS
  0
POLYLINE
  8
0
  6
CONTINUOUS
 66
     1
 10
0.0
 20
0.0
 30
0.0
  0
VERTEX
  8
0
  6
CONTINUOUS
 10
64.552477
 20
192.908675
 30
0.0
  0
VERTEX
  8
0
  6
CONTINUOUS
 10
64.56648
 20
192.9169
 30
0.0
  0
VERTEX
  8
0
  6
CONTINUOUS
 10
77.542275
 20
200.176306
 30
0.0
  0
VERTEX
  8
0
  6
CONTINUOUS
 10
86.150075
 20
205.436688
 30
0.0
  0
VERTEX
  8
0
  6
CONTINUOUS
 10
86.164079
 20
205.444914
 30
0.0
  0
SEQEND
  8
0
  6
CONTINUOUS
  0
POLYLINE
  8
0
  6
CONTINUOUS
 66
     1
 10
0.0
 20
0.0
 30
0.0
  0
VERTEX
  8
0
  6
CONTINUOUS
 10
86.42223
 20
205.477135
 30
0.0
  0
VERTEX
  8
0
  6
CONTINUOUS
 10
86.450925
 20
205.460612
 30
0.0
  0
SEQEND
  8
0
  6
CONTINUOUS
  0
POLYLINE
  8
0
  6
CONTINUOUS
 66
     1
 10
0.0
 20
0.0
 30
0.0
  0
VERTEX
  8
0
  6
CONTINUOUS
 10
65.832354
 20
166.580788
 30
0.0
  0
VERTEX
  8
0
  6
CONTINUOUS
 10
66.189213
 20
166.661057
 30
0.0
  0
SEQEND
  8
0
  6
CONTINUOUS
  0
POLYLINE
  8
0
  6
CONTINUOUS
 66
     1
 10
0.0
 20
0.0
 30
0.0
  0
VERTEX
  8
0
  6
CONTINUOUS
 10
65.553383
 20
166.439504
 30
0.0
  0
VERTEX
  8
0
  6
CONTINUOUS
 10
65.832354
 20
166.580788
 30
0.0
  0
SEQEND
  8
0
  6
CONTINUOUS
  0
POLYLINE
  8
0
  6
CONTINUOUS
 66
     1
 10
0.0
 20
0.0
 30
0.0
  0
VERTEX
  8
0
  6
CONTINUOUS
 10
65.900044
 20
189.753523
 30
0.0
  0
VERTEX
  8
0
  6
CONTINUOUS
 10
65.553383
 20
189.847394
 30
0.0
  0
SEQEND
  8
0
  6
CONTINUOUS
  0
POLYLINE
  8
0
  6
CONTINUOUS
 66
     1
 10
0.0
 20
0.0
 30
0.0
  0
VERTEX
  8
0
  6
CONTINUOUS
 10
66.256903
 20
189.833791
 30
0.0
  0
VERTEX
  8
0
  6
CONTINUOUS
 10
65.900044
 20
189.753523
 30
0.0
  0
SEQEND
  8
0
  6
CONTINUOUS
  0
POLYLINE
  8
0
  6
CONTINUOUS
 66
     1
 10
0.0
 20
0.0
 30
0.0
  0
VERTEX
  8
0
  6
CONTINUOUS
 10
66.256903
 20
189.833791
 30
0.0
  0
VERTEX
  8
0
  6
CONTINUOUS
 10
66.110637
 20
190.652448
 30
0.0
  0
VERTEX
  8
0
  6
CONTINUOUS
 10
65.732618
 20
191.519346
 30
0.0
  0
SEQEND
  8
0
  6
CONTINUOUS
  0
POLYLINE
  8
0
  6
CONTINUOUS
 66
     1
 10
0.0
 20
0.0
 30
0.0
  0
VERTEX
  8
0
  6
CONTINUOUS
 10
65.732618
 20
191.519346
 30
0.0
  0
VERTEX
  8
0
  6
CONTINUOUS
 10
65.190635
 20
192.312187
 30
0.0
  0
VERTEX
  8
0
  6
CONTINUOUS
 10
64.552477
 20
192.908675
 30
0.0
  0
SEQEND
  8
0
  6
CONTINUOUS
  0
POLYLINE
  8
0
  6
CONTINUOUS
 66
     1
 10
0.0
 20
0.0
 30
0.0
  0
VERTEX
  8
0
  6
CONTINUOUS
 10
65.743121
 20
165.695417
 30
0.0
  0
VERTEX
  8
0
  6
CONTINUOUS
 10
66.069918
 20
166.06183
 30
0.0
  0
VERTEX
  8
0
  6
CONTINUOUS
 10
66.189213
 20
166.661057
 30
0.0
  0
SEQEND
  8
0
  6
CONTINUOUS
  0
POLYLINE
  8
0
  6
CONTINUOUS
 66
     1
 10
0.0
 20
0.0
 30
0.0
  0
VERTEX
  8
0
  6
CONTINUOUS
 10
64.29829
 20
192.639957
 30
0.0
  0
VERTEX
  8
0
  6
CONTINUOUS
 10
64.552477
 20
192.908675
 30
0.0
  0
SEQEND
  8
0
  6
CONTINUOUS
  0
POLYLINE
  8
0
  6
CONTINUOUS
 66
     1
 10
0.0
 20
0.0
 30
0.0
  0
VERTEX
  8
0
  6
CONTINUOUS
 10
64.187297
 20
192.305807
 30
0.0
  0
VERTEX
  8
0
  6
CONTINUOUS
 10
64.29829
 20
192.639957
 30
0.0
  0
SEQEND
  8
0
  6
CONTINUOUS
  0
POLYLINE
  8
0
  6
CONTINUOUS
 66
     1
 10
0.0
 20
0.0
 30
0.0
  0
VERTEX
  8
0
  6
CONTINUOUS
 10
64.23177
 20
165.847841
 30
0.0
  0
VERTEX
  8
0
  6
CONTINUOUS
 10
64.141263
 20
166.038847
 30
0.0
  0
SEQEND
  8
0
  6
CONTINUOUS
  0
POLYLINE
  8
0
  6
CONTINUOUS
 66
     1
 10
0.0
 20
0.0
 30
0.0
  0
VERTEX
  8
0
  6
CONTINUOUS
 10
65.900044
 20
189.753523
 30
0.0
  0
VERTEX
  8
0
  6
CONTINUOUS
 10
65.780467
 20
190.45506
 30
0.0
  0
VERTEX
  8
0
  6
CONTINUOUS
 10
65.401645
 20
191.32779
 30
0.0
  0
SEQEND
  8
0
  6
CONTINUOUS
  0
POLYLINE
  8
0
  6
CONTINUOUS
 66
     1
 10
0.0
 20
0.0
 30
0.0
  0
VERTEX
  8
0
  6
CONTINUOUS
 10
65.401645
 20
191.32779
 30
0.0
  0
VERTEX
  8
0
  6
CONTINUOUS
 10
65.732618
 20
191.519346
 30
0.0
  0
SEQEND
  8
0
  6
CONTINUOUS
  0
POLYLINE
  8
0
  6
CONTINUOUS
 66
     1
 10
0.0
 20
0.0
 30
0.0
  0
VERTEX
  8
0
  6
CONTINUOUS
 10
65.401645
 20
191.32779
 30
0.0
  0
VERTEX
  8
0
  6
CONTINUOUS
 10
64.853889
 20
192.128045
 30
0.0
  0
VERTEX
  8
0
  6
CONTINUOUS
 10
64.29829
 20
192.639957
 30
0.0
  0
SEQEND
  8
0
  6
CONTINUOUS
  0
POLYLINE
  8
0
  6
CONTINUOUS
 66
     1
 10
0.0
 20
0.0
 30
0.0
  0
VERTEX
  8
0
  6
CONTINUOUS
 10
65.401645
 20
191.32779
 30
0.0
  0
VERTEX
  8
0
  6
CONTINUOUS
 10
65.135185
 20
191.196573
 30
0.0
  0
SEQEND
  8
0
  6
CONTINUOUS
  0
POLYLINE
  8
0
  6
CONTINUOUS
 66
     1
 10
0.0
 20
0.0
 30
0.0
  0
VERTEX
  8
0
  6
CONTINUOUS
 10
65.832354
 20
166.580788
 30
0.0
  0
VERTEX
  8
0
  6
CONTINUOUS
 10
65.719561
 20
166.03181
 30
0.0
  0
VERTEX
  8
0
  6
CONTINUOUS
 10
65.346549
 20
165.659451
 30
0.0
  0
SEQEND
  8
0
  6
CONTINUOUS
  0
POLYLINE
  8
0
  6
CONTINUOUS
 66
     1
 10
0.0
 20
0.0
 30
0.0
  0
VERTEX
  8
0
  6
CONTINUOUS
 10
65.346549
 20
165.659451
 30
0.0
  0
VERTEX
  8
0
  6
CONTINUOUS
 10
65.082514
 20
165.877789
 30
0.0
  0
SEQEND
  8
0
  6
CONTINUOUS
  0
POLYLINE
  8
0
  6
CONTINUOUS
 66
     1
 10
0.0
 20
0.0
 30
0.0
  0
VERTEX
  8
0
  6
CONTINUOUS
 10
87.995791
 20
202.591366
 30
0.0
  0
VERTEX
  8
0
  6
CONTINUOUS
 10
87.995559
 20
202.603311
 30
0.0
  0
VERTEX
  8
0
  6
CONTINUOUS
 10
87.99463
 20
202.625011
 30
0.0
  0
VERTEX
  8
0
  6
CONTINUOUS
 10
87.987287
 20
202.717882
 30
0.0
  0
VERTEX
  8
0
  6
CONTINUOUS
 10
87.899788
 20
203.221211
 30
0.0
  0
VERTEX
  8
0
  6
CONTINUOUS
 10
87.737294
 20
203.720142
 30
0.0
  0
VERTEX
  8
0
  6
CONTINUOUS
 10
87.513297
 20
204.17609
 30
0.0
  0
SEQEND
  8
0
  6
CONTINUOUS
  0
POLYLINE
  8
0
  6
CONTINUOUS
 66
     1
 10
0.0
 20
0.0
 30
0.0
  0
VERTEX
  8
0
  6
CONTINUOUS
 10
87.433756
 20
178.307804
 30
0.0
  0
VERTEX
  8
0
  6
CONTINUOUS
 10
87.53966
 20
178.382997
 30
0.0
  0
VERTEX
  8
0
  6
CONTINUOUS
 10
87.603339
 20
178.441659
 30
0.0
  0
VERTEX
  8
0
  6
CONTINUOUS
 10
87.72366
 20
178.579302
 30
0.0
  0
VERTEX
  8
0
  6
CONTINUOUS
 10
87.805972
 20
178.697989
 30
0.0
  0
VERTEX
  8
0
  6
CONTINUOUS
 10
87.929515
 20
178.969169
 30
0.0
  0
VERTEX
  8
0
  6
CONTINUOUS
 10
87.989307
 20
179.212198
 30
0.0
  0
VERTEX
  8
0
  6
CONTINUOUS
 10
88.018233
 20
179.489038
 30
0.0
  0
SEQEND
  8
0
  6
CONTINUOUS
  0
POLYLINE
  8
0
  6
CONTINUOUS
 66
     1
 10
0.0
 20
0.0
 30
0.0
  0
VERTEX
  8
0
  6
CONTINUOUS
 10
64.495142
 20
165.709691
 30
0.0
  0
VERTEX
  8
0
  6
CONTINUOUS
 10
64.766386
 20
165.608733
 30
0.0
  0
VERTEX
  8
0
  6
CONTINUOUS
 10
65.131102
 20
165.553594
 30
0.0
  0
VERTEX
  8
0
  6
CONTINUOUS
 10
65.336926
 20
165.570151
 30
0.0
  0
VERTEX
  8
0
  6
CONTINUOUS
 10
65.472879
 20
165.59469
 30
0.0
  0
VERTEX
  8
0
  6
CONTINUOUS
 10
65.552465
 20
165.614734
 30
0.0
  0
VERTEX
  8
0
  6
CONTINUOUS
 10
65.616219
 20
165.635627
 30
0.0
  0
VERTEX
  8
0
  6
CONTINUOUS
 10
65.682396
 20
165.663382
 30
0.0
  0
SEQEND
  8
0
  6
CONTINUOUS
  0
POLYLINE
  8
0
  6
CONTINUOUS
 66
     1
 10
0.0
 20
0.0
 30
0.0
  0
VERTEX
  8
0
  6
CONTINUOUS
 10
88.018233
 20
179.489038
 30
0.0
  0
VERTEX
  8
0
  6
CONTINUOUS
 10
88.043958
 20
179.690171
 30
0.0
  0
VERTEX
  8
0
  6
CONTINUOUS
 10
88.04446
 20
179.706667
 30
0.0
  0
VERTEX
  8
0
  6
CONTINUOUS
 10
88.044552
 20
179.719809
 30
0.0
  0
SEQEND
  8
0
  6
CONTINUOUS
  0
POLYLINE
  8
0
  6
CONTINUOUS
 66
     1
 10
0.0
 20
0.0
 30
0.0
  0
VERTEX
  8
0
  6
CONTINUOUS
 10
87.513297
 20
204.17609
 30
0.0
  0
VERTEX
  8
0
  6
CONTINUOUS
 10
87.244481
 20
204.623899
 30
0.0
  0
VERTEX
  8
0
  6
CONTINUOUS
 10
86.812481
 20
205.141344
 30
0.0
  0
VERTEX
  8
0
  6
CONTINUOUS
 10
86.590091
 20
205.348573
 30
0.0
  0
VERTEX
  8
0
  6
CONTINUOUS
 10
86.504674
 20
205.419587
 30
0.0
  0
VERTEX
  8
0
  6
CONTINUOUS
 10
86.473204
 20
205.444166
 30
0.0
  0
VERTEX
  8
0
  6
CONTINUOUS
 10
86.460894
 20
205.453399
 30
0.0
  0
VERTEX
  8
0
  6
CONTINUOUS
 10
86.451062
 20
205.460515
 30
0.0
  0
SEQEND
  8
0
  6
CONTINUOUS
  0
POLYLINE
  8
0
  6
CONTINUOUS
 66
     1
 10
0.0
 20
0.0
 30
0.0
  0
VERTEX
  8
0
  6
CONTINUOUS
 10
65.744079
 20
165.695979
 30
0.0
  0
VERTEX
  8
0
  6
CONTINUOUS
 10
76.286075
 20
171.789384
 30
0.0
  0
VERTEX
  8
0
  6
CONTINUOUS
 10
87.432783
 20
178.307231
 30
0.0
  0
SEQEND
  8
0
  6
CONTINUOUS
  0
POLYLINE
  8
0
  6
CONTINUOUS
 66
     1
 10
0.0
 20
0.0
 30
0.0
  0
VERTEX
  8
0
  6
CONTINUOUS
 10
86.450996
 20
205.460562
 30
0.0
  0
VERTEX
  8
0
  6
CONTINUOUS
 10
77.647528
 20
209.988988
 30
0.0
  0
VERTEX
  8
0
  6
CONTINUOUS
 10
71.188565
 20
213.145212
 30
0.0
  0
SEQEND
  8
0
  6
CONTINUOUS
  0
POLYLINE
  8
0
  6
CONTINUOUS
 66
     1
 10
0.0
 20
0.0
 30
0.0
  0
VERTEX
  8
0
  6
CONTINUOUS
 10
48.089477
 20
173.314002
 30
0.0
  0
VERTEX
  8
0
  6
CONTINUOUS
 10
55.96031
 20
169.755602
 30
0.0
  0
VERTEX
  8
0
  6
CONTINUOUS
 10
64.231638
 20
165.847929
 30
0.0
  0
SEQEND
  8
0
  6
CONTINUOUS
  0
POLYLINE
  8
0
  6
CONTINUOUS
 66
     1
 10
0.0
 20
0.0
 30
0.0
  0
VERTEX
  8
0
  6
CONTINUOUS
 10
65.743121
 20
165.695417
 30
0.0
  0
VERTEX
  8
0
  6
CONTINUOUS
 10
65.682396
 20
165.663382
 30
0.0
  0
SEQEND
  8
0
  6
CONTINUOUS
  0
POLYLINE
  8
0
  6
CONTINUOUS
 66
     1
 10
0.0
 20
0.0
 30
0.0
  0
VERTEX
  8
0
  6
CONTINUOUS
 10
64.231689
 20
165.847895
 30
0.0
  0
VERTEX
  8
0
  6
CONTINUOUS
 10
64.241938
 20
165.841287
 30
0.0
  0
VERTEX
  8
0
  6
CONTINUOUS
 10
64.260092
 20
165.830175
 30
0.0
  0
VERTEX
  8
0
  6
CONTINUOUS
 10
64.334277
 20
165.788463
 30
0.0
  0
VERTEX
  8
0
  6
CONTINUOUS
 10
64.495142
 20
165.709691
 30
0.0
  0
SEQEND
  8
0
  6
CONTINUOUS
  0
POLYLINE
  8
0
  6
CONTINUOUS
 66
     1
 10
0.0
 20
0.0
 30
0.0
  0
VERTEX
  8
0
  6
CONTINUOUS
 10
110.840498
 20
200.899879
 30
0.0
  0
VERTEX
  8
0
  6
CONTINUOUS
 10
110.816255
 20
201.015938
 30
0.0
  0
VERTEX
  8
0
  6
CONTINUOUS
 10
110.751558
 20
201.128006
 30
0.0
  0
VERTEX
  8
0
  6
CONTINUOUS
 10
110.663741
 20
201.206054
 30
0.0
  0
SEQEND
  8
0
  6
CONTINUOUS
  0
POLYLINE
  8
0
  6
CONTINUOUS
 66
     1
 10
0.0
 20
0.0
 30
0.0
  0
VERTEX
  8
0
  6
CONTINUOUS
 10
29.97998
 20
155.10466
 30
0.0
  0
VERTEX
  8
0
  6
CONTINUOUS
 10
29.927573
 20
155.279255
 30
0.0
  0
VERTEX
  8
0
  6
CONTINUOUS
 10
29.803223
 20
155.410835
 30
0.0
  0
SEQEND
  8
0
  6
CONTINUOUS
  0
POLYLINE
  8
0
  6
CONTINUOUS
 66
     1
 10
0.0
 20
0.0
 30
0.0
  0
VERTEX
  8
0
  6
CONTINUOUS
 10
109.261976
 20
202.015363
 30
0.0
  0
VERTEX
  8
0
  6
CONTINUOUS
 10
109.196102
 20
202.038368
 30
0.0
  0
VERTEX
  8
0
  6
CONTINUOUS
 10
109.140154
 20
202.027798
 30
0.0
  0
SEQEND
  8
0
  6
CONTINUOUS
  0
POLYLINE
  8
0
  6
CONTINUOUS
 66
     1
 10
0.0
 20
0.0
 30
0.0
  0
VERTEX
  8
0
  6
CONTINUOUS
 10
28.401458
 20
156.220144
 30
0.0
  0
VERTEX
  8
0
  6
CONTINUOUS
 10
28.314054
 20
156.24326
 30
0.0
  0
VERTEX
  8
0
  6
CONTINUOUS
 10
28.250481
 20
156.205249
 30
0.0
  0
VERTEX
  8
0
  6
CONTINUOUS
 10
28.227774
 20
156.116297
 30
0.0
  0
SEQEND
  8
0
  6
CONTINUOUS
  0
POLYLINE
  8
0
  6
CONTINUOUS
 66
     1
 10
0.0
 20
0.0
 30
0.0
  0
VERTEX
  8
0
  6
CONTINUOUS
 10
28.235729
 20
155.054358
 30
0.0
  0
VERTEX
  8
0
  6
CONTINUOUS
 10
28.283843
 20
154.858606
 30
0.0
  0
VERTEX
  8
0
  6
CONTINUOUS
 10
28.407278
 20
154.683527
 30
0.0
  0
VERTEX
  8
0
  6
CONTINUOUS
 10
28.558888
 20
154.595995
 30
0.0
  0
VERTEX
  8
0
  6
CONTINUOUS
 10
28.680761
 20
154.629445
 30
0.0
  0
VERTEX
  8
0
  6
CONTINUOUS
 10
28.726347
 20
154.7711
 30
0.0
  0
SEQEND
  8
0
  6
CONTINUOUS
  0
POLYLINE
  8
0
  6
CONTINUOUS
 66
     1
 10
0.0
 20
0.0
 30
0.0
  0
VERTEX
  8
0
  6
CONTINUOUS
 10
28.896377
 20
155.362855
 30
0.0
  0
VERTEX
  8
0
  6
CONTINUOUS
 10
28.808972
 20
155.385971
 30
0.0
  0
VERTEX
  8
0
  6
CONTINUOUS
 10
28.745399
 20
155.34796
 30
0.0
  0
VERTEX
  8
0
  6
CONTINUOUS
 10
28.722692
 20
155.259008
 30
0.0
  0
SEQEND
  8
0
  6
CONTINUOUS
  0
POLYLINE
  8
0
  6
CONTINUOUS
 66
     1
 10
0.0
 20
0.0
 30
0.0
  0
VERTEX
  8
0
  6
CONTINUOUS
 10
29.493663
 20
154.813888
 30
0.0
  0
VERTEX
  8
0
  6
CONTINUOUS
 10
29.46942
 20
154.929947
 30
0.0
  0
VERTEX
  8
0
  6
CONTINUOUS
 10
29.404722
 20
155.042014
 30
0.0
  0
VERTEX
  8
0
  6
CONTINUOUS
 10
29.316906
 20
155.120062
 30
0.0
  0
SEQEND
  8
0
  6
CONTINUOUS
  0
POLYLINE
  8
0
  6
CONTINUOUS
 66
     1
 10
0.0
 20
0.0
 30
0.0
  0
VERTEX
  8
0
  6
CONTINUOUS
 10
29.461891
 20
135.767036
 30
0.0
  0
VERTEX
  8
0
  6
CONTINUOUS
 10
29.549296
 20
135.74392
 30
0.0
  0
VERTEX
  8
0
  6
CONTINUOUS
 10
29.612869
 20
135.781931
 30
0.0
  0
VERTEX
  8
0
  6
CONTINUOUS
 10
29.635576
 20
135.870883
 30
0.0
  0
SEQEND
  8
0
  6
CONTINUOUS
  0
POLYLINE
  8
0
  6
CONTINUOUS
 66
     1
 10
0.0
 20
0.0
 30
0.0
  0
VERTEX
  8
0
  6
CONTINUOUS
 10
28.864605
 20
136.316003
 30
0.0
  0
VERTEX
  8
0
  6
CONTINUOUS
 10
28.917012
 20
136.141409
 30
0.0
  0
VERTEX
  8
0
  6
CONTINUOUS
 10
29.041362
 20
136.009829
 30
0.0
  0
SEQEND
  8
0
  6
CONTINUOUS
  0
POLYLINE
  8
0
  6
CONTINUOUS
 66
     1
 10
0.0
 20
0.0
 30
0.0
  0
VERTEX
  8
0
  6
CONTINUOUS
 10
28.860919
 20
136.808029
 30
0.0
  0
VERTEX
  8
0
  6
CONTINUOUS
 10
28.826979
 20
136.970512
 30
0.0
  0
VERTEX
  8
0
  6
CONTINUOUS
 10
28.736402
 20
137.127407
 30
0.0
  0
VERTEX
  8
0
  6
CONTINUOUS
 10
28.61346
 20
137.236674
 30
0.0
  0
VERTEX
  8
0
  6
CONTINUOUS
 10
28.491094
 20
137.269036
 30
0.0
  0
VERTEX
  8
0
  6
CONTINUOUS
 10
28.402091
 20
137.215821
 30
0.0
  0
VERTEX
  8
0
  6
CONTINUOUS
 10
28.370301
 20
137.091288
 30
0.0
  0
SEQEND
  8
0
  6
CONTINUOUS
  0
POLYLINE
  8
0
  6
CONTINUOUS
 66
     1
 10
0.0
 20
0.0
 30
0.0
  0
VERTEX
  8
0
  6
CONTINUOUS
 10
28.378288
 20
136.025231
 30
0.0
  0
VERTEX
  8
0
  6
CONTINUOUS
 10
28.402531
 20
135.909172
 30
0.0
  0
VERTEX
  8
0
  6
CONTINUOUS
 10
28.467228
 20
135.797105
 30
0.0
  0
VERTEX
  8
0
  6
CONTINUOUS
 10
28.555044
 20
135.719057
 30
0.0
  0
SEQEND
  8
0
  6
CONTINUOUS
  0
POLYLINE
  8
0
  6
CONTINUOUS
 66
     1
 10
0.0
 20
0.0
 30
0.0
  0
VERTEX
  8
0
  6
CONTINUOUS
 10
110.788636
 20
180.692531
 30
0.0
  0
VERTEX
  8
0
  6
CONTINUOUS
 10
110.827313
 20
180.737072
 30
0.0
  0
VERTEX
  8
0
  6
CONTINUOUS
 10
110.840498
 20
180.808813
 30
0.0
  0
SEQEND
  8
0
  6
CONTINUOUS
  0
POLYLINE
  8
0
  6
CONTINUOUS
 66
     1
 10
0.0
 20
0.0
 30
0.0
  0
VERTEX
  8
0
  6
CONTINUOUS
 10
29.956809
 20
134.909747
 30
0.0
  0
VERTEX
  8
0
  6
CONTINUOUS
 10
30.044214
 20
134.886632
 30
0.0
  0
VERTEX
  8
0
  6
CONTINUOUS
 10
30.107787
 20
134.924642
 30
0.0
  0
VERTEX
  8
0
  6
CONTINUOUS
 10
30.130494
 20
135.013594
 30
0.0
  0
SEQEND
  8
0
  6
CONTINUOUS
  0
POLYLINE
  8
0
  6
CONTINUOUS
 66
     1
 10
0.0
 20
0.0
 30
0.0
  0
VERTEX
  8
0
  6
CONTINUOUS
 10
23.894388
 20
149.024103
 30
0.0
  0
VERTEX
  8
0
  6
CONTINUOUS
 10
23.714507
 20
149.07808
 30
0.0
  0
VERTEX
  8
0
  6
CONTINUOUS
 10
23.5824
 20
149.004377
 30
0.0
  0
VERTEX
  8
0
  6
CONTINUOUS
 10
23.534992
 20
148.823592
 30
0.0
  0
VERTEX
  8
0
  6
CONTINUOUS
 10
23.585533
 20
148.586257
 30
0.0
  0
VERTEX
  8
0
  6
CONTINUOUS
 10
23.719897
 20
148.358707
 30
0.0
  0
VERTEX
  8
0
  6
CONTINUOUS
 10
23.900528
 20
148.204542
 30
0.0
  0
SEQEND
  8
0
  6
CONTINUOUS
  0
POLYLINE
  8
0
  6
CONTINUOUS
 66
     1
 10
0.0
 20
0.0
 30
0.0
  0
VERTEX
  8
0
  6
CONTINUOUS
 10
28.984337
 20
145.881896
 30
0.0
  0
VERTEX
  8
0
  6
CONTINUOUS
 10
29.254159
 20
145.80093
 30
0.0
  0
VERTEX
  8
0
  6
CONTINUOUS
 10
29.452319
 20
145.911486
 30
0.0
  0
VERTEX
  8
0
  6
CONTINUOUS
 10
29.523432
 20
146.182662
 30
0.0
  0
SEQEND
  8
0
  6
CONTINUOUS
  0
POLYLINE
  8
0
  6
CONTINUOUS
 66
     1
 10
0.0
 20
0.0
 30
0.0
  0
VERTEX
  8
0
  6
CONTINUOUS
 10
29.519433
 20
146.716368
 30
0.0
  0
VERTEX
  8
0
  6
CONTINUOUS
 10
29.485493
 20
146.87885
 30
0.0
  0
VERTEX
  8
0
  6
CONTINUOUS
 10
29.394917
 20
147.035745
 30
0.0
  0
VERTEX
  8
0
  6
CONTINUOUS
 10
29.271974
 20
147.145012
 30
0.0
  0
VERTEX
  8
0
  6
CONTINUOUS
 10
29.149608
 20
147.177374
 30
0.0
  0
VERTEX
  8
0
  6
CONTINUOUS
 10
29.060606
 20
147.124159
 30
0.0
  0
VERTEX
  8
0
  6
CONTINUOUS
 10
29.028816
 20
146.999626
 30
0.0
  0
SEQEND
  8
0
  6
CONTINUOUS
  0
POLYLINE
  8
0
  6
CONTINUOUS
 66
     1
 10
0.0
 20
0.0
 30
0.0
  0
VERTEX
  8
0
  6
CONTINUOUS
 10
28.851844
 20
146.53545
 30
0.0
  0
VERTEX
  8
0
  6
CONTINUOUS
 10
28.941784
 20
146.508462
 30
0.0
  0
VERTEX
  8
0
  6
CONTINUOUS
 10
29.007838
 20
146.545313
 30
0.0
  0
VERTEX
  8
0
  6
CONTINUOUS
 10
29.031542
 20
146.635706
 30
0.0
  0
SEQEND
  8
0
  6
CONTINUOUS
  0
POLYLINE
  8
0
  6
CONTINUOUS
 66
     1
 10
0.0
 20
0.0
 30
0.0
  0
VERTEX
  8
0
  6
CONTINUOUS
 10
23.528063
 20
150.019186
 30
0.0
  0
VERTEX
  8
0
  6
CONTINUOUS
 10
23.578344
 20
149.848317
 30
0.0
  0
VERTEX
  8
0
  6
CONTINUOUS
 10
23.698806
 20
149.716604
 30
0.0
  0
SEQEND
  8
0
  6
CONTINUOUS
  0
POLYLINE
  8
0
  6
CONTINUOUS
 66
     1
 10
0.0
 20
0.0
 30
0.0
  0
VERTEX
  8
0
  6
CONTINUOUS
 10
23.814978
 20
158.296602
 30
0.0
  0
VERTEX
  8
0
  6
CONTINUOUS
 10
23.568078
 20
158.319577
 30
0.0
  0
VERTEX
  8
0
  6
CONTINUOUS
 10
23.467608
 20
158.088908
 30
0.0
  0
SEQEND
  8
0
  6
CONTINUOUS
  0
POLYLINE
  8
0
  6
CONTINUOUS
 66
     1
 10
0.0
 20
0.0
 30
0.0
  0
VERTEX
  8
0
  6
CONTINUOUS
 10
27.742992
 20
155.620514
 30
0.0
  0
VERTEX
  8
0
  6
CONTINUOUS
 10
27.694506
 20
155.852631
 30
0.0
  0
VERTEX
  8
0
  6
CONTINUOUS
 10
27.565111
 20
156.076767
 30
0.0
  0
VERTEX
  8
0
  6
CONTINUOUS
 10
27.389479
 20
156.232863
 30
0.0
  0
SEQEND
  8
0
  6
CONTINUOUS
  0
POLYLINE
  8
0
  6
CONTINUOUS
 66
     1
 10
0.0
 20
0.0
 30
0.0
  0
VERTEX
  8
0
  6
CONTINUOUS
 10
27.746985
 20
155.087486
 30
0.0
  0
VERTEX
  8
0
  6
CONTINUOUS
 10
27.904206
 20
154.563701
 30
0.0
  0
VERTEX
  8
0
  6
CONTINUOUS
 10
28.277255
 20
154.168962
 30
0.0
  0
SEQEND
  8
0
  6
CONTINUOUS
  0
POLYLINE
  8
0
  6
CONTINUOUS
 66
     1
 10
0.0
 20
0.0
 30
0.0
  0
VERTEX
  8
0
  6
CONTINUOUS
 10
28.979673
 20
153.559296
 30
0.0
  0
VERTEX
  8
0
  6
CONTINUOUS
 10
28.95543
 20
153.675355
 30
0.0
  0
VERTEX
  8
0
  6
CONTINUOUS
 10
28.890733
 20
153.787423
 30
0.0
  0
VERTEX
  8
0
  6
CONTINUOUS
 10
28.802917
 20
153.865471
 30
0.0
  0
SEQEND
  8
0
  6
CONTINUOUS
  0
POLYLINE
  8
0
  6
CONTINUOUS
 66
     1
 10
0.0
 20
0.0
 30
0.0
  0
VERTEX
  8
0
  6
CONTINUOUS
 10
28.982745
 20
153.149275
 30
0.0
  0
VERTEX
  8
0
  6
CONTINUOUS
 10
29.030859
 20
152.953522
 30
0.0
  0
VERTEX
  8
0
  6
CONTINUOUS
 10
29.154294
 20
152.778443
 30
0.0
  0
VERTEX
  8
0
  6
CONTINUOUS
 10
29.305903
 20
152.690912
 30
0.0
  0
VERTEX
  8
0
  6
CONTINUOUS
 10
29.427777
 20
152.724362
 30
0.0
  0
VERTEX
  8
0
  6
CONTINUOUS
 10
29.473363
 20
152.866016
 30
0.0
  0
SEQEND
  8
0
  6
CONTINUOUS
  0
POLYLINE
  8
0
  6
CONTINUOUS
 66
     1
 10
0.0
 20
0.0
 30
0.0
  0
VERTEX
  8
0
  6
CONTINUOUS
 10
29.464109
 20
154.10118
 30
0.0
  0
VERTEX
  8
0
  6
CONTINUOUS
 10
29.438637
 20
154.327211
 30
0.0
  0
VERTEX
  8
0
  6
CONTINUOUS
 10
29.367137
 20
154.565416
 30
0.0
  0
SEQEND
  8
0
  6
CONTINUOUS
  0
POLYLINE
  8
0
  6
CONTINUOUS
 66
     1
 10
0.0
 20
0.0
 30
0.0
  0
VERTEX
  8
0
  6
CONTINUOUS
 10
29.154022
 20
155.112041
 30
0.0
  0
VERTEX
  8
0
  6
CONTINUOUS
 10
29.06868
 20
155.247838
 30
0.0
  0
VERTEX
  8
0
  6
CONTINUOUS
 10
28.956211
 20
155.321355
 30
0.0
  0
VERTEX
  8
0
  6
CONTINUOUS
 10
28.863098
 20
155.302207
 30
0.0
  0
VERTEX
  8
0
  6
CONTINUOUS
 10
28.827824
 20
155.19831
 30
0.0
  0
SEQEND
  8
0
  6
CONTINUOUS
  0
POLYLINE
  8
0
  6
CONTINUOUS
 66
     1
 10
0.0
 20
0.0
 30
0.0
  0
VERTEX
  8
0
  6
CONTINUOUS
 10
28.65844
 20
154.520432
 30
0.0
  0
VERTEX
  8
0
  6
CONTINUOUS
 10
28.745844
 20
154.497317
 30
0.0
  0
VERTEX
  8
0
  6
CONTINUOUS
 10
28.809417
 20
154.535327
 30
0.0
  0
VERTEX
  8
0
  6
CONTINUOUS
 10
28.832125
 20
154.624279
 30
0.0
  0
SEQEND
  8
0
  6
CONTINUOUS
  0
POLYLINE
  8
0
  6
CONTINUOUS
 66
     1
 10
0.0
 20
0.0
 30
0.0
  0
VERTEX
  8
0
  6
CONTINUOUS
 10
28.236374
 20
154.968236
 30
0.0
  0
VERTEX
  8
0
  6
CONTINUOUS
 10
28.288781
 20
154.793641
 30
0.0
  0
VERTEX
  8
0
  6
CONTINUOUS
 10
28.413131
 20
154.662061
 30
0.0
  0
SEQEND
  8
0
  6
CONTINUOUS
  0
POLYLINE
  8
0
  6
CONTINUOUS
 66
     1
 10
0.0
 20
0.0
 30
0.0
  0
VERTEX
  8
0
  6
CONTINUOUS
 10
109.076162
 20
201.991496
 30
0.0
  0
VERTEX
  8
0
  6
CONTINUOUS
 10
109.011118
 20
202.124243
 30
0.0
  0
VERTEX
  8
0
  6
CONTINUOUS
 10
108.911535
 20
202.217691
 30
0.0
  0
SEQEND
  8
0
  6
CONTINUOUS
  0
POLYLINE
  8
0
  6
CONTINUOUS
 66
     1
 10
0.0
 20
0.0
 30
0.0
  0
VERTEX
  8
0
  6
CONTINUOUS
 10
28.227774
 20
156.116297
 30
0.0
  0
VERTEX
  8
0
  6
CONTINUOUS
 10
28.175367
 20
156.290892
 30
0.0
  0
VERTEX
  8
0
  6
CONTINUOUS
 10
28.051017
 20
156.422471
 30
0.0
  0
SEQEND
  8
0
  6
CONTINUOUS
  0
POLYLINE
  8
0
  6
CONTINUOUS
 66
     1
 10
0.0
 20
0.0
 30
0.0
  0
VERTEX
  8
0
  6
CONTINUOUS
 10
104.005357
 20
205.050274
 30
0.0
  0
VERTEX
  8
0
  6
CONTINUOUS
 10
103.939483
 20
205.073278
 30
0.0
  0
VERTEX
  8
0
  6
CONTINUOUS
 10
103.883534
 20
205.062709
 30
0.0
  0
SEQEND
  8
0
  6
CONTINUOUS
  0
POLYLINE
  8
0
  6
CONTINUOUS
 66
     1
 10
0.0
 20
0.0
 30
0.0
  0
VERTEX
  8
0
  6
CONTINUOUS
 10
23.144839
 20
159.255055
 30
0.0
  0
VERTEX
  8
0
  6
CONTINUOUS
 10
23.057434
 20
159.27817
 30
0.0
  0
VERTEX
  8
0
  6
CONTINUOUS
 10
22.993861
 20
159.24016
 30
0.0
  0
VERTEX
  8
0
  6
CONTINUOUS
 10
22.971154
 20
159.151207
 30
0.0
  0
SEQEND
  8
0
  6
CONTINUOUS
  0
POLYLINE
  8
0
  6
CONTINUOUS
 66
     1
 10
0.0
 20
0.0
 30
0.0
  0
VERTEX
  8
0
  6
CONTINUOUS
 10
23.121668
 20
139.060142
 30
0.0
  0
VERTEX
  8
0
  6
CONTINUOUS
 10
23.174075
 20
138.885547
 30
0.0
  0
VERTEX
  8
0
  6
CONTINUOUS
 10
23.298425
 20
138.753967
 30
0.0
  0
SEQEND
  8
0
  6
CONTINUOUS
  0
POLYLINE
  8
0
  6
CONTINUOUS
 66
     1
 10
0.0
 20
0.0
 30
0.0
  0
VERTEX
  8
0
  6
CONTINUOUS
 10
28.204603
 20
135.921384
 30
0.0
  0
VERTEX
  8
0
  6
CONTINUOUS
 10
28.292007
 20
135.898268
 30
0.0
  0
VERTEX
  8
0
  6
CONTINUOUS
 10
28.35558
 20
135.936279
 30
0.0
  0
VERTEX
  8
0
  6
CONTINUOUS
 10
28.378288
 20
136.025231
 30
0.0
  0
SEQEND
  8
0
  6
CONTINUOUS
  0
POLYLINE
  8
0
  6
CONTINUOUS
 66
     1
 10
0.0
 20
0.0
 30
0.0
  0
VERTEX
  8
0
  6
CONTINUOUS
 10
28.543372
 20
137.277139
 30
0.0
  0
VERTEX
  8
0
  6
CONTINUOUS
 10
28.455967
 20
137.300255
 30
0.0
  0
VERTEX
  8
0
  6
CONTINUOUS
 10
28.392394
 20
137.262244
 30
0.0
  0
VERTEX
  8
0
  6
CONTINUOUS
 10
28.369687
 20
137.173292
 30
0.0
  0
SEQEND
  8
0
  6
CONTINUOUS
  0
POLYLINE
  8
0
  6
CONTINUOUS
 66
     1
 10
0.0
 20
0.0
 30
0.0
  0
VERTEX
  8
0
  6
CONTINUOUS
 10
28.965437
 20
136.829336
 30
0.0
  0
VERTEX
  8
0
  6
CONTINUOUS
 10
28.91303
 20
137.00393
 30
0.0
  0
VERTEX
  8
0
  6
CONTINUOUS
 10
28.788681
 20
137.13551
 30
0.0
  0
SEQEND
  8
0
  6
CONTINUOUS
  0
POLYLINE
  8
0
  6
CONTINUOUS
 66
     1
 10
0.0
 20
0.0
 30
0.0
  0
VERTEX
  8
0
  6
CONTINUOUS
 10
28.969737
 20
136.255305
 30
0.0
  0
VERTEX
  8
0
  6
CONTINUOUS
 10
29.006881
 20
136.109597
 30
0.0
  0
VERTEX
  8
0
  6
CONTINUOUS
 10
29.101091
 20
135.982299
 30
0.0
  0
VERTEX
  8
0
  6
CONTINUOUS
 10
29.213431
 20
135.926022
 30
0.0
  0
VERTEX
  8
0
  6
CONTINUOUS
 10
29.297472
 20
135.964026
 30
0.0
  0
SEQEND
  8
0
  6
CONTINUOUS
  0
POLYLINE
  8
0
  6
CONTINUOUS
 66
     1
 10
0.0
 20
0.0
 30
0.0
  0
VERTEX
  8
0
  6
CONTINUOUS
 10
29.504212
 20
136.268248
 30
0.0
  0
VERTEX
  8
0
  6
CONTINUOUS
 10
29.572749
 20
136.425602
 30
0.0
  0
VERTEX
  8
0
  6
CONTINUOUS
 10
29.595041
 20
136.624056
 30
0.0
  0
SEQEND
  8
0
  6
CONTINUOUS
  0
POLYLINE
  8
0
  6
CONTINUOUS
 66
     1
 10
0.0
 20
0.0
 30
0.0
  0
VERTEX
  8
0
  6
CONTINUOUS
 10
29.585788
 20
137.85922
 30
0.0
  0
VERTEX
  8
0
  6
CONTINUOUS
 10
29.551847
 20
138.021703
 30
0.0
  0
VERTEX
  8
0
  6
CONTINUOUS
 10
29.461271
 20
138.178597
 30
0.0
  0
VERTEX
  8
0
  6
CONTINUOUS
 10
29.338328
 20
138.287865
 30
0.0
  0
VERTEX
  8
0
  6
CONTINUOUS
 10
29.215962
 20
138.320226
 30
0.0
  0
VERTEX
  8
0
  6
CONTINUOUS
 10
29.12696
 20
138.267011
 30
0.0
  0
VERTEX
  8
0
  6
CONTINUOUS
 10
29.09517
 20
138.142479
 30
0.0
  0
SEQEND
  8
0
  6
CONTINUOUS
  0
POLYLINE
  8
0
  6
CONTINUOUS
 66
     1
 10
0.0
 20
0.0
 30
0.0
  0
VERTEX
  8
0
  6
CONTINUOUS
 10
28.924557
 20
137.62861
 30
0.0
  0
VERTEX
  8
0
  6
CONTINUOUS
 10
29.011961
 20
137.605494
 30
0.0
  0
VERTEX
  8
0
  6
CONTINUOUS
 10
29.075534
 20
137.643505
 30
0.0
  0
VERTEX
  8
0
  6
CONTINUOUS
 10
29.098241
 20
137.732457
 30
0.0
  0
SEQEND
  8
0
  6
CONTINUOUS
  0
POLYLINE
  8
0
  6
CONTINUOUS
 66
     1
 10
0.0
 20
0.0
 30
0.0
  0
VERTEX
  8
0
  6
CONTINUOUS
 10
28.398895
 20
137.932101
 30
0.0
  0
VERTEX
  8
0
  6
CONTINUOUS
 10
28.136681
 20
138.001447
 30
0.0
  0
VERTEX
  8
0
  6
CONTINUOUS
 10
27.945962
 20
137.887415
 30
0.0
  0
VERTEX
  8
0
  6
CONTINUOUS
 10
27.87784
 20
137.620559
 30
0.0
  0
SEQEND
  8
0
  6
CONTINUOUS
  0
POLYLINE
  8
0
  6
CONTINUOUS
 66
     1
 10
0.0
 20
0.0
 30
0.0
  0
VERTEX
  8
0
  6
CONTINUOUS
 10
27.534464
 20
136.879837
 30
0.0
  0
VERTEX
  8
0
  6
CONTINUOUS
 10
27.709273
 20
136.833605
 30
0.0
  0
VERTEX
  8
0
  6
CONTINUOUS
 10
27.836419
 20
136.909627
 30
0.0
  0
VERTEX
  8
0
  6
CONTINUOUS
 10
27.881834
 20
137.087531
 30
0.0
  0
SEQEND
  8
0
  6
CONTINUOUS
  0
POLYLINE
  8
0
  6
CONTINUOUS
 66
     1
 10
0.0
 20
0.0
 30
0.0
  0
VERTEX
  8
0
  6
CONTINUOUS
 10
23.60645
 20
139.555925
 30
0.0
  0
VERTEX
  8
0
  6
CONTINUOUS
 10
23.654936
 20
139.323807
 30
0.0
  0
VERTEX
  8
0
  6
CONTINUOUS
 10
23.784331
 20
139.099672
 30
0.0
  0
VERTEX
  8
0
  6
CONTINUOUS
 10
23.959963
 20
138.943576
 30
0.0
  0
SEQEND
  8
0
  6
CONTINUOUS
  0
POLYLINE
  8
0
  6
CONTINUOUS
 66
     1
 10
0.0
 20
0.0
 30
0.0
  0
VERTEX
  8
0
  6
CONTINUOUS
 10
23.713668
 20
147.732844
 30
0.0
  0
VERTEX
  8
0
  6
CONTINUOUS
 10
23.594141
 20
147.739689
 30
0.0
  0
VERTEX
  8
0
  6
CONTINUOUS
 10
23.545995
 20
147.625647
 30
0.0
  0
SEQEND
  8
0
  6
CONTINUOUS
  0
POLYLINE
  8
0
  6
CONTINUOUS
 66
     1
 10
0.0
 20
0.0
 30
0.0
  0
VERTEX
  8
0
  6
CONTINUOUS
 10
29.046373
 20
144.656048
 30
0.0
  0
VERTEX
  8
0
  6
CONTINUOUS
 10
29.021102
 20
144.774715
 30
0.0
  0
VERTEX
  8
0
  6
CONTINUOUS
 10
28.95392
 20
144.88849
 30
0.0
  0
VERTEX
  8
0
  6
CONTINUOUS
 10
28.863605
 20
144.965573
 30
0.0
  0
SEQEND
  8
0
  6
CONTINUOUS
  0
POLYLINE
  8
0
  6
CONTINUOUS
 66
     1
 10
0.0
 20
0.0
 30
0.0
  0
VERTEX
  8
0
  6
CONTINUOUS
 10
29.049099
 20
144.292127
 30
0.0
  0
VERTEX
  8
0
  6
CONTINUOUS
 10
29.097213
 20
144.096375
 30
0.0
  0
VERTEX
  8
0
  6
CONTINUOUS
 10
29.220648
 20
143.921296
 30
0.0
  0
VERTEX
  8
0
  6
CONTINUOUS
 10
29.372258
 20
143.833764
 30
0.0
  0
VERTEX
  8
0
  6
CONTINUOUS
 10
29.494131
 20
143.867214
 30
0.0
  0
VERTEX
  8
0
  6
CONTINUOUS
 10
29.539717
 20
144.008869
 30
0.0
  0
SEQEND
  8
0
  6
CONTINUOUS
  0
POLYLINE
  8
0
  6
CONTINUOUS
 66
     1
 10
0.0
 20
0.0
 30
0.0
  0
VERTEX
  8
0
  6
CONTINUOUS
 10
29.535719
 20
144.542575
 30
0.0
  0
VERTEX
  8
0
  6
CONTINUOUS
 10
29.459907
 20
144.898577
 30
0.0
  0
VERTEX
  8
0
  6
CONTINUOUS
 10
29.258362
 20
145.239903
 30
0.0
  0
VERTEX
  8
0
  6
CONTINUOUS
 10
28.987414
 20
145.47115
 30
0.0
  0
SEQEND
  8
0
  6
CONTINUOUS
  0
POLYLINE
  8
0
  6
CONTINUOUS
 66
     1
 10
0.0
 20
0.0
 30
0.0
  0
VERTEX
  8
0
  6
CONTINUOUS
 10
68.748009
 20
153.134343
 30
0.0
  0
VERTEX
  8
0
  6
CONTINUOUS
 10
68.859509
 20
153.097316
 30
0.0
  0
VERTEX
  8
0
  6
CONTINUOUS
 10
68.988911
 20
153.09732
 30
0.0
  0
VERTEX
  8
0
  6
CONTINUOUS
 10
69.101542
 20
153.134354
 30
0.0
  0
SEQEND
  8
0
  6
CONTINUOUS
  0
POLYLINE
  8
0
  6
CONTINUOUS
 66
     1
 10
0.0
 20
0.0
 30
0.0
  0
VERTEX
  8
0
  6
CONTINUOUS
 10
85.09781
 20
162.229368
 30
0.0
  0
VERTEX
  8
0
  6
CONTINUOUS
 10
85.153347
 20
162.276658
 30
0.0
  0
VERTEX
  8
0
  6
CONTINUOUS
 10
85.172582
 20
162.332423
 30
0.0
  0
SEQEND
  8
0
  6
CONTINUOUS
  0
POLYLINE
  8
0
  6
CONTINUOUS
 66
     1
 10
0.0
 20
0.0
 30
0.0
  0
VERTEX
  8
0
  6
CONTINUOUS
 10
85.045948
 20
162.113086
 30
0.0
  0
VERTEX
  8
0
  6
CONTINUOUS
 10
85.084624
 20
162.157627
 30
0.0
  0
VERTEX
  8
0
  6
CONTINUOUS
 10
85.09781
 20
162.229368
 30
0.0
  0
SEQEND
  8
0
  6
CONTINUOUS
  0
POLYLINE
  8
0
  6
CONTINUOUS
 66
     1
 10
0.0
 20
0.0
 30
0.0
  0
VERTEX
  8
0
  6
CONTINUOUS
 10
69.04968
 20
153.018072
 30
0.0
  0
VERTEX
  8
0
  6
CONTINUOUS
 10
69.088357
 20
153.062613
 30
0.0
  0
VERTEX
  8
0
  6
CONTINUOUS
 10
69.101542
 20
153.134354
 30
0.0
  0
SEQEND
  8
0
  6
CONTINUOUS
  0
POLYLINE
  8
0
  6
CONTINUOUS
 66
     1
 10
0.0
 20
0.0
 30
0.0
  0
VERTEX
  8
0
  6
CONTINUOUS
 10
68.748009
 20
153.134343
 30
0.0
  0
VERTEX
  8
0
  6
CONTINUOUS
 10
68.76217
 20
153.06359
 30
0.0
  0
VERTEX
  8
0
  6
CONTINUOUS
 10
68.801321
 20
153.019012
 30
0.0
  0
SEQEND
  8
0
  6
CONTINUOUS
  0
LINE
  8
0
  6
CONTINUOUS
 10
69.925506
 20
182.44645
 30
0.0
 11
76.5267
 21
179.60292
 31
0.0
  0
LINE
  8
0
  6
CONTINUOUS
 10
79.663983
 20
185.071907
 30
0.0
 11
73.209843
 21
188.529359
 31
0.0
  0
LINE
  8
0
  6
CONTINUOUS
 10
72.707515
 20
188.239009
 30
0.0
 11
73.209843
 21
188.529359
 31
0.0
  0
LINE
  8
0
  6
CONTINUOUS
 10
72.707515
 20
188.239009
 30
0.0
 11
79.425485
 21
184.640226
 31
0.0
  0
LINE
  8
0
  6
CONTINUOUS
 10
69.700814
 20
186.555482
 30
0.0
 11
78.78843
 21
182.219512
 31
0.0
  0
LINE
  8
0
  6
CONTINUOUS
 10
72.008316
 20
191.318952
 30
0.0
 11
72.008316
 21
189.395516
 31
0.0
  0
LINE
  8
0
  6
CONTINUOUS
 10
77.161072
 20
179.969668
 30
0.0
 11
69.925506
 21
183.086461
 31
0.0
  0
LINE
  8
0
  6
CONTINUOUS
 10
69.925506
 20
183.086461
 30
0.0
 11
69.925506
 21
182.44645
 31
0.0
  0
LINE
  8
0
  6
CONTINUOUS
 10
69.700833
 20
185.775925
 30
0.0
 11
78.453749
 21
181.599649
 31
0.0
  0
LINE
  8
0
  6
CONTINUOUS
 10
72.510644
 20
189.685865
 30
0.0
 11
72.510644
 21
191.609301
 31
0.0
  0
LINE
  8
0
  6
CONTINUOUS
 10
72.008316
 20
189.395516
 30
0.0
 11
72.510644
 21
189.685865
 31
0.0
  0
LINE
  8
0
  6
CONTINUOUS
 10
77.229519
 20
180.693861
 30
0.0
 11
77.229519
 21
180.480524
 31
0.0
  0
LINE
  8
0
  6
CONTINUOUS
 10
77.370295
 20
180.153959
 30
0.0
 11
77.415893
 21
180.117284
 31
0.0
  0
LINE
  8
0
  6
CONTINUOUS
 10
77.933398
 20
180.341058
 30
0.0
 11
77.370295
 21
180.79397
 31
0.0
  0
LINE
  8
0
  6
CONTINUOUS
 10
81.178972
 20
182.542593
 30
0.0
 11
80.159768
 21
180.654929
 31
0.0
  0
LINE
  8
0
  6
CONTINUOUS
 10
81.178972
 20
182.542593
 30
0.0
 11
79.508194
 21
183.328248
 31
0.0
  0
LINE
  8
0
  6
CONTINUOUS
 10
78.48899
 20
181.440584
 30
0.0
 11
79.508194
 21
183.328248
 31
0.0
  0
LINE
  8
0
  6
CONTINUOUS
 10
78.48899
 20
181.440584
 30
0.0
 11
80.159768
 21
180.654929
 31
0.0
  0
LINE
  8
0
  6
CONTINUOUS
 10
71.586912
 20
172.254655
 30
0.0
 11
80.988845
 21
177.689041
 31
0.0
  0
LINE
  8
0
  6
CONTINUOUS
 10
80.250762
 20
186.956769
 30
0.0
 11
79.508194
 21
187.534603
 31
0.0
  0
LINE
  8
0
  6
CONTINUOUS
 10
80.250762
 20
194.537886
 30
0.0
 11
80.250762
 21
196.084525
 31
0.0
  0
LINE
  8
0
  6
CONTINUOUS
 10
79.508194
 20
194.658412
 30
0.0
 11
80.250762
 21
194.537886
 31
0.0
  0
LINE
  8
0
  6
CONTINUOUS
 10
79.508194
 20
194.658412
 30
0.0
 11
79.508194
 21
192.441351
 31
0.0
  0
LINE
  8
0
  6
CONTINUOUS
 10
80.250762
 20
191.863517
 30
0.0
 11
79.508194
 21
192.441351
 31
0.0
  0
LINE
  8
0
  6
CONTINUOUS
 10
80.250762
 20
189.631138
 30
0.0
 11
80.250762
 21
191.863517
 31
0.0
  0
LINE
  8
0
  6
CONTINUOUS
 10
79.508194
 20
189.751665
 30
0.0
 11
80.250762
 21
189.631138
 31
0.0
  0
LINE
  8
0
  6
CONTINUOUS
 10
79.508194
 20
189.751665
 30
0.0
 11
79.508194
 21
187.534603
 31
0.0
  0
LINE
  8
0
  6
CONTINUOUS
 10
80.250762
 20
184.724391
 30
0.0
 11
80.250762
 21
186.956769
 31
0.0
  0
LINE
  8
0
  6
CONTINUOUS
 10
79.508194
 20
184.844917
 30
0.0
 11
80.250762
 21
184.724391
 31
0.0
  0
LINE
  8
0
  6
CONTINUOUS
 10
79.508194
 20
183.328248
 30
0.0
 11
79.508194
 21
184.844917
 31
0.0
  0
LINE
  8
0
  6
CONTINUOUS
 10
81.178972
 20
196.621158
 30
0.0
 11
81.178972
 21
182.542593
 31
0.0
  0
LINE
  8
0
  6
CONTINUOUS
 10
80.159768
 20
180.654929
 30
0.0
 11
69.701648
 21
174.610059
 31
0.0
  0
LINE
  8
0
  6
CONTINUOUS
 10
77.370295
 20
180.79397
 30
0.0
 11
78.48899
 21
181.440584
 31
0.0
  0
LINE
  8
0
  6
CONTINUOUS
 10
69.701591
 20
175.583013
 30
0.0
 11
77.933398
 21
180.341058
 31
0.0
  0
LINE
  8
0
  6
CONTINUOUS
 10
80.168178
 20
190.016425
 30
0.0
 11
80.010523
 21
190.042014
 31
0.0
  0
LINE
  8
0
  6
CONTINUOUS
 10
79.657438
 20
189.975362
 30
0.0
 11
79.489995
 21
189.878579
 31
0.0
  0
LINE
  8
0
  6
CONTINUOUS
 10
80.168178
 20
185.109677
 30
0.0
 11
80.010523
 21
185.135266
 31
0.0
  0
LINE
  8
0
  6
CONTINUOUS
 10
79.657438
 20
185.068615
 30
0.0
 11
79.489995
 21
184.971832
 31
0.0
  0
LINE
  8
0
  6
CONTINUOUS
 10
80.168178
 20
194.923172
 30
0.0
 11
80.010523
 21
194.948761
 31
0.0
  0
LINE
  8
0
  6
CONTINUOUS
 10
79.657438
 20
194.88211
 30
0.0
 11
79.489995
 21
194.785327
 31
0.0
  0
LINE
  8
0
  6
CONTINUOUS
 10
81.885142
 20
197.029377
 30
0.0
 11
81.885142
 21
182.384835
 31
0.0
  0
LINE
  8
0
  6
CONTINUOUS
 10
81.885142
 20
182.384835
 30
0.0
 11
80.669766
 21
180.133843
 31
0.0
  0
LINE
  8
0
  6
CONTINUOUS
 10
80.669766
 20
180.133843
 30
0.0
 11
69.70167
 21
173.794203
 31
0.0
  0
LINE
  8
0
  6
CONTINUOUS
 10
70.658186
 20
172.533713
 30
0.0
 11
80.28547
 21
178.098354
 31
0.0
  0
LINE
  8
0
  6
CONTINUOUS
 10
69.70185
 20
189.774396
 30
0.0
 11
69.70185
 21
170.57408
 31
0.0
  0
LINE
  8
0
  6
CONTINUOUS
 10
69.869293
 20
190.084516
 30
0.0
 11
84.939135
 21
198.794995
 31
0.0
  0
LINE
  8
0
  6
CONTINUOUS
 10
85.106578
 20
198.678441
 30
0.0
 11
85.106578
 21
179.478124
 31
0.0
  0
LINE
  8
0
  6
CONTINUOUS
 10
69.869293
 20
170.457526
 30
0.0
 11
84.939135
 21
179.168005
 31
0.0
  0
LINE
  8
0
  6
CONTINUOUS
 10
85.106578
 20
179.478124
 30
0.0
 11
84.475395
 21
179.774928
 31
0.0
  0
LINE
  8
0
  6
CONTINUOUS
 10
84.903084
 20
198.77413
 30
0.0
 11
85.106578
 21
198.678441
 31
0.0
  0
LINE
  8
0
  6
CONTINUOUS
 10
84.475395
 20
198.526867
 30
0.0
 11
84.475395
 21
179.774928
 31
0.0
  0
LINE
  8
0
  6
CONTINUOUS
 10
71.749751
 20
172.206075
 30
0.0
 11
81.796312
 21
178.013061
 31
0.0
  0
LINE
  8
0
  6
CONTINUOUS
 10
72.511063
 20
189.658976
 30
0.0
 11
80.168007
 21
185.994748
 31
0.0
  0
LINE
  8
0
  6
CONTINUOUS
 10
72.551451
 20
189.391961
 30
0.0
 11
80.168021
 21
185.747054
 31
0.0
  0
LINE
  8
0
  6
CONTINUOUS
 10
75.798558
 20
179.182042
 30
0.0
 11
69.700989
 21
181.98817
 31
0.0
  0
LINE
  8
0
  6
CONTINUOUS
 10
75.510904
 20
179.015739
 30
0.0
 11
69.700989
 21
181.689487
 31
0.0
  0
LINE
  8
0
  6
CONTINUOUS
 10
74.789366
 20
178.598695
 30
0.0
 11
69.701038
 21
180.940366
 31
0.0
  0
LINE
  8
0
  6
CONTINUOUS
 10
69.701119
 20
179.549601
 30
0.0
 11
73.449825
 21
177.82443
 31
0.0
  0
LINE
  8
0
  6
CONTINUOUS
 10
73.367638
 20
177.776915
 30
0.0
 11
69.701119
 21
179.464263
 31
0.0
  0
LINE
  8
0
  6
CONTINUOUS
 10
84.939135
 20
179.168005
 30
0.0
 11
84.307952
 21
179.464808
 31
0.0
  0
LINE
  8
0
  6
CONTINUOUS
 10
81.796312
 20
178.013061
 30
0.0
 11
79.797894
 21
178.914116
 31
0.0
  0
LINE
  8
0
  6
CONTINUOUS
 10
81.796312
 20
178.013061
 30
0.0
 11
84.307952
 21
179.464808
 31
0.0
  0
LINE
  8
0
  6
CONTINUOUS
 10
79.797894
 20
178.382771
 30
0.0
 11
79.797894
 21
178.914116
 31
0.0
  0
LINE
  8
0
  6
CONTINUOUS
 10
79.809813
 20
178.375239
 30
0.0
 11
81.112154
 21
177.617516
 31
0.0
  0
LINE
  8
0
  6
CONTINUOUS
 10
71.749751
 20
172.206075
 30
0.0
 11
69.701812
 21
171.022352
 31
0.0
  0
LINE
  8
0
  6
CONTINUOUS
 10
69.869293
 20
170.457526
 30
0.0
 11
69.705156
 21
170.534708
 31
0.0
  0
LINE
  8
0
  6
CONTINUOUS
 10
71.749751
 20
172.206075
 30
0.0
 11
69.701697
 21
172.821265
 31
0.0
  0
LINE
  8
0
  6
CONTINUOUS
 10
79.425636
 20
183.399843
 30
0.0
 11
78.371978
 21
181.448367
 31
0.0
  0
LINE
  8
0
  6
CONTINUOUS
 10
78.381999
 20
181.454163
 30
0.0
 11
77.275424
 21
180.814554
 31
0.0
  0
LINE
  8
0
  6
CONTINUOUS
 10
79.425637
 20
194.712747
 30
0.0
 11
79.425637
 21
192.580581
 31
0.0
  0
LINE
  8
0
  6
CONTINUOUS
 10
79.425637
 20
189.806
 30
0.0
 11
79.425637
 21
187.673834
 31
0.0
  0
LINE
  8
0
  6
CONTINUOUS
 10
80.168205
 20
187.021
 30
0.0
 11
80.168205
 21
184.778726
 31
0.0
  0
LINE
  8
0
  6
CONTINUOUS
 10
80.168205
 20
191.927747
 30
0.0
 11
80.168205
 21
189.685474
 31
0.0
  0
LINE
  8
0
  6
CONTINUOUS
 10
80.168205
 20
196.036788
 30
0.0
 11
80.168205
 21
194.592221
 31
0.0
  0
LINE
  8
0
  6
CONTINUOUS
 10
79.425637
 20
184.899252
 30
0.0
 11
79.425637
 21
183.39585
 31
0.0
  0
LINE
  8
0
  6
CONTINUOUS
 10
77.838527
 20
180.361642
 30
0.0
 11
69.701584
 21
175.658429
 31
0.0
  0
LINE
  8
0
  6
CONTINUOUS
 10
79.730879
 20
178.929389
 30
0.0
 11
79.730879
 21
178.545761
 31
0.0
  0
LINE
  8
0
  6
CONTINUOUS
 10
87.840498
 20
202.35358
 30
0.0
 11
87.840498
 21
179.264635
 31
0.0
  0
LINE
  8
0
  6
CONTINUOUS
 10
87.995217
 20
202.573804
 30
0.0
 11
87.995217
 21
179.690171
 31
0.0
  0
LINE
  8
0
  6
CONTINUOUS
 10
66.190486
 20
166.661805
 30
0.0
 11
66.190486
 21
189.834539
 31
0.0
  0
LINE
  8
0
  6
CONTINUOUS
 10
65.553383
 20
189.847394
 30
0.0
 11
65.553383
 21
166.439504
 31
0.0
  0
LINE
  8
0
  6
CONTINUOUS
 10
71.188565
 20
213.145212
 30
0.0
 11
48.417337
 21
200.224715
 31
0.0
  0
LINE
  8
0
  6
CONTINUOUS
 10
48.417337
 20
200.224715
 30
0.0
 11
64.56648
 21
192.9169
 31
0.0
  0
LINE
  8
0
  6
CONTINUOUS
 10
47.983916
 20
187.41303
 30
0.0
 11
48.000254
 21
199.65668
 31
0.0
  0
LINE
  8
0
  6
CONTINUOUS
 10
47.983916
 20
187.41303
 30
0.0
 11
48.342004
 21
187.165207
 31
0.0
  0
LINE
  8
0
  6
CONTINUOUS
 10
48.342004
 20
184.855691
 30
0.0
 11
48.342004
 21
187.165207
 31
0.0
  0
LINE
  8
0
  6
CONTINUOUS
 10
48.339091
 20
185.277797
 30
0.0
 11
48.000254
 21
185.07877
 31
0.0
  0
LINE
  8
0
  6
CONTINUOUS
 10
48.000254
 20
185.07877
 30
0.0
 11
48.000254
 21
173.504156
 31
0.0
  0
LINE
  8
0
  6
CONTINUOUS
 10
48.000254
 20
185.07877
 30
0.0
 11
48.342004
 21
184.855691
 31
0.0
  0
LINE
  8
0
  6
CONTINUOUS
 10
110.840498
 20
180.808813
 30
0.0
 11
110.840498
 21
200.899879
 31
0.0
  0
LINE
  8
0
  6
CONTINUOUS
 10
88.045347
 20
188.05121
 30
0.0
 11
110.840498
 21
200.899879
 31
0.0
  0
LINE
  8
0
  6
CONTINUOUS
 10
29.97998
 20
155.10466
 30
0.0
 11
55.871625
 21
169.795696
 31
0.0
  0
LINE
  8
0
  6
CONTINUOUS
 10
29.97998
 20
155.10466
 30
0.0
 11
30.130494
 21
135.013594
 31
0.0
  0
LINE
  8
0
  6
CONTINUOUS
 10
85.193729
 20
166.256721
 30
0.0
 11
110.840498
 21
180.808813
 31
0.0
  0
LINE
  8
0
  6
CONTINUOUS
 10
30.130494
 20
135.013594
 30
0.0
 11
65.438904
 21
155.047745
 31
0.0
  0
LINE
  8
0
  6
CONTINUOUS
 10
88.045266
 20
188.457631
 30
0.0
 11
110.663741
 21
201.206054
 31
0.0
  0
LINE
  8
0
  6
CONTINUOUS
 10
29.803223
 20
155.410835
 30
0.0
 11
55.510349
 21
169.997173
 31
0.0
  0
LINE
  8
0
  6
CONTINUOUS
 10
110.663741
 20
201.206054
 30
0.0
 11
109.261976
 21
202.015363
 31
0.0
  0
LINE
  8
0
  6
CONTINUOUS
 10
88.044628
 20
190.061947
 30
0.0
 11
109.261976
 21
202.015363
 31
0.0
  0
LINE
  8
0
  6
CONTINUOUS
 10
28.401458
 20
156.220144
 30
0.0
 11
53.862127
 21
170.666642
 31
0.0
  0
LINE
  8
0
  6
CONTINUOUS
 10
28.401458
 20
156.220144
 30
0.0
 11
29.803223
 21
155.410835
 31
0.0
  0
LINE
  8
0
  6
CONTINUOUS
 10
28.235729
 20
155.054358
 30
0.0
 11
28.227774
 21
156.116297
 31
0.0
  0
LINE
  8
0
  6
CONTINUOUS
 10
28.726347
 20
154.7711
 30
0.0
 11
28.830534
 21
154.830216
 31
0.0
  0
LINE
  8
0
  6
CONTINUOUS
 10
28.722692
 20
155.259008
 30
0.0
 11
28.900904
 21
155.360127
 31
0.0
  0
LINE
  8
0
  6
CONTINUOUS
 10
28.722692
 20
155.259008
 30
0.0
 11
28.726347
 21
154.7711
 31
0.0
  0
LINE
  8
0
  6
CONTINUOUS
 10
29.316906
 20
155.120062
 30
0.0
 11
28.896377
 21
155.362855
 31
0.0
  0
LINE
  8
0
  6
CONTINUOUS
 10
29.635576
 20
135.870883
 30
0.0
 11
29.493663
 21
154.813888
 31
0.0
  0
LINE
  8
0
  6
CONTINUOUS
 10
29.461891
 20
135.767036
 30
0.0
 11
29.635513
 21
135.86555
 31
0.0
  0
LINE
  8
0
  6
CONTINUOUS
 10
29.041362
 20
136.009829
 30
0.0
 11
29.062909
 21
136.022055
 31
0.0
  0
LINE
  8
0
  6
CONTINUOUS
 10
29.041362
 20
136.009829
 30
0.0
 11
29.461891
 21
135.767036
 31
0.0
  0
LINE
  8
0
  6
CONTINUOUS
 10
28.864605
 20
136.316003
 30
0.0
 11
28.968792
 21
136.37512
 31
0.0
  0
LINE
  8
0
  6
CONTINUOUS
 10
28.860919
 20
136.808029
 30
0.0
 11
28.962394
 21
136.865607
 31
0.0
  0
LINE
  8
0
  6
CONTINUOUS
 10
28.860919
 20
136.808029
 30
0.0
 11
28.864605
 21
136.316003
 31
0.0
  0
LINE
  8
0
  6
CONTINUOUS
 10
28.378288
 20
136.025231
 30
0.0
 11
28.370301
 21
137.091288
 31
0.0
  0
LINE
  8
0
  6
CONTINUOUS
 10
29.956809
 20
134.909747
 30
0.0
 11
28.555044
 21
135.719057
 31
0.0
  0
LINE
  8
0
  6
CONTINUOUS
 10
23.900528
 20
148.204542
 30
0.0
 11
24.588709
 21
148.595019
 31
0.0
  0
LINE
  8
0
  6
CONTINUOUS
 10
28.984337
 20
145.881896
 30
0.0
 11
23.894388
 21
149.024103
 31
0.0
  0
LINE
  8
0
  6
CONTINUOUS
 10
29.523432
 20
146.182662
 30
0.0
 11
29.558161
 21
146.202367
 31
0.0
  0
LINE
  8
0
  6
CONTINUOUS
 10
29.519433
 20
146.716368
 30
0.0
 11
29.554162
 21
146.736073
 31
0.0
  0
LINE
  8
0
  6
CONTINUOUS
 10
29.519433
 20
146.716368
 30
0.0
 11
29.523432
 21
146.182662
 31
0.0
  0
LINE
  8
0
  6
CONTINUOUS
 10
29.031542
 20
146.635706
 30
0.0
 11
29.028816
 21
146.999626
 31
0.0
  0
LINE
  8
0
  6
CONTINUOUS
 10
28.851844
 20
146.53545
 30
0.0
 11
29.031447
 21
146.637358
 31
0.0
  0
LINE
  8
0
  6
CONTINUOUS
 10
23.698806
 20
149.716604
 30
0.0
 11
29.130161
 21
152.798378
 31
0.0
  0
LINE
  8
0
  6
CONTINUOUS
 10
23.698806
 20
149.716604
 30
0.0
 11
28.851844
 21
146.53545
 31
0.0
  0
LINE
  8
0
  6
CONTINUOUS
 10
23.528063
 20
150.019186
 30
0.0
 11
28.982093
 21
153.113827
 31
0.0
  0
LINE
  8
0
  6
CONTINUOUS
 10
23.467608
 20
158.088908
 30
0.0
 11
23.824033
 21
158.291145
 31
0.0
  0
LINE
  8
0
  6
CONTINUOUS
 10
23.467608
 20
158.088908
 30
0.0
 11
23.528063
 21
150.019186
 31
0.0
  0
LINE
  8
0
  6
CONTINUOUS
 10
27.389479
 20
156.232863
 30
0.0
 11
23.814978
 21
158.296602
 31
0.0
  0
LINE
  8
0
  6
CONTINUOUS
 10
27.746985
 20
155.087486
 30
0.0
 11
27.742992
 21
155.620514
 31
0.0
  0
LINE
  8
0
  6
CONTINUOUS
 10
28.802917
 20
153.865471
 30
0.0
 11
28.277255
 21
154.168962
 31
0.0
  0
LINE
  8
0
  6
CONTINUOUS
 10
28.982745
 20
153.149275
 30
0.0
 11
28.979673
 21
153.559296
 31
0.0
  0
LINE
  8
0
  6
CONTINUOUS
 10
29.473363
 20
152.866016
 30
0.0
 11
29.508092
 21
152.885722
 31
0.0
  0
LINE
  8
0
  6
CONTINUOUS
 10
29.464109
 20
154.10118
 30
0.0
 11
29.498838
 21
154.120886
 31
0.0
  0
LINE
  8
0
  6
CONTINUOUS
 10
29.464109
 20
154.10118
 30
0.0
 11
29.473363
 21
152.866016
 31
0.0
  0
LINE
  8
0
  6
CONTINUOUS
 10
29.367137
 20
154.565416
 30
0.0
 11
29.494922
 21
154.637921
 31
0.0
  0
LINE
  8
0
  6
CONTINUOUS
 10
29.154022
 20
155.112041
 30
0.0
 11
29.243129
 21
155.162601
 31
0.0
  0
LINE
  8
0
  6
CONTINUOUS
 10
29.154022
 20
155.112041
 30
0.0
 11
29.367137
 21
154.565416
 31
0.0
  0
LINE
  8
0
  6
CONTINUOUS
 10
28.832125
 20
154.624279
 30
0.0
 11
28.827824
 21
155.19831
 31
0.0
  0
LINE
  8
0
  6
CONTINUOUS
 10
28.65844
 20
154.520432
 30
0.0
 11
28.832062
 21
154.618946
 31
0.0
  0
LINE
  8
0
  6
CONTINUOUS
 10
28.413131
 20
154.662061
 30
0.0
 11
28.42407
 21
154.668269
 31
0.0
  0
LINE
  8
0
  6
CONTINUOUS
 10
28.413131
 20
154.662061
 30
0.0
 11
28.65844
 21
154.520432
 31
0.0
  0
LINE
  8
0
  6
CONTINUOUS
 10
28.236374
 20
154.968236
 30
0.0
 11
28.245084
 21
154.973178
 31
0.0
  0
LINE
  8
0
  6
CONTINUOUS
 10
28.235729
 20
155.054358
 30
0.0
 11
28.236374
 21
154.968236
 31
0.0
  0
LINE
  8
0
  6
CONTINUOUS
 10
88.044469
 20
190.463026
 30
0.0
 11
108.911535
 21
202.217691
 31
0.0
  0
LINE
  8
0
  6
CONTINUOUS
 10
28.051017
 20
156.422471
 30
0.0
 11
53.505461
 21
170.865438
 31
0.0
  0
LINE
  8
0
  6
CONTINUOUS
 10
108.911535
 20
202.217691
 30
0.0
 11
104.005357
 21
205.050274
 31
0.0
  0
LINE
  8
0
  6
CONTINUOUS
 10
100.245435
 20
203.002279
 30
0.0
 11
104.005357
 21
205.050274
 31
0.0
  0
LINE
  8
0
  6
CONTINUOUS
 10
23.144839
 20
159.255055
 30
0.0
 11
48.031748
 21
173.375998
 31
0.0
  0
LINE
  8
0
  6
CONTINUOUS
 10
23.144839
 20
159.255055
 30
0.0
 11
28.051017
 21
156.422471
 31
0.0
  0
LINE
  8
0
  6
CONTINUOUS
 10
23.121668
 20
139.060142
 30
0.0
 11
22.971154
 21
159.151207
 31
0.0
  0
LINE
  8
0
  6
CONTINUOUS
 10
28.204603
 20
135.921384
 30
0.0
 11
23.298425
 21
138.753967
 31
0.0
  0
LINE
  8
0
  6
CONTINUOUS
 10
28.369687
 20
137.173292
 30
0.0
 11
28.384743
 21
137.181835
 31
0.0
  0
LINE
  8
0
  6
CONTINUOUS
 10
28.369687
 20
137.173292
 30
0.0
 11
28.370301
 21
137.091288
 31
0.0
  0
LINE
  8
0
  6
CONTINUOUS
 10
28.788681
 20
137.13551
 30
0.0
 11
28.543372
 21
137.277139
 31
0.0
  0
LINE
  8
0
  6
CONTINUOUS
 10
28.969737
 20
136.255305
 30
0.0
 11
28.965437
 21
136.829336
 31
0.0
  0
LINE
  8
0
  6
CONTINUOUS
 10
29.297472
 20
135.964026
 30
0.0
 11
29.633297
 21
136.154574
 31
0.0
  0
LINE
  8
0
  6
CONTINUOUS
 10
29.504212
 20
136.268248
 30
0.0
 11
29.631997
 21
136.340754
 31
0.0
  0
LINE
  8
0
  6
CONTINUOUS
 10
29.504212
 20
136.268248
 30
0.0
 11
29.297472
 21
135.964026
 31
0.0
  0
LINE
  8
0
  6
CONTINUOUS
 10
29.595041
 20
136.624056
 30
0.0
 11
29.62977
 21
136.643762
 31
0.0
  0
LINE
  8
0
  6
CONTINUOUS
 10
29.585788
 20
137.85922
 30
0.0
 11
29.620517
 21
137.878926
 31
0.0
  0
LINE
  8
0
  6
CONTINUOUS
 10
29.585788
 20
137.85922
 30
0.0
 11
29.595041
 21
136.624056
 31
0.0
  0
LINE
  8
0
  6
CONTINUOUS
 10
29.098241
 20
137.732457
 30
0.0
 11
29.09517
 21
138.142479
 31
0.0
  0
LINE
  8
0
  6
CONTINUOUS
 10
28.924557
 20
137.62861
 30
0.0
 11
29.098179
 21
137.727124
 31
0.0
  0
LINE
  8
0
  6
CONTINUOUS
 10
28.398895
 20
137.932101
 30
0.0
 11
29.61441
 21
138.62179
 31
0.0
  0
LINE
  8
0
  6
CONTINUOUS
 10
28.398895
 20
137.932101
 30
0.0
 11
28.924557
 21
137.62861
 31
0.0
  0
LINE
  8
0
  6
CONTINUOUS
 10
27.881834
 20
137.087531
 30
0.0
 11
27.87784
 21
137.620559
 31
0.0
  0
LINE
  8
0
  6
CONTINUOUS
 10
27.534464
 20
136.879837
 30
0.0
 11
27.881708
 21
137.076865
 31
0.0
  0
LINE
  8
0
  6
CONTINUOUS
 10
23.959963
 20
138.943576
 30
0.0
 11
29.586064
 21
142.135851
 31
0.0
  0
LINE
  8
0
  6
CONTINUOUS
 10
23.959963
 20
138.943576
 30
0.0
 11
27.534464
 21
136.879837
 31
0.0
  0
LINE
  8
0
  6
CONTINUOUS
 10
23.60645
 20
139.555925
 30
0.0
 11
29.579841
 21
142.945254
 31
0.0
  0
LINE
  8
0
  6
CONTINUOUS
 10
23.545995
 20
147.625647
 30
0.0
 11
23.724483
 21
147.726921
 31
0.0
  0
LINE
  8
0
  6
CONTINUOUS
 10
23.545995
 20
147.625647
 30
0.0
 11
23.60645
 21
139.555925
 31
0.0
  0
LINE
  8
0
  6
CONTINUOUS
 10
28.863605
 20
144.965573
 30
0.0
 11
23.713668
 21
147.732844
 31
0.0
  0
LINE
  8
0
  6
CONTINUOUS
 10
29.049099
 20
144.292127
 30
0.0
 11
29.046373
 21
144.656048
 31
0.0
  0
LINE
  8
0
  6
CONTINUOUS
 10
29.539717
 20
144.008869
 30
0.0
 11
29.574446
 21
144.028574
 31
0.0
  0
LINE
  8
0
  6
CONTINUOUS
 10
29.535719
 20
144.542575
 30
0.0
 11
29.570448
 21
144.56228
 31
0.0
  0
LINE
  8
0
  6
CONTINUOUS
 10
29.535719
 20
144.542575
 30
0.0
 11
29.539717
 21
144.008869
 31
0.0
  0
LINE
  8
0
  6
CONTINUOUS
 10
28.987414
 20
145.47115
 30
0.0
 11
29.560954
 21
145.796579
 31
0.0
  0
LINE
  8
0
  6
CONTINUOUS
 10
23.900528
 20
148.204542
 30
0.0
 11
28.987414
 21
145.47115
 31
0.0
  0
LINE
  8
0
  6
CONTINUOUS
 10
68.748009
 20
153.134343
 30
0.0
 11
68.748009
 21
167.432288
 31
0.0
  0
LINE
  8
0
  6
CONTINUOUS
 10
69.101542
 20
153.134354
 30
0.0
 11
69.100493
 21
167.572303
 31
0.0
  0
LINE
  8
0
  6
CONTINUOUS
 10
85.09781
 20
162.229368
 30
0.0
 11
69.101542
 21
153.134354
 31
0.0
  0
LINE
  8
0
  6
CONTINUOUS
 10
85.09781
 20
162.229368
 30
0.0
 11
85.09781
 21
176.941896
 31
0.0
  0
LINE
  8
0
  6
CONTINUOUS
 10
65.438904
 20
155.047745
 30
0.0
 11
68.748009
 21
153.134343
 31
0.0
  0
LINE
  8
0
  6
CONTINUOUS
 10
53.789588
 20
170.707041
 30
0.0
 11
28.27962
 21
156.23257
 31
0.0
  0
LINE
  8
0
  6
CONTINUOUS
 10
109.140138
 20
202.027789
 30
0.0
 11
88.044573
 21
190.143473
 31
0.0
  0
LINE
  8
0
  6
CONTINUOUS
 10
28.653762
 20
154.608317
 30
0.0
 11
28.831408
 21
154.709114
 31
0.0
  0
LINE
  8
0
  6
CONTINUOUS
 10
28.510383
 20
137.292368
 30
0.0
 11
28.442886
 21
137.25407
 31
0.0
  0
LINE
  8
0
  6
CONTINUOUS
 10
85.194353
 20
166.17022
 30
0.0
 11
110.788652
 21
180.69254
 31
0.0
  0
LINE
  8
0
  6
CONTINUOUS
 10
30.078648
 20
134.897321
 30
0.0
 11
65.438431
 21
154.960621
 31
0.0
  0
LINE
  8
0
  6
CONTINUOUS
 10
29.367893
 20
145.833843
 30
0.0
 11
29.560033
 21
145.942863
 31
0.0
  0
LINE
  8
0
  6
CONTINUOUS
 10
29.548877
 20
147.416309
 30
0.0
 11
29.1014
 21
147.162408
 31
0.0
  0
LINE
  8
0
  6
CONTINUOUS
 10
29.400778
 20
152.703234
 30
0.0
 11
29.508965
 21
152.76462
 31
0.0
  0
LINE
  8
0
  6
CONTINUOUS
 10
28.930236
 20
155.343274
 30
0.0
 11
28.87967
 21
155.314583
 31
0.0
  0
LINE
  8
0
  6
CONTINUOUS
 10
47.959209
 20
173.416397
 30
0.0
 11
23.023
 21
159.26748
 31
0.0
  0
LINE
  8
0
  6
CONTINUOUS
 10
103.883518
 20
205.0627
 30
0.0
 11
87.995217
 21
196.05145
 31
0.0
  0
LINE
  8
0
  6
CONTINUOUS
 10
28.326442
 20
135.908958
 30
0.0
 11
28.390524
 21
135.945319
 31
0.0
  0
LINE
  8
0
  6
CONTINUOUS
 10
29.268333
 20
135.936705
 30
0.0
 11
29.633364
 21
136.143825
 31
0.0
  0
LINE
  8
0
  6
CONTINUOUS
 10
29.615231
 20
138.559161
 30
0.0
 11
29.167754
 21
138.305261
 31
0.0
  0
LINE
  8
0
  6
CONTINUOUS
 10
29.612419
 20
138.865333
 30
0.0
 11
28.033379
 21
137.969378
 31
0.0
  0
LINE
  8
0
  6
CONTINUOUS
 10
29.467132
 20
143.846086
 30
0.0
 11
29.575319
 21
143.907472
 31
0.0
  0
LINE
  8
0
  6
CONTINUOUS
 10
85.172582
 20
162.332405
 30
0.0
 11
85.173029
 21
176.985317
 31
0.0
  0
LINE
  8
0
  6
CONTINUOUS
 10
69.049696
 20
153.018081
 30
0.0
 11
85.045964
 21
162.113095
 31
0.0
  0
LINE
  8
0
  6
CONTINUOUS
 10
65.43843
 20
154.960578
 30
0.0
 11
68.801321
 21
153.019012
 31
0.0
  0
LINE
  8
0
  6
CONTINUOUS
 10
65.43843
 20
154.960578
 30
0.0
 11
65.438904
 21
165.588558
 31
0.0
  0
ARC
  8
0
  6
CONTINUOUS
 10
48.962946
 20
199.386676
 30
0.0
 40
1.0
 50
123.066334
 51
164.301007
  0
ARC
  8
0
  6
CONTINUOUS
 10
68.926321
 20
153.235518
 30
0.0
 40
0.25
 50
240.0
 51
299.570771
  0
ARC
  8
0
  6
CONTINUOUS
 10
84.922589
 20
162.330532
 30
0.0
 40
0.25
 50
299.570771
 51
0.429229
  0
ENDSEC
  0
EOF
