  0
SECTION
  2
HEADER
  9
$ACADVER
  1
AC1009
  9
$INSBASE
 10
0.0
 20
0.0
 30
0.0
  9
$EXTMIN
 10
25.0
 20
49.757338
 30
0.0
  9
$EXTMAX
 10
80.965057
 20
169.527586
 30
0.0
  9
$LIMMIN
 10
25.0
 20
49.757338
  9
$LIMMAX
 10
80.965057
 20
169.527586
  9
$ORTHOMODE
 70
     0
  9
$REGENMODE
 70
     1
  9
$FILLMODE
 70
     1
  9
$QTEXTMODE
 70
     0
  9
$MIRRTEXT
 70
     1
  9
$DRAGMODE
 70
     2
  9
$LTSCALE
 40
1.0
  9
$OSMODE
 70
     0
  9
$ATTMODE
 70
     1
  9
$TEXTSIZE
 40
3.5
  9
$TRACEWID
 40
0.5
  9
$TEXTSTYLE
  7
STANDARD
  9
$CLAYER
  8
0
  9
$CELTYPE
  6
BYLAYER
  9
$CECOLOR
 62
   256
  9
$DIMSCALE
 40
1.0
  9
$DIMASZ
 40
0.18
  9
$DIMEXO
 40
0.0625
  9
$DIMDLI
 40
0.38
  9
$DIMRND
 40
0.0
  9
$DIMDLE
 40
0.0
  9
$DIMEXE
 40
0.18
  9
$DIMTP
 40
0.0
  9
$DIMTM
 40
0.0
  9
$DIMTXT
 40
0.18
  9
$DIMCEN
 40
0.09
  9
$DIMTSZ
 40
0.0
  9
$DIMTOL
 70
     0
  9
$DIMLIM
 70
     0
  9
$DIMTIH
 70
     1
  9
$DIMTOH
 70
     1
  9
$DIMSE1
 70
     0
  9
$DIMSE2
 70
     0
  9
$DIMTAD
 70
     0
  9
$DIMZIN
 70
     0
  9
$DIMBLK
  1

  9
$DIMASO
 70
     1
  9
$DIMSHO
 70
     1
  9
$DIMPOST
  1

  9
$DIMAPOST
  1

  9
$DIMALT
 70
     0
  9
$DIMALTD
 70
     2
  9
$DIMALTF
 40
25.4
  9
$DIMLFAC
 40
1.0
  9
$DIMTOFL
 70
     0
  9
$DIMTVP
 40
0.0
  9
$DIMTIX
 70
     0
  9
$DIMSOXD
 70
     0
  9
$DIMSAH
 70
     0
  9
$DIMBLK1
  1

  9
$DIMBLK2
  1

  9
$DIMSTYLE
  2
*UNNAMED
  9
$DIMCLRD
 70
     0
  9
$DIMCLRE
 70
     0
  9
$DIMCLRT
 70
     0
  9
$DIMTFAC
 40
1.0
  9
$DIMGAP
 40
0.09
  9
$LUNITS
 70
     2
  9
$LUPREC
 70
     4
  9
$SKETCHINC
 40
0.1
  9
$FILLETRAD
 40
2.0
  9
$AUNITS
 70
     0
  9
$AUPREC
 70
     0
  9
$MENU
  1
ACAD
  9
$ELEVATION
 40
0.0
  9
$PELEVATION
 40
0.0
  9
$THICKNESS
 40
0.0
  9
$LIMCHECK
 70
     0
  9
$BLIPMODE
 70
     1
  9
$CHAMFERA
 40
0.0
  9
$CHAMFERB
 40
0.0
  9
$SKPOLY
 70
     0
  9
$TDCREATE
 40
2450954.726328588
  9
$TDUPDATE
 40
2450954.726844097
  9
$TDINDWG
 40
0.0003915509
  9
$TDUSRTIMER
 40
0.0003915509
  9
$USRTIMER
 70
     1
  9
$ANGBASE
 50
0.0
  9
$ANGDIR
 70
     0
  9
$PDMODE
 70
     0
  9
$PDSIZE
 40
0.0
  9
$PLINEWID
 40
0.0
  9
$COORDS
 70
     2
  9
$SPLFRAME
 70
     0
  9
$SPLINETYPE
 70
     6
  9
$SPLINESEGS
 70
     8
  9
$ATTDIA
 70
     0
  9
$ATTREQ
 70
     1
  9
$HANDLING
 70
     0
  9
$HANDSEED
  5
0
  9
$SURFTAB1
 70
     6
  9
$SURFTAB2
 70
     6
  9
$SURFTYPE
 70
     6
  9
$SURFU
 70
     6
  9
$SURFV
 70
     6
  9
$UCSNAME
  2

  9
$UCSORG
 10
0.0
 20
0.0
 30
0.0
  9
$UCSXDIR
 10
1.0
 20
0.0
 30
0.0
  9
$UCSYDIR
 10
0.0
 20
1.0
 30
0.0
  9
$PUCSNAME
  2

  9
$PUCSORG
 10
0.0
 20
0.0
 30
0.0
  9
$PUCSXDIR
 10
1.0
 20
0.0
 30
0.0
  9
$PUCSYDIR
 10
0.0
 20
1.0
 30
0.0
  9
$USERI1
 70
     0
  9
$USERI2
 70
     0
  9
$USERI3
 70
     0
  9
$USERI4
 70
     0
  9
$USERI5
 70
     0
  9
$USERR1
 40
0.0
  9
$USERR2
 40
0.0
  9
$USERR3
 40
0.0
  9
$USERR4
 40
0.0
  9
$USERR5
 40
0.0
  9
$WORLDVIEW
 70
     1
  9
$SHADEDGE
 70
     3
  9
$SHADEDIF
 70
    70
  9
$TILEMODE
 70
     1
  9
$MAXACTVP
 70
    16
  9
$PINSBASE
 10
0.0
 20
0.0
 30
0.0
  9
$PLIMCHECK
 70
     0
  9
$PEXTMIN
 10
1.000000E+20
 20
1.000000E+20
 30
1.000000E+20
  9
$PEXTMAX
 10
-1.000000E+20
 20
-1.000000E+20
 30
-1.000000E+20
  9
$PLIMMIN
 10
0.0
 20
0.0
  9
$PLIMMAX
 10
420.0
 20
297.0
  9
$UNITMODE
 70
     0
  9
$VISRETAIN
 70
     0
  9
$PLINEGEN
 70
     0
  9
$PSLTSCALE
 70
     1
  9
$TREEDEPTH
 70
  3020
  9
$DWGCODEPAGE
  3
iso8859-1
  0
ENDSEC
  0
SECTION
  2
TABLES
  0
TABLE
  2
VPORT
 70
     2
  0
VPORT
  2
*ACTIVE
 70
     0
 10
0.0
 20
0.0
 11
1.0
 21
1.0
 12
129.92419
 22
110.1829
 13
0.0
 23
0.0
 14
1.0
 24
1.0
 15
0.0
 25
0.0
 16
0.0
 26
0.0
 36
1.0
 17
0.0
 27
0.0
 37
0.0
 40
154.462319
 41
1.748359
 42
50.0
 43
0.0
 44
0.0
 50
0.0
 51
0.0
 71
     0
 72
   100
 73
     1
 74
     0
 75
     0
 76
     0
 77
     0
 78
     0
  0
ENDTAB
  0
TABLE
  2
LTYPE
 70
     1
  0
LTYPE
  2
CONTINUOUS
 70
    64
  3
Solid line
 72
    65
 73
     0
 40
0.0
  0
ENDTAB
  0
TABLE
  2
LAYER
 70
     1
  0
LAYER
  2
0
 70
    64
 62
     7
  6
CONTINUOUS
  0
ENDTAB
  0
TABLE
  2
STYLE
 70
     1
  0
STYLE
  2
STANDARD
 70
     0
 40
0.0
 41
1.0
 50
0.0
 71
     0
 42
3.5
  3
txt
  4

  0
ENDTAB
  0
TABLE
  2
VIEW
 70
     0
  0
ENDTAB
  0
TABLE
  2
UCS
 70
     0
  0
ENDTAB
  0
TABLE
  2
APPID
 70
     1
  0
APPID
  2
ACAD
 70
    64
  0
ENDTAB
  0
TABLE
  2
DIMSTYLE
 70
     0
  0
ENDTAB
  0
ENDSEC
  0
SECTION
  2
BLOCKS
  0
ENDSEC
  0
SECTION
  2
ENTITIES
  0
POLYLINE
  8
0
  6
CONTINUOUS
 66
     1
 10
0.0
 20
0.0
 30
0.0
  0
VERTEX
  8
0
  6
CONTINUOUS
 10
80.32068
 20
136.094855
 30
0.0
  0
VERTEX
  8
0
  6
CONTINUOUS
 10
80.171285
 20
136.193666
 30
0.0
  0
VERTEX
  8
0
  6
CONTINUOUS
 10
80.097745
 20
136.236506
 30
0.0
  0
VERTEX
  8
0
  6
CONTINUOUS
 10
80.078969
 20
136.246532
 30
0.0
  0
VERTEX
  8
0
  6
CONTINUOUS
 10
80.068081
 20
136.252022
 30
0.0
  0
SEQEND
  8
0
  6
CONTINUOUS
  0
POLYLINE
  8
0
  6
CONTINUOUS
 66
     1
 10
0.0
 20
0.0
 30
0.0
  0
VERTEX
  8
0
  6
CONTINUOUS
 10
80.961923
 20
135.094593
 30
0.0
  0
VERTEX
  8
0
  6
CONTINUOUS
 10
80.965056
 20
135.026008
 30
0.0
  0
SEQEND
  8
0
  6
CONTINUOUS
  0
POLYLINE
  8
0
  6
CONTINUOUS
 66
     1
 10
0.0
 20
0.0
 30
0.0
  0
VERTEX
  8
0
  6
CONTINUOUS
 10
80.068026
 20
136.252049
 30
0.0
  0
VERTEX
  8
0
  6
CONTINUOUS
 10
71.771216
 20
140.306352
 30
0.0
  0
VERTEX
  8
0
  6
CONTINUOUS
 10
63.474444
 20
144.360636
 30
0.0
  0
SEQEND
  8
0
  6
CONTINUOUS
  0
POLYLINE
  8
0
  6
CONTINUOUS
 66
     1
 10
0.0
 20
0.0
 30
0.0
  0
VERTEX
  8
0
  6
CONTINUOUS
 10
49.398834
 20
100.356103
 30
0.0
  0
VERTEX
  8
0
  6
CONTINUOUS
 10
50.099351
 20
100.039403
 30
0.0
  0
VERTEX
  8
0
  6
CONTINUOUS
 10
58.527811
 20
96.228928
 30
0.0
  0
SEQEND
  8
0
  6
CONTINUOUS
  0
POLYLINE
  8
0
  6
CONTINUOUS
 66
     1
 10
0.0
 20
0.0
 30
0.0
  0
VERTEX
  8
0
  6
CONTINUOUS
 10
80.965057
 20
108.123364
 30
0.0
  0
VERTEX
  8
0
  6
CONTINUOUS
 10
80.965057
 20
121.574131
 30
0.0
  0
VERTEX
  8
0
  6
CONTINUOUS
 10
80.965057
 20
135.024897
 30
0.0
  0
SEQEND
  8
0
  6
CONTINUOUS
  0
POLYLINE
  8
0
  6
CONTINUOUS
 66
     1
 10
0.0
 20
0.0
 30
0.0
  0
VERTEX
  8
0
  6
CONTINUOUS
 10
80.231994
 20
107.011583
 30
0.0
  0
VERTEX
  8
0
  6
CONTINUOUS
 10
71.008097
 20
101.680103
 30
0.0
  0
VERTEX
  8
0
  6
CONTINUOUS
 10
61.784201
 20
96.348624
 30
0.0
  0
SEQEND
  8
0
  6
CONTINUOUS
  0
POLYLINE
  8
0
  6
CONTINUOUS
 66
     1
 10
0.0
 20
0.0
 30
0.0
  0
VERTEX
  8
0
  6
CONTINUOUS
 10
58.527884
 20
96.228895
 30
0.0
  0
VERTEX
  8
0
  6
CONTINUOUS
 10
58.539
 20
96.224021
 30
0.0
  0
VERTEX
  8
0
  6
CONTINUOUS
 10
58.553196
 20
96.218083
 30
0.0
  0
VERTEX
  8
0
  6
CONTINUOUS
 10
58.590328
 20
96.203397
 30
0.0
  0
VERTEX
  8
0
  6
CONTINUOUS
 10
58.694822
 20
96.165712
 30
0.0
  0
VERTEX
  8
0
  6
CONTINUOUS
 10
58.986141
 20
96.078911
 30
0.0
  0
VERTEX
  8
0
  6
CONTINUOUS
 10
59.651107
 20
95.968489
 30
0.0
  0
VERTEX
  8
0
  6
CONTINUOUS
 10
60.173381
 20
95.963504
 30
0.0
  0
SEQEND
  8
0
  6
CONTINUOUS
  0
POLYLINE
  8
0
  6
CONTINUOUS
 66
     1
 10
0.0
 20
0.0
 30
0.0
  0
VERTEX
  8
0
  6
CONTINUOUS
 10
76.143253
 20
111.514707
 30
0.0
  0
VERTEX
  8
0
  6
CONTINUOUS
 10
76.143254
 20
111.513918
 30
0.0
  0
VERTEX
  8
0
  6
CONTINUOUS
 10
76.143254
 20
111.513121
 30
0.0
  0
VERTEX
  8
0
  6
CONTINUOUS
 10
76.143255
 20
111.511453
 30
0.0
  0
VERTEX
  8
0
  6
CONTINUOUS
 10
76.143236
 20
111.507679
 30
0.0
  0
VERTEX
  8
0
  6
CONTINUOUS
 10
76.143027
 20
111.498167
 30
0.0
  0
VERTEX
  8
0
  6
CONTINUOUS
 10
76.141287
 20
111.471961
 30
0.0
  0
VERTEX
  8
0
  6
CONTINUOUS
 10
76.128057
 20
111.398664
 30
0.0
  0
VERTEX
  8
0
  6
CONTINUOUS
 10
76.104568
 20
111.331765
 30
0.0
  0
VERTEX
  8
0
  6
CONTINUOUS
 10
76.075471
 20
111.27385
 30
0.0
  0
SEQEND
  8
0
  6
CONTINUOUS
  0
POLYLINE
  8
0
  6
CONTINUOUS
 66
     1
 10
0.0
 20
0.0
 30
0.0
  0
VERTEX
  8
0
  6
CONTINUOUS
 10
76.075471
 20
111.27385
 30
0.0
  0
VERTEX
  8
0
  6
CONTINUOUS
 10
76.043455
 20
111.218457
 30
0.0
  0
VERTEX
  8
0
  6
CONTINUOUS
 10
76.006086
 20
111.1697
 30
0.0
  0
VERTEX
  8
0
  6
CONTINUOUS
 10
75.959182
 20
111.127237
 30
0.0
  0
SEQEND
  8
0
  6
CONTINUOUS
  0
POLYLINE
  8
0
  6
CONTINUOUS
 66
     1
 10
0.0
 20
0.0
 30
0.0
  0
VERTEX
  8
0
  6
CONTINUOUS
 10
75.959182
 20
111.127237
 30
0.0
  0
VERTEX
  8
0
  6
CONTINUOUS
 10
75.947909
 20
111.119574
 30
0.0
  0
VERTEX
  8
0
  6
CONTINUOUS
 10
75.937681
 20
111.113333
 30
0.0
  0
VERTEX
  8
0
  6
CONTINUOUS
 10
75.935561
 20
111.112115
 30
0.0
  0
VERTEX
  8
0
  6
CONTINUOUS
 10
75.934787
 20
111.111674
 30
0.0
  0
SEQEND
  8
0
  6
CONTINUOUS
  0
POLYLINE
  8
0
  6
CONTINUOUS
 66
     1
 10
0.0
 20
0.0
 30
0.0
  0
VERTEX
  8
0
  6
CONTINUOUS
 10
75.934223
 20
111.11135
 30
0.0
  0
VERTEX
  8
0
  6
CONTINUOUS
 10
74.677604
 20
110.385015
 30
0.0
  0
VERTEX
  8
0
  6
CONTINUOUS
 10
73.462843
 20
109.682875
 30
0.0
  0
SEQEND
  8
0
  6
CONTINUOUS
  0
POLYLINE
  8
0
  6
CONTINUOUS
 66
     1
 10
0.0
 20
0.0
 30
0.0
  0
VERTEX
  8
0
  6
CONTINUOUS
 10
76.143253
 20
128.085109
 30
0.0
  0
VERTEX
  8
0
  6
CONTINUOUS
 10
76.143253
 20
121.333813
 30
0.0
  0
VERTEX
  8
0
  6
CONTINUOUS
 10
76.143253
 20
111.514708
 30
0.0
  0
SEQEND
  8
0
  6
CONTINUOUS
  0
POLYLINE
  8
0
  6
CONTINUOUS
 66
     1
 10
0.0
 20
0.0
 30
0.0
  0
VERTEX
  8
0
  6
CONTINUOUS
 10
80.232019
 20
107.011598
 30
0.0
  0
VERTEX
  8
0
  6
CONTINUOUS
 10
80.243304
 20
107.018333
 30
0.0
  0
VERTEX
  8
0
  6
CONTINUOUS
 10
80.257274
 20
107.027121
 30
0.0
  0
VERTEX
  8
0
  6
CONTINUOUS
 10
80.293063
 20
107.051048
 30
0.0
  0
SEQEND
  8
0
  6
CONTINUOUS
  0
POLYLINE
  8
0
  6
CONTINUOUS
 66
     1
 10
0.0
 20
0.0
 30
0.0
  0
VERTEX
  8
0
  6
CONTINUOUS
 10
80.961923
 20
135.094593
 30
0.0
  0
VERTEX
  8
0
  6
CONTINUOUS
 10
80.952338
 20
135.165712
 30
0.0
  0
VERTEX
  8
0
  6
CONTINUOUS
 10
80.938063
 20
135.231266
 30
0.0
  0
VERTEX
  8
0
  6
CONTINUOUS
 10
80.915038
 20
135.310041
 30
0.0
  0
VERTEX
  8
0
  6
CONTINUOUS
 10
80.86734
 20
135.439696
 30
0.0
  0
VERTEX
  8
0
  6
CONTINUOUS
 10
80.777372
 20
135.625554
 30
0.0
  0
VERTEX
  8
0
  6
CONTINUOUS
 10
80.545109
 20
135.912106
 30
0.0
  0
VERTEX
  8
0
  6
CONTINUOUS
 10
80.32068
 20
136.094855
 30
0.0
  0
SEQEND
  8
0
  6
CONTINUOUS
  0
POLYLINE
  8
0
  6
CONTINUOUS
 66
     1
 10
0.0
 20
0.0
 30
0.0
  0
VERTEX
  8
0
  6
CONTINUOUS
 10
80.293063
 20
107.051048
 30
0.0
  0
VERTEX
  8
0
  6
CONTINUOUS
 10
80.466609
 20
107.185156
 30
0.0
  0
VERTEX
  8
0
  6
CONTINUOUS
 10
80.645879
 20
107.3598
 30
0.0
  0
VERTEX
  8
0
  6
CONTINUOUS
 10
80.817134
 20
107.603671
 30
0.0
  0
VERTEX
  8
0
  6
CONTINUOUS
 10
80.877784
 20
107.734757
 30
0.0
  0
VERTEX
  8
0
  6
CONTINUOUS
 10
80.935528
 20
107.908217
 30
0.0
  0
VERTEX
  8
0
  6
CONTINUOUS
 10
80.953858
 20
107.992835
 30
0.0
  0
VERTEX
  8
0
  6
CONTINUOUS
 10
80.965056
 20
108.122235
 30
0.0
  0
SEQEND
  8
0
  6
CONTINUOUS
  0
POLYLINE
  8
0
  6
CONTINUOUS
 66
     1
 10
0.0
 20
0.0
 30
0.0
  0
VERTEX
  8
0
  6
CONTINUOUS
 10
60.173381
 20
95.963504
 30
0.0
  0
VERTEX
  8
0
  6
CONTINUOUS
 10
60.679973
 20
96.001287
 30
0.0
  0
VERTEX
  8
0
  6
CONTINUOUS
 10
61.192478
 20
96.112395
 30
0.0
  0
VERTEX
  8
0
  6
CONTINUOUS
 10
61.670792
 20
96.291872
 30
0.0
  0
VERTEX
  8
0
  6
CONTINUOUS
 10
61.75459
 20
96.332577
 30
0.0
  0
VERTEX
  8
0
  6
CONTINUOUS
 10
61.773771
 20
96.342766
 30
0.0
  0
VERTEX
  8
0
  6
CONTINUOUS
 10
61.784188
 20
96.348616
 30
0.0
  0
SEQEND
  8
0
  6
CONTINUOUS
  0
POLYLINE
  8
0
  6
CONTINUOUS
 66
     1
 10
0.0
 20
0.0
 30
0.0
  0
VERTEX
  8
0
  6
CONTINUOUS
 10
35.529287
 20
111.688168
 30
0.0
  0
VERTEX
  8
0
  6
CONTINUOUS
 10
35.577854
 20
111.867589
 30
0.0
  0
VERTEX
  8
0
  6
CONTINUOUS
 10
35.695103
 20
111.999046
 30
0.0
  0
SEQEND
  8
0
  6
CONTINUOUS
  0
POLYLINE
  8
0
  6
CONTINUOUS
 66
     1
 10
0.0
 20
0.0
 30
0.0
  0
VERTEX
  8
0
  6
CONTINUOUS
 10
35.8822
 20
111.699262
 30
0.0
  0
VERTEX
  8
0
  6
CONTINUOUS
 10
35.774225
 20
111.662073
 30
0.0
  0
VERTEX
  8
0
  6
CONTINUOUS
 10
35.64505
 20
111.658013
 30
0.0
  0
VERTEX
  8
0
  6
CONTINUOUS
 10
35.529287
 20
111.688168
 30
0.0
  0
SEQEND
  8
0
  6
CONTINUOUS
  0
POLYLINE
  8
0
  6
CONTINUOUS
 66
     1
 10
0.0
 20
0.0
 30
0.0
  0
VERTEX
  8
0
  6
CONTINUOUS
 10
35.8822
 20
92.498946
 30
0.0
  0
VERTEX
  8
0
  6
CONTINUOUS
 10
35.774225
 20
92.461757
 30
0.0
  0
VERTEX
  8
0
  6
CONTINUOUS
 10
35.64505
 20
92.457696
 30
0.0
  0
VERTEX
  8
0
  6
CONTINUOUS
 10
35.529287
 20
92.487852
 30
0.0
  0
SEQEND
  8
0
  6
CONTINUOUS
  0
POLYLINE
  8
0
  6
CONTINUOUS
 66
     1
 10
0.0
 20
0.0
 30
0.0
  0
VERTEX
  8
0
  6
CONTINUOUS
 10
35.590265
 20
92.358437
 30
0.0
  0
VERTEX
  8
0
  6
CONTINUOUS
 10
35.545305
 20
92.405795
 30
0.0
  0
VERTEX
  8
0
  6
CONTINUOUS
 10
35.529287
 20
92.487852
 30
0.0
  0
SEQEND
  8
0
  6
CONTINUOUS
  0
POLYLINE
  8
0
  6
CONTINUOUS
 66
     1
 10
0.0
 20
0.0
 30
0.0
  0
VERTEX
  8
0
  6
CONTINUOUS
 10
32.546748
 20
113.802045
 30
0.0
  0
VERTEX
  8
0
  6
CONTINUOUS
 10
32.438774
 20
113.764856
 30
0.0
  0
VERTEX
  8
0
  6
CONTINUOUS
 10
32.309599
 20
113.760795
 30
0.0
  0
VERTEX
  8
0
  6
CONTINUOUS
 10
32.193836
 20
113.790951
 30
0.0
  0
SEQEND
  8
0
  6
CONTINUOUS
  0
POLYLINE
  8
0
  6
CONTINUOUS
 66
     1
 10
0.0
 20
0.0
 30
0.0
  0
VERTEX
  8
0
  6
CONTINUOUS
 10
52.841393
 20
121.770916
 30
0.0
  0
VERTEX
  8
0
  6
CONTINUOUS
 10
52.934941
 20
121.699111
 30
0.0
  0
VERTEX
  8
0
  6
CONTINUOUS
 10
53.003423
 20
121.589382
 30
0.0
  0
VERTEX
  8
0
  6
CONTINUOUS
 10
53.028489
 20
121.471132
 30
0.0
  0
SEQEND
  8
0
  6
CONTINUOUS
  0
POLYLINE
  8
0
  6
CONTINUOUS
 66
     1
 10
0.0
 20
0.0
 30
0.0
  0
VERTEX
  8
0
  6
CONTINUOUS
 10
35.8822
 20
92.498946
 30
0.0
  0
VERTEX
  8
0
  6
CONTINUOUS
 10
35.866442
 20
92.420532
 30
0.0
  0
VERTEX
  8
0
  6
CONTINUOUS
 10
35.821823
 20
92.369889
 30
0.0
  0
SEQEND
  8
0
  6
CONTINUOUS
  0
POLYLINE
  8
0
  6
CONTINUOUS
 66
     1
 10
0.0
 20
0.0
 30
0.0
  0
VERTEX
  8
0
  6
CONTINUOUS
 10
52.377108
 20
121.497801
 30
0.0
  0
VERTEX
  8
0
  6
CONTINUOUS
 10
52.509404
 20
121.374188
 30
0.0
  0
VERTEX
  8
0
  6
CONTINUOUS
 10
52.564204
 20
121.198017
 30
0.0
  0
SEQEND
  8
0
  6
CONTINUOUS
  0
POLYLINE
  8
0
  6
CONTINUOUS
 66
     1
 10
0.0
 20
0.0
 30
0.0
  0
VERTEX
  8
0
  6
CONTINUOUS
 10
52.26485
 20
102.136016
 30
0.0
  0
VERTEX
  8
0
  6
CONTINUOUS
 10
52.249092
 20
102.057602
 30
0.0
  0
VERTEX
  8
0
  6
CONTINUOUS
 10
52.204473
 20
102.006958
 30
0.0
  0
SEQEND
  8
0
  6
CONTINUOUS
  0
POLYLINE
  8
0
  6
CONTINUOUS
 66
     1
 10
0.0
 20
0.0
 30
0.0
  0
VERTEX
  8
0
  6
CONTINUOUS
 10
52.564204
 20
101.9977
 30
0.0
  0
VERTEX
  8
0
  6
CONTINUOUS
 10
52.539138
 20
101.902614
 30
0.0
  0
VERTEX
  8
0
  6
CONTINUOUS
 10
52.470656
 20
101.856169
 30
0.0
  0
VERTEX
  8
0
  6
CONTINUOUS
 10
52.377108
 20
101.870811
 30
0.0
  0
SEQEND
  8
0
  6
CONTINUOUS
  0
POLYLINE
  8
0
  6
CONTINUOUS
 66
     1
 10
0.0
 20
0.0
 30
0.0
  0
VERTEX
  8
0
  6
CONTINUOUS
 10
53.028489
 20
102.270816
 30
0.0
  0
VERTEX
  8
0
  6
CONTINUOUS
 10
53.012732
 20
102.192402
 30
0.0
  0
VERTEX
  8
0
  6
CONTINUOUS
 10
52.968113
 20
102.141758
 30
0.0
  0
SEQEND
  8
0
  6
CONTINUOUS
  0
POLYLINE
  8
0
  6
CONTINUOUS
 66
     1
 10
0.0
 20
0.0
 30
0.0
  0
VERTEX
  8
0
  6
CONTINUOUS
 10
29.878985
 20
114.298871
 30
0.0
  0
VERTEX
  8
0
  6
CONTINUOUS
 10
29.927551
 20
114.478292
 30
0.0
  0
VERTEX
  8
0
  6
CONTINUOUS
 10
30.044801
 20
114.609749
 30
0.0
  0
SEQEND
  8
0
  6
CONTINUOUS
  0
POLYLINE
  8
0
  6
CONTINUOUS
 66
     1
 10
0.0
 20
0.0
 30
0.0
  0
VERTEX
  8
0
  6
CONTINUOUS
 10
29.939962
 20
94.96914
 30
0.0
  0
VERTEX
  8
0
  6
CONTINUOUS
 10
29.895003
 20
95.016498
 30
0.0
  0
VERTEX
  8
0
  6
CONTINUOUS
 10
29.878985
 20
95.098555
 30
0.0
  0
SEQEND
  8
0
  6
CONTINUOUS
  0
POLYLINE
  8
0
  6
CONTINUOUS
 66
     1
 10
0.0
 20
0.0
 30
0.0
  0
VERTEX
  8
0
  6
CONTINUOUS
 10
35.695103
 20
111.999046
 30
0.0
  0
VERTEX
  8
0
  6
CONTINUOUS
 10
35.8274
 20
111.875434
 30
0.0
  0
VERTEX
  8
0
  6
CONTINUOUS
 10
35.8822
 20
111.699262
 30
0.0
  0
SEQEND
  8
0
  6
CONTINUOUS
  0
POLYLINE
  8
0
  6
CONTINUOUS
 66
     1
 10
0.0
 20
0.0
 30
0.0
  0
VERTEX
  8
0
  6
CONTINUOUS
 10
52.077754
 20
121.636116
 30
0.0
  0
VERTEX
  8
0
  6
CONTINUOUS
 10
52.210051
 20
121.512504
 30
0.0
  0
VERTEX
  8
0
  6
CONTINUOUS
 10
52.26485
 20
121.336332
 30
0.0
  0
SEQEND
  8
0
  6
CONTINUOUS
  0
POLYLINE
  8
0
  6
CONTINUOUS
 66
     1
 10
0.0
 20
0.0
 30
0.0
  0
VERTEX
  8
0
  6
CONTINUOUS
 10
48.85965
 20
59.446437
 30
0.0
  0
VERTEX
  8
0
  6
CONTINUOUS
 10
48.843382
 20
59.400227
 30
0.0
  0
VERTEX
  8
0
  6
CONTINUOUS
 10
48.796746
 20
59.360027
 30
0.0
  0
SEQEND
  8
0
  6
CONTINUOUS
  0
POLYLINE
  8
0
  6
CONTINUOUS
 66
     1
 10
0.0
 20
0.0
 30
0.0
  0
VERTEX
  8
0
  6
CONTINUOUS
 10
48.775466
 20
166.21244
 30
0.0
  0
VERTEX
  8
0
  6
CONTINUOUS
 10
48.859196
 20
166.122744
 30
0.0
  0
VERTEX
  8
0
  6
CONTINUOUS
 10
48.796746
 20
166.028452
 30
0.0
  0
SEQEND
  8
0
  6
CONTINUOUS
  0
POLYLINE
  8
0
  6
CONTINUOUS
 66
     1
 10
0.0
 20
0.0
 30
0.0
  0
VERTEX
  8
0
  6
CONTINUOUS
 10
46.925785
 20
166.892923
 30
0.0
  0
VERTEX
  8
0
  6
CONTINUOUS
 10
47.033759
 20
166.930112
 30
0.0
  0
VERTEX
  8
0
  6
CONTINUOUS
 10
47.162934
 20
166.934173
 30
0.0
  0
VERTEX
  8
0
  6
CONTINUOUS
 10
47.278697
 20
166.904017
 30
0.0
  0
SEQEND
  8
0
  6
CONTINUOUS
  0
POLYLINE
  8
0
  6
CONTINUOUS
 66
     1
 10
0.0
 20
0.0
 30
0.0
  0
VERTEX
  8
0
  6
CONTINUOUS
 10
46.587409
 20
166.143657
 30
0.0
  0
VERTEX
  8
0
  6
CONTINUOUS
 10
46.400934
 20
166.086504
 30
0.0
  0
VERTEX
  8
0
  6
CONTINUOUS
 10
46.185636
 20
166.09741
 30
0.0
  0
VERTEX
  8
0
  6
CONTINUOUS
 10
46.023751
 20
166.172208
 30
0.0
  0
VERTEX
  8
0
  6
CONTINUOUS
 10
45.977115
 20
166.282328
 30
0.0
  0
VERTEX
  8
0
  6
CONTINUOUS
 10
46.06354
 20
166.385709
 30
0.0
  0
SEQEND
  8
0
  6
CONTINUOUS
  0
POLYLINE
  8
0
  6
CONTINUOUS
 66
     1
 10
0.0
 20
0.0
 30
0.0
  0
VERTEX
  8
0
  6
CONTINUOUS
 10
46.985368
 20
166.377756
 30
0.0
  0
VERTEX
  8
0
  6
CONTINUOUS
 10
47.157417
 20
166.421408
 30
0.0
  0
VERTEX
  8
0
  6
CONTINUOUS
 10
47.33828
 20
166.38885
 30
0.0
  0
SEQEND
  8
0
  6
CONTINUOUS
  0
POLYLINE
  8
0
  6
CONTINUOUS
 66
     1
 10
0.0
 20
0.0
 30
0.0
  0
VERTEX
  8
0
  6
CONTINUOUS
 10
47.787311
 20
166.181377
 30
0.0
  0
VERTEX
  8
0
  6
CONTINUOUS
 10
47.858644
 20
166.125085
 30
0.0
  0
VERTEX
  8
0
  6
CONTINUOUS
 10
47.866433
 20
166.057741
 30
0.0
  0
VERTEX
  8
0
  6
CONTINUOUS
 10
47.808591
 20
165.997388
 30
0.0
  0
SEQEND
  8
0
  6
CONTINUOUS
  0
POLYLINE
  8
0
  6
CONTINUOUS
 66
     1
 10
0.0
 20
0.0
 30
0.0
  0
VERTEX
  8
0
  6
CONTINUOUS
 10
32.487165
 20
156.984582
 30
0.0
  0
VERTEX
  8
0
  6
CONTINUOUS
 10
32.315116
 20
156.94093
 30
0.0
  0
VERTEX
  8
0
  6
CONTINUOUS
 10
32.134252
 20
156.973488
 30
0.0
  0
SEQEND
  8
0
  6
CONTINUOUS
  0
POLYLINE
  8
0
  6
CONTINUOUS
 66
     1
 10
0.0
 20
0.0
 30
0.0
  0
VERTEX
  8
0
  6
CONTINUOUS
 10
31.685222
 20
157.180961
 30
0.0
  0
VERTEX
  8
0
  6
CONTINUOUS
 10
31.601491
 20
157.270658
 30
0.0
  0
VERTEX
  8
0
  6
CONTINUOUS
 10
31.663942
 20
157.36495
 30
0.0
  0
SEQEND
  8
0
  6
CONTINUOUS
  0
POLYLINE
  8
0
  6
CONTINUOUS
 66
     1
 10
0.0
 20
0.0
 30
0.0
  0
VERTEX
  8
0
  6
CONTINUOUS
 10
31.534702
 20
157.839141
 30
0.0
  0
VERTEX
  8
0
  6
CONTINUOUS
 10
31.721177
 20
157.896294
 30
0.0
  0
VERTEX
  8
0
  6
CONTINUOUS
 10
31.936475
 20
157.885388
 30
0.0
  0
VERTEX
  8
0
  6
CONTINUOUS
 10
32.098359
 20
157.81059
 30
0.0
  0
VERTEX
  8
0
  6
CONTINUOUS
 10
32.144996
 20
157.70047
 30
0.0
  0
VERTEX
  8
0
  6
CONTINUOUS
 10
32.058571
 20
157.597089
 30
0.0
  0
SEQEND
  8
0
  6
CONTINUOUS
  0
POLYLINE
  8
0
  6
CONTINUOUS
 66
     1
 10
0.0
 20
0.0
 30
0.0
  0
VERTEX
  8
0
  6
CONTINUOUS
 10
30.697067
 20
50.481473
 30
0.0
  0
VERTEX
  8
0
  6
CONTINUOUS
 10
30.634884
 20
50.525551
 30
0.0
  0
VERTEX
  8
0
  6
CONTINUOUS
 10
30.612883
 20
50.579052
 30
0.0
  0
SEQEND
  8
0
  6
CONTINUOUS
  0
POLYLINE
  8
0
  6
CONTINUOUS
 66
     1
 10
0.0
 20
0.0
 30
0.0
  0
VERTEX
  8
0
  6
CONTINUOUS
 10
30.697067
 20
157.149898
 30
0.0
  0
VERTEX
  8
0
  6
CONTINUOUS
 10
30.625734
 20
157.206189
 30
0.0
  0
VERTEX
  8
0
  6
CONTINUOUS
 10
30.617945
 20
157.273534
 30
0.0
  0
VERTEX
  8
0
  6
CONTINUOUS
 10
30.675787
 20
157.333886
 30
0.0
  0
SEQEND
  8
0
  6
CONTINUOUS
  0
POLYLINE
  8
0
  6
CONTINUOUS
 66
     1
 10
0.0
 20
0.0
 30
0.0
  0
VERTEX
  8
0
  6
CONTINUOUS
 10
32.546748
 20
49.80099
 30
0.0
  0
VERTEX
  8
0
  6
CONTINUOUS
 10
32.374699
 20
49.757338
 30
0.0
  0
VERTEX
  8
0
  6
CONTINUOUS
 10
32.193836
 20
49.789896
 30
0.0
  0
SEQEND
  8
0
  6
CONTINUOUS
  0
POLYLINE
  8
0
  6
CONTINUOUS
 66
     1
 10
0.0
 20
0.0
 30
0.0
  0
VERTEX
  8
0
  6
CONTINUOUS
 10
32.546748
 20
156.469415
 30
0.0
  0
VERTEX
  8
0
  6
CONTINUOUS
 10
32.438774
 20
156.432226
 30
0.0
  0
VERTEX
  8
0
  6
CONTINUOUS
 10
32.309599
 20
156.428165
 30
0.0
  0
VERTEX
  8
0
  6
CONTINUOUS
 10
32.193836
 20
156.458321
 30
0.0
  0
SEQEND
  8
0
  6
CONTINUOUS
  0
POLYLINE
  8
0
  6
CONTINUOUS
 66
     1
 10
0.0
 20
0.0
 30
0.0
  0
VERTEX
  8
0
  6
CONTINUOUS
 10
40.773724
 20
161.89844
 30
0.0
  0
VERTEX
  8
0
  6
CONTINUOUS
 10
40.441647
 20
161.785481
 30
0.0
  0
VERTEX
  8
0
  6
CONTINUOUS
 10
40.045504
 20
161.776582
 30
0.0
  0
VERTEX
  8
0
  6
CONTINUOUS
 10
39.69602
 20
161.874229
 30
0.0
  0
SEQEND
  8
0
  6
CONTINUOUS
  0
POLYLINE
  8
0
  6
CONTINUOUS
 66
     1
 10
0.0
 20
0.0
 30
0.0
  0
VERTEX
  8
0
  6
CONTINUOUS
 10
40.681525
 20
162.394421
 30
0.0
  0
VERTEX
  8
0
  6
CONTINUOUS
 10
40.868001
 20
162.451574
 30
0.0
  0
VERTEX
  8
0
  6
CONTINUOUS
 10
41.083299
 20
162.440668
 30
0.0
  0
VERTEX
  8
0
  6
CONTINUOUS
 10
41.245183
 20
162.36587
 30
0.0
  0
VERTEX
  8
0
  6
CONTINUOUS
 10
41.29182
 20
162.25575
 30
0.0
  0
VERTEX
  8
0
  6
CONTINUOUS
 10
41.205394
 20
162.152369
 30
0.0
  0
SEQEND
  8
0
  6
CONTINUOUS
  0
POLYLINE
  8
0
  6
CONTINUOUS
 66
     1
 10
0.0
 20
0.0
 30
0.0
  0
VERTEX
  8
0
  6
CONTINUOUS
 10
40.38718
 20
162.221273
 30
0.0
  0
VERTEX
  8
0
  6
CONTINUOUS
 10
40.276488
 20
162.18362
 30
0.0
  0
VERTEX
  8
0
  6
CONTINUOUS
 10
40.14444
 20
162.180654
 30
0.0
  0
VERTEX
  8
0
  6
CONTINUOUS
 10
40.027945
 20
162.213203
 30
0.0
  0
SEQEND
  8
0
  6
CONTINUOUS
  0
POLYLINE
  8
0
  6
CONTINUOUS
 66
     1
 10
0.0
 20
0.0
 30
0.0
  0
VERTEX
  8
0
  6
CONTINUOUS
 10
34.694697
 20
164.853207
 30
0.0
  0
VERTEX
  8
0
  6
CONTINUOUS
 10
34.617067
 20
164.942114
 30
0.0
  0
VERTEX
  8
0
  6
CONTINUOUS
 10
34.67974
 20
165.034172
 30
0.0
  0
SEQEND
  8
0
  6
CONTINUOUS
  0
POLYLINE
  8
0
  6
CONTINUOUS
 66
     1
 10
0.0
 20
0.0
 30
0.0
  0
VERTEX
  8
0
  6
CONTINUOUS
 10
41.206668
 20
168.873628
 30
0.0
  0
VERTEX
  8
0
  6
CONTINUOUS
 10
41.550766
 20
168.960933
 30
0.0
  0
VERTEX
  8
0
  6
CONTINUOUS
 10
41.912493
 20
168.895816
 30
0.0
  0
SEQEND
  8
0
  6
CONTINUOUS
  0
POLYLINE
  8
0
  6
CONTINUOUS
 66
     1
 10
0.0
 20
0.0
 30
0.0
  0
VERTEX
  8
0
  6
CONTINUOUS
 10
45.729254
 20
167.132295
 30
0.0
  0
VERTEX
  8
0
  6
CONTINUOUS
 10
45.87192
 20
167.019712
 30
0.0
  0
VERTEX
  8
0
  6
CONTINUOUS
 10
45.887498
 20
166.885023
 30
0.0
  0
VERTEX
  8
0
  6
CONTINUOUS
 10
45.771814
 20
166.764318
 30
0.0
  0
SEQEND
  8
0
  6
CONTINUOUS
  0
POLYLINE
  8
0
  6
CONTINUOUS
 66
     1
 10
0.0
 20
0.0
 30
0.0
  0
VERTEX
  8
0
  6
CONTINUOUS
 10
45.404531
 20
165.958746
 30
0.0
  0
VERTEX
  8
0
  6
CONTINUOUS
 10
45.190532
 20
166.127621
 30
0.0
  0
VERTEX
  8
0
  6
CONTINUOUS
 10
45.167165
 20
166.329654
 30
0.0
  0
VERTEX
  8
0
  6
CONTINUOUS
 10
45.340691
 20
166.510711
 30
0.0
  0
SEQEND
  8
0
  6
CONTINUOUS
  0
POLYLINE
  8
0
  6
CONTINUOUS
 66
     1
 10
0.0
 20
0.0
 30
0.0
  0
VERTEX
  8
0
  6
CONTINUOUS
 10
45.965819
 20
165.699405
 30
0.0
  0
VERTEX
  8
0
  6
CONTINUOUS
 10
46.037152
 20
165.643113
 30
0.0
  0
VERTEX
  8
0
  6
CONTINUOUS
 10
46.044941
 20
165.575769
 30
0.0
  0
VERTEX
  8
0
  6
CONTINUOUS
 10
45.987099
 20
165.515417
 30
0.0
  0
SEQEND
  8
0
  6
CONTINUOUS
  0
POLYLINE
  8
0
  6
CONTINUOUS
 66
     1
 10
0.0
 20
0.0
 30
0.0
  0
VERTEX
  8
0
  6
CONTINUOUS
 10
46.179335
 20
165.078282
 30
0.0
  0
VERTEX
  8
0
  6
CONTINUOUS
 10
46.028171
 20
165.026218
 30
0.0
  0
VERTEX
  8
0
  6
CONTINUOUS
 10
45.847326
 20
165.020533
 30
0.0
  0
VERTEX
  8
0
  6
CONTINUOUS
 10
45.685258
 20
165.062751
 30
0.0
  0
VERTEX
  8
0
  6
CONTINUOUS
 10
45.585392
 20
165.141559
 30
0.0
  0
VERTEX
  8
0
  6
CONTINUOUS
 10
45.574487
 20
165.235841
 30
0.0
  0
VERTEX
  8
0
  6
CONTINUOUS
 10
45.655466
 20
165.320334
 30
0.0
  0
SEQEND
  8
0
  6
CONTINUOUS
  0
POLYLINE
  8
0
  6
CONTINUOUS
 66
     1
 10
0.0
 20
0.0
 30
0.0
  0
VERTEX
  8
0
  6
CONTINUOUS
 10
47.409725
 20
165.907365
 30
0.0
  0
VERTEX
  8
0
  6
CONTINUOUS
 10
47.324522
 20
165.77872
 30
0.0
  0
VERTEX
  8
0
  6
CONTINUOUS
 10
47.178357
 20
165.665956
 30
0.0
  0
SEQEND
  8
0
  6
CONTINUOUS
  0
POLYLINE
  8
0
  6
CONTINUOUS
 66
     1
 10
0.0
 20
0.0
 30
0.0
  0
VERTEX
  8
0
  6
CONTINUOUS
 10
47.097626
 20
166.325887
 30
0.0
  0
VERTEX
  8
0
  6
CONTINUOUS
 10
47.237231
 20
166.367403
 30
0.0
  0
VERTEX
  8
0
  6
CONTINUOUS
 10
47.396464
 20
166.356032
 30
0.0
  0
VERTEX
  8
0
  6
CONTINUOUS
 10
47.509515
 20
166.296475
 30
0.0
  0
VERTEX
  8
0
  6
CONTINUOUS
 10
47.52966
 20
166.213346
 30
0.0
  0
SEQEND
  8
0
  6
CONTINUOUS
  0
POLYLINE
  8
0
  6
CONTINUOUS
 66
     1
 10
0.0
 20
0.0
 30
0.0
  0
VERTEX
  8
0
  6
CONTINUOUS
 10
46.63334
 20
166.052772
 30
0.0
  0
VERTEX
  8
0
  6
CONTINUOUS
 10
46.525366
 20
166.015583
 30
0.0
  0
VERTEX
  8
0
  6
CONTINUOUS
 10
46.396191
 20
166.011523
 30
0.0
  0
VERTEX
  8
0
  6
CONTINUOUS
 10
46.280428
 20
166.041678
 30
0.0
  0
SEQEND
  8
0
  6
CONTINUOUS
  0
POLYLINE
  8
0
  6
CONTINUOUS
 66
     1
 10
0.0
 20
0.0
 30
0.0
  0
VERTEX
  8
0
  6
CONTINUOUS
 10
46.018493
 20
166.162704
 30
0.0
  0
VERTEX
  8
0
  6
CONTINUOUS
 10
45.94716
 20
166.218996
 30
0.0
  0
VERTEX
  8
0
  6
CONTINUOUS
 10
45.939371
 20
166.28634
 30
0.0
  0
VERTEX
  8
0
  6
CONTINUOUS
 10
45.997213
 20
166.346692
 30
0.0
  0
SEQEND
  8
0
  6
CONTINUOUS
  0
POLYLINE
  8
0
  6
CONTINUOUS
 66
     1
 10
0.0
 20
0.0
 30
0.0
  0
VERTEX
  8
0
  6
CONTINUOUS
 10
46.904505
 20
167.076911
 30
0.0
  0
VERTEX
  8
0
  6
CONTINUOUS
 10
46.988235
 20
166.987215
 30
0.0
  0
VERTEX
  8
0
  6
CONTINUOUS
 10
46.925785
 20
166.892923
 30
0.0
  0
SEQEND
  8
0
  6
CONTINUOUS
  0
POLYLINE
  8
0
  6
CONTINUOUS
 66
     1
 10
0.0
 20
0.0
 30
0.0
  0
VERTEX
  8
0
  6
CONTINUOUS
 10
41.312901
 20
169.486337
 30
0.0
  0
VERTEX
  8
0
  6
CONTINUOUS
 10
41.420875
 20
169.523525
 30
0.0
  0
VERTEX
  8
0
  6
CONTINUOUS
 10
41.55005
 20
169.527586
 30
0.0
  0
VERTEX
  8
0
  6
CONTINUOUS
 10
41.665814
 20
169.497431
 30
0.0
  0
SEQEND
  8
0
  6
CONTINUOUS
  0
POLYLINE
  8
0
  6
CONTINUOUS
 66
     1
 10
0.0
 20
0.0
 30
0.0
  0
VERTEX
  8
0
  6
CONTINUOUS
 10
25.084184
 20
53.074887
 30
0.0
  0
VERTEX
  8
0
  6
CONTINUOUS
 10
25.022001
 20
53.118965
 30
0.0
  0
VERTEX
  8
0
  6
CONTINUOUS
 10
25.0
 20
53.172465
 30
0.0
  0
SEQEND
  8
0
  6
CONTINUOUS
  0
POLYLINE
  8
0
  6
CONTINUOUS
 66
     1
 10
0.0
 20
0.0
 30
0.0
  0
VERTEX
  8
0
  6
CONTINUOUS
 10
25.084184
 20
159.743311
 30
0.0
  0
VERTEX
  8
0
  6
CONTINUOUS
 10
25.012851
 20
159.799603
 30
0.0
  0
VERTEX
  8
0
  6
CONTINUOUS
 10
25.005062
 20
159.866947
 30
0.0
  0
VERTEX
  8
0
  6
CONTINUOUS
 10
25.062904
 20
159.9273
 30
0.0
  0
SEQEND
  8
0
  6
CONTINUOUS
  0
POLYLINE
  8
0
  6
CONTINUOUS
 66
     1
 10
0.0
 20
0.0
 30
0.0
  0
VERTEX
  8
0
  6
CONTINUOUS
 10
30.612891
 20
50.638795
 30
0.0
  0
VERTEX
  8
0
  6
CONTINUOUS
 10
30.463078
 20
50.622259
 30
0.0
  0
VERTEX
  8
0
  6
CONTINUOUS
 10
30.322875
 20
50.654367
 30
0.0
  0
SEQEND
  8
0
  6
CONTINUOUS
  0
POLYLINE
  8
0
  6
CONTINUOUS
 66
     1
 10
0.0
 20
0.0
 30
0.0
  0
VERTEX
  8
0
  6
CONTINUOUS
 10
30.675787
 20
157.333886
 30
0.0
  0
VERTEX
  8
0
  6
CONTINUOUS
 10
30.503738
 20
157.290234
 30
0.0
  0
VERTEX
  8
0
  6
CONTINUOUS
 10
30.322875
 20
157.322792
 30
0.0
  0
SEQEND
  8
0
  6
CONTINUOUS
  0
POLYLINE
  8
0
  6
CONTINUOUS
 66
     1
 10
0.0
 20
0.0
 30
0.0
  0
VERTEX
  8
0
  6
CONTINUOUS
 10
31.604359
 20
157.880117
 30
0.0
  0
VERTEX
  8
0
  6
CONTINUOUS
 10
31.776408
 20
157.923769
 30
0.0
  0
VERTEX
  8
0
  6
CONTINUOUS
 10
31.957271
 20
157.891211
 30
0.0
  0
SEQEND
  8
0
  6
CONTINUOUS
  0
POLYLINE
  8
0
  6
CONTINUOUS
 66
     1
 10
0.0
 20
0.0
 30
0.0
  0
VERTEX
  8
0
  6
CONTINUOUS
 10
32.219205
 20
157.770185
 30
0.0
  0
VERTEX
  8
0
  6
CONTINUOUS
 10
32.290538
 20
157.713893
 30
0.0
  0
VERTEX
  8
0
  6
CONTINUOUS
 10
32.298327
 20
157.646549
 30
0.0
  0
VERTEX
  8
0
  6
CONTINUOUS
 10
32.240485
 20
157.586197
 30
0.0
  0
SEQEND
  8
0
  6
CONTINUOUS
  0
POLYLINE
  8
0
  6
CONTINUOUS
 66
     1
 10
0.0
 20
0.0
 30
0.0
  0
VERTEX
  8
0
  6
CONTINUOUS
 10
32.042418
 20
157.102998
 30
0.0
  0
VERTEX
  8
0
  6
CONTINUOUS
 10
31.8817
 20
157.103436
 30
0.0
  0
VERTEX
  8
0
  6
CONTINUOUS
 10
31.754705
 20
157.154791
 30
0.0
  0
VERTEX
  8
0
  6
CONTINUOUS
 10
31.71392
 20
157.235838
 30
0.0
  0
VERTEX
  8
0
  6
CONTINUOUS
 10
31.7762
 20
157.313081
 30
0.0
  0
SEQEND
  8
0
  6
CONTINUOUS
  0
POLYLINE
  8
0
  6
CONTINUOUS
 66
     1
 10
0.0
 20
0.0
 30
0.0
  0
VERTEX
  8
0
  6
CONTINUOUS
 10
33.04256
 20
157.350594
 30
0.0
  0
VERTEX
  8
0
  6
CONTINUOUS
 10
32.845394
 20
157.261394
 30
0.0
  0
VERTEX
  8
0
  6
CONTINUOUS
 10
32.610663
 20
157.201838
 30
0.0
  0
SEQEND
  8
0
  6
CONTINUOUS
  0
POLYLINE
  8
0
  6
CONTINUOUS
 66
     1
 10
0.0
 20
0.0
 30
0.0
  0
VERTEX
  8
0
  6
CONTINUOUS
 10
33.517713
 20
158.180319
 30
0.0
  0
VERTEX
  8
0
  6
CONTINUOUS
 10
33.668877
 20
158.232383
 30
0.0
  0
VERTEX
  8
0
  6
CONTINUOUS
 10
33.849722
 20
158.238068
 30
0.0
  0
VERTEX
  8
0
  6
CONTINUOUS
 10
34.01179
 20
158.195851
 30
0.0
  0
VERTEX
  8
0
  6
CONTINUOUS
 10
34.111656
 20
158.117042
 30
0.0
  0
VERTEX
  8
0
  6
CONTINUOUS
 10
34.122561
 20
158.02276
 30
0.0
  0
VERTEX
  8
0
  6
CONTINUOUS
 10
34.041582
 20
157.938267
 30
0.0
  0
SEQEND
  8
0
  6
CONTINUOUS
  0
POLYLINE
  8
0
  6
CONTINUOUS
 66
     1
 10
0.0
 20
0.0
 30
0.0
  0
VERTEX
  8
0
  6
CONTINUOUS
 10
33.18608
 20
157.985237
 30
0.0
  0
VERTEX
  8
0
  6
CONTINUOUS
 10
33.014031
 20
157.941584
 30
0.0
  0
VERTEX
  8
0
  6
CONTINUOUS
 10
32.833168
 20
157.974143
 30
0.0
  0
SEQEND
  8
0
  6
CONTINUOUS
  0
POLYLINE
  8
0
  6
CONTINUOUS
 66
     1
 10
0.0
 20
0.0
 30
0.0
  0
VERTEX
  8
0
  6
CONTINUOUS
 10
31.213142
 20
158.200202
 30
0.0
  0
VERTEX
  8
0
  6
CONTINUOUS
 10
31.537065
 20
158.311768
 30
0.0
  0
VERTEX
  8
0
  6
CONTINUOUS
 10
31.92459
 20
158.32395
 30
0.0
  0
VERTEX
  8
0
  6
CONTINUOUS
 10
32.27188
 20
158.233484
 30
0.0
  0
SEQEND
  8
0
  6
CONTINUOUS
  0
POLYLINE
  8
0
  6
CONTINUOUS
 66
     1
 10
0.0
 20
0.0
 30
0.0
  0
VERTEX
  8
0
  6
CONTINUOUS
 10
30.78202
 20
157.946595
 30
0.0
  0
VERTEX
  8
0
  6
CONTINUOUS
 10
30.437922
 20
157.85929
 30
0.0
  0
VERTEX
  8
0
  6
CONTINUOUS
 10
30.076195
 20
157.924406
 30
0.0
  0
SEQEND
  8
0
  6
CONTINUOUS
  0
POLYLINE
  8
0
  6
CONTINUOUS
 66
     1
 10
0.0
 20
0.0
 30
0.0
  0
VERTEX
  8
0
  6
CONTINUOUS
 10
26.259435
 20
159.687928
 30
0.0
  0
VERTEX
  8
0
  6
CONTINUOUS
 10
26.116769
 20
159.800511
 30
0.0
  0
VERTEX
  8
0
  6
CONTINUOUS
 10
26.101191
 20
159.9352
 30
0.0
  0
VERTEX
  8
0
  6
CONTINUOUS
 10
26.216875
 20
160.055904
 30
0.0
  0
SEQEND
  8
0
  6
CONTINUOUS
  0
POLYLINE
  8
0
  6
CONTINUOUS
 66
     1
 10
0.0
 20
0.0
 30
0.0
  0
VERTEX
  8
0
  6
CONTINUOUS
 10
32.743804
 20
163.895361
 30
0.0
  0
VERTEX
  8
0
  6
CONTINUOUS
 10
32.911573
 20
163.938859
 30
0.0
  0
VERTEX
  8
0
  6
CONTINUOUS
 10
33.090199
 20
163.909363
 30
0.0
  0
SEQEND
  8
0
  6
CONTINUOUS
  0
POLYLINE
  8
0
  6
CONTINUOUS
 66
     1
 10
0.0
 20
0.0
 30
0.0
  0
VERTEX
  8
0
  6
CONTINUOUS
 10
38.758202
 20
161.466278
 30
0.0
  0
VERTEX
  8
0
  6
CONTINUOUS
 10
38.83418
 20
161.409895
 30
0.0
  0
VERTEX
  8
0
  6
CONTINUOUS
 10
38.844398
 20
161.341195
 30
0.0
  0
VERTEX
  8
0
  6
CONTINUOUS
 10
38.785999
 20
161.27938
 30
0.0
  0
SEQEND
  8
0
  6
CONTINUOUS
  0
POLYLINE
  8
0
  6
CONTINUOUS
 66
     1
 10
0.0
 20
0.0
 30
0.0
  0
VERTEX
  8
0
  6
CONTINUOUS
 10
39.015523
 20
160.86418
 30
0.0
  0
VERTEX
  8
0
  6
CONTINUOUS
 10
38.864359
 20
160.812116
 30
0.0
  0
VERTEX
  8
0
  6
CONTINUOUS
 10
38.683514
 20
160.806431
 30
0.0
  0
VERTEX
  8
0
  6
CONTINUOUS
 10
38.521446
 20
160.848649
 30
0.0
  0
VERTEX
  8
0
  6
CONTINUOUS
 10
38.421579
 20
160.927457
 30
0.0
  0
VERTEX
  8
0
  6
CONTINUOUS
 10
38.410675
 20
161.021739
 30
0.0
  0
VERTEX
  8
0
  6
CONTINUOUS
 10
38.491654
 20
161.106232
 30
0.0
  0
SEQEND
  8
0
  6
CONTINUOUS
  0
POLYLINE
  8
0
  6
CONTINUOUS
 66
     1
 10
0.0
 20
0.0
 30
0.0
  0
VERTEX
  8
0
  6
CONTINUOUS
 10
39.363801
 20
161.678802
 30
0.0
  0
VERTEX
  8
0
  6
CONTINUOUS
 10
39.591736
 20
161.509653
 30
0.0
  0
VERTEX
  8
0
  6
CONTINUOUS
 10
39.622389
 20
161.303555
 30
0.0
  0
VERTEX
  8
0
  6
CONTINUOUS
 10
39.447193
 20
161.11811
 30
0.0
  0
SEQEND
  8
0
  6
CONTINUOUS
  0
POLYLINE
  8
0
  6
CONTINUOUS
 66
     1
 10
0.0
 20
0.0
 30
0.0
  0
VERTEX
  8
0
  6
CONTINUOUS
 10
33.765191
 20
164.091977
 30
0.0
  0
VERTEX
  8
0
  6
CONTINUOUS
 10
33.613235
 20
164.204742
 30
0.0
  0
VERTEX
  8
0
  6
CONTINUOUS
 10
33.592799
 20
164.342141
 30
0.0
  0
VERTEX
  8
0
  6
CONTINUOUS
 10
33.709597
 20
164.465771
 30
0.0
  0
VERTEX
  8
0
  6
CONTINUOUS
 10
33.930981
 20
164.541077
 30
0.0
  0
VERTEX
  8
0
  6
CONTINUOUS
 10
34.195076
 20
164.547009
 30
0.0
  0
VERTEX
  8
0
  6
CONTINUOUS
 10
34.428066
 20
164.481912
 30
0.0
  0
SEQEND
  8
0
  6
CONTINUOUS
  0
POLYLINE
  8
0
  6
CONTINUOUS
 66
     1
 10
0.0
 20
0.0
 30
0.0
  0
VERTEX
  8
0
  6
CONTINUOUS
 10
80.473225
 20
135.503253
 30
0.0
  0
VERTEX
  8
0
  6
CONTINUOUS
 10
80.795215
 20
135.38617
 30
0.0
  0
SEQEND
  8
0
  6
CONTINUOUS
  0
POLYLINE
  8
0
  6
CONTINUOUS
 66
     1
 10
0.0
 20
0.0
 30
0.0
  0
VERTEX
  8
0
  6
CONTINUOUS
 10
80.795215
 20
135.38617
 30
0.0
  0
VERTEX
  8
0
  6
CONTINUOUS
 10
80.663067
 20
134.875948
 30
0.0
  0
VERTEX
  8
0
  6
CONTINUOUS
 10
80.246834
 20
134.500649
 30
0.0
  0
SEQEND
  8
0
  6
CONTINUOUS
  0
POLYLINE
  8
0
  6
CONTINUOUS
 66
     1
 10
0.0
 20
0.0
 30
0.0
  0
VERTEX
  8
0
  6
CONTINUOUS
 10
60.167382
 20
123.766327
 30
0.0
  0
VERTEX
  8
0
  6
CONTINUOUS
 10
60.189195
 20
123.470112
 30
0.0
  0
SEQEND
  8
0
  6
CONTINUOUS
  0
POLYLINE
  8
0
  6
CONTINUOUS
 66
     1
 10
0.0
 20
0.0
 30
0.0
  0
VERTEX
  8
0
  6
CONTINUOUS
 10
58.498951
 20
123.756908
 30
0.0
  0
VERTEX
  8
0
  6
CONTINUOUS
 10
59.221746
 20
123.53711
 30
0.0
  0
VERTEX
  8
0
  6
CONTINUOUS
 10
60.189195
 20
123.470112
 30
0.0
  0
SEQEND
  8
0
  6
CONTINUOUS
  0
POLYLINE
  8
0
  6
CONTINUOUS
 66
     1
 10
0.0
 20
0.0
 30
0.0
  0
VERTEX
  8
0
  6
CONTINUOUS
 10
60.191653
 20
123.087711
 30
0.0
  0
VERTEX
  8
0
  6
CONTINUOUS
 10
60.189195
 20
123.470112
 30
0.0
  0
SEQEND
  8
0
  6
CONTINUOUS
  0
POLYLINE
  8
0
  6
CONTINUOUS
 66
     1
 10
0.0
 20
0.0
 30
0.0
  0
VERTEX
  8
0
  6
CONTINUOUS
 10
60.189195
 20
123.470112
 30
0.0
  0
VERTEX
  8
0
  6
CONTINUOUS
 10
61.133574
 20
123.585485
 30
0.0
  0
VERTEX
  8
0
  6
CONTINUOUS
 10
61.799041
 20
123.83769
 30
0.0
  0
SEQEND
  8
0
  6
CONTINUOUS
  0
POLYLINE
  8
0
  6
CONTINUOUS
 66
     1
 10
0.0
 20
0.0
 30
0.0
  0
VERTEX
  8
0
  6
CONTINUOUS
 10
79.857633
 20
136.233281
 30
0.0
  0
VERTEX
  8
0
  6
CONTINUOUS
 10
80.068168
 20
136.25198
 30
0.0
  0
SEQEND
  8
0
  6
CONTINUOUS
  0
POLYLINE
  8
0
  6
CONTINUOUS
 66
     1
 10
0.0
 20
0.0
 30
0.0
  0
VERTEX
  8
0
  6
CONTINUOUS
 10
58.498951
 20
123.756908
 30
0.0
  0
VERTEX
  8
0
  6
CONTINUOUS
 10
58.730859
 20
124.021851
 30
0.0
  0
SEQEND
  8
0
  6
CONTINUOUS
  0
POLYLINE
  8
0
  6
CONTINUOUS
 66
     1
 10
0.0
 20
0.0
 30
0.0
  0
VERTEX
  8
0
  6
CONTINUOUS
 10
58.395987
 20
123.401635
 30
0.0
  0
VERTEX
  8
0
  6
CONTINUOUS
 10
58.498951
 20
123.756908
 30
0.0
  0
SEQEND
  8
0
  6
CONTINUOUS
  0
POLYLINE
  8
0
  6
CONTINUOUS
 66
     1
 10
0.0
 20
0.0
 30
0.0
  0
VERTEX
  8
0
  6
CONTINUOUS
 10
80.358362
 20
134.152292
 30
0.0
  0
VERTEX
  8
0
  6
CONTINUOUS
 10
80.814629
 20
134.558647
 30
0.0
  0
VERTEX
  8
0
  6
CONTINUOUS
 10
80.965056
 20
135.026008
 30
0.0
  0
SEQEND
  8
0
  6
CONTINUOUS
  0
POLYLINE
  8
0
  6
CONTINUOUS
 66
     1
 10
0.0
 20
0.0
 30
0.0
  0
VERTEX
  8
0
  6
CONTINUOUS
 10
58.395987
 20
123.401635
 30
0.0
  0
VERTEX
  8
0
  6
CONTINUOUS
 10
59.233522
 20
123.153486
 30
0.0
  0
VERTEX
  8
0
  6
CONTINUOUS
 10
60.191653
 20
123.087711
 30
0.0
  0
SEQEND
  8
0
  6
CONTINUOUS
  0
POLYLINE
  8
0
  6
CONTINUOUS
 66
     1
 10
0.0
 20
0.0
 30
0.0
  0
VERTEX
  8
0
  6
CONTINUOUS
 10
60.191653
 20
123.087711
 30
0.0
  0
VERTEX
  8
0
  6
CONTINUOUS
 10
61.130597
 20
123.200823
 30
0.0
  0
VERTEX
  8
0
  6
CONTINUOUS
 10
61.910569
 20
123.489333
 30
0.0
  0
SEQEND
  8
0
  6
CONTINUOUS
  0
POLYLINE
  8
0
  6
CONTINUOUS
 66
     1
 10
0.0
 20
0.0
 30
0.0
  0
VERTEX
  8
0
  6
CONTINUOUS
 10
61.799041
 20
123.83769
 30
0.0
  0
VERTEX
  8
0
  6
CONTINUOUS
 10
61.910569
 20
123.489333
 30
0.0
  0
SEQEND
  8
0
  6
CONTINUOUS
  0
POLYLINE
  8
0
  6
CONTINUOUS
 66
     1
 10
0.0
 20
0.0
 30
0.0
  0
VERTEX
  8
0
  6
CONTINUOUS
 10
61.542525
 20
124.089057
 30
0.0
  0
VERTEX
  8
0
  6
CONTINUOUS
 10
61.799041
 20
123.83769
 30
0.0
  0
SEQEND
  8
0
  6
CONTINUOUS
  0
POLYLINE
  8
0
  6
CONTINUOUS
 66
     1
 10
0.0
 20
0.0
 30
0.0
  0
VERTEX
  8
0
  6
CONTINUOUS
 10
80.246834
 20
134.500649
 30
0.0
  0
VERTEX
  8
0
  6
CONTINUOUS
 10
79.990318
 20
134.752016
 30
0.0
  0
SEQEND
  8
0
  6
CONTINUOUS
  0
POLYLINE
  8
0
  6
CONTINUOUS
 66
     1
 10
0.0
 20
0.0
 30
0.0
  0
VERTEX
  8
0
  6
CONTINUOUS
 10
80.358362
 20
134.152292
 30
0.0
  0
VERTEX
  8
0
  6
CONTINUOUS
 10
80.246834
 20
134.500649
 30
0.0
  0
SEQEND
  8
0
  6
CONTINUOUS
  0
POLYLINE
  8
0
  6
CONTINUOUS
 66
     1
 10
0.0
 20
0.0
 30
0.0
  0
VERTEX
  8
0
  6
CONTINUOUS
 10
58.527731
 20
96.228964
 30
0.0
  0
VERTEX
  8
0
  6
CONTINUOUS
 10
58.498951
 20
96.245338
 30
0.0
  0
SEQEND
  8
0
  6
CONTINUOUS
  0
POLYLINE
  8
0
  6
CONTINUOUS
 66
     1
 10
0.0
 20
0.0
 30
0.0
  0
VERTEX
  8
0
  6
CONTINUOUS
 10
58.395987
 20
96.484249
 30
0.0
  0
VERTEX
  8
0
  6
CONTINUOUS
 10
58.395987
 20
96.50049
 30
0.0
  0
VERTEX
  8
0
  6
CONTINUOUS
 10
58.395987
 20
109.942942
 30
0.0
  0
VERTEX
  8
0
  6
CONTINUOUS
 10
58.395987
 20
123.385395
 30
0.0
  0
VERTEX
  8
0
  6
CONTINUOUS
 10
58.395987
 20
123.401635
 30
0.0
  0
SEQEND
  8
0
  6
CONTINUOUS
  0
POLYLINE
  8
0
  6
CONTINUOUS
 66
     1
 10
0.0
 20
0.0
 30
0.0
  0
VERTEX
  8
0
  6
CONTINUOUS
 10
58.395987
 20
96.484249
 30
0.0
  0
VERTEX
  8
0
  6
CONTINUOUS
 10
50.892264
 20
99.876653
 30
0.0
  0
VERTEX
  8
0
  6
CONTINUOUS
 10
49.586928
 20
100.466791
 30
0.0
  0
SEQEND
  8
0
  6
CONTINUOUS
  0
POLYLINE
  8
0
  6
CONTINUOUS
 66
     1
 10
0.0
 20
0.0
 30
0.0
  0
VERTEX
  8
0
  6
CONTINUOUS
 10
48.85964
 20
127.902762
 30
0.0
  0
VERTEX
  8
0
  6
CONTINUOUS
 10
50.892264
 20
126.94337
 30
0.0
  0
VERTEX
  8
0
  6
CONTINUOUS
 10
58.395987
 20
123.401635
 30
0.0
  0
SEQEND
  8
0
  6
CONTINUOUS
  0
POLYLINE
  8
0
  6
CONTINUOUS
 66
     1
 10
0.0
 20
0.0
 30
0.0
  0
VERTEX
  8
0
  6
CONTINUOUS
 10
76.075471
 20
111.273851
 30
0.0
  0
VERTEX
  8
0
  6
CONTINUOUS
 10
76.081914
 20
111.275
 30
0.0
  0
SEQEND
  8
0
  6
CONTINUOUS
  0
POLYLINE
  8
0
  6
CONTINUOUS
 66
     1
 10
0.0
 20
0.0
 30
0.0
  0
VERTEX
  8
0
  6
CONTINUOUS
 10
75.959164
 20
111.127225
 30
0.0
  0
VERTEX
  8
0
  6
CONTINUOUS
 10
76.081914
 20
111.275
 30
0.0
  0
SEQEND
  8
0
  6
CONTINUOUS
  0
POLYLINE
  8
0
  6
CONTINUOUS
 66
     1
 10
0.0
 20
0.0
 30
0.0
  0
VERTEX
  8
0
  6
CONTINUOUS
 10
76.162449
 20
111.245857
 30
0.0
  0
VERTEX
  8
0
  6
CONTINUOUS
 10
76.040424
 20
111.116854
 30
0.0
  0
SEQEND
  8
0
  6
CONTINUOUS
  0
POLYLINE
  8
0
  6
CONTINUOUS
 66
     1
 10
0.0
 20
0.0
 30
0.0
  0
VERTEX
  8
0
  6
CONTINUOUS
 10
76.207229
 20
111.425794
 30
0.0
  0
VERTEX
  8
0
  6
CONTINUOUS
 10
77.113715
 20
111.017074
 30
0.0
  0
VERTEX
  8
0
  6
CONTINUOUS
 10
78.205661
 20
110.524732
 30
0.0
  0
SEQEND
  8
0
  6
CONTINUOUS
  0
POLYLINE
  8
0
  6
CONTINUOUS
 66
     1
 10
0.0
 20
0.0
 30
0.0
  0
VERTEX
  8
0
  6
CONTINUOUS
 10
76.040424
 20
111.116854
 30
0.0
  0
VERTEX
  8
0
  6
CONTINUOUS
 10
75.934205
 20
111.11134
 30
0.0
  0
SEQEND
  8
0
  6
CONTINUOUS
  0
POLYLINE
  8
0
  6
CONTINUOUS
 66
     1
 10
0.0
 20
0.0
 30
0.0
  0
VERTEX
  8
0
  6
CONTINUOUS
 10
73.528146
 20
109.133394
 30
0.0
  0
VERTEX
  8
0
  6
CONTINUOUS
 10
73.531126
 20
109.131399
 30
0.0
  0
VERTEX
  8
0
  6
CONTINUOUS
 10
73.534106
 20
109.129478
 30
0.0
  0
VERTEX
  8
0
  6
CONTINUOUS
 10
73.537087
 20
109.127632
 30
0.0
  0
VERTEX
  8
0
  6
CONTINUOUS
 10
73.540065
 20
109.125862
 30
0.0
  0
SEQEND
  8
0
  6
CONTINUOUS
  0
POLYLINE
  8
0
  6
CONTINUOUS
 66
     1
 10
0.0
 20
0.0
 30
0.0
  0
VERTEX
  8
0
  6
CONTINUOUS
 10
73.528146
 20
109.664739
 30
0.0
  0
VERTEX
  8
0
  6
CONTINUOUS
 10
73.473762
 20
109.6835
 30
0.0
  0
VERTEX
  8
0
  6
CONTINUOUS
 10
73.461127
 20
109.679987
 30
0.0
  0
SEQEND
  8
0
  6
CONTINUOUS
  0
POLYLINE
  8
0
  6
CONTINUOUS
 66
     1
 10
0.0
 20
0.0
 30
0.0
  0
VERTEX
  8
0
  6
CONTINUOUS
 10
73.461127
 20
109.296642
 30
0.0
  0
VERTEX
  8
0
  6
CONTINUOUS
 10
73.473846
 20
109.210819
 30
0.0
  0
VERTEX
  8
0
  6
CONTINUOUS
 10
73.528146
 20
109.133394
 30
0.0
  0
SEQEND
  8
0
  6
CONTINUOUS
  0
POLYLINE
  8
0
  6
CONTINUOUS
 66
     1
 10
0.0
 20
0.0
 30
0.0
  0
VERTEX
  8
0
  6
CONTINUOUS
 10
76.040424
 20
111.116854
 30
0.0
  0
VERTEX
  8
0
  6
CONTINUOUS
 10
76.946909
 20
110.708134
 30
0.0
  0
VERTEX
  8
0
  6
CONTINUOUS
 10
78.038855
 20
110.215793
 30
0.0
  0
SEQEND
  8
0
  6
CONTINUOUS
  0
POLYLINE
  8
0
  6
CONTINUOUS
 66
     1
 10
0.0
 20
0.0
 30
0.0
  0
VERTEX
  8
0
  6
CONTINUOUS
 10
73.528146
 20
109.664739
 30
0.0
  0
VERTEX
  8
0
  6
CONTINUOUS
 10
74.88106
 20
110.446733
 30
0.0
  0
VERTEX
  8
0
  6
CONTINUOUS
 10
76.040424
 20
111.116854
 30
0.0
  0
SEQEND
  8
0
  6
CONTINUOUS
  0
POLYLINE
  8
0
  6
CONTINUOUS
 66
     1
 10
0.0
 20
0.0
 30
0.0
  0
VERTEX
  8
0
  6
CONTINUOUS
 10
78.038855
 20
110.215793
 30
0.0
  0
VERTEX
  8
0
  6
CONTINUOUS
 10
78.038526
 20
110.215613
 30
0.0
  0
VERTEX
  8
0
  6
CONTINUOUS
 10
78.038204
 20
110.215431
 30
0.0
  0
SEQEND
  8
0
  6
CONTINUOUS
  0
POLYLINE
  8
0
  6
CONTINUOUS
 66
     1
 10
0.0
 20
0.0
 30
0.0
  0
VERTEX
  8
0
  6
CONTINUOUS
 10
78.205661
 20
110.524732
 30
0.0
  0
VERTEX
  8
0
  6
CONTINUOUS
 10
78.182417
 20
110.441422
 30
0.0
  0
VERTEX
  8
0
  6
CONTINUOUS
 10
78.137448
 20
110.355535
 30
0.0
  0
VERTEX
  8
0
  6
CONTINUOUS
 10
78.091942
 20
110.27383
 30
0.0
  0
VERTEX
  8
0
  6
CONTINUOUS
 10
78.038855
 20
110.215793
 30
0.0
  0
SEQEND
  8
0
  6
CONTINUOUS
  0
POLYLINE
  8
0
  6
CONTINUOUS
 66
     1
 10
0.0
 20
0.0
 30
0.0
  0
VERTEX
  8
0
  6
CONTINUOUS
 10
78.205661
 20
110.524732
 30
0.0
  0
VERTEX
  8
0
  6
CONTINUOUS
 10
78.20565
 20
110.525143
 30
0.0
  0
VERTEX
  8
0
  6
CONTINUOUS
 10
78.205647
 20
110.525551
 30
0.0
  0
SEQEND
  8
0
  6
CONTINUOUS
  0
POLYLINE
  8
0
  6
CONTINUOUS
 66
     1
 10
0.0
 20
0.0
 30
0.0
  0
VERTEX
  8
0
  6
CONTINUOUS
 10
79.990318
 20
134.752016
 30
0.0
  0
VERTEX
  8
0
  6
CONTINUOUS
 10
70.766422
 20
129.420536
 30
0.0
  0
VERTEX
  8
0
  6
CONTINUOUS
 10
61.542525
 20
124.089057
 30
0.0
  0
SEQEND
  8
0
  6
CONTINUOUS
  0
POLYLINE
  8
0
  6
CONTINUOUS
 66
     1
 10
0.0
 20
0.0
 30
0.0
  0
VERTEX
  8
0
  6
CONTINUOUS
 10
61.542525
 20
124.089057
 30
0.0
  0
VERTEX
  8
0
  6
CONTINUOUS
 10
60.91854
 20
123.856745
 30
0.0
  0
VERTEX
  8
0
  6
CONTINUOUS
 10
60.167382
 20
123.766327
 30
0.0
  0
SEQEND
  8
0
  6
CONTINUOUS
  0
POLYLINE
  8
0
  6
CONTINUOUS
 66
     1
 10
0.0
 20
0.0
 30
0.0
  0
VERTEX
  8
0
  6
CONTINUOUS
 10
60.167382
 20
123.766327
 30
0.0
  0
VERTEX
  8
0
  6
CONTINUOUS
 10
59.400879
 20
123.820473
 30
0.0
  0
VERTEX
  8
0
  6
CONTINUOUS
 10
58.730859
 20
124.021851
 30
0.0
  0
SEQEND
  8
0
  6
CONTINUOUS
  0
POLYLINE
  8
0
  6
CONTINUOUS
 66
     1
 10
0.0
 20
0.0
 30
0.0
  0
VERTEX
  8
0
  6
CONTINUOUS
 10
48.85962
 20
128.681047
 30
0.0
  0
VERTEX
  8
0
  6
CONTINUOUS
 10
51.227137
 20
127.563586
 30
0.0
  0
VERTEX
  8
0
  6
CONTINUOUS
 10
58.730859
 20
124.021851
 30
0.0
  0
SEQEND
  8
0
  6
CONTINUOUS
  0
POLYLINE
  8
0
  6
CONTINUOUS
 66
     1
 10
0.0
 20
0.0
 30
0.0
  0
VERTEX
  8
0
  6
CONTINUOUS
 10
79.857633
 20
136.233281
 30
0.0
  0
VERTEX
  8
0
  6
CONTINUOUS
 10
72.471117
 20
139.842761
 30
0.0
  0
VERTEX
  8
0
  6
CONTINUOUS
 10
63.265294
 20
144.341261
 30
0.0
  0
SEQEND
  8
0
  6
CONTINUOUS
  0
POLYLINE
  8
0
  6
CONTINUOUS
 66
     1
 10
0.0
 20
0.0
 30
0.0
  0
VERTEX
  8
0
  6
CONTINUOUS
 10
79.857633
 20
136.233281
 30
0.0
  0
VERTEX
  8
0
  6
CONTINUOUS
 10
80.300099
 20
135.900375
 30
0.0
  0
VERTEX
  8
0
  6
CONTINUOUS
 10
80.473225
 20
135.503253
 30
0.0
  0
SEQEND
  8
0
  6
CONTINUOUS
  0
POLYLINE
  8
0
  6
CONTINUOUS
 66
     1
 10
0.0
 20
0.0
 30
0.0
  0
VERTEX
  8
0
  6
CONTINUOUS
 10
80.473225
 20
135.503253
 30
0.0
  0
VERTEX
  8
0
  6
CONTINUOUS
 10
80.371726
 20
135.100829
 30
0.0
  0
VERTEX
  8
0
  6
CONTINUOUS
 10
79.990318
 20
134.752016
 30
0.0
  0
SEQEND
  8
0
  6
CONTINUOUS
  0
POLYLINE
  8
0
  6
CONTINUOUS
 66
     1
 10
0.0
 20
0.0
 30
0.0
  0
VERTEX
  8
0
  6
CONTINUOUS
 10
63.265294
 20
144.341261
 30
0.0
  0
VERTEX
  8
0
  6
CONTINUOUS
 10
63.39175
 20
144.379014
 30
0.0
  0
VERTEX
  8
0
  6
CONTINUOUS
 10
63.474643
 20
144.360525
 30
0.0
  0
SEQEND
  8
0
  6
CONTINUOUS
  0
POLYLINE
  8
0
  6
CONTINUOUS
 66
     1
 10
0.0
 20
0.0
 30
0.0
  0
VERTEX
  8
0
  6
CONTINUOUS
 10
76.162449
 20
111.245857
 30
0.0
  0
VERTEX
  8
0
  6
CONTINUOUS
 10
76.081914
 20
111.275
 30
0.0
  0
SEQEND
  8
0
  6
CONTINUOUS
  0
POLYLINE
  8
0
  6
CONTINUOUS
 66
     1
 10
0.0
 20
0.0
 30
0.0
  0
VERTEX
  8
0
  6
CONTINUOUS
 10
76.081914
 20
111.275
 30
0.0
  0
VERTEX
  8
0
  6
CONTINUOUS
 10
76.143261
 20
111.513588
 30
0.0
  0
SEQEND
  8
0
  6
CONTINUOUS
  0
POLYLINE
  8
0
  6
CONTINUOUS
 66
     1
 10
0.0
 20
0.0
 30
0.0
  0
VERTEX
  8
0
  6
CONTINUOUS
 10
76.207229
 20
111.425794
 30
0.0
  0
VERTEX
  8
0
  6
CONTINUOUS
 10
76.162449
 20
111.245857
 30
0.0
  0
SEQEND
  8
0
  6
CONTINUOUS
  0
POLYLINE
  8
0
  6
CONTINUOUS
 66
     1
 10
0.0
 20
0.0
 30
0.0
  0
VERTEX
  8
0
  6
CONTINUOUS
 10
76.207229
 20
111.425794
 30
0.0
  0
VERTEX
  8
0
  6
CONTINUOUS
 10
76.207229
 20
121.244899
 30
0.0
  0
VERTEX
  8
0
  6
CONTINUOUS
 10
76.207229
 20
128.122108
 30
0.0
  0
SEQEND
  8
0
  6
CONTINUOUS
  0
POLYLINE
  8
0
  6
CONTINUOUS
 66
     1
 10
0.0
 20
0.0
 30
0.0
  0
VERTEX
  8
0
  6
CONTINUOUS
 10
76.143261
 20
111.513588
 30
0.0
  0
VERTEX
  8
0
  6
CONTINUOUS
 10
76.207229
 20
111.425794
 30
0.0
  0
SEQEND
  8
0
  6
CONTINUOUS
  0
POLYLINE
  8
0
  6
CONTINUOUS
 66
     1
 10
0.0
 20
0.0
 30
0.0
  0
VERTEX
  8
0
  6
CONTINUOUS
 10
76.143253
 20
111.514705
 30
0.0
  0
VERTEX
  8
0
  6
CONTINUOUS
 10
76.143261
 20
111.513588
 30
0.0
  0
SEQEND
  8
0
  6
CONTINUOUS
  0
POLYLINE
  8
0
  6
CONTINUOUS
 66
     1
 10
0.0
 20
0.0
 30
0.0
  0
VERTEX
  8
0
  6
CONTINUOUS
 10
63.599545
 20
101.208149
 30
0.0
  0
VERTEX
  8
0
  6
CONTINUOUS
 10
63.481145
 20
101.202198
 30
0.0
  0
VERTEX
  8
0
  6
CONTINUOUS
 10
63.432102
 20
101.324703
 30
0.0
  0
SEQEND
  8
0
  6
CONTINUOUS
  0
POLYLINE
  8
0
  6
CONTINUOUS
 66
     1
 10
0.0
 20
0.0
 30
0.0
  0
VERTEX
  8
0
  6
CONTINUOUS
 10
78.83683
 20
110.228747
 30
0.0
  0
VERTEX
  8
0
  6
CONTINUOUS
 10
78.814396
 20
110.109113
 30
0.0
  0
VERTEX
  8
0
  6
CONTINUOUS
 10
78.753108
 20
109.995601
 30
0.0
  0
VERTEX
  8
0
  6
CONTINUOUS
 10
78.669387
 20
109.918628
 30
0.0
  0
SEQEND
  8
0
  6
CONTINUOUS
  0
POLYLINE
  8
0
  6
CONTINUOUS
 66
     1
 10
0.0
 20
0.0
 30
0.0
  0
VERTEX
  8
0
  6
CONTINUOUS
 10
78.669387
 20
129.545618
 30
0.0
  0
VERTEX
  8
0
  6
CONTINUOUS
 10
78.787787
 20
129.551569
 30
0.0
  0
VERTEX
  8
0
  6
CONTINUOUS
 10
78.83683
 20
129.429064
 30
0.0
  0
SEQEND
  8
0
  6
CONTINUOUS
  0
POLYLINE
  8
0
  6
CONTINUOUS
 66
     1
 10
0.0
 20
0.0
 30
0.0
  0
VERTEX
  8
0
  6
CONTINUOUS
 10
61.910569
 20
96.601475
 30
0.0
  0
VERTEX
  8
0
  6
CONTINUOUS
 10
61.910569
 20
96.602951
 30
0.0
  0
VERTEX
  8
0
  6
CONTINUOUS
 10
61.910569
 20
110.045404
 30
0.0
  0
VERTEX
  8
0
  6
CONTINUOUS
 10
61.910569
 20
123.487856
 30
0.0
  0
VERTEX
  8
0
  6
CONTINUOUS
 10
61.910569
 20
123.489333
 30
0.0
  0
SEQEND
  8
0
  6
CONTINUOUS
  0
POLYLINE
  8
0
  6
CONTINUOUS
 66
     1
 10
0.0
 20
0.0
 30
0.0
  0
VERTEX
  8
0
  6
CONTINUOUS
 10
80.358362
 20
134.152292
 30
0.0
  0
VERTEX
  8
0
  6
CONTINUOUS
 10
71.134466
 20
128.820812
 30
0.0
  0
VERTEX
  8
0
  6
CONTINUOUS
 10
61.910569
 20
123.489333
 30
0.0
  0
SEQEND
  8
0
  6
CONTINUOUS
  0
POLYLINE
  8
0
  6
CONTINUOUS
 66
     1
 10
0.0
 20
0.0
 30
0.0
  0
VERTEX
  8
0
  6
CONTINUOUS
 10
80.358362
 20
134.152292
 30
0.0
  0
VERTEX
  8
0
  6
CONTINUOUS
 10
80.358362
 20
134.150815
 30
0.0
  0
VERTEX
  8
0
  6
CONTINUOUS
 10
80.358362
 20
120.708363
 30
0.0
  0
VERTEX
  8
0
  6
CONTINUOUS
 10
80.358362
 20
107.26591
 30
0.0
  0
VERTEX
  8
0
  6
CONTINUOUS
 10
80.358362
 20
107.264434
 30
0.0
  0
SEQEND
  8
0
  6
CONTINUOUS
  0
POLYLINE
  8
0
  6
CONTINUOUS
 66
     1
 10
0.0
 20
0.0
 30
0.0
  0
VERTEX
  8
0
  6
CONTINUOUS
 10
80.358362
 20
107.264434
 30
0.0
  0
VERTEX
  8
0
  6
CONTINUOUS
 10
71.134466
 20
101.932955
 30
0.0
  0
VERTEX
  8
0
  6
CONTINUOUS
 10
61.910569
 20
96.601475
 30
0.0
  0
SEQEND
  8
0
  6
CONTINUOUS
  0
POLYLINE
  8
0
  6
CONTINUOUS
 66
     1
 10
0.0
 20
0.0
 30
0.0
  0
VERTEX
  8
0
  6
CONTINUOUS
 10
63.432102
 20
120.525019
 30
0.0
  0
VERTEX
  8
0
  6
CONTINUOUS
 10
63.454535
 20
120.644654
 30
0.0
  0
VERTEX
  8
0
  6
CONTINUOUS
 10
63.515824
 20
120.758166
 30
0.0
  0
VERTEX
  8
0
  6
CONTINUOUS
 10
63.599545
 20
120.835139
 30
0.0
  0
SEQEND
  8
0
  6
CONTINUOUS
  0
POLYLINE
  8
0
  6
CONTINUOUS
 66
     1
 10
0.0
 20
0.0
 30
0.0
  0
VERTEX
  8
0
  6
CONTINUOUS
 10
80.232119
 20
107.011655
 30
0.0
  0
VERTEX
  8
0
  6
CONTINUOUS
 10
80.246834
 20
107.020965
 30
0.0
  0
SEQEND
  8
0
  6
CONTINUOUS
  0
POLYLINE
  8
0
  6
CONTINUOUS
 66
     1
 10
0.0
 20
0.0
 30
0.0
  0
VERTEX
  8
0
  6
CONTINUOUS
 10
80.961923
 20
135.094602
 30
0.0
  0
VERTEX
  8
0
  6
CONTINUOUS
 10
80.795215
 20
135.38617
 30
0.0
  0
SEQEND
  8
0
  6
CONTINUOUS
  0
POLYLINE
  8
0
  6
CONTINUOUS
 66
     1
 10
0.0
 20
0.0
 30
0.0
  0
VERTEX
  8
0
  6
CONTINUOUS
 10
80.795215
 20
135.38617
 30
0.0
  0
VERTEX
  8
0
  6
CONTINUOUS
 10
80.318139
 20
136.096665
 30
0.0
  0
SEQEND
  8
0
  6
CONTINUOUS
  0
POLYLINE
  8
0
  6
CONTINUOUS
 66
     1
 10
0.0
 20
0.0
 30
0.0
  0
VERTEX
  8
0
  6
CONTINUOUS
 10
80.246834
 20
107.020965
 30
0.0
  0
VERTEX
  8
0
  6
CONTINUOUS
 10
80.293063
 20
107.051048
 30
0.0
  0
SEQEND
  8
0
  6
CONTINUOUS
  0
POLYLINE
  8
0
  6
CONTINUOUS
 66
     1
 10
0.0
 20
0.0
 30
0.0
  0
VERTEX
  8
0
  6
CONTINUOUS
 10
80.246834
 20
107.020965
 30
0.0
  0
VERTEX
  8
0
  6
CONTINUOUS
 10
80.358362
 20
107.264434
 30
0.0
  0
SEQEND
  8
0
  6
CONTINUOUS
  0
POLYLINE
  8
0
  6
CONTINUOUS
 66
     1
 10
0.0
 20
0.0
 30
0.0
  0
VERTEX
  8
0
  6
CONTINUOUS
 10
80.965057
 20
108.123364
 30
0.0
  0
VERTEX
  8
0
  6
CONTINUOUS
 10
80.814277
 20
107.663978
 30
0.0
  0
VERTEX
  8
0
  6
CONTINUOUS
 10
80.358362
 20
107.264434
 30
0.0
  0
SEQEND
  8
0
  6
CONTINUOUS
  0
POLYLINE
  8
0
  6
CONTINUOUS
 66
     1
 10
0.0
 20
0.0
 30
0.0
  0
VERTEX
  8
0
  6
CONTINUOUS
 10
60.17336
 20
95.963503
 30
0.0
  0
VERTEX
  8
0
  6
CONTINUOUS
 10
60.179029
 20
95.976403
 30
0.0
  0
SEQEND
  8
0
  6
CONTINUOUS
  0
POLYLINE
  8
0
  6
CONTINUOUS
 66
     1
 10
0.0
 20
0.0
 30
0.0
  0
VERTEX
  8
0
  6
CONTINUOUS
 10
61.799041
 20
96.358006
 30
0.0
  0
VERTEX
  8
0
  6
CONTINUOUS
 10
61.784258
 20
96.348657
 30
0.0
  0
SEQEND
  8
0
  6
CONTINUOUS
  0
POLYLINE
  8
0
  6
CONTINUOUS
 66
     1
 10
0.0
 20
0.0
 30
0.0
  0
VERTEX
  8
0
  6
CONTINUOUS
 10
58.498951
 20
96.245338
 30
0.0
  0
VERTEX
  8
0
  6
CONTINUOUS
 10
59.214488
 20
96.039119
 30
0.0
  0
VERTEX
  8
0
  6
CONTINUOUS
 10
60.179029
 20
95.976403
 30
0.0
  0
SEQEND
  8
0
  6
CONTINUOUS
  0
POLYLINE
  8
0
  6
CONTINUOUS
 66
     1
 10
0.0
 20
0.0
 30
0.0
  0
VERTEX
  8
0
  6
CONTINUOUS
 10
58.498951
 20
96.245338
 30
0.0
  0
VERTEX
  8
0
  6
CONTINUOUS
 10
58.395987
 20
96.484249
 30
0.0
  0
SEQEND
  8
0
  6
CONTINUOUS
  0
POLYLINE
  8
0
  6
CONTINUOUS
 66
     1
 10
0.0
 20
0.0
 30
0.0
  0
VERTEX
  8
0
  6
CONTINUOUS
 10
60.191653
 20
96.185089
 30
0.0
  0
VERTEX
  8
0
  6
CONTINUOUS
 10
59.233522
 20
96.242895
 30
0.0
  0
VERTEX
  8
0
  6
CONTINUOUS
 10
58.395987
 20
96.484249
 30
0.0
  0
SEQEND
  8
0
  6
CONTINUOUS
  0
POLYLINE
  8
0
  6
CONTINUOUS
 66
     1
 10
0.0
 20
0.0
 30
0.0
  0
VERTEX
  8
0
  6
CONTINUOUS
 10
60.179029
 20
95.976403
 30
0.0
  0
VERTEX
  8
0
  6
CONTINUOUS
 10
61.12661
 20
96.10318
 30
0.0
  0
VERTEX
  8
0
  6
CONTINUOUS
 10
61.799041
 20
96.358006
 30
0.0
  0
SEQEND
  8
0
  6
CONTINUOUS
  0
POLYLINE
  8
0
  6
CONTINUOUS
 66
     1
 10
0.0
 20
0.0
 30
0.0
  0
VERTEX
  8
0
  6
CONTINUOUS
 10
60.191653
 20
96.185089
 30
0.0
  0
VERTEX
  8
0
  6
CONTINUOUS
 10
60.179029
 20
95.976403
 30
0.0
  0
SEQEND
  8
0
  6
CONTINUOUS
  0
POLYLINE
  8
0
  6
CONTINUOUS
 66
     1
 10
0.0
 20
0.0
 30
0.0
  0
VERTEX
  8
0
  6
CONTINUOUS
 10
61.910569
 20
96.601475
 30
0.0
  0
VERTEX
  8
0
  6
CONTINUOUS
 10
61.130597
 20
96.30617
 30
0.0
  0
VERTEX
  8
0
  6
CONTINUOUS
 10
60.191653
 20
96.185089
 30
0.0
  0
SEQEND
  8
0
  6
CONTINUOUS
  0
POLYLINE
  8
0
  6
CONTINUOUS
 66
     1
 10
0.0
 20
0.0
 30
0.0
  0
VERTEX
  8
0
  6
CONTINUOUS
 10
61.910569
 20
96.601475
 30
0.0
  0
VERTEX
  8
0
  6
CONTINUOUS
 10
61.799041
 20
96.358006
 30
0.0
  0
SEQEND
  8
0
  6
CONTINUOUS
  0
POLYLINE
  8
0
  6
CONTINUOUS
 66
     1
 10
0.0
 20
0.0
 30
0.0
  0
VERTEX
  8
0
  6
CONTINUOUS
 10
73.238446
 20
114.078871
 30
0.0
  0
VERTEX
  8
0
  6
CONTINUOUS
 10
73.177459
 20
114.115069
 30
0.0
  0
VERTEX
  8
0
  6
CONTINUOUS
 10
73.155889
 20
114.146473
 30
0.0
  0
SEQEND
  8
0
  6
CONTINUOUS
  0
POLYLINE
  8
0
  6
CONTINUOUS
 66
     1
 10
0.0
 20
0.0
 30
0.0
  0
VERTEX
  8
0
  6
CONTINUOUS
 10
72.219242
 20
112.191207
 30
0.0
  0
VERTEX
  8
0
  6
CONTINUOUS
 10
72.156842
 20
112.211045
 30
0.0
  0
VERTEX
  8
0
  6
CONTINUOUS
 10
72.112251
 20
112.204786
 30
0.0
  0
SEQEND
  8
0
  6
CONTINUOUS
  0
POLYLINE
  8
0
  6
CONTINUOUS
 66
     1
 10
0.0
 20
0.0
 30
0.0
  0
VERTEX
  8
0
  6
CONTINUOUS
 10
73.89002
 20
111.405552
 30
0.0
  0
VERTEX
  8
0
  6
CONTINUOUS
 10
74.193186
 20
111.180612
 30
0.0
  0
VERTEX
  8
0
  6
CONTINUOUS
 10
74.400018
 20
110.884466
 30
0.0
  0
SEQEND
  8
0
  6
CONTINUOUS
  0
POLYLINE
  8
0
  6
CONTINUOUS
 66
     1
 10
0.0
 20
0.0
 30
0.0
  0
VERTEX
  8
0
  6
CONTINUOUS
 10
74.909224
 20
113.293216
 30
0.0
  0
VERTEX
  8
0
  6
CONTINUOUS
 10
75.139732
 20
113.208176
 30
0.0
  0
VERTEX
  8
0
  6
CONTINUOUS
 10
75.398208
 20
113.150432
 30
0.0
  0
VERTEX
  8
0
  6
CONTINUOUS
 10
75.615394
 20
113.135458
 30
0.0
  0
SEQEND
  8
0
  6
CONTINUOUS
  0
POLYLINE
  8
0
  6
CONTINUOUS
 66
     1
 10
0.0
 20
0.0
 30
0.0
  0
VERTEX
  8
0
  6
CONTINUOUS
 10
73.898457
 20
125.342871
 30
0.0
  0
VERTEX
  8
0
  6
CONTINUOUS
 10
73.920012
 20
125.309112
 30
0.0
  0
VERTEX
  8
0
  6
CONTINUOUS
 10
73.981014
 20
125.288509
 30
0.0
  0
SEQEND
  8
0
  6
CONTINUOUS
  0
POLYLINE
  8
0
  6
CONTINUOUS
 66
     1
 10
0.0
 20
0.0
 30
0.0
  0
VERTEX
  8
0
  6
CONTINUOUS
 10
73.220247
 20
125.53595
 30
0.0
  0
VERTEX
  8
0
  6
CONTINUOUS
 10
73.161397
 20
125.483521
 30
0.0
  0
VERTEX
  8
0
  6
CONTINUOUS
 10
73.168059
 20
125.437067
 30
0.0
  0
VERTEX
  8
0
  6
CONTINUOUS
 10
73.238446
 20
125.409035
 30
0.0
  0
SEQEND
  8
0
  6
CONTINUOUS
  0
POLYLINE
  8
0
  6
CONTINUOUS
 66
     1
 10
0.0
 20
0.0
 30
0.0
  0
VERTEX
  8
0
  6
CONTINUOUS
 10
73.740775
 20
125.699384
 30
0.0
  0
VERTEX
  8
0
  6
CONTINUOUS
 10
73.62552
 20
125.701484
 30
0.0
  0
VERTEX
  8
0
  6
CONTINUOUS
 10
73.496283
 20
125.677088
 30
0.0
  0
VERTEX
  8
0
  6
CONTINUOUS
 10
73.38769
 20
125.632733
 30
0.0
  0
SEQEND
  8
0
  6
CONTINUOUS
  0
POLYLINE
  8
0
  6
CONTINUOUS
 66
     1
 10
0.0
 20
0.0
 30
0.0
  0
VERTEX
  8
0
  6
CONTINUOUS
 10
73.898457
 20
115.529375
 30
0.0
  0
VERTEX
  8
0
  6
CONTINUOUS
 10
73.920012
 20
115.495617
 30
0.0
  0
VERTEX
  8
0
  6
CONTINUOUS
 10
73.981014
 20
115.475014
 30
0.0
  0
SEQEND
  8
0
  6
CONTINUOUS
  0
POLYLINE
  8
0
  6
CONTINUOUS
 66
     1
 10
0.0
 20
0.0
 30
0.0
  0
VERTEX
  8
0
  6
CONTINUOUS
 10
73.220247
 20
115.722455
 30
0.0
  0
VERTEX
  8
0
  6
CONTINUOUS
 10
73.161397
 20
115.670026
 30
0.0
  0
VERTEX
  8
0
  6
CONTINUOUS
 10
73.168059
 20
115.623572
 30
0.0
  0
VERTEX
  8
0
  6
CONTINUOUS
 10
73.238446
 20
115.59554
 30
0.0
  0
SEQEND
  8
0
  6
CONTINUOUS
  0
POLYLINE
  8
0
  6
CONTINUOUS
 66
     1
 10
0.0
 20
0.0
 30
0.0
  0
VERTEX
  8
0
  6
CONTINUOUS
 10
73.740775
 20
115.885889
 30
0.0
  0
VERTEX
  8
0
  6
CONTINUOUS
 10
73.62552
 20
115.887989
 30
0.0
  0
VERTEX
  8
0
  6
CONTINUOUS
 10
73.496283
 20
115.863592
 30
0.0
  0
VERTEX
  8
0
  6
CONTINUOUS
 10
73.38769
 20
115.819238
 30
0.0
  0
SEQEND
  8
0
  6
CONTINUOUS
  0
POLYLINE
  8
0
  6
CONTINUOUS
 66
     1
 10
0.0
 20
0.0
 30
0.0
  0
VERTEX
  8
0
  6
CONTINUOUS
 10
73.898457
 20
120.436123
 30
0.0
  0
VERTEX
  8
0
  6
CONTINUOUS
 10
73.920012
 20
120.402365
 30
0.0
  0
VERTEX
  8
0
  6
CONTINUOUS
 10
73.981014
 20
120.381761
 30
0.0
  0
SEQEND
  8
0
  6
CONTINUOUS
  0
POLYLINE
  8
0
  6
CONTINUOUS
 66
     1
 10
0.0
 20
0.0
 30
0.0
  0
VERTEX
  8
0
  6
CONTINUOUS
 10
73.220247
 20
120.629202
 30
0.0
  0
VERTEX
  8
0
  6
CONTINUOUS
 10
73.156221
 20
120.551941
 30
0.0
  0
VERTEX
  8
0
  6
CONTINUOUS
 10
73.238446
 20
120.502288
 30
0.0
  0
SEQEND
  8
0
  6
CONTINUOUS
  0
POLYLINE
  8
0
  6
CONTINUOUS
 66
     1
 10
0.0
 20
0.0
 30
0.0
  0
VERTEX
  8
0
  6
CONTINUOUS
 10
73.740775
 20
120.792637
 30
0.0
  0
VERTEX
  8
0
  6
CONTINUOUS
 10
73.62552
 20
120.794736
 30
0.0
  0
VERTEX
  8
0
  6
CONTINUOUS
 10
73.496283
 20
120.77034
 30
0.0
  0
VERTEX
  8
0
  6
CONTINUOUS
 10
73.38769
 20
120.725985
 30
0.0
  0
SEQEND
  8
0
  6
CONTINUOUS
  0
POLYLINE
  8
0
  6
CONTINUOUS
 66
     1
 10
0.0
 20
0.0
 30
0.0
  0
VERTEX
  8
0
  6
CONTINUOUS
 10
73.238446
 20
123.191974
 30
0.0
  0
VERTEX
  8
0
  6
CONTINUOUS
 10
73.177444
 20
123.259048
 30
0.0
  0
VERTEX
  8
0
  6
CONTINUOUS
 10
73.155889
 20
123.331253
 30
0.0
  0
SEQEND
  8
0
  6
CONTINUOUS
  0
POLYLINE
  8
0
  6
CONTINUOUS
 66
     1
 10
0.0
 20
0.0
 30
0.0
  0
VERTEX
  8
0
  6
CONTINUOUS
 10
73.238446
 20
118.285226
 30
0.0
  0
VERTEX
  8
0
  6
CONTINUOUS
 10
73.177444
 20
118.352301
 30
0.0
  0
VERTEX
  8
0
  6
CONTINUOUS
 10
73.155889
 20
118.424505
 30
0.0
  0
SEQEND
  8
0
  6
CONTINUOUS
  0
POLYLINE
  8
0
  6
CONTINUOUS
 66
     1
 10
0.0
 20
0.0
 30
0.0
  0
VERTEX
  8
0
  6
CONTINUOUS
 10
71.100547
 20
111.544593
 30
0.0
  0
VERTEX
  8
0
  6
CONTINUOUS
 10
71.001003
 20
111.562172
 30
0.0
  0
VERTEX
  8
0
  6
CONTINUOUS
 10
70.959771
 20
111.444484
 30
0.0
  0
SEQEND
  8
0
  6
CONTINUOUS
  0
POLYLINE
  8
0
  6
CONTINUOUS
 66
     1
 10
0.0
 20
0.0
 30
0.0
  0
VERTEX
  8
0
  6
CONTINUOUS
 10
71.66365
 20
111.091681
 30
0.0
  0
VERTEX
  8
0
  6
CONTINUOUS
 10
71.612795
 20
111.118178
 30
0.0
  0
VERTEX
  8
0
  6
CONTINUOUS
 10
71.568809
 20
111.112282
 30
0.0
  0
SEQEND
  8
0
  6
CONTINUOUS
  0
POLYLINE
  8
0
  6
CONTINUOUS
 66
     1
 10
0.0
 20
0.0
 30
0.0
  0
VERTEX
  8
0
  6
CONTINUOUS
 10
70.959771
 20
111.231147
 30
0.0
  0
VERTEX
  8
0
  6
CONTINUOUS
 10
70.978631
 20
111.109309
 30
0.0
  0
VERTEX
  8
0
  6
CONTINUOUS
 10
71.030159
 20
110.989778
 30
0.0
  0
VERTEX
  8
0
  6
CONTINUOUS
 10
71.100547
 20
110.904582
 30
0.0
  0
SEQEND
  8
0
  6
CONTINUOUS
  0
POLYLINE
  8
0
  6
CONTINUOUS
 66
     1
 10
0.0
 20
0.0
 30
0.0
  0
VERTEX
  8
0
  6
CONTINUOUS
 10
63.655758
 20
113.837084
 30
0.0
  0
VERTEX
  8
0
  6
CONTINUOUS
 10
63.547762
 20
113.877937
 30
0.0
  0
VERTEX
  8
0
  6
CONTINUOUS
 10
63.431502
 20
113.91111
 30
0.0
  0
SEQEND
  8
0
  6
CONTINUOUS
  0
POLYLINE
  8
0
  6
CONTINUOUS
 66
     1
 10
0.0
 20
0.0
 30
0.0
  0
VERTEX
  8
0
  6
CONTINUOUS
 10
66.240896
 20
120.436488
 30
0.0
  0
VERTEX
  8
0
  6
CONTINUOUS
 10
66.44213
 20
119.771789
 30
0.0
  0
VERTEX
  8
0
  6
CONTINUOUS
 10
66.940095
 20
119.279982
 30
0.0
  0
SEQEND
  8
0
  6
CONTINUOUS
  0
POLYLINE
  8
0
  6
CONTINUOUS
 66
     1
 10
0.0
 20
0.0
 30
0.0
  0
VERTEX
  8
0
  6
CONTINUOUS
 10
66.437767
 20
118.989632
 30
0.0
  0
VERTEX
  8
0
  6
CONTINUOUS
 10
65.939802
 20
119.48144
 30
0.0
  0
VERTEX
  8
0
  6
CONTINUOUS
 10
65.738568
 20
120.146139
 30
0.0
  0
SEQEND
  8
0
  6
CONTINUOUS
  0
POLYLINE
  8
0
  6
CONTINUOUS
 66
     1
 10
0.0
 20
0.0
 30
0.0
  0
VERTEX
  8
0
  6
CONTINUOUS
 10
63.655758
 20
113.197073
 30
0.0
  0
VERTEX
  8
0
  6
CONTINUOUS
 10
63.547762
 20
113.237926
 30
0.0
  0
VERTEX
  8
0
  6
CONTINUOUS
 10
63.431502
 20
113.271099
 30
0.0
  0
SEQEND
  8
0
  6
CONTINUOUS
  0
LINE
  8
0
  6
CONTINUOUS
 10
29.939941
 20
94.96915
 30
0.0
 11
35.590244
 21
92.358447
 31
0.0
  0
LINE
  8
0
  6
CONTINUOUS
 10
35.821861
 20
92.369911
 30
0.0
 11
52.204511
 21
102.00698
 31
0.0
  0
LINE
  8
0
  6
CONTINUOUS
 10
52.503865
 20
101.868665
 30
0.0
 11
52.96815
 21
102.14178
 31
0.0
  0
LINE
  8
0
  6
CONTINUOUS
 10
48.85965
 20
59.446474
 30
0.0
 11
48.85965
 21
100.038896
 31
0.0
  0
LINE
  8
0
  6
CONTINUOUS
 10
48.85965
 20
123.398079
 30
0.0
 11
48.85965
 21
166.114899
 31
0.0
  0
LINE
  8
0
  6
CONTINUOUS
 10
45.975474
 20
166.264683
 30
0.0
 11
45.975474
 21
166.188771
 31
0.0
  0
LINE
  8
0
  6
CONTINUOUS
 10
32.146636
 20
157.530967
 30
0.0
 11
32.146636
 21
157.718115
 31
0.0
  0
LINE
  8
0
  6
CONTINUOUS
 10
30.612883
 20
157.247439
 30
0.0
 11
30.612883
 21
114.521414
 31
0.0
  0
LINE
  8
0
  6
CONTINUOUS
 10
30.612883
 20
94.658156
 30
0.0
 11
30.612883
 21
50.579014
 31
0.0
  0
LINE
  8
0
  6
CONTINUOUS
 10
41.29346
 20
162.164859
 30
0.0
 11
41.29346
 21
162.273395
 31
0.0
  0
LINE
  8
0
  6
CONTINUOUS
 10
45.151979
 20
166.25137
 30
0.0
 11
45.151979
 21
164.434416
 31
0.0
  0
LINE
  8
0
  6
CONTINUOUS
 10
45.567401
 20
165.199308
 30
0.0
 11
45.567401
 21
164.678947
 31
0.0
  0
LINE
  8
0
  6
CONTINUOUS
 10
47.534722
 20
165.836235
 30
0.0
 11
47.534722
 21
166.23944
 31
0.0
  0
LINE
  8
0
  6
CONTINUOUS
 10
46.988688
 20
166.91958
 30
0.0
 11
46.988688
 21
166.97937
 31
0.0
  0
LINE
  8
0
  6
CONTINUOUS
 10
25.0
 20
159.840853
 30
0.0
 11
25.0
 21
53.172428
 31
0.0
  0
LINE
  8
0
  6
CONTINUOUS
 10
31.713296
 20
157.226634
 30
0.0
 11
31.713296
 21
157.167979
 31
0.0
  0
LINE
  8
0
  6
CONTINUOUS
 10
34.129648
 20
157.950757
 30
0.0
 11
34.129648
 21
158.059293
 31
0.0
  0
LINE
  8
0
  6
CONTINUOUS
 10
38.403588
 20
160.985206
 30
0.0
 11
38.403588
 21
160.464845
 31
0.0
  0
LINE
  8
0
  6
CONTINUOUS
 10
39.635905
 20
161.189795
 30
0.0
 11
39.635905
 21
161.377451
 31
0.0
  0
LINE
  8
0
  6
CONTINUOUS
 10
73.461131
 20
109.680012
 30
0.0
 11
73.461131
 21
109.296384
 31
0.0
  0
LINE
  8
0
  6
CONTINUOUS
 10
71.568779
 20
111.112265
 30
0.0
 11
63.431836
 21
106.409052
 31
0.0
  0
LINE
  8
0
  6
CONTINUOUS
 10
73.155889
 20
115.649875
 30
0.0
 11
73.155889
 21
114.146473
 31
0.0
  0
LINE
  8
0
  6
CONTINUOUS
 10
73.898457
 20
126.787411
 30
0.0
 11
73.898457
 21
125.342844
 31
0.0
  0
LINE
  8
0
  6
CONTINUOUS
 10
73.898457
 20
122.67837
 30
0.0
 11
73.898457
 21
120.436097
 31
0.0
  0
LINE
  8
0
  6
CONTINUOUS
 10
73.898457
 20
117.771623
 30
0.0
 11
73.898457
 21
115.529349
 31
0.0
  0
LINE
  8
0
  6
CONTINUOUS
 10
73.155889
 20
120.556623
 30
0.0
 11
73.155889
 21
118.424457
 31
0.0
  0
LINE
  8
0
  6
CONTINUOUS
 10
73.155889
 20
125.46337
 30
0.0
 11
73.155889
 21
123.331204
 31
0.0
  0
LINE
  8
0
  6
CONTINUOUS
 10
72.112251
 20
112.204786
 30
0.0
 11
71.005676
 21
111.565177
 31
0.0
  0
LINE
  8
0
  6
CONTINUOUS
 10
73.155888
 20
114.150466
 30
0.0
 11
72.10223
 21
112.19899
 31
0.0
  0
LINE
  8
0
  6
CONTINUOUS
 10
52.377108
 20
121.497801
 30
0.0
 11
52.841393
 21
121.770916
 31
0.0
  0
LINE
  8
0
  6
CONTINUOUS
 10
30.044801
 20
114.609749
 30
0.0
 11
35.695103
 21
111.999046
 31
0.0
  0
LINE
  8
0
  6
CONTINUOUS
 10
29.878985
 20
114.298871
 30
0.0
 11
35.529287
 21
111.688168
 31
0.0
  0
LINE
  8
0
  6
CONTINUOUS
 10
35.529287
 20
92.487852
 30
0.0
 11
35.529287
 21
111.688168
 31
0.0
  0
LINE
  8
0
  6
CONTINUOUS
 10
29.878985
 20
95.098555
 30
0.0
 11
35.529287
 21
92.487852
 31
0.0
  0
LINE
  8
0
  6
CONTINUOUS
 10
32.193836
 20
113.790951
 30
0.0
 11
30.210617
 21
114.70729
 31
0.0
  0
LINE
  8
0
  6
CONTINUOUS
 10
52.841393
 20
121.770916
 30
0.0
 11
48.85965
 21
123.610667
 31
0.0
  0
LINE
  8
0
  6
CONTINUOUS
 10
52.077754
 20
121.636116
 30
0.0
 11
52.377108
 21
121.497801
 31
0.0
  0
LINE
  8
0
  6
CONTINUOUS
 10
52.150797
 20
101.975376
 30
0.0
 11
52.377108
 21
101.870811
 31
0.0
  0
LINE
  8
0
  6
CONTINUOUS
 10
52.26485
 20
102.136016
 30
0.0
 11
52.26485
 21
121.336332
 31
0.0
  0
LINE
  8
0
  6
CONTINUOUS
 10
35.8822
 20
92.498946
 30
0.0
 11
52.26485
 21
102.136016
 31
0.0
  0
LINE
  8
0
  6
CONTINUOUS
 10
35.8822
 20
92.498946
 30
0.0
 11
35.8822
 21
111.699262
 31
0.0
  0
LINE
  8
0
  6
CONTINUOUS
 10
52.564204
 20
121.198017
 30
0.0
 11
53.028489
 21
121.471132
 31
0.0
  0
LINE
  8
0
  6
CONTINUOUS
 10
53.028489
 20
121.471132
 30
0.0
 11
53.028489
 21
102.270816
 31
0.0
  0
LINE
  8
0
  6
CONTINUOUS
 10
52.564204
 20
101.9977
 30
0.0
 11
53.028489
 21
102.270816
 31
0.0
  0
LINE
  8
0
  6
CONTINUOUS
 10
52.564204
 20
101.9977
 30
0.0
 11
52.564204
 21
121.198017
 31
0.0
  0
LINE
  8
0
  6
CONTINUOUS
 10
30.210617
 20
114.70729
 30
0.0
 11
30.044801
 21
114.609749
 31
0.0
  0
LINE
  8
0
  6
CONTINUOUS
 10
29.878985
 20
95.098555
 30
0.0
 11
29.878985
 21
114.298871
 31
0.0
  0
LINE
  8
0
  6
CONTINUOUS
 10
35.8822
 20
111.699262
 30
0.0
 11
52.26485
 21
121.336332
 31
0.0
  0
LINE
  8
0
  6
CONTINUOUS
 10
35.695103
 20
111.999046
 30
0.0
 11
52.077754
 21
121.636116
 31
0.0
  0
LINE
  8
0
  6
CONTINUOUS
 10
52.449093
 20
121.978099
 30
0.0
 11
52.424337
 21
121.963537
 31
0.0
  0
LINE
  8
0
  6
CONTINUOUS
 10
49.062052
 20
123.517148
 30
0.0
 11
32.546748
 21
113.802045
 31
0.0
  0
LINE
  8
0
  6
CONTINUOUS
 10
47.278697
 20
166.904017
 30
0.0
 11
48.775466
 21
166.21244
 31
0.0
  0
LINE
  8
0
  6
CONTINUOUS
 10
46.587409
 20
166.031615
 30
0.0
 11
46.587409
 21
166.143657
 31
0.0
  0
LINE
  8
0
  6
CONTINUOUS
 10
46.985368
 20
166.377756
 30
0.0
 11
46.587409
 21
166.143657
 31
0.0
  0
LINE
  8
0
  6
CONTINUOUS
 10
46.985368
 20
166.259837
 30
0.0
 11
46.985368
 21
166.377756
 31
0.0
  0
LINE
  8
0
  6
CONTINUOUS
 10
47.33828
 20
166.366744
 30
0.0
 11
47.33828
 21
166.38885
 31
0.0
  0
LINE
  8
0
  6
CONTINUOUS
 10
47.787311
 20
166.181377
 30
0.0
 11
47.33828
 21
166.38885
 31
0.0
  0
LINE
  8
0
  6
CONTINUOUS
 10
47.787311
 20
165.984846
 30
0.0
 11
47.787311
 21
166.181377
 31
0.0
  0
LINE
  8
0
  6
CONTINUOUS
 10
32.487165
 20
156.984582
 30
0.0
 11
47.808591
 21
165.997388
 31
0.0
  0
LINE
  8
0
  6
CONTINUOUS
 10
31.685222
 20
157.180961
 30
0.0
 11
32.134252
 21
156.973488
 31
0.0
  0
LINE
  8
0
  6
CONTINUOUS
 10
31.663942
 20
157.192204
 30
0.0
 11
31.663942
 21
157.36495
 31
0.0
  0
LINE
  8
0
  6
CONTINUOUS
 10
32.058571
 20
157.597089
 30
0.0
 11
31.663942
 21
157.36495
 31
0.0
  0
LINE
  8
0
  6
CONTINUOUS
 10
32.058571
 20
157.479171
 30
0.0
 11
32.058571
 21
157.597089
 31
0.0
  0
LINE
  8
0
  6
CONTINUOUS
 10
30.697067
 20
50.481473
 30
0.0
 11
32.193836
 21
49.789896
 31
0.0
  0
LINE
  8
0
  6
CONTINUOUS
 10
30.697067
 20
50.481473
 30
0.0
 11
30.697067
 21
94.61927
 31
0.0
  0
LINE
  8
0
  6
CONTINUOUS
 10
30.697067
 20
114.482528
 30
0.0
 11
30.697067
 21
157.149898
 31
0.0
  0
LINE
  8
0
  6
CONTINUOUS
 10
32.193836
 20
156.458321
 30
0.0
 11
30.697067
 21
157.149898
 31
0.0
  0
LINE
  8
0
  6
CONTINUOUS
 10
32.193836
 20
49.789896
 30
0.0
 11
32.193836
 21
93.927693
 31
0.0
  0
LINE
  8
0
  6
CONTINUOUS
 10
32.193836
 20
113.790951
 30
0.0
 11
32.193836
 21
156.458321
 31
0.0
  0
LINE
  8
0
  6
CONTINUOUS
 10
48.796746
 20
59.360027
 30
0.0
 11
48.796746
 21
100.001899
 31
0.0
  0
LINE
  8
0
  6
CONTINUOUS
 10
48.796746
 20
123.361082
 30
0.0
 11
48.796746
 21
166.028452
 31
0.0
  0
LINE
  8
0
  6
CONTINUOUS
 10
32.546748
 20
49.80099
 30
0.0
 11
48.796746
 21
59.360027
 31
0.0
  0
LINE
  8
0
  6
CONTINUOUS
 10
32.546748
 20
49.80099
 30
0.0
 11
32.546748
 21
93.764599
 31
0.0
  0
LINE
  8
0
  6
CONTINUOUS
 10
32.546748
 20
113.802045
 30
0.0
 11
32.546748
 21
156.469415
 31
0.0
  0
LINE
  8
0
  6
CONTINUOUS
 10
48.796746
 20
166.028452
 30
0.0
 11
32.546748
 21
156.469415
 31
0.0
  0
LINE
  8
0
  6
CONTINUOUS
 10
39.69602
 20
161.874229
 30
0.0
 11
34.428066
 21
164.481912
 31
0.0
  0
LINE
  8
0
  6
CONTINUOUS
 10
39.69602
 20
161.2251
 30
0.0
 11
39.69602
 21
161.874229
 31
0.0
  0
LINE
  8
0
  6
CONTINUOUS
 10
40.773724
 20
161.859133
 30
0.0
 11
40.773724
 21
161.89844
 31
0.0
  0
LINE
  8
0
  6
CONTINUOUS
 10
41.205394
 20
162.152369
 30
0.0
 11
40.773724
 21
161.89844
 31
0.0
  0
LINE
  8
0
  6
CONTINUOUS
 10
41.205394
 20
162.113063
 30
0.0
 11
41.205394
 21
162.152369
 31
0.0
  0
LINE
  8
0
  6
CONTINUOUS
 10
40.38718
 20
162.221273
 30
0.0
 11
40.681525
 21
162.394421
 31
0.0
  0
LINE
  8
0
  6
CONTINUOUS
 10
34.694697
 20
164.853207
 30
0.0
 11
40.027945
 21
162.213203
 31
0.0
  0
LINE
  8
0
  6
CONTINUOUS
 10
34.67974
 20
164.861399
 30
0.0
 11
34.67974
 21
165.034172
 31
0.0
  0
LINE
  8
0
  6
CONTINUOUS
 10
41.206668
 20
168.873628
 30
0.0
 11
34.67974
 21
165.034172
 31
0.0
  0
LINE
  8
0
  6
CONTINUOUS
 10
41.206668
 20
162.39249
 30
0.0
 11
41.206668
 21
168.873628
 31
0.0
  0
LINE
  8
0
  6
CONTINUOUS
 10
41.912493
 20
162.52823
 30
0.0
 11
41.912493
 21
168.895816
 31
0.0
  0
LINE
  8
0
  6
CONTINUOUS
 10
45.729254
 20
167.132295
 30
0.0
 11
41.912493
 21
168.895816
 31
0.0
  0
LINE
  8
0
  6
CONTINUOUS
 10
45.729254
 20
166.739234
 30
0.0
 11
45.729254
 21
167.132295
 31
0.0
  0
LINE
  8
0
  6
CONTINUOUS
 10
45.340691
 20
166.510711
 30
0.0
 11
45.771814
 21
166.764318
 31
0.0
  0
LINE
  8
0
  6
CONTINUOUS
 10
45.404531
 20
164.583033
 30
0.0
 11
45.404531
 21
165.958746
 31
0.0
  0
LINE
  8
0
  6
CONTINUOUS
 10
45.965819
 20
165.699405
 30
0.0
 11
45.404531
 21
165.958746
 31
0.0
  0
LINE
  8
0
  6
CONTINUOUS
 10
45.965819
 20
165.502875
 30
0.0
 11
45.965819
 21
165.699405
 31
0.0
  0
LINE
  8
0
  6
CONTINUOUS
 10
45.655466
 20
165.320334
 30
0.0
 11
45.987099
 21
165.515417
 31
0.0
  0
LINE
  8
0
  6
CONTINUOUS
 10
46.179335
 20
165.038976
 30
0.0
 11
46.179335
 21
165.078282
 31
0.0
  0
LINE
  8
0
  6
CONTINUOUS
 10
47.178357
 20
165.665956
 30
0.0
 11
46.179335
 21
165.078282
 31
0.0
  0
LINE
  8
0
  6
CONTINUOUS
 10
47.178357
 20
165.626649
 30
0.0
 11
47.178357
 21
165.665956
 31
0.0
  0
LINE
  8
0
  6
CONTINUOUS
 10
47.409725
 20
165.762738
 30
0.0
 11
47.409725
 21
165.907365
 31
0.0
  0
LINE
  8
0
  6
CONTINUOUS
 10
47.52966
 20
166.213346
 30
0.0
 11
47.409725
 21
165.907365
 31
0.0
  0
LINE
  8
0
  6
CONTINUOUS
 10
47.52966
 20
165.833261
 30
0.0
 11
47.52966
 21
166.213346
 31
0.0
  0
LINE
  8
0
  6
CONTINUOUS
 10
46.63334
 20
166.052772
 30
0.0
 11
47.097626
 21
166.325887
 31
0.0
  0
LINE
  8
0
  6
CONTINUOUS
 10
46.018493
 20
166.162704
 30
0.0
 11
46.280428
 21
166.041678
 31
0.0
  0
LINE
  8
0
  6
CONTINUOUS
 10
45.997213
 20
166.327937
 30
0.0
 11
45.997213
 21
166.346692
 31
0.0
  0
LINE
  8
0
  6
CONTINUOUS
 10
46.925785
 20
166.892923
 30
0.0
 11
45.997213
 21
166.346692
 31
0.0
  0
LINE
  8
0
  6
CONTINUOUS
 10
41.665814
 20
169.497431
 30
0.0
 11
46.904505
 21
167.076911
 31
0.0
  0
LINE
  8
0
  6
CONTINUOUS
 10
25.062904
 20
159.9273
 30
0.0
 11
41.312901
 21
169.486337
 31
0.0
  0
LINE
  8
0
  6
CONTINUOUS
 10
25.084184
 20
53.074887
 30
0.0
 11
30.322875
 21
50.654367
 31
0.0
  0
LINE
  8
0
  6
CONTINUOUS
 10
25.084184
 20
53.074887
 30
0.0
 11
25.084184
 21
159.743311
 31
0.0
  0
LINE
  8
0
  6
CONTINUOUS
 10
30.322875
 20
157.322792
 30
0.0
 11
25.084184
 21
159.743311
 31
0.0
  0
LINE
  8
0
  6
CONTINUOUS
 10
30.322875
 20
50.654367
 30
0.0
 11
30.322875
 21
94.792164
 31
0.0
  0
LINE
  8
0
  6
CONTINUOUS
 10
30.322875
 20
114.655422
 30
0.0
 11
30.322875
 21
157.322792
 31
0.0
  0
LINE
  8
0
  6
CONTINUOUS
 10
31.604359
 20
157.880117
 30
0.0
 11
30.675787
 21
157.333886
 31
0.0
  0
LINE
  8
0
  6
CONTINUOUS
 10
31.604359
 20
157.870581
 30
0.0
 11
31.604359
 21
157.880117
 31
0.0
  0
LINE
  8
0
  6
CONTINUOUS
 10
31.957271
 20
157.880228
 30
0.0
 11
31.957271
 21
157.891211
 31
0.0
  0
LINE
  8
0
  6
CONTINUOUS
 10
32.219205
 20
157.770185
 30
0.0
 11
31.957271
 21
157.891211
 31
0.0
  0
LINE
  8
0
  6
CONTINUOUS
 10
32.219205
 20
157.573654
 30
0.0
 11
32.219205
 21
157.770185
 31
0.0
  0
LINE
  8
0
  6
CONTINUOUS
 10
31.7762
 20
157.313081
 30
0.0
 11
32.240485
 21
157.586197
 31
0.0
  0
LINE
  8
0
  6
CONTINUOUS
 10
32.042418
 20
157.015904
 30
0.0
 11
32.042418
 21
157.102998
 31
0.0
  0
LINE
  8
0
  6
CONTINUOUS
 10
32.610663
 20
157.201838
 30
0.0
 11
32.042418
 21
157.102998
 31
0.0
  0
LINE
  8
0
  6
CONTINUOUS
 10
32.610663
 20
157.057212
 30
0.0
 11
32.610663
 21
157.201838
 31
0.0
  0
LINE
  8
0
  6
CONTINUOUS
 10
33.04256
 20
157.311288
 30
0.0
 11
33.04256
 21
157.350594
 31
0.0
  0
LINE
  8
0
  6
CONTINUOUS
 10
34.041582
 20
157.938267
 30
0.0
 11
33.04256
 21
157.350594
 31
0.0
  0
LINE
  8
0
  6
CONTINUOUS
 10
34.041582
 20
157.898961
 30
0.0
 11
34.041582
 21
157.938267
 31
0.0
  0
LINE
  8
0
  6
CONTINUOUS
 10
33.18608
 20
157.985237
 30
0.0
 11
33.517713
 21
158.180319
 31
0.0
  0
LINE
  8
0
  6
CONTINUOUS
 10
32.27188
 20
158.233484
 30
0.0
 11
32.833168
 21
157.974143
 31
0.0
  0
LINE
  8
0
  6
CONTINUOUS
 10
30.78202
 20
157.946595
 30
0.0
 11
31.213142
 21
158.200202
 31
0.0
  0
LINE
  8
0
  6
CONTINUOUS
 10
26.259435
 20
159.687928
 30
0.0
 11
30.076195
 21
157.924406
 31
0.0
  0
LINE
  8
0
  6
CONTINUOUS
 10
26.216875
 20
159.710413
 30
0.0
 11
26.216875
 21
160.055904
 31
0.0
  0
LINE
  8
0
  6
CONTINUOUS
 10
32.743804
 20
163.895361
 30
0.0
 11
26.216875
 21
160.055904
 31
0.0
  0
LINE
  8
0
  6
CONTINUOUS
 10
32.743804
 20
158.014348
 30
0.0
 11
32.743804
 21
163.895361
 31
0.0
  0
LINE
  8
0
  6
CONTINUOUS
 10
33.090199
 20
157.949444
 30
0.0
 11
33.090199
 21
163.909363
 31
0.0
  0
LINE
  8
0
  6
CONTINUOUS
 10
38.758202
 20
161.466278
 30
0.0
 11
33.090199
 21
163.909363
 31
0.0
  0
LINE
  8
0
  6
CONTINUOUS
 10
38.758202
 20
161.263004
 30
0.0
 11
38.758202
 21
161.466278
 31
0.0
  0
LINE
  8
0
  6
CONTINUOUS
 10
38.491654
 20
161.106232
 30
0.0
 11
38.785999
 21
161.27938
 31
0.0
  0
LINE
  8
0
  6
CONTINUOUS
 10
39.015523
 20
160.824874
 30
0.0
 11
39.015523
 21
160.86418
 31
0.0
  0
LINE
  8
0
  6
CONTINUOUS
 10
39.447193
 20
161.11811
 30
0.0
 11
39.015523
 21
160.86418
 31
0.0
  0
LINE
  8
0
  6
CONTINUOUS
 10
39.447193
 20
161.078804
 30
0.0
 11
39.447193
 21
161.11811
 31
0.0
  0
LINE
  8
0
  6
CONTINUOUS
 10
33.765191
 20
164.091977
 30
0.0
 11
39.363801
 21
161.678802
 31
0.0
  0
LINE
  8
0
  6
CONTINUOUS
 10
34.428066
 20
163.806134
 30
0.0
 11
34.428066
 21
164.481912
 31
0.0
  0
LINE
  8
0
  6
CONTINUOUS
 10
65.480003
 20
102.956698
 30
0.0
 11
63.431949
 21
103.571888
 31
0.0
  0
LINE
  8
0
  6
CONTINUOUS
 10
63.599545
 20
101.208149
 30
0.0
 11
63.435408
 21
101.285331
 31
0.0
  0
LINE
  8
0
  6
CONTINUOUS
 10
65.480003
 20
102.956698
 30
0.0
 11
63.432064
 21
101.772975
 31
0.0
  0
LINE
  8
0
  6
CONTINUOUS
 10
73.540065
 20
109.125862
 30
0.0
 11
74.842406
 21
108.368139
 31
0.0
  0
LINE
  8
0
  6
CONTINUOUS
 10
73.528146
 20
109.133394
 30
0.0
 11
73.528146
 21
109.664739
 31
0.0
  0
LINE
  8
0
  6
CONTINUOUS
 10
75.526564
 20
108.763684
 30
0.0
 11
78.038204
 21
110.215431
 31
0.0
  0
LINE
  8
0
  6
CONTINUOUS
 10
75.526564
 20
108.763684
 30
0.0
 11
73.528146
 21
109.664739
 31
0.0
  0
LINE
  8
0
  6
CONTINUOUS
 10
78.669387
 20
109.918628
 30
0.0
 11
78.038204
 21
110.215431
 31
0.0
  0
LINE
  8
0
  6
CONTINUOUS
 10
53.946207
 20
138.561842
 30
0.0
 11
53.580769
 21
138.743534
 31
0.0
  0
LINE
  8
0
  6
CONTINUOUS
 10
67.09789
 20
108.527538
 30
0.0
 11
63.431371
 21
110.214886
 31
0.0
  0
LINE
  8
0
  6
CONTINUOUS
 10
63.431371
 20
110.300224
 30
0.0
 11
67.180077
 21
108.575053
 31
0.0
  0
LINE
  8
0
  6
CONTINUOUS
 10
68.519618
 20
109.349318
 30
0.0
 11
63.43129
 21
111.690989
 31
0.0
  0
LINE
  8
0
  6
CONTINUOUS
 10
69.241156
 20
109.766362
 30
0.0
 11
63.431241
 21
112.44011
 31
0.0
  0
LINE
  8
0
  6
CONTINUOUS
 10
69.52881
 20
109.932665
 30
0.0
 11
63.431241
 21
112.738793
 31
0.0
  0
LINE
  8
0
  6
CONTINUOUS
 10
66.281703
 20
120.142584
 30
0.0
 11
73.898273
 21
116.497677
 31
0.0
  0
LINE
  8
0
  6
CONTINUOUS
 10
63.265294
 20
144.341261
 30
0.0
 11
53.580769
 21
138.743534
 31
0.0
  0
LINE
  8
0
  6
CONTINUOUS
 10
53.580769
 20
138.743534
 30
0.0
 11
53.580769
 21
138.350568
 31
0.0
  0
LINE
  8
0
  6
CONTINUOUS
 10
66.241315
 20
120.409599
 30
0.0
 11
73.898259
 21
116.745371
 31
0.0
  0
LINE
  8
0
  6
CONTINUOUS
 10
65.480003
 20
102.956698
 30
0.0
 11
75.526564
 21
108.763684
 31
0.0
  0
LINE
  8
0
  6
CONTINUOUS
 10
51.936895
 20
137.400445
 30
0.0
 11
53.946207
 21
138.561842
 31
0.0
  0
LINE
  8
0
  6
CONTINUOUS
 10
51.936895
 20
137.400445
 30
0.0
 11
51.559766
 21
137.57538
 31
0.0
  0
LINE
  8
0
  6
CONTINUOUS
 10
78.205647
 20
129.27749
 30
0.0
 11
78.205647
 21
110.525551
 31
0.0
  0
LINE
  8
0
  6
CONTINUOUS
 10
78.633336
 20
129.524753
 30
0.0
 11
78.83683
 21
129.429064
 31
0.0
  0
LINE
  8
0
  6
CONTINUOUS
 10
78.83683
 20
110.228747
 30
0.0
 11
78.205647
 21
110.525551
 31
0.0
  0
LINE
  8
0
  6
CONTINUOUS
 10
63.599545
 20
101.208149
 30
0.0
 11
78.669387
 21
109.918628
 31
0.0
  0
LINE
  8
0
  6
CONTINUOUS
 10
78.83683
 20
129.429064
 30
0.0
 11
78.83683
 21
110.228747
 31
0.0
  0
LINE
  8
0
  6
CONTINUOUS
 10
63.599545
 20
120.835139
 30
0.0
 11
78.669387
 21
129.545618
 31
0.0
  0
LINE
  8
0
  6
CONTINUOUS
 10
63.432102
 20
120.525019
 30
0.0
 11
63.432102
 21
101.324703
 31
0.0
  0
LINE
  8
0
  6
CONTINUOUS
 10
48.8592
 20
136.014433
 30
0.0
 11
51.559766
 21
137.57538
 31
0.0
  0
LINE
  8
0
  6
CONTINUOUS
 10
64.388438
 20
103.284336
 30
0.0
 11
74.015722
 21
108.848977
 31
0.0
  0
LINE
  8
0
  6
CONTINUOUS
 10
74.400018
 20
110.884466
 30
0.0
 11
63.431922
 21
104.544826
 31
0.0
  0
LINE
  8
0
  6
CONTINUOUS
 10
75.615394
 20
113.135458
 30
0.0
 11
74.400018
 21
110.884466
 31
0.0
  0
LINE
  8
0
  6
CONTINUOUS
 10
75.615394
 20
127.78
 30
0.0
 11
75.615394
 21
113.135458
 31
0.0
  0
LINE
  8
0
  6
CONTINUOUS
 10
73.38769
 20
125.632733
 30
0.0
 11
73.220247
 21
125.53595
 31
0.0
  0
LINE
  8
0
  6
CONTINUOUS
 10
73.89843
 20
125.673795
 30
0.0
 11
73.740775
 21
125.699384
 31
0.0
  0
LINE
  8
0
  6
CONTINUOUS
 10
73.38769
 20
115.819238
 30
0.0
 11
73.220247
 21
115.722455
 31
0.0
  0
LINE
  8
0
  6
CONTINUOUS
 10
73.89843
 20
115.8603
 30
0.0
 11
73.740775
 21
115.885889
 31
0.0
  0
LINE
  8
0
  6
CONTINUOUS
 10
73.38769
 20
120.725985
 30
0.0
 11
73.220247
 21
120.629202
 31
0.0
  0
LINE
  8
0
  6
CONTINUOUS
 10
73.89843
 20
120.767048
 30
0.0
 11
73.740775
 21
120.792637
 31
0.0
  0
LINE
  8
0
  6
CONTINUOUS
 10
63.431843
 20
106.333636
 30
0.0
 11
71.66365
 21
111.091681
 31
0.0
  0
LINE
  8
0
  6
CONTINUOUS
 10
71.100547
 20
111.544593
 30
0.0
 11
72.219242
 21
112.191207
 31
0.0
  0
LINE
  8
0
  6
CONTINUOUS
 10
73.89002
 20
111.405552
 30
0.0
 11
63.4319
 21
105.360682
 31
0.0
  0
LINE
  8
0
  6
CONTINUOUS
 10
74.909224
 20
127.371781
 30
0.0
 11
74.909224
 21
113.293216
 31
0.0
  0
LINE
  8
0
  6
CONTINUOUS
 10
73.238446
 20
114.078871
 30
0.0
 11
73.238446
 21
115.59554
 31
0.0
  0
LINE
  8
0
  6
CONTINUOUS
 10
73.238446
 20
115.59554
 30
0.0
 11
73.981014
 21
115.475014
 31
0.0
  0
LINE
  8
0
  6
CONTINUOUS
 10
73.981014
 20
115.475014
 30
0.0
 11
73.981014
 21
117.707392
 31
0.0
  0
LINE
  8
0
  6
CONTINUOUS
 10
73.238446
 20
120.502288
 30
0.0
 11
73.238446
 21
118.285226
 31
0.0
  0
LINE
  8
0
  6
CONTINUOUS
 10
73.238446
 20
120.502288
 30
0.0
 11
73.981014
 21
120.381761
 31
0.0
  0
LINE
  8
0
  6
CONTINUOUS
 10
73.981014
 20
120.381761
 30
0.0
 11
73.981014
 21
122.61414
 31
0.0
  0
LINE
  8
0
  6
CONTINUOUS
 10
73.981014
 20
122.61414
 30
0.0
 11
73.238446
 21
123.191974
 31
0.0
  0
LINE
  8
0
  6
CONTINUOUS
 10
73.238446
 20
125.409035
 30
0.0
 11
73.238446
 21
123.191974
 31
0.0
  0
LINE
  8
0
  6
CONTINUOUS
 10
73.238446
 20
125.409035
 30
0.0
 11
73.981014
 21
125.288509
 31
0.0
  0
LINE
  8
0
  6
CONTINUOUS
 10
73.981014
 20
125.288509
 30
0.0
 11
73.981014
 21
126.835148
 31
0.0
  0
LINE
  8
0
  6
CONTINUOUS
 10
73.981014
 20
117.707392
 30
0.0
 11
73.238446
 21
118.285226
 31
0.0
  0
LINE
  8
0
  6
CONTINUOUS
 10
65.317164
 20
103.005278
 30
0.0
 11
74.719097
 21
108.439664
 31
0.0
  0
LINE
  8
0
  6
CONTINUOUS
 10
72.219242
 20
112.191207
 30
0.0
 11
73.89002
 21
111.405552
 31
0.0
  0
LINE
  8
0
  6
CONTINUOUS
 10
72.219242
 20
112.191207
 30
0.0
 11
73.238446
 21
114.078871
 31
0.0
  0
LINE
  8
0
  6
CONTINUOUS
 10
74.909224
 20
113.293216
 30
0.0
 11
73.238446
 21
114.078871
 31
0.0
  0
LINE
  8
0
  6
CONTINUOUS
 10
74.909224
 20
113.293216
 30
0.0
 11
73.89002
 21
111.405552
 31
0.0
  0
LINE
  8
0
  6
CONTINUOUS
 10
71.66365
 20
111.091681
 30
0.0
 11
71.100547
 21
111.544593
 31
0.0
  0
LINE
  8
0
  6
CONTINUOUS
 10
71.100547
 20
110.904582
 30
0.0
 11
71.146145
 21
110.867907
 31
0.0
  0
LINE
  8
0
  6
CONTINUOUS
 10
70.959771
 20
111.444484
 30
0.0
 11
70.959771
 21
111.231147
 31
0.0
  0
LINE
  8
0
  6
CONTINUOUS
 10
65.738568
 20
120.146139
 30
0.0
 11
66.240896
 21
120.436488
 31
0.0
  0
LINE
  8
0
  6
CONTINUOUS
 10
66.240896
 20
120.436488
 30
0.0
 11
66.240896
 21
122.359924
 31
0.0
  0
LINE
  8
0
  6
CONTINUOUS
 10
63.431085
 20
116.526548
 30
0.0
 11
72.184001
 21
112.350272
 31
0.0
  0
LINE
  8
0
  6
CONTINUOUS
 10
63.655758
 20
113.837084
 30
0.0
 11
63.655758
 21
113.197073
 31
0.0
  0
LINE
  8
0
  6
CONTINUOUS
 10
70.891324
 20
110.720291
 30
0.0
 11
63.655758
 21
113.837084
 31
0.0
  0
LINE
  8
0
  6
CONTINUOUS
 10
65.738568
 20
122.069575
 30
0.0
 11
65.738568
 21
120.146139
 31
0.0
  0
LINE
  8
0
  6
CONTINUOUS
 10
63.431066
 20
117.306105
 30
0.0
 11
72.518682
 21
112.970135
 31
0.0
  0
LINE
  8
0
  6
CONTINUOUS
 10
66.437767
 20
118.989632
 30
0.0
 11
73.155737
 21
115.390849
 31
0.0
  0
LINE
  8
0
  6
CONTINUOUS
 10
66.437767
 20
118.989632
 30
0.0
 11
66.940095
 21
119.279982
 31
0.0
  0
LINE
  8
0
  6
CONTINUOUS
 10
73.394235
 20
115.82253
 30
0.0
 11
66.940095
 21
119.279982
 31
0.0
  0
LINE
  8
0
  6
CONTINUOUS
 10
63.655758
 20
113.197073
 30
0.0
 11
70.256952
 21
110.353543
 31
0.0
  0
ARC
  8
0
  6
CONTINUOUS
 10
35.695103
 20
92.585393
 30
0.0
 40
0.25
 50
245.200864
 51
300.466108
  0
ENDSEC
  0
EOF
