  0
SECTION
  2
HEADER
  9
$ACADVER
  1
AC1009
  9
$INSBASE
 10
0.0
 20
0.0
 30
0.0
  9
$EXTMIN
 10
25.0
 20
65.359173
 30
0.0
  9
$EXTMAX
 10
98.45549
 20
179.433883
 30
0.0
  9
$LIMMIN
 10
25.0
 20
65.359173
  9
$LIMMAX
 10
98.45549
 20
179.433883
  9
$ORTHOMODE
 70
     0
  9
$REGENMODE
 70
     1
  9
$FILLMODE
 70
     1
  9
$QTEXTMODE
 70
     0
  9
$MIRRTEXT
 70
     1
  9
$DRAGMODE
 70
     2
  9
$LTSCALE
 40
1.0
  9
$OSMODE
 70
     0
  9
$ATTMODE
 70
     1
  9
$TEXTSIZE
 40
3.5
  9
$TRACEWID
 40
0.5
  9
$TEXTSTYLE
  7
STANDARD
  9
$CLAYER
  8
0
  9
$CELTYPE
  6
BYLAYER
  9
$CECOLOR
 62
   256
  9
$DIMSCALE
 40
1.0
  9
$DIMASZ
 40
0.18
  9
$DIMEXO
 40
0.0625
  9
$DIMDLI
 40
0.38
  9
$DIMRND
 40
0.0
  9
$DIMDLE
 40
0.0
  9
$DIMEXE
 40
0.18
  9
$DIMTP
 40
0.0
  9
$DIMTM
 40
0.0
  9
$DIMTXT
 40
0.18
  9
$DIMCEN
 40
0.09
  9
$DIMTSZ
 40
0.0
  9
$DIMTOL
 70
     0
  9
$DIMLIM
 70
     0
  9
$DIMTIH
 70
     1
  9
$DIMTOH
 70
     1
  9
$DIMSE1
 70
     0
  9
$DIMSE2
 70
     0
  9
$DIMTAD
 70
     0
  9
$DIMZIN
 70
     0
  9
$DIMBLK
  1

  9
$DIMASO
 70
     1
  9
$DIMSHO
 70
     1
  9
$DIMPOST
  1

  9
$DIMAPOST
  1

  9
$DIMALT
 70
     0
  9
$DIMALTD
 70
     2
  9
$DIMALTF
 40
25.4
  9
$DIMLFAC
 40
1.0
  9
$DIMTOFL
 70
     0
  9
$DIMTVP
 40
0.0
  9
$DIMTIX
 70
     0
  9
$DIMSOXD
 70
     0
  9
$DIMSAH
 70
     0
  9
$DIMBLK1
  1

  9
$DIMBLK2
  1

  9
$DIMSTYLE
  2
*UNNAMED
  9
$DIMCLRD
 70
     0
  9
$DIMCLRE
 70
     0
  9
$DIMCLRT
 70
     0
  9
$DIMTFAC
 40
1.0
  9
$DIMGAP
 40
0.09
  9
$LUNITS
 70
     2
  9
$LUPREC
 70
     4
  9
$SKETCHINC
 40
0.1
  9
$FILLETRAD
 40
2.0
  9
$AUNITS
 70
     0
  9
$AUPREC
 70
     0
  9
$MENU
  1
ACAD
  9
$ELEVATION
 40
0.0
  9
$PELEVATION
 40
0.0
  9
$THICKNESS
 40
0.0
  9
$LIMCHECK
 70
     0
  9
$BLIPMODE
 70
     1
  9
$CHAMFERA
 40
0.0
  9
$CHAMFERB
 40
0.0
  9
$SKPOLY
 70
     0
  9
$TDCREATE
 40
2450954.724840393
  9
$TDUPDATE
 40
2450954.725258680
  9
$TDINDWG
 40
0.0002244213
  9
$TDUSRTIMER
 40
0.0002244213
  9
$USRTIMER
 70
     1
  9
$ANGBASE
 50
0.0
  9
$ANGDIR
 70
     0
  9
$PDMODE
 70
     0
  9
$PDSIZE
 40
0.0
  9
$PLINEWID
 40
0.0
  9
$COORDS
 70
     2
  9
$SPLFRAME
 70
     0
  9
$SPLINETYPE
 70
     6
  9
$SPLINESEGS
 70
     8
  9
$ATTDIA
 70
     0
  9
$ATTREQ
 70
     1
  9
$HANDLING
 70
     0
  9
$HANDSEED
  5
0
  9
$SURFTAB1
 70
     6
  9
$SURFTAB2
 70
     6
  9
$SURFTYPE
 70
     6
  9
$SURFU
 70
     6
  9
$SURFV
 70
     6
  9
$UCSNAME
  2

  9
$UCSORG
 10
0.0
 20
0.0
 30
0.0
  9
$UCSXDIR
 10
1.0
 20
0.0
 30
0.0
  9
$UCSYDIR
 10
0.0
 20
1.0
 30
0.0
  9
$PUCSNAME
  2

  9
$PUCSORG
 10
0.0
 20
0.0
 30
0.0
  9
$PUCSXDIR
 10
1.0
 20
0.0
 30
0.0
  9
$PUCSYDIR
 10
0.0
 20
1.0
 30
0.0
  9
$USERI1
 70
     0
  9
$USERI2
 70
     0
  9
$USERI3
 70
     0
  9
$USERI4
 70
     0
  9
$USERI5
 70
     0
  9
$USERR1
 40
0.0
  9
$USERR2
 40
0.0
  9
$USERR3
 40
0.0
  9
$USERR4
 40
0.0
  9
$USERR5
 40
0.0
  9
$WORLDVIEW
 70
     1
  9
$SHADEDGE
 70
     3
  9
$SHADEDIF
 70
    70
  9
$TILEMODE
 70
     1
  9
$MAXACTVP
 70
    16
  9
$PINSBASE
 10
0.0
 20
0.0
 30
0.0
  9
$PLIMCHECK
 70
     0
  9
$PEXTMIN
 10
1.000000E+20
 20
1.000000E+20
 30
1.000000E+20
  9
$PEXTMAX
 10
-1.000000E+20
 20
-1.000000E+20
 30
-1.000000E+20
  9
$PLIMMIN
 10
0.0
 20
0.0
  9
$PLIMMAX
 10
420.0
 20
297.0
  9
$UNITMODE
 70
     0
  9
$VISRETAIN
 70
     0
  9
$PLINEGEN
 70
     0
  9
$PSLTSCALE
 70
     1
  9
$TREEDEPTH
 70
  3020
  9
$DWGCODEPAGE
  3
iso8859-1
  0
ENDSEC
  0
SECTION
  2
TABLES
  0
TABLE
  2
VPORT
 70
     2
  0
VPORT
  2
*ACTIVE
 70
     0
 10
0.0
 20
0.0
 11
1.0
 21
1.0
 12
124.726383
 22
120.501155
 13
0.0
 23
0.0
 14
1.0
 24
1.0
 15
0.0
 25
0.0
 16
0.0
 26
0.0
 36
1.0
 17
0.0
 27
0.0
 37
0.0
 40
161.540278
 41
1.748359
 42
50.0
 43
0.0
 44
0.0
 50
0.0
 51
0.0
 71
     0
 72
   100
 73
     1
 74
     0
 75
     0
 76
     0
 77
     0
 78
     0
  0
ENDTAB
  0
TABLE
  2
LTYPE
 70
     1
  0
LTYPE
  2
CONTINUOUS
 70
    64
  3
Solid line
 72
    65
 73
     0
 40
0.0
  0
ENDTAB
  0
TABLE
  2
LAYER
 70
     1
  0
LAYER
  2
0
 70
    64
 62
     7
  6
CONTINUOUS
  0
ENDTAB
  0
TABLE
  2
STYLE
 70
     1
  0
STYLE
  2
STANDARD
 70
     0
 40
0.0
 41
1.0
 50
0.0
 71
     0
 42
3.5
  3
txt
  4

  0
ENDTAB
  0
TABLE
  2
VIEW
 70
     0
  0
ENDTAB
  0
TABLE
  2
UCS
 70
     0
  0
ENDTAB
  0
TABLE
  2
APPID
 70
     1
  0
APPID
  2
ACAD
 70
    64
  0
ENDTAB
  0
TABLE
  2
DIMSTYLE
 70
     0
  0
ENDTAB
  0
ENDSEC
  0
SECTION
  2
BLOCKS
  0
ENDSEC
  0
SECTION
  2
ENTITIES
  0
LINE
  8
0
  6
CONTINUOUS
 10
44.310258
 20
88.471228
 30
0.0
 11
44.448521
 21
88.389119
 31
0.0
  0
LINE
  8
0
  6
CONTINUOUS
 10
69.092797
 20
101.060603
 30
0.0
 11
68.262847
 21
101.520079
 31
0.0
  0
LINE
  8
0
  6
CONTINUOUS
 10
57.628333
 20
83.62724
 30
0.0
 11
53.072067
 21
86.333028
 31
0.0
  0
LINE
  8
0
  6
CONTINUOUS
 10
56.139979
 20
108.635659
 30
0.0
 11
56.001202
 21
108.718073
 31
0.0
  0
LINE
  8
0
  6
CONTINUOUS
 10
56.553047
 20
81.283517
 30
0.0
 11
57.410149
 21
80.80901
 31
0.0
  0
LINE
  8
0
  6
CONTINUOUS
 10
53.970443
 20
106.897645
 30
0.0
 11
55.9262
 21
105.814902
 31
0.0
  0
LINE
  8
0
  6
CONTINUOUS
 10
53.671003
 20
106.724816
 30
0.0
 11
66.779863
 21
99.467514
 31
0.0
  0
LINE
  8
0
  6
CONTINUOUS
 10
46.77467
 20
89.974629
 30
0.0
 11
44.876136
 21
91.102094
 31
0.0
  0
LINE
  8
0
  6
CONTINUOUS
 10
44.740863
 20
74.636367
 30
0.0
 11
45.094797
 21
74.440423
 31
0.0
  0
LINE
  8
0
  6
CONTINUOUS
 10
68.481761
 20
114.989088
 30
0.0
 11
67.720787
 21
115.441
 31
0.0
  0
LINE
  8
0
  6
CONTINUOUS
 10
61.429229
 20
111.176243
 30
0.0
 11
65.12281
 21
109.131409
 31
0.0
  0
LINE
  8
0
  6
CONTINUOUS
 10
48.453747
 20
80.298101
 30
0.0
 11
44.876029
 21
82.422768
 31
0.0
  0
LINE
  8
0
  6
CONTINUOUS
 10
61.007917
 20
174.111678
 30
0.0
 11
61.007917
 21
174.229464
 31
0.0
  0
LINE
  8
0
  6
CONTINUOUS
 10
62.084762
 20
176.598164
 30
0.0
 11
62.084762
 21
174.729269
 31
0.0
  0
LINE
  8
0
  6
CONTINUOUS
 10
64.355051
 20
176.031749
 30
0.0
 11
64.355051
 21
176.456237
 31
0.0
  0
LINE
  8
0
  6
CONTINUOUS
 10
63.860021
 20
177.195028
 30
0.0
 11
63.860021
 21
177.267432
 31
0.0
  0
LINE
  8
0
  6
CONTINUOUS
 10
49.571702
 20
173.413895
 30
0.0
 11
49.571702
 21
132.45743
 31
0.0
  0
LINE
  8
0
  6
CONTINUOUS
 10
54.521608
 20
171.102071
 30
0.0
 11
54.521608
 21
171.04266
 31
0.0
  0
LINE
  8
0
  6
CONTINUOUS
 10
55.978098
 20
171.226298
 30
0.0
 11
55.978098
 21
171.403149
 31
0.0
  0
LINE
  8
0
  6
CONTINUOUS
 10
58.334915
 20
173.068962
 30
0.0
 11
58.334915
 21
172.578269
 31
0.0
  0
LINE
  8
0
  6
CONTINUOUS
 10
59.410537
 20
173.195327
 30
0.0
 11
59.410537
 21
173.414094
 31
0.0
  0
LINE
  8
0
  6
CONTINUOUS
 10
65.592501
 20
135.317279
 30
0.0
 11
65.592501
 21
176.273744
 31
0.0
  0
LINE
  8
0
  6
CONTINUOUS
 10
63.055252
 20
176.669163
 30
0.0
 11
63.055252
 21
176.449952
 31
0.0
  0
LINE
  8
0
  6
CONTINUOUS
 10
54.849087
 20
171.349307
 30
0.0
 11
54.849087
 21
171.588789
 31
0.0
  0
LINE
  8
0
  6
CONTINUOUS
 10
53.460942
 20
171.183168
 30
0.0
 11
53.460942
 21
130.1673
 31
0.0
  0
LINE
  8
0
  6
CONTINUOUS
 10
73.280499
 20
130.570189
 30
0.0
 11
66.722705
 21
134.331503
 31
0.0
  0
LINE
  8
0
  6
CONTINUOUS
 10
73.479345
 20
129.883315
 30
0.0
 11
73.479345
 21
130.251923
 31
0.0
  0
LINE
  8
0
  6
CONTINUOUS
 10
69.199753
 20
102.995713
 30
0.0
 11
69.549172
 21
102.788207
 31
0.0
  0
LINE
  8
0
  6
CONTINUOUS
 10
94.193448
 20
115.459691
 30
0.0
 11
94.0542
 21
115.536781
 31
0.0
  0
LINE
  8
0
  6
CONTINUOUS
 10
82.728984
 20
98.026328
 30
0.0
 11
78.172718
 21
100.732116
 31
0.0
  0
LINE
  8
0
  6
CONTINUOUS
 10
81.24063
 20
123.034747
 30
0.0
 11
81.101853
 21
123.117161
 31
0.0
  0
LINE
  8
0
  6
CONTINUOUS
 10
81.653698
 20
95.682605
 30
0.0
 11
82.5108
 21
95.208098
 31
0.0
  0
LINE
  8
0
  6
CONTINUOUS
 10
79.071093
 20
121.296733
 30
0.0
 11
81.026851
 21
120.21399
 31
0.0
  0
LINE
  8
0
  6
CONTINUOUS
 10
78.771654
 20
121.123904
 30
0.0
 11
91.880514
 21
113.866602
 31
0.0
  0
LINE
  8
0
  6
CONTINUOUS
 10
71.875321
 20
104.373716
 30
0.0
 11
69.976787
 21
105.501181
 31
0.0
  0
LINE
  8
0
  6
CONTINUOUS
 10
69.096489
 20
89.447914
 30
0.0
 11
70.195448
 21
88.83951
 31
0.0
  0
LINE
  8
0
  6
CONTINUOUS
 10
93.582411
 20
129.388175
 30
0.0
 11
93.23527
 21
129.594329
 31
0.0
  0
LINE
  8
0
  6
CONTINUOUS
 10
86.529879
 20
125.57533
 30
0.0
 11
90.223461
 21
123.530497
 31
0.0
  0
LINE
  8
0
  6
CONTINUOUS
 10
73.554398
 20
94.697189
 30
0.0
 11
69.97668
 21
96.821856
 31
0.0
  0
LINE
  8
0
  6
CONTINUOUS
 10
66.796454
 20
114.397676
 30
0.0
 11
68.793205
 21
113.291708
 31
0.0
  0
LINE
  8
0
  6
CONTINUOUS
 10
44.345948
 20
86.570954
 30
0.0
 11
44.310264
 21
86.591417
 31
0.0
  0
LINE
  8
0
  6
CONTINUOUS
 10
44.310264
 20
84.543578
 30
0.0
 11
44.345948
 21
84.523115
 31
0.0
  0
LINE
  8
0
  6
CONTINUOUS
 10
51.782812
 20
85.835603
 30
0.0
 11
52.570162
 21
86.28727
 31
0.0
  0
LINE
  8
0
  6
CONTINUOUS
 10
56.419295
 20
83.175832
 30
0.0
 11
51.782812
 21
85.835603
 31
0.0
  0
LINE
  8
0
  6
CONTINUOUS
 10
57.126428
 20
83.581482
 30
0.0
 11
52.570162
 21
86.28727
 31
0.0
  0
LINE
  8
0
  6
CONTINUOUS
 10
55.712243
 20
107.487471
 30
0.0
 11
55.348964
 21
107.68859
 31
0.0
  0
LINE
  8
0
  6
CONTINUOUS
 10
48.286858
 20
90.73706
 30
0.0
 11
48.286858
 21
91.623048
 31
0.0
  0
LINE
  8
0
  6
CONTINUOUS
 10
51.822392
 20
90.755011
 30
0.0
 11
51.822392
 21
91.605256
 31
0.0
  0
LINE
  8
0
  6
CONTINUOUS
 10
57.125901
 20
87.766723
 30
0.0
 11
57.125901
 21
88.509742
 31
0.0
  0
LINE
  8
0
  6
CONTINUOUS
 10
54.277207
 20
107.073671
 30
0.0
 11
55.712243
 21
106.279209
 31
0.0
  0
LINE
  8
0
  6
CONTINUOUS
 10
44.345948
 20
88.618746
 30
0.0
 11
44.310264
 21
88.639937
 31
0.0
  0
LINE
  8
0
  6
CONTINUOUS
 10
67.555789
 20
101.314885
 30
0.0
 11
67.909356
 21
101.112092
 31
0.0
  0
LINE
  8
0
  6
CONTINUOUS
 10
56.249213
 20
82.226768
 30
0.0
 11
56.419294
 21
82.127496
 31
0.0
  0
LINE
  8
0
  6
CONTINUOUS
 10
56.419294
 20
82.025105
 30
0.0
 11
56.772862
 21
81.822311
 31
0.0
  0
LINE
  8
0
  6
CONTINUOUS
 10
56.249213
 20
106.800647
 30
0.0
 11
56.419294
 21
106.701375
 31
0.0
  0
LINE
  8
0
  6
CONTINUOUS
 10
56.419294
 20
106.598984
 30
0.0
 11
56.772862
 21
106.396191
 31
0.0
  0
LINE
  8
0
  6
CONTINUOUS
 10
46.079728
 20
89.194432
 30
0.0
 11
46.255033
 21
89.095623
 31
0.0
  0
LINE
  8
0
  6
CONTINUOUS
 10
46.343418
 20
89.146325
 30
0.0
 11
46.696985
 21
88.943532
 31
0.0
  0
LINE
  8
0
  6
CONTINUOUS
 10
44.929301
 20
87.315146
 30
0.0
 11
44.893601
 21
87.335619
 31
0.0
  0
LINE
  8
0
  6
CONTINUOUS
 10
44.699474
 20
87.183304
 30
0.0
 11
44.663773
 21
87.203778
 31
0.0
  0
LINE
  8
0
  6
CONTINUOUS
 10
67.272958
 20
101.975714
 30
0.0
 11
57.827794
 21
107.394038
 31
0.0
  0
LINE
  8
0
  6
CONTINUOUS
 10
68.31594
 20
102.574024
 30
0.0
 11
57.832822
 21
108.587782
 31
0.0
  0
LINE
  8
0
  6
CONTINUOUS
 10
66.565906
 20
99.931821
 30
0.0
 11
55.992855
 21
105.785253
 31
0.0
  0
LINE
  8
0
  6
CONTINUOUS
 10
66.565906
 20
100.751012
 30
0.0
 11
57.035443
 21
106.218269
 31
0.0
  0
LINE
  8
0
  6
CONTINUOUS
 10
57.303171
 20
81.307412
 30
0.0
 11
56.939891
 21
81.50853
 31
0.0
  0
LINE
  8
0
  6
CONTINUOUS
 10
56.703723
 20
81.373029
 30
0.0
 11
57.303171
 21
81.041163
 31
0.0
  0
LINE
  8
0
  6
CONTINUOUS
 10
68.846249
 20
102.263891
 30
0.0
 11
68.616422
 21
102.13205
 31
0.0
  0
LINE
  8
0
  6
CONTINUOUS
 10
68.262896
 20
101.519699
 30
0.0
 11
68.262896
 21
101.110103
 31
0.0
  0
LINE
  8
0
  6
CONTINUOUS
 10
69.199775
 20
100.82845
 30
0.0
 11
69.199775
 21
98.780611
 31
0.0
  0
LINE
  8
0
  6
CONTINUOUS
 10
57.303171
 20
81.041163
 30
0.0
 11
57.303171
 21
81.307412
 31
0.0
  0
LINE
  8
0
  6
CONTINUOUS
 10
56.949645
 20
81.514159
 30
0.0
 11
56.596078
 21
81.311334
 31
0.0
  0
LINE
  8
0
  6
CONTINUOUS
 10
56.242552
 20
80.698984
 30
0.0
 11
56.242552
 21
80.432735
 31
0.0
  0
LINE
  8
0
  6
CONTINUOUS
 10
44.345948
 20
84.523115
 30
0.0
 11
44.345948
 21
86.570954
 31
0.0
  0
LINE
  8
0
  6
CONTINUOUS
 10
44.699474
 20
87.183304
 30
0.0
 11
44.929301
 21
87.315146
 31
0.0
  0
LINE
  8
0
  6
CONTINUOUS
 10
44.929301
 20
88.54384
 30
0.0
 11
44.699474
 21
88.411998
 31
0.0
  0
LINE
  8
0
  6
CONTINUOUS
 10
44.345948
 20
88.618746
 30
0.0
 11
44.345948
 21
90.666585
 31
0.0
  0
LINE
  8
0
  6
CONTINUOUS
 10
56.419295
 20
83.175832
 30
0.0
 11
57.126428
 21
83.581482
 31
0.0
  0
LINE
  8
0
  6
CONTINUOUS
 10
57.83348
 20
83.167987
 30
0.0
 11
57.83348
 21
81.959724
 31
0.0
  0
LINE
  8
0
  6
CONTINUOUS
 10
68.31594
 20
100.116637
 30
0.0
 11
67.272958
 21
99.518326
 31
0.0
  0
LINE
  8
0
  6
CONTINUOUS
 10
66.565906
 20
99.931821
 30
0.0
 11
66.565906
 21
100.751012
 31
0.0
  0
LINE
  8
0
  6
CONTINUOUS
 10
67.272958
 20
101.975714
 30
0.0
 11
68.31594
 21
102.574024
 31
0.0
  0
LINE
  8
0
  6
CONTINUOUS
 10
57.83348
 20
108.704327
 30
0.0
 11
57.83348
 21
107.496065
 31
0.0
  0
LINE
  8
0
  6
CONTINUOUS
 10
57.126428
 20
106.271364
 30
0.0
 11
56.419295
 21
105.865714
 31
0.0
  0
LINE
  8
0
  6
CONTINUOUS
 10
55.712243
 20
106.279209
 30
0.0
 11
55.712243
 21
107.487471
 31
0.0
  0
LINE
  8
0
  6
CONTINUOUS
 10
45.282827
 20
87.927497
 30
0.0
 11
45.282827
 21
88.337092
 31
0.0
  0
LINE
  8
0
  6
CONTINUOUS
 10
45.282827
 20
87.927497
 30
0.0
 11
45.118062
 21
88.021984
 31
0.0
  0
LINE
  8
0
  6
CONTINUOUS
 10
45.115657
 20
88.436368
 30
0.0
 11
45.282827
 21
88.337092
 31
0.0
  0
LINE
  8
0
  6
CONTINUOUS
 10
68.846249
 20
101.035198
 30
0.0
 11
68.262859
 21
101.358173
 31
0.0
  0
LINE
  8
0
  6
CONTINUOUS
 10
68.616422
 20
100.903356
 30
0.0
 11
68.846249
 21
101.035198
 31
0.0
  0
LINE
  8
0
  6
CONTINUOUS
 10
68.616422
 20
100.903356
 30
0.0
 11
68.26293
 21
101.099055
 31
0.0
  0
LINE
  8
0
  6
CONTINUOUS
 10
69.199775
 20
113.3817
 30
0.0
 11
69.199775
 21
104.924081
 31
0.0
  0
LINE
  8
0
  6
CONTINUOUS
 10
46.979817
 20
89.515375
 30
0.0
 11
46.979817
 21
88.696183
 31
0.0
  0
LINE
  8
0
  6
CONTINUOUS
 10
46.272765
 20
87.471482
 30
0.0
 11
45.229783
 21
86.873171
 31
0.0
  0
LINE
  8
0
  6
CONTINUOUS
 10
51.07576
 20
83.402639
 30
0.0
 11
55.712243
 21
80.742868
 31
0.0
  0
LINE
  8
0
  6
CONTINUOUS
 10
51.07576
 20
83.402639
 30
0.0
 11
51.07576
 21
84.610902
 31
0.0
  0
LINE
  8
0
  6
CONTINUOUS
 10
55.712243
 20
81.951131
 30
0.0
 11
51.07576
 21
84.610902
 31
0.0
  0
LINE
  8
0
  6
CONTINUOUS
 10
55.712243
 20
80.742868
 30
0.0
 11
55.712243
 21
81.951131
 31
0.0
  0
LINE
  8
0
  6
CONTINUOUS
 10
45.229783
 20
89.330559
 30
0.0
 11
46.272765
 21
89.92887
 31
0.0
  0
LINE
  8
0
  6
CONTINUOUS
 10
44.876234
 20
89.540518
 30
0.0
 11
45.229783
 21
89.330559
 31
0.0
  0
LINE
  8
0
  6
CONTINUOUS
 10
44.876168
 20
90.758254
 30
0.0
 11
46.272765
 21
89.92887
 31
0.0
  0
LINE
  8
0
  6
CONTINUOUS
 10
56.596078
 20
107.933037
 30
0.0
 11
56.24253
 21
108.142995
 31
0.0
  0
LINE
  8
0
  6
CONTINUOUS
 10
56.208874
 20
108.560813
 30
0.0
 11
56.949645
 21
108.135862
 31
0.0
  0
LINE
  8
0
  6
CONTINUOUS
 10
56.596078
 20
107.933037
 30
0.0
 11
56.949645
 21
108.135862
 31
0.0
  0
LINE
  8
0
  6
CONTINUOUS
 10
56.242552
 20
108.406032
 30
0.0
 11
56.242552
 21
108.139784
 31
0.0
  0
LINE
  8
0
  6
CONTINUOUS
 10
57.303171
 20
108.748212
 30
0.0
 11
57.303171
 21
109.01446
 31
0.0
  0
LINE
  8
0
  6
CONTINUOUS
 10
56.6785
 20
109.106562
 30
0.0
 11
57.303171
 21
108.748212
 31
0.0
  0
LINE
  8
0
  6
CONTINUOUS
 10
56.910542
 20
109.239696
 30
0.0
 11
57.303171
 21
109.01446
 31
0.0
  0
LINE
  8
0
  6
CONTINUOUS
 10
68.669466
 20
110.148998
 30
0.0
 11
68.669466
 21
103.186375
 31
0.0
  0
LINE
  8
0
  6
CONTINUOUS
 10
68.669466
 20
103.186375
 30
0.0
 11
58.097423
 21
109.251146
 31
0.0
  0
LINE
  8
0
  6
CONTINUOUS
 10
68.487826
 20
110.249557
 30
0.0
 11
68.669466
 21
110.148998
 31
0.0
  0
LINE
  8
0
  6
CONTINUOUS
 10
55.889026
 20
79.820385
 30
0.0
 11
46.82063
 21
74.618263
 31
0.0
  0
LINE
  8
0
  6
CONTINUOUS
 10
64.197198
 20
85.200747
 30
0.0
 11
58.187006
 21
81.752977
 31
0.0
  0
LINE
  8
0
  6
CONTINUOUS
 10
58.187006
 20
81.752977
 30
0.0
 11
57.833457
 21
81.962936
 31
0.0
  0
LINE
  8
0
  6
CONTINUOUS
 10
54.951639
 20
85.216503
 30
0.0
 11
57.12604
 21
86.463857
 31
0.0
  0
LINE
  8
0
  6
CONTINUOUS
 10
57.125901
 20
88.509742
 30
0.0
 11
51.822392
 21
91.605256
 31
0.0
  0
LINE
  8
0
  6
CONTINUOUS
 10
48.286858
 20
91.623048
 30
0.0
 11
46.103924
 21
90.370799
 31
0.0
  0
LINE
  8
0
  6
CONTINUOUS
 10
49.931095
 20
93.384657
 30
0.0
 11
64.197198
 21
85.200747
 31
0.0
  0
LINE
  8
0
  6
CONTINUOUS
 10
49.348525
 20
104.246449
 30
0.0
 11
55.358717
 21
107.694219
 31
0.0
  0
LINE
  8
0
  6
CONTINUOUS
 10
44.876257
 20
79.298198
 30
0.0
 11
44.876257
 21
86.260821
 31
0.0
  0
LINE
  8
0
  6
CONTINUOUS
 10
57.656697
 20
109.626811
 30
0.0
 11
66.725093
 21
114.828932
 31
0.0
  0
LINE
  8
0
  6
CONTINUOUS
 10
57.621002
 20
109.647288
 30
0.0
 11
57.656697
 21
109.626811
 31
0.0
  0
LINE
  8
0
  6
CONTINUOUS
 10
66.690016
 20
114.849763
 30
0.0
 11
66.725093
 21
114.828932
 31
0.0
  0
LINE
  8
0
  6
CONTINUOUS
 10
44.345948
 20
90.666585
 30
0.0
 11
44.345948
 21
99.124204
 31
0.0
  0
LINE
  8
0
  6
CONTINUOUS
 10
44.345948
 20
90.666585
 30
0.0
 11
44.310264
 21
90.687055
 31
0.0
  0
LINE
  8
0
  6
CONTINUOUS
 10
66.796454
 20
91.052491
 30
0.0
 11
68.793205
 21
89.946523
 31
0.0
  0
LINE
  8
0
  6
CONTINUOUS
 10
49.171762
 20
102.035681
 30
0.0
 11
49.171762
 21
103.940273
 31
0.0
  0
LINE
  8
0
  6
CONTINUOUS
 10
68.492703
 20
92.641091
 30
0.0
 11
66.848643
 21
91.69797
 31
0.0
  0
LINE
  8
0
  6
CONTINUOUS
 10
54.2266
 20
100.825001
 30
0.0
 11
68.492703
 21
92.641091
 31
0.0
  0
LINE
  8
0
  6
CONTINUOUS
 10
64.373961
 20
85.506923
 30
0.0
 11
64.373961
 21
87.411515
 31
0.0
  0
LINE
  8
0
  6
CONTINUOUS
 10
50.107858
 20
93.690832
 30
0.0
 11
64.373961
 21
85.506923
 31
0.0
  0
LINE
  8
0
  6
CONTINUOUS
 10
49.171762
 20
76.786121
 30
0.0
 11
49.171762
 21
78.690714
 31
0.0
  0
LINE
  8
0
  6
CONTINUOUS
 10
46.69708
 20
97.749226
 30
0.0
 11
45.05302
 21
96.806105
 31
0.0
  0
LINE
  8
0
  6
CONTINUOUS
 10
64.373961
 20
87.411515
 30
0.0
 11
50.107858
 21
95.595425
 31
0.0
  0
LINE
  8
0
  6
CONTINUOUS
 10
66.848643
 20
91.69797
 30
0.0
 11
52.582541
 21
99.881879
 31
0.0
  0
LINE
  8
0
  6
CONTINUOUS
 10
46.69708
 20
80.137946
 30
0.0
 11
45.05302
 21
79.194825
 31
0.0
  0
LINE
  8
0
  6
CONTINUOUS
 10
44.876246
 20
79.299804
 30
0.0
 11
45.05302
 21
79.194825
 31
0.0
  0
LINE
  8
0
  6
CONTINUOUS
 10
68.492703
 20
110.252371
 30
0.0
 11
66.848643
 21
109.30925
 31
0.0
  0
LINE
  8
0
  6
CONTINUOUS
 10
64.373961
 20
110.756482
 30
0.0
 11
64.373961
 21
112.661075
 31
0.0
  0
LINE
  8
0
  6
CONTINUOUS
 10
64.192321
 20
112.761634
 30
0.0
 11
64.373961
 21
112.661075
 31
0.0
  0
LINE
  8
0
  6
CONTINUOUS
 10
46.849128
 20
89.912301
 30
0.0
 11
48.286858
 21
90.73706
 31
0.0
  0
LINE
  8
0
  6
CONTINUOUS
 10
51.822392
 20
90.755011
 30
0.0
 11
57.125901
 21
87.766723
 31
0.0
  0
LINE
  8
0
  6
CONTINUOUS
 10
66.725093
 20
86.036537
 30
0.0
 11
57.656697
 21
80.834416
 31
0.0
  0
LINE
  8
0
  6
CONTINUOUS
 10
69.199775
 20
98.780611
 30
0.0
 11
69.199775
 21
90.322992
 31
0.0
  0
LINE
  8
0
  6
CONTINUOUS
 10
55.853949
 20
108.633611
 30
0.0
 11
55.889026
 21
108.61278
 31
0.0
  0
LINE
  8
0
  6
CONTINUOUS
 10
46.82063
 20
103.410659
 30
0.0
 11
55.889026
 21
108.61278
 31
0.0
  0
LINE
  8
0
  6
CONTINUOUS
 10
44.310264
 20
84.54287
 30
0.0
 11
44.345948
 21
84.523115
 31
0.0
  0
LINE
  8
0
  6
CONTINUOUS
 10
44.345948
 20
76.065496
 30
0.0
 11
44.345948
 21
84.523115
 31
0.0
  0
LINE
  8
0
  6
CONTINUOUS
 10
44.345948
 20
76.065496
 30
0.0
 11
44.310264
 21
76.085251
 31
0.0
  0
LINE
  8
0
  6
CONTINUOUS
 10
64.373961
 20
110.756482
 30
0.0
 11
62.502904
 21
111.792333
 31
0.0
  0
LINE
  8
0
  6
CONTINUOUS
 10
55.358717
 20
80.130518
 30
0.0
 11
49.348525
 21
76.682747
 31
0.0
  0
LINE
  8
0
  6
CONTINUOUS
 10
49.348525
 20
76.682747
 30
0.0
 11
49.171751
 21
76.787727
 31
0.0
  0
LINE
  8
0
  6
CONTINUOUS
 10
47.433234
 20
80.903541
 30
0.0
 11
50.722234
 21
82.790288
 31
0.0
  0
LINE
  8
0
  6
CONTINUOUS
 10
50.722234
 20
82.790288
 30
0.0
 11
55.358717
 21
80.130518
 31
0.0
  0
LINE
  8
0
  6
CONTINUOUS
 10
44.876257
 20
89.537307
 30
0.0
 11
44.876257
 21
96.499929
 31
0.0
  0
LINE
  8
0
  6
CONTINUOUS
 10
54.2266
 20
100.825001
 30
0.0
 11
52.582541
 21
99.881879
 31
0.0
  0
LINE
  8
0
  6
CONTINUOUS
 10
50.107858
 20
95.595425
 30
0.0
 11
50.107858
 21
93.690832
 31
0.0
  0
LINE
  8
0
  6
CONTINUOUS
 10
49.931095
 20
93.384657
 30
0.0
 11
45.40296
 21
90.787074
 31
0.0
  0
LINE
  8
0
  6
CONTINUOUS
 10
68.669466
 20
99.909889
 30
0.0
 11
68.669466
 21
92.947267
 31
0.0
  0
LINE
  8
0
  6
CONTINUOUS
 10
54.403363
 20
101.131176
 30
0.0
 11
68.669466
 21
92.947267
 31
0.0
  0
LINE
  8
0
  6
CONTINUOUS
 10
54.403363
 20
106.319056
 30
0.0
 11
54.403363
 21
101.131176
 31
0.0
  0
LINE
  8
0
  6
CONTINUOUS
 10
68.306187
 20
100.111007
 30
0.0
 11
68.669466
 21
99.909889
 31
0.0
  0
LINE
  8
0
  6
CONTINUOUS
 10
58.187006
 20
109.316678
 30
0.0
 11
64.197198
 21
112.764448
 31
0.0
  0
LINE
  8
0
  6
CONTINUOUS
 10
67.292098
 20
101.362992
 30
0.0
 11
67.467404
 21
101.264183
 31
0.0
  0
LINE
  8
0
  6
CONTINUOUS
 10
46.69708
 20
80.137946
 30
0.0
 11
44.876141
 21
81.21933
 31
0.0
  0
LINE
  8
0
  6
CONTINUOUS
 10
46.644702
 20
79.492359
 30
0.0
 11
48.641453
 21
78.386391
 31
0.0
  0
LINE
  8
0
  6
CONTINUOUS
 10
47.491297
 20
126.250812
 30
0.0
 11
47.491297
 21
126.250727
 31
0.0
  0
LINE
  8
0
  6
CONTINUOUS
 10
44.345948
 20
99.124204
 30
0.0
 11
44.310265
 21
99.144674
 31
0.0
  0
LINE
  8
0
  6
CONTINUOUS
 10
46.82063
 20
103.410659
 30
0.0
 11
46.784936
 21
103.431135
 31
0.0
  0
LINE
  8
0
  6
CONTINUOUS
 10
46.644702
 20
102.837544
 30
0.0
 11
48.641453
 21
101.731576
 31
0.0
  0
LINE
  8
0
  6
CONTINUOUS
 10
69.199775
 20
104.924081
 30
0.0
 11
69.199775
 21
102.876242
 31
0.0
  0
LINE
  8
0
  6
CONTINUOUS
 10
59.520078
 20
173.93573
 30
0.0
 11
55.954191
 21
176.18267
 31
0.0
  0
LINE
  8
0
  6
CONTINUOUS
 10
59.520078
 20
173.258127
 30
0.0
 11
59.520078
 21
173.93573
 31
0.0
  0
LINE
  8
0
  6
CONTINUOUS
 10
60.605046
 20
173.880576
 30
0.0
 11
60.605046
 21
173.921141
 31
0.0
  0
LINE
  8
0
  6
CONTINUOUS
 10
60.912736
 20
174.097649
 30
0.0
 11
60.605046
 21
173.921141
 31
0.0
  0
LINE
  8
0
  6
CONTINUOUS
 10
60.912736
 20
174.057084
 30
0.0
 11
60.912736
 21
174.097649
 31
0.0
  0
LINE
  8
0
  6
CONTINUOUS
 10
60.256571
 20
174.248542
 30
0.0
 11
60.453098
 21
174.36128
 31
0.0
  0
LINE
  8
0
  6
CONTINUOUS
 10
56.222099
 20
176.567723
 30
0.0
 11
59.894915
 21
174.253404
 31
0.0
  0
LINE
  8
0
  6
CONTINUOUS
 10
56.230188
 20
176.562595
 30
0.0
 11
56.230188
 21
176.765653
 31
0.0
  0
LINE
  8
0
  6
CONTINUOUS
 10
59.720831
 20
178.768074
 30
0.0
 11
56.230188
 21
176.765653
 31
0.0
  0
LINE
  8
0
  6
CONTINUOUS
 10
59.720831
 20
174.36244
 30
0.0
 11
59.720831
 21
178.768074
 31
0.0
  0
LINE
  8
0
  6
CONTINUOUS
 10
60.427938
 20
174.346479
 30
0.0
 11
60.427938
 21
178.76809
 31
0.0
  0
LINE
  8
0
  6
CONTINUOUS
 10
62.690768
 20
177.470212
 30
0.0
 11
60.427938
 21
178.76809
 31
0.0
  0
LINE
  8
0
  6
CONTINUOUS
 10
62.690768
 20
177.06456
 30
0.0
 11
62.690768
 21
177.470212
 31
0.0
  0
LINE
  8
0
  6
CONTINUOUS
 10
62.231195
 20
176.800958
 30
0.0
 11
62.690796
 21
177.06461
 31
0.0
  0
LINE
  8
0
  6
CONTINUOUS
 10
62.231222
 20
174.813311
 30
0.0
 11
62.231222
 21
176.395355
 31
0.0
  0
LINE
  8
0
  6
CONTINUOUS
 10
63.155967
 20
175.864955
 30
0.0
 11
62.231222
 21
176.395355
 31
0.0
  0
LINE
  8
0
  6
CONTINUOUS
 10
63.155967
 20
175.343882
 30
0.0
 11
63.155967
 21
175.864955
 31
0.0
  0
LINE
  8
0
  6
CONTINUOUS
 10
64.159776
 20
175.919756
 30
0.0
 11
64.159776
 21
176.019262
 31
0.0
  0
LINE
  8
0
  6
CONTINUOUS
 10
64.346535
 20
176.419128
 30
0.0
 11
64.159776
 21
176.019262
 31
0.0
  0
LINE
  8
0
  6
CONTINUOUS
 10
64.346535
 20
176.026867
 30
0.0
 11
64.346535
 21
176.419128
 31
0.0
  0
LINE
  8
0
  6
CONTINUOUS
 10
63.468666
 20
176.293982
 30
0.0
 11
63.928268
 21
176.557634
 31
0.0
  0
LINE
  8
0
  6
CONTINUOUS
 10
62.867607
 20
176.55761
 30
0.0
 11
63.327245
 21
176.293979
 31
0.0
  0
LINE
  8
0
  6
CONTINUOUS
 10
62.867602
 20
176.557602
 30
0.0
 11
62.867602
 21
176.638731
 31
0.0
  0
LINE
  8
0
  6
CONTINUOUS
 10
63.150433
 20
176.800978
 30
0.0
 11
62.867602
 21
176.638731
 31
0.0
  0
LINE
  8
0
  6
CONTINUOUS
 10
60.251118
 20
179.396771
 30
0.0
 11
63.786791
 21
177.368836
 31
0.0
  0
LINE
  8
0
  6
CONTINUOUS
 10
49.644919
 20
173.515292
 30
0.0
 11
59.897565
 21
179.396763
 31
0.0
  0
LINE
  8
0
  6
CONTINUOUS
 10
49.644933
 20
132.356025
 30
0.0
 11
53.180605
 21
130.328091
 31
0.0
  0
LINE
  8
0
  6
CONTINUOUS
 10
49.644933
 20
132.356025
 30
0.0
 11
49.644933
 21
173.31249
 31
0.0
  0
LINE
  8
0
  6
CONTINUOUS
 10
53.180605
 20
171.284556
 30
0.0
 11
49.644933
 21
173.31249
 31
0.0
  0
LINE
  8
0
  6
CONTINUOUS
 10
53.180605
 20
130.328091
 30
0.0
 11
53.180605
 21
171.284556
 31
0.0
  0
LINE
  8
0
  6
CONTINUOUS
 10
54.453361
 20
171.811869
 30
0.0
 11
54.294269
 21
171.720604
 31
0.0
  0
LINE
  8
0
  6
CONTINUOUS
 10
54.453361
 20
171.770723
 30
0.0
 11
54.453361
 21
171.811869
 31
0.0
  0
LINE
  8
0
  6
CONTINUOUS
 10
54.594783
 20
171.770727
 30
0.0
 11
54.594783
 21
171.811872
 31
0.0
  0
LINE
  8
0
  6
CONTINUOUS
 10
55.05442
 20
171.54824
 30
0.0
 11
54.594783
 21
171.811872
 31
0.0
  0
LINE
  8
0
  6
CONTINUOUS
 10
55.05442
 20
171.46711
 30
0.0
 11
55.05442
 21
171.54824
 31
0.0
  0
LINE
  8
0
  6
CONTINUOUS
 10
54.594824
 20
171.203468
 30
0.0
 11
55.054426
 21
171.46712
 31
0.0
  0
LINE
  8
0
  6
CONTINUOUS
 10
54.836322
 20
170.862145
 30
0.0
 11
54.836322
 21
170.963556
 31
0.0
  0
LINE
  8
0
  6
CONTINUOUS
 10
55.533412
 20
171.070715
 30
0.0
 11
54.836322
 21
170.963556
 31
0.0
  0
LINE
  8
0
  6
CONTINUOUS
 10
55.533412
 20
170.971208
 30
0.0
 11
55.533412
 21
171.070715
 31
0.0
  0
LINE
  8
0
  6
CONTINUOUS
 10
54.877601
 20
172.176921
 30
0.0
 11
55.802345
 21
171.646521
 31
0.0
  0
LINE
  8
0
  6
CONTINUOUS
 10
53.710892
 20
171.913253
 30
0.0
 11
54.170494
 21
172.176905
 31
0.0
  0
LINE
  8
0
  6
CONTINUOUS
 10
50.740955
 20
173.211114
 30
0.0
 11
53.003786
 21
171.913237
 31
0.0
  0
LINE
  8
0
  6
CONTINUOUS
 10
50.740927
 20
173.211071
 30
0.0
 11
50.740927
 21
173.616717
 31
0.0
  0
LINE
  8
0
  6
CONTINUOUS
 10
54.231571
 20
175.619138
 30
0.0
 11
50.740927
 21
173.616717
 31
0.0
  0
LINE
  8
0
  6
CONTINUOUS
 10
54.231571
 20
172.206447
 30
0.0
 11
54.231571
 21
175.619138
 31
0.0
  0
LINE
  8
0
  6
CONTINUOUS
 10
54.576632
 20
172.258934
 30
0.0
 11
54.576632
 21
175.623794
 31
0.0
  0
LINE
  8
0
  6
CONTINUOUS
 10
58.611582
 20
173.517215
 30
0.0
 11
54.576632
 21
175.623794
 31
0.0
  0
LINE
  8
0
  6
CONTINUOUS
 10
58.611582
 20
173.30487
 30
0.0
 11
58.611582
 21
173.517215
 31
0.0
  0
LINE
  8
0
  6
CONTINUOUS
 10
58.430097
 20
173.200777
 30
0.0
 11
58.620088
 21
173.309767
 31
0.0
  0
LINE
  8
0
  6
CONTINUOUS
 10
58.889734
 20
172.896581
 30
0.0
 11
58.889734
 21
172.937146
 31
0.0
  0
LINE
  8
0
  6
CONTINUOUS
 10
59.190888
 20
173.109904
 30
0.0
 11
58.889734
 21
172.937146
 31
0.0
  0
LINE
  8
0
  6
CONTINUOUS
 10
59.190888
 20
173.069339
 30
0.0
 11
59.190888
 21
173.109904
 31
0.0
  0
LINE
  8
0
  6
CONTINUOUS
 10
55.247891
 20
175.777498
 30
0.0
 11
59.16537
 21
173.73225
 31
0.0
  0
LINE
  8
0
  6
CONTINUOUS
 10
55.954191
 20
175.40864
 30
0.0
 11
55.954191
 21
176.18267
 31
0.0
  0
LINE
  8
0
  6
CONTINUOUS
 10
64.140358
 20
177.166043
 30
0.0
 11
65.51927
 21
176.375149
 31
0.0
  0
LINE
  8
0
  6
CONTINUOUS
 10
63.150433
 20
176.800978
 30
0.0
 11
63.786805
 21
177.166035
 31
0.0
  0
LINE
  8
0
  6
CONTINUOUS
 10
63.610071
 20
176.375086
 30
0.0
 11
63.610071
 21
176.537347
 31
0.0
  0
LINE
  8
0
  6
CONTINUOUS
 10
63.786841
 20
176.638751
 30
0.0
 11
63.610071
 21
176.537347
 31
0.0
  0
LINE
  8
0
  6
CONTINUOUS
 10
63.786841
 20
176.476491
 30
0.0
 11
63.786841
 21
176.638751
 31
0.0
  0
LINE
  8
0
  6
CONTINUOUS
 10
64.140394
 20
176.598183
 30
0.0
 11
64.140394
 21
176.638759
 31
0.0
  0
LINE
  8
0
  6
CONTINUOUS
 10
64.600031
 20
176.375128
 30
0.0
 11
64.140394
 21
176.638759
 31
0.0
  0
LINE
  8
0
  6
CONTINUOUS
 10
64.600031
 20
176.172302
 30
0.0
 11
64.600031
 21
176.375128
 31
0.0
  0
LINE
  8
0
  6
CONTINUOUS
 10
55.266602
 20
170.81816
 30
0.0
 11
64.600045
 21
176.172327
 31
0.0
  0
LINE
  8
0
  6
CONTINUOUS
 10
54.36502
 20
171.132482
 30
0.0
 11
54.913049
 21
170.818152
 31
0.0
  0
LINE
  8
0
  6
CONTINUOUS
 10
54.365013
 20
171.132471
 30
0.0
 11
54.365013
 21
171.233883
 31
0.0
  0
LINE
  8
0
  6
CONTINUOUS
 10
54.753906
 20
171.456973
 30
0.0
 11
54.365013
 21
171.233883
 31
0.0
  0
LINE
  8
0
  6
CONTINUOUS
 10
54.753906
 20
171.294712
 30
0.0
 11
54.753906
 21
171.456973
 31
0.0
  0
LINE
  8
0
  6
CONTINUOUS
 10
53.534159
 20
171.284564
 30
0.0
 11
54.294269
 21
171.720604
 31
0.0
  0
LINE
  8
0
  6
CONTINUOUS
 10
53.534173
 20
130.125298
 30
0.0
 11
54.913085
 21
129.334403
 31
0.0
  0
LINE
  8
0
  6
CONTINUOUS
 10
53.534173
 20
130.125298
 30
0.0
 11
53.534173
 21
171.081763
 31
0.0
  0
LINE
  8
0
  6
CONTINUOUS
 10
54.913085
 20
170.290869
 30
0.0
 11
53.534173
 21
171.081763
 31
0.0
  0
LINE
  8
0
  6
CONTINUOUS
 10
54.913085
 20
129.334403
 30
0.0
 11
54.913085
 21
170.290869
 31
0.0
  0
LINE
  8
0
  6
CONTINUOUS
 10
65.519284
 20
135.215882
 30
0.0
 11
65.519284
 21
176.172347
 31
0.0
  0
LINE
  8
0
  6
CONTINUOUS
 10
55.266638
 20
129.334411
 30
0.0
 11
55.266638
 21
170.290877
 31
0.0
  0
LINE
  8
0
  6
CONTINUOUS
 10
65.519284
 20
176.172347
 30
0.0
 11
55.266638
 21
170.290877
 31
0.0
  0
LINE
  8
0
  6
CONTINUOUS
 10
48.895065
 20
131.816668
 30
0.0
 11
48.531917
 21
128.614937
 31
0.0
  0
LINE
  8
0
  6
CONTINUOUS
 10
48.356867
 20
128.338237
 30
0.0
 11
46.781246
 21
127.434375
 31
0.0
  0
LINE
  8
0
  6
CONTINUOUS
 10
49.432792
 20
132.477701
 30
0.0
 11
49.245164
 21
132.370068
 31
0.0
  0
LINE
  8
0
  6
CONTINUOUS
 10
55.089869
 20
129.233007
 30
0.0
 11
54.913085
 21
129.334403
 31
0.0
  0
LINE
  8
0
  6
CONTINUOUS
 10
53.534173
 20
130.125298
 30
0.0
 11
49.432792
 21
132.477701
 31
0.0
  0
LINE
  8
0
  6
CONTINUOUS
 10
55.089869
 20
129.233007
 30
0.0
 11
65.696054
 21
135.317287
 31
0.0
  0
LINE
  8
0
  6
CONTINUOUS
 10
66.746234
 20
134.234586
 30
0.0
 11
73.156115
 21
130.55811
 31
0.0
  0
LINE
  8
0
  6
CONTINUOUS
 10
46.781246
 20
127.434375
 30
0.0
 11
57.246837
 21
121.43169
 31
0.0
  0
LINE
  8
0
  6
CONTINUOUS
 10
46.604476
 20
127.128188
 30
0.0
 11
57.070067
 21
121.125503
 31
0.0
  0
LINE
  8
0
  6
CONTINUOUS
 10
46.604476
 20
126.75958
 30
0.0
 11
46.604476
 21
127.128188
 31
0.0
  0
LINE
  8
0
  6
CONTINUOUS
 10
57.777174
 20
120.756911
 30
0.0
 11
57.777174
 21
121.125519
 31
0.0
  0
LINE
  8
0
  6
CONTINUOUS
 10
57.070067
 20
120.756895
 30
0.0
 11
57.070067
 21
121.125503
 31
0.0
  0
LINE
  8
0
  6
CONTINUOUS
 10
73.332913
 20
130.04913
 30
0.0
 11
57.777174
 21
121.125519
 31
0.0
  0
LINE
  8
0
  6
CONTINUOUS
 10
73.156129
 20
130.355309
 30
0.0
 11
57.600391
 21
121.431698
 31
0.0
  0
LINE
  8
0
  6
CONTINUOUS
 10
65.696054
 20
135.317287
 30
0.0
 11
65.592497
 21
135.376683
 31
0.0
  0
LINE
  8
0
  6
CONTINUOUS
 10
73.332913
 20
129.680522
 30
0.0
 11
73.332913
 21
130.04913
 31
0.0
  0
LINE
  8
0
  6
CONTINUOUS
 10
53.675794
 20
122.70299
 30
0.0
 11
53.675794
 21
122.703668
 31
0.0
  0
LINE
  8
0
  6
CONTINUOUS
 10
52.261525
 20
123.514842
 30
0.0
 11
52.261525
 21
123.5143
 31
0.0
  0
LINE
  8
0
  6
CONTINUOUS
 10
49.256203
 20
125.238332
 30
0.0
 11
49.256203
 21
125.238586
 31
0.0
  0
LINE
  8
0
  6
CONTINUOUS
 10
47.841934
 20
126.04976
 30
0.0
 11
47.841934
 21
126.049641
 31
0.0
  0
LINE
  8
0
  6
CONTINUOUS
 10
51.907958
 20
123.717127
 30
0.0
 11
51.907958
 21
123.717635
 31
0.0
  0
LINE
  8
0
  6
CONTINUOUS
 10
49.60977
 20
125.035792
 30
0.0
 11
49.60977
 21
125.035504
 31
0.0
  0
LINE
  8
0
  6
CONTINUOUS
 10
46.604476
 20
126.75958
 30
0.0
 11
57.070067
 21
120.756895
 31
0.0
  0
LINE
  8
0
  6
CONTINUOUS
 10
73.332913
 20
129.680522
 30
0.0
 11
57.777174
 21
120.756911
 31
0.0
  0
LINE
  8
0
  6
CONTINUOUS
 10
54.029361
 20
122.500875
 30
0.0
 11
54.029361
 21
122.500163
 31
0.0
  0
LINE
  8
0
  6
CONTINUOUS
 10
94.336107
 20
116.845293
 30
0.0
 11
94.196369
 21
116.925442
 31
0.0
  0
LINE
  8
0
  6
CONTINUOUS
 10
94.336107
 20
127.842104
 30
0.0
 11
94.299342
 21
127.863191
 31
0.0
  0
LINE
  8
0
  6
CONTINUOUS
 10
91.861331
 20
100.415083
 30
0.0
 11
91.825633
 21
100.435558
 31
0.0
  0
LINE
  8
0
  6
CONTINUOUS
 10
81.930394
 20
95.529399
 30
0.0
 11
81.352654
 21
95.197976
 31
0.0
  0
LINE
  8
0
  6
CONTINUOUS
 10
70.233515
 20
88.819438
 30
0.0
 11
68.413072
 21
87.775134
 31
0.0
  0
LINE
  8
0
  6
CONTINUOUS
 10
56.829743
 20
81.130312
 30
0.0
 11
56.252003
 21
80.798889
 31
0.0
  0
LINE
  8
0
  6
CONTINUOUS
 10
93.705071
 20
115.336515
 30
0.0
 11
94.336107
 21
115.698512
 31
0.0
  0
LINE
  8
0
  6
CONTINUOUS
 10
93.528301
 20
115.439893
 30
0.0
 11
93.528301
 21
116.177109
 31
0.0
  0
LINE
  8
0
  6
CONTINUOUS
 10
93.705071
 20
116.483296
 30
0.0
 11
94.336107
 21
116.845293
 31
0.0
  0
LINE
  8
0
  6
CONTINUOUS
 10
94.336107
 20
127.842104
 30
0.0
 11
94.336107
 21
116.845293
 31
0.0
  0
LINE
  8
0
  6
CONTINUOUS
 10
91.861331
 20
129.289391
 30
0.0
 11
46.785043
 21
103.431201
 31
0.0
  0
LINE
  8
0
  6
CONTINUOUS
 10
44.941303
 20
88.509768
 30
0.0
 11
44.310267
 21
88.147772
 31
0.0
  0
LINE
  8
0
  6
CONTINUOUS
 10
45.118073
 20
87.669174
 30
0.0
 11
45.118073
 21
88.40639
 31
0.0
  0
LINE
  8
0
  6
CONTINUOUS
 10
44.310267
 20
87.000991
 30
0.0
 11
44.310267
 21
76.00418
 31
0.0
  0
LINE
  8
0
  6
CONTINUOUS
 10
46.785043
 20
74.556892
 30
0.0
 11
91.861331
 21
100.415083
 31
0.0
  0
LINE
  8
0
  6
CONTINUOUS
 10
46.604476
 20
126.75958
 30
0.0
 11
25.353526
 21
114.568888
 31
0.0
  0
LINE
  8
0
  6
CONTINUOUS
 10
65.592146
 20
137.651932
 30
0.0
 11
83.593197
 21
147.978306
 31
0.0
  0
LINE
  8
0
  6
CONTINUOUS
 10
46.604476
 20
126.75958
 30
0.0
 11
56.772187
 21
120.926759
 31
0.0
  0
LINE
  8
0
  6
CONTINUOUS
 10
94.336107
 20
115.698512
 30
0.0
 11
94.336107
 21
104.701701
 31
0.0
  0
LINE
  8
0
  6
CONTINUOUS
 10
94.336107
 20
104.701701
 30
0.0
 11
94.300424
 21
104.722167
 31
0.0
  0
LINE
  8
0
  6
CONTINUOUS
 10
46.785043
 20
74.556892
 30
0.0
 11
46.748221
 21
74.578012
 31
0.0
  0
LINE
  8
0
  6
CONTINUOUS
 10
25.0
 20
73.109372
 30
0.0
 11
25.0
 21
113.956538
 31
0.0
  0
LINE
  8
0
  6
CONTINUOUS
 10
44.310267
 20
99.144583
 30
0.0
 11
44.310267
 21
88.147772
 31
0.0
  0
LINE
  8
0
  6
CONTINUOUS
 10
44.941303
 20
87.362987
 30
0.0
 11
44.310267
 21
87.000991
 31
0.0
  0
LINE
  8
0
  6
CONTINUOUS
 10
91.897105
 20
128.796764
 30
0.0
 11
93.893856
 21
127.690796
 31
0.0
  0
LINE
  8
0
  6
CONTINUOUS
 10
69.446599
 20
100.970041
 30
0.0
 11
68.276681
 21
101.640948
 31
0.0
  0
LINE
  8
0
  6
CONTINUOUS
 10
69.199759
 20
99.063756
 30
0.0
 11
69.446599
 21
98.922202
 31
0.0
  0
LINE
  8
0
  6
CONTINUOUS
 10
76.883463
 20
100.23469
 30
0.0
 11
77.670813
 21
100.686357
 31
0.0
  0
LINE
  8
0
  6
CONTINUOUS
 10
81.519946
 20
97.57492
 30
0.0
 11
76.883463
 21
100.23469
 31
0.0
  0
LINE
  8
0
  6
CONTINUOUS
 10
82.227079
 20
97.980569
 30
0.0
 11
77.670813
 21
100.686357
 31
0.0
  0
LINE
  8
0
  6
CONTINUOUS
 10
80.812894
 20
121.886559
 30
0.0
 11
80.449614
 21
122.087677
 31
0.0
  0
LINE
  8
0
  6
CONTINUOUS
 10
73.387509
 20
105.136148
 30
0.0
 11
73.387509
 21
106.022135
 31
0.0
  0
LINE
  8
0
  6
CONTINUOUS
 10
76.923043
 20
105.154099
 30
0.0
 11
76.923043
 21
106.004344
 31
0.0
  0
LINE
  8
0
  6
CONTINUOUS
 10
82.226552
 20
102.165811
 30
0.0
 11
82.226552
 21
102.90883
 31
0.0
  0
LINE
  8
0
  6
CONTINUOUS
 10
79.377858
 20
121.472758
 30
0.0
 11
80.812894
 21
120.678296
 31
0.0
  0
LINE
  8
0
  6
CONTINUOUS
 10
69.446599
 20
103.017833
 30
0.0
 11
69.199759
 21
103.164421
 31
0.0
  0
LINE
  8
0
  6
CONTINUOUS
 10
92.65644
 20
115.713973
 30
0.0
 11
93.010007
 21
115.51118
 31
0.0
  0
LINE
  8
0
  6
CONTINUOUS
 10
81.349864
 20
96.625855
 30
0.0
 11
81.519945
 21
96.526583
 31
0.0
  0
LINE
  8
0
  6
CONTINUOUS
 10
81.519945
 20
96.424192
 30
0.0
 11
81.873512
 21
96.221399
 31
0.0
  0
LINE
  8
0
  6
CONTINUOUS
 10
81.349864
 20
121.199735
 30
0.0
 11
81.519945
 21
121.100463
 31
0.0
  0
LINE
  8
0
  6
CONTINUOUS
 10
81.519945
 20
120.998072
 30
0.0
 11
81.873512
 21
120.795278
 31
0.0
  0
LINE
  8
0
  6
CONTINUOUS
 10
71.180379
 20
103.59352
 30
0.0
 11
71.355684
 21
103.49471
 31
0.0
  0
LINE
  8
0
  6
CONTINUOUS
 10
71.444069
 20
103.545413
 30
0.0
 11
71.797636
 21
103.342619
 31
0.0
  0
LINE
  8
0
  6
CONTINUOUS
 10
70.029952
 20
101.714233
 30
0.0
 11
68.944746
 21
102.336561
 31
0.0
  0
LINE
  8
0
  6
CONTINUOUS
 10
69.800125
 20
101.582392
 30
0.0
 11
68.729101
 21
102.196586
 31
0.0
  0
LINE
  8
0
  6
CONTINUOUS
 10
92.373609
 20
116.374801
 30
0.0
 11
82.928445
 21
121.793125
 31
0.0
  0
LINE
  8
0
  6
CONTINUOUS
 10
93.416591
 20
116.973112
 30
0.0
 11
82.933473
 21
122.98687
 31
0.0
  0
LINE
  8
0
  6
CONTINUOUS
 10
91.666557
 20
114.330908
 30
0.0
 11
81.093506
 21
120.184341
 31
0.0
  0
LINE
  8
0
  6
CONTINUOUS
 10
91.666557
 20
115.1501
 30
0.0
 11
82.136094
 21
120.617357
 31
0.0
  0
LINE
  8
0
  6
CONTINUOUS
 10
82.403822
 20
95.706499
 30
0.0
 11
82.040542
 21
95.907617
 31
0.0
  0
LINE
  8
0
  6
CONTINUOUS
 10
81.804374
 20
95.772116
 30
0.0
 11
82.403822
 21
95.440251
 31
0.0
  0
LINE
  8
0
  6
CONTINUOUS
 10
93.9469
 20
116.662979
 30
0.0
 11
93.717073
 21
116.531138
 31
0.0
  0
LINE
  8
0
  6
CONTINUOUS
 10
93.363546
 20
115.918787
 30
0.0
 11
93.363546
 21
115.509191
 31
0.0
  0
LINE
  8
0
  6
CONTINUOUS
 10
94.300426
 20
115.227538
 30
0.0
 11
94.300426
 21
113.179699
 31
0.0
  0
LINE
  8
0
  6
CONTINUOUS
 10
82.403822
 20
95.440251
 30
0.0
 11
82.403822
 21
95.706499
 31
0.0
  0
LINE
  8
0
  6
CONTINUOUS
 10
82.050296
 20
95.913247
 30
0.0
 11
81.696729
 21
95.710422
 31
0.0
  0
LINE
  8
0
  6
CONTINUOUS
 10
81.343203
 20
95.098071
 30
0.0
 11
81.343203
 21
94.831823
 31
0.0
  0
LINE
  8
0
  6
CONTINUOUS
 10
69.446599
 20
98.922202
 30
0.0
 11
69.446599
 21
100.970041
 31
0.0
  0
LINE
  8
0
  6
CONTINUOUS
 10
69.800125
 20
101.582392
 30
0.0
 11
70.029952
 21
101.714233
 31
0.0
  0
LINE
  8
0
  6
CONTINUOUS
 10
70.029952
 20
102.942927
 30
0.0
 11
69.800125
 21
102.811086
 31
0.0
  0
LINE
  8
0
  6
CONTINUOUS
 10
69.446599
 20
103.017833
 30
0.0
 11
69.446599
 21
105.065672
 31
0.0
  0
LINE
  8
0
  6
CONTINUOUS
 10
81.519946
 20
97.57492
 30
0.0
 11
82.227079
 21
97.980569
 31
0.0
  0
LINE
  8
0
  6
CONTINUOUS
 10
82.934131
 20
97.567074
 30
0.0
 11
82.934131
 21
96.358812
 31
0.0
  0
LINE
  8
0
  6
CONTINUOUS
 10
93.416591
 20
114.515724
 30
0.0
 11
92.373609
 21
113.917413
 31
0.0
  0
LINE
  8
0
  6
CONTINUOUS
 10
91.666557
 20
114.330908
 30
0.0
 11
91.666557
 21
115.1501
 31
0.0
  0
LINE
  8
0
  6
CONTINUOUS
 10
92.373609
 20
116.374801
 30
0.0
 11
93.416591
 21
116.973112
 31
0.0
  0
LINE
  8
0
  6
CONTINUOUS
 10
82.934131
 20
123.103415
 30
0.0
 11
82.934131
 21
121.895153
 31
0.0
  0
LINE
  8
0
  6
CONTINUOUS
 10
82.227079
 20
120.670451
 30
0.0
 11
81.519946
 21
120.264802
 31
0.0
  0
LINE
  8
0
  6
CONTINUOUS
 10
80.812894
 20
120.678296
 30
0.0
 11
80.812894
 21
121.886559
 31
0.0
  0
LINE
  8
0
  6
CONTINUOUS
 10
70.383478
 20
102.326584
 30
0.0
 11
70.383478
 21
102.73618
 31
0.0
  0
LINE
  8
0
  6
CONTINUOUS
 10
70.383478
 20
102.326584
 30
0.0
 11
69.619221
 21
102.764859
 31
0.0
  0
LINE
  8
0
  6
CONTINUOUS
 10
70.032705
 20
102.944491
 30
0.0
 11
70.383478
 21
102.73618
 31
0.0
  0
LINE
  8
0
  6
CONTINUOUS
 10
93.9469
 20
115.434285
 30
0.0
 11
93.910571
 21
115.454398
 31
0.0
  0
LINE
  8
0
  6
CONTINUOUS
 10
93.717073
 20
115.302444
 30
0.0
 11
93.9469
 21
115.434285
 31
0.0
  0
LINE
  8
0
  6
CONTINUOUS
 10
93.717073
 20
115.302444
 30
0.0
 11
93.363581
 21
115.498143
 31
0.0
  0
LINE
  8
0
  6
CONTINUOUS
 10
94.300426
 20
127.780788
 30
0.0
 11
94.300426
 21
119.323169
 31
0.0
  0
LINE
  8
0
  6
CONTINUOUS
 10
72.080468
 20
103.914463
 30
0.0
 11
72.080468
 21
103.095271
 31
0.0
  0
LINE
  8
0
  6
CONTINUOUS
 10
71.373416
 20
101.87057
 30
0.0
 11
70.330434
 21
101.272259
 31
0.0
  0
LINE
  8
0
  6
CONTINUOUS
 10
76.176411
 20
97.801727
 30
0.0
 11
80.812894
 21
95.141956
 31
0.0
  0
LINE
  8
0
  6
CONTINUOUS
 10
76.176411
 20
97.801727
 30
0.0
 11
76.176411
 21
99.009989
 31
0.0
  0
LINE
  8
0
  6
CONTINUOUS
 10
80.812894
 20
96.350218
 30
0.0
 11
76.176411
 21
99.009989
 31
0.0
  0
LINE
  8
0
  6
CONTINUOUS
 10
80.812894
 20
95.141956
 30
0.0
 11
80.812894
 21
96.350218
 31
0.0
  0
LINE
  8
0
  6
CONTINUOUS
 10
70.330434
 20
103.729647
 30
0.0
 11
71.373416
 21
104.327958
 31
0.0
  0
LINE
  8
0
  6
CONTINUOUS
 10
69.976885
 20
103.939606
 30
0.0
 11
70.330434
 21
103.729647
 31
0.0
  0
LINE
  8
0
  6
CONTINUOUS
 10
69.976819
 20
105.157342
 30
0.0
 11
71.373416
 21
104.327958
 31
0.0
  0
LINE
  8
0
  6
CONTINUOUS
 10
81.696729
 20
122.332124
 30
0.0
 11
81.343181
 21
122.542083
 31
0.0
  0
LINE
  8
0
  6
CONTINUOUS
 10
81.309524
 20
122.959901
 30
0.0
 11
82.050296
 21
122.534949
 31
0.0
  0
LINE
  8
0
  6
CONTINUOUS
 10
81.696729
 20
122.332124
 30
0.0
 11
82.050296
 21
122.534949
 31
0.0
  0
LINE
  8
0
  6
CONTINUOUS
 10
81.343203
 20
122.80512
 30
0.0
 11
81.343203
 21
122.538872
 31
0.0
  0
LINE
  8
0
  6
CONTINUOUS
 10
82.403822
 20
123.1473
 30
0.0
 11
82.403822
 21
123.413548
 31
0.0
  0
LINE
  8
0
  6
CONTINUOUS
 10
81.779151
 20
123.505649
 30
0.0
 11
82.403822
 21
123.1473
 31
0.0
  0
LINE
  8
0
  6
CONTINUOUS
 10
82.011193
 20
123.638784
 30
0.0
 11
82.403822
 21
123.413548
 31
0.0
  0
LINE
  8
0
  6
CONTINUOUS
 10
93.770117
 20
124.548085
 30
0.0
 11
93.770117
 21
117.585463
 31
0.0
  0
LINE
  8
0
  6
CONTINUOUS
 10
93.770117
 20
117.585463
 30
0.0
 11
83.198074
 21
123.650234
 31
0.0
  0
LINE
  8
0
  6
CONTINUOUS
 10
93.588477
 20
124.648644
 30
0.0
 11
93.770117
 21
124.548085
 31
0.0
  0
LINE
  8
0
  6
CONTINUOUS
 10
80.989677
 20
94.219472
 30
0.0
 11
71.921281
 21
89.017351
 31
0.0
  0
LINE
  8
0
  6
CONTINUOUS
 10
89.297849
 20
99.599835
 30
0.0
 11
83.287657
 21
96.152065
 31
0.0
  0
LINE
  8
0
  6
CONTINUOUS
 10
83.287657
 20
96.152065
 30
0.0
 11
82.934108
 21
96.362023
 31
0.0
  0
LINE
  8
0
  6
CONTINUOUS
 10
80.05229
 20
99.615591
 30
0.0
 11
82.226691
 21
100.862945
 31
0.0
  0
LINE
  8
0
  6
CONTINUOUS
 10
82.226552
 20
102.90883
 30
0.0
 11
76.923043
 21
106.004344
 31
0.0
  0
LINE
  8
0
  6
CONTINUOUS
 10
73.387509
 20
106.022135
 30
0.0
 11
71.204575
 21
104.769887
 31
0.0
  0
LINE
  8
0
  6
CONTINUOUS
 10
75.031746
 20
107.783744
 30
0.0
 11
89.297849
 21
99.599835
 31
0.0
  0
LINE
  8
0
  6
CONTINUOUS
 10
74.449176
 20
118.645536
 30
0.0
 11
80.459368
 21
122.093306
 31
0.0
  0
LINE
  8
0
  6
CONTINUOUS
 10
69.976908
 20
93.697286
 30
0.0
 11
69.976908
 21
100.659908
 31
0.0
  0
LINE
  8
0
  6
CONTINUOUS
 10
82.757348
 20
124.025899
 30
0.0
 11
91.825744
 21
129.22802
 31
0.0
  0
LINE
  8
0
  6
CONTINUOUS
 10
82.721653
 20
124.046375
 30
0.0
 11
82.757348
 21
124.025899
 31
0.0
  0
LINE
  8
0
  6
CONTINUOUS
 10
91.790667
 20
129.248851
 30
0.0
 11
91.825744
 21
129.22802
 31
0.0
  0
LINE
  8
0
  6
CONTINUOUS
 10
69.446599
 20
105.065672
 30
0.0
 11
69.446599
 21
113.523291
 31
0.0
  0
LINE
  8
0
  6
CONTINUOUS
 10
69.446599
 20
105.065672
 30
0.0
 11
69.19976
 21
105.207274
 31
0.0
  0
LINE
  8
0
  6
CONTINUOUS
 10
91.897105
 20
105.451579
 30
0.0
 11
93.893856
 21
104.34561
 31
0.0
  0
LINE
  8
0
  6
CONTINUOUS
 10
74.272413
 20
116.434768
 30
0.0
 11
74.272413
 21
118.339361
 31
0.0
  0
LINE
  8
0
  6
CONTINUOUS
 10
93.593354
 20
107.040179
 30
0.0
 11
91.949294
 21
106.097057
 31
0.0
  0
LINE
  8
0
  6
CONTINUOUS
 10
79.327251
 20
115.224088
 30
0.0
 11
93.593354
 21
107.040179
 31
0.0
  0
LINE
  8
0
  6
CONTINUOUS
 10
89.474612
 20
99.90601
 30
0.0
 11
89.474612
 21
101.810603
 31
0.0
  0
LINE
  8
0
  6
CONTINUOUS
 10
75.208509
 20
108.08992
 30
0.0
 11
89.474612
 21
99.90601
 31
0.0
  0
LINE
  8
0
  6
CONTINUOUS
 10
74.272413
 20
91.185209
 30
0.0
 11
74.272413
 21
93.089801
 31
0.0
  0
LINE
  8
0
  6
CONTINUOUS
 10
71.797731
 20
112.148314
 30
0.0
 11
70.153671
 21
111.205192
 31
0.0
  0
LINE
  8
0
  6
CONTINUOUS
 10
89.474612
 20
101.810603
 30
0.0
 11
75.208509
 21
109.994512
 31
0.0
  0
LINE
  8
0
  6
CONTINUOUS
 10
91.949294
 20
106.097057
 30
0.0
 11
77.683192
 21
114.280967
 31
0.0
  0
LINE
  8
0
  6
CONTINUOUS
 10
71.797731
 20
94.537033
 30
0.0
 11
70.153671
 21
93.593912
 31
0.0
  0
LINE
  8
0
  6
CONTINUOUS
 10
69.976897
 20
93.698891
 30
0.0
 11
70.153671
 21
93.593912
 31
0.0
  0
LINE
  8
0
  6
CONTINUOUS
 10
93.593354
 20
124.651459
 30
0.0
 11
91.949294
 21
123.708338
 31
0.0
  0
LINE
  8
0
  6
CONTINUOUS
 10
89.474612
 20
125.15557
 30
0.0
 11
89.474612
 21
127.060162
 31
0.0
  0
LINE
  8
0
  6
CONTINUOUS
 10
89.292972
 20
127.160721
 30
0.0
 11
89.474612
 21
127.060162
 31
0.0
  0
LINE
  8
0
  6
CONTINUOUS
 10
71.949779
 20
104.311388
 30
0.0
 11
73.387509
 21
105.136148
 31
0.0
  0
LINE
  8
0
  6
CONTINUOUS
 10
76.923043
 20
105.154099
 30
0.0
 11
82.226552
 21
102.165811
 31
0.0
  0
LINE
  8
0
  6
CONTINUOUS
 10
91.825744
 20
100.435625
 30
0.0
 11
82.757348
 21
95.233504
 31
0.0
  0
LINE
  8
0
  6
CONTINUOUS
 10
94.300426
 20
113.179699
 30
0.0
 11
94.300426
 21
104.72208
 31
0.0
  0
LINE
  8
0
  6
CONTINUOUS
 10
80.9546
 20
123.032698
 30
0.0
 11
80.989677
 21
123.011867
 31
0.0
  0
LINE
  8
0
  6
CONTINUOUS
 10
71.921281
 20
117.809746
 30
0.0
 11
80.989677
 21
123.011867
 31
0.0
  0
LINE
  8
0
  6
CONTINUOUS
 10
69.19976
 20
99.058857
 30
0.0
 11
69.446599
 21
98.922202
 31
0.0
  0
LINE
  8
0
  6
CONTINUOUS
 10
69.446599
 20
90.464583
 30
0.0
 11
69.446599
 21
98.922202
 31
0.0
  0
LINE
  8
0
  6
CONTINUOUS
 10
69.446599
 20
90.464583
 30
0.0
 11
69.19976
 21
90.601238
 31
0.0
  0
LINE
  8
0
  6
CONTINUOUS
 10
89.474612
 20
125.15557
 30
0.0
 11
87.603555
 21
126.191421
 31
0.0
  0
LINE
  8
0
  6
CONTINUOUS
 10
80.459368
 20
94.529605
 30
0.0
 11
74.449176
 21
91.081835
 31
0.0
  0
LINE
  8
0
  6
CONTINUOUS
 10
74.449176
 20
91.081835
 30
0.0
 11
74.272402
 21
91.186814
 31
0.0
  0
LINE
  8
0
  6
CONTINUOUS
 10
72.533885
 20
95.302628
 30
0.0
 11
75.822885
 21
97.189376
 31
0.0
  0
LINE
  8
0
  6
CONTINUOUS
 10
75.822885
 20
97.189376
 30
0.0
 11
80.459368
 21
94.529605
 31
0.0
  0
LINE
  8
0
  6
CONTINUOUS
 10
69.976908
 20
103.936394
 30
0.0
 11
69.976908
 21
110.899017
 31
0.0
  0
LINE
  8
0
  6
CONTINUOUS
 10
79.327251
 20
115.224088
 30
0.0
 11
77.683192
 21
114.280967
 31
0.0
  0
LINE
  8
0
  6
CONTINUOUS
 10
75.208509
 20
109.994512
 30
0.0
 11
75.208509
 21
108.08992
 31
0.0
  0
LINE
  8
0
  6
CONTINUOUS
 10
75.031746
 20
107.783744
 30
0.0
 11
70.503611
 21
105.186162
 31
0.0
  0
LINE
  8
0
  6
CONTINUOUS
 10
93.770117
 20
114.308977
 30
0.0
 11
93.770117
 21
107.346354
 31
0.0
  0
LINE
  8
0
  6
CONTINUOUS
 10
79.504014
 20
115.530264
 30
0.0
 11
93.770117
 21
107.346354
 31
0.0
  0
LINE
  8
0
  6
CONTINUOUS
 10
79.504014
 20
120.718143
 30
0.0
 11
79.504014
 21
115.530264
 31
0.0
  0
LINE
  8
0
  6
CONTINUOUS
 10
93.406837
 20
114.510095
 30
0.0
 11
93.770117
 21
114.308977
 31
0.0
  0
LINE
  8
0
  6
CONTINUOUS
 10
83.287657
 20
123.715766
 30
0.0
 11
89.297849
 21
127.163536
 31
0.0
  0
LINE
  8
0
  6
CONTINUOUS
 10
92.392749
 20
115.76208
 30
0.0
 11
92.568055
 21
115.663271
 31
0.0
  0
LINE
  8
0
  6
CONTINUOUS
 10
71.797731
 20
94.537033
 30
0.0
 11
69.976792
 21
95.618418
 31
0.0
  0
LINE
  8
0
  6
CONTINUOUS
 10
71.745353
 20
93.891447
 30
0.0
 11
73.742104
 21
92.785478
 31
0.0
  0
LINE
  8
0
  6
CONTINUOUS
 10
69.446599
 20
113.523291
 30
0.0
 11
69.18608
 21
113.672741
 31
0.0
  0
LINE
  8
0
  6
CONTINUOUS
 10
71.921281
 20
117.809746
 30
0.0
 11
71.885586
 21
117.830223
 31
0.0
  0
LINE
  8
0
  6
CONTINUOUS
 10
71.745353
 20
117.236632
 30
0.0
 11
73.742104
 21
116.130663
 31
0.0
  0
LINE
  8
0
  6
CONTINUOUS
 10
94.300426
 20
119.323169
 30
0.0
 11
94.300426
 21
117.27533
 31
0.0
  0
LINE
  8
0
  6
CONTINUOUS
 10
38.565233
 20
106.989845
 30
0.0
 11
38.578689
 21
106.997565
 31
0.0
  0
LINE
  8
0
  6
CONTINUOUS
 10
38.578689
 20
106.997565
 30
0.0
 11
67.570778
 21
123.62899
 31
0.0
  0
LINE
  8
0
  6
CONTINUOUS
 10
67.570778
 20
123.62899
 30
0.0
 11
96.562866
 21
140.260416
 31
0.0
  0
LINE
  8
0
  6
CONTINUOUS
 10
96.562866
 20
140.260416
 30
0.0
 11
96.576323
 21
140.268136
 31
0.0
  0
LINE
  8
0
  6
CONTINUOUS
 10
40.329875
 20
103.943999
 30
0.0
 11
40.331099
 21
103.944701
 31
0.0
  0
LINE
  8
0
  6
CONTINUOUS
 10
40.331099
 20
103.944701
 30
0.0
 11
69.323187
 21
120.576127
 31
0.0
  0
LINE
  8
0
  6
CONTINUOUS
 10
69.323187
 20
120.576127
 30
0.0
 11
98.315275
 21
137.207553
 31
0.0
  0
LINE
  8
0
  6
CONTINUOUS
 10
98.315275
 20
137.207553
 30
0.0
 11
98.316499
 21
137.208254
 31
0.0
  0
LINE
  8
0
  6
CONTINUOUS
 10
40.329875
 20
66.638029
 30
0.0
 11
40.331099
 21
66.638731
 31
0.0
  0
LINE
  8
0
  6
CONTINUOUS
 10
40.331099
 20
66.638731
 30
0.0
 11
69.323187
 21
83.270157
 31
0.0
  0
LINE
  8
0
  6
CONTINUOUS
 10
69.323187
 20
83.270157
 30
0.0
 11
98.315275
 21
99.901583
 31
0.0
  0
LINE
  8
0
  6
CONTINUOUS
 10
98.315275
 20
99.901583
 30
0.0
 11
98.316499
 21
99.902285
 31
0.0
  0
LINE
  8
0
  6
CONTINUOUS
 10
66.076189
 20
135.314505
 30
0.0
 11
60.585469
 21
132.164731
 31
0.0
  0
LINE
  8
0
  6
CONTINUOUS
 10
60.585469
 20
132.164731
 30
0.0
 11
55.094748
 21
129.014958
 31
0.0
  0
LINE
  8
0
  6
CONTINUOUS
 10
67.327704
 20
131.491036
 30
0.0
 11
61.473835
 21
128.13294
 31
0.0
  0
LINE
  8
0
  6
CONTINUOUS
 10
61.473835
 20
128.13294
 30
0.0
 11
55.619966
 21
124.774845
 31
0.0
  0
LINE
  8
0
  6
CONTINUOUS
 10
67.152641
 20
131.767728
 30
0.0
 11
61.298772
 21
128.409632
 31
0.0
  0
LINE
  8
0
  6
CONTINUOUS
 10
61.298772
 20
128.409632
 30
0.0
 11
55.444903
 21
125.051537
 31
0.0
  0
LINE
  8
0
  6
CONTINUOUS
 10
66.426316
 20
134.761121
 30
0.0
 11
60.935595
 21
131.611347
 31
0.0
  0
LINE
  8
0
  6
CONTINUOUS
 10
60.935595
 20
131.611347
 30
0.0
 11
55.444874
 21
128.461574
 31
0.0
  0
LINE
  8
0
  6
CONTINUOUS
 10
97.778981
 20
98.782772
 30
0.0
 11
68.779465
 21
82.147085
 31
0.0
  0
LINE
  8
0
  6
CONTINUOUS
 10
68.779465
 20
82.147085
 30
0.0
 11
39.779948
 21
65.511398
 31
0.0
  0
LINE
  8
0
  6
CONTINUOUS
 10
38.211707
 20
106.377494
 30
0.0
 11
38.746029
 21
105.937179
 31
0.0
  0
LINE
  8
0
  6
CONTINUOUS
 10
38.746029
 20
105.937179
 30
0.0
 11
39.197329
 21
105.319959
 31
0.0
  0
LINE
  8
0
  6
CONTINUOUS
 10
39.197329
 20
65.741595
 30
0.0
 11
38.746029
 21
65.633116
 31
0.0
  0
LINE
  8
0
  6
CONTINUOUS
 10
38.746029
 20
65.633116
 30
0.0
 11
38.211707
 21
65.795132
 31
0.0
  0
LINE
  8
0
  6
CONTINUOUS
 10
39.792726
 20
105.665309
 30
0.0
 11
39.23018
 21
106.437744
 31
0.0
  0
LINE
  8
0
  6
CONTINUOUS
 10
39.23018
 20
106.437744
 30
0.0
 11
38.565233
 21
106.989845
 31
0.0
  0
LINE
  8
0
  6
CONTINUOUS
 10
39.467629
 20
65.524751
 30
0.0
 11
38.898987
 21
65.392324
 31
0.0
  0
LINE
  8
0
  6
CONTINUOUS
 10
38.898987
 20
65.392324
 30
0.0
 11
38.320275
 21
65.570844
 31
0.0
  0
LINE
  8
0
  6
CONTINUOUS
 10
38.320275
 20
106.723564
 30
0.0
 11
38.893917
 21
106.255469
 31
0.0
  0
LINE
  8
0
  6
CONTINUOUS
 10
38.893917
 20
106.255469
 30
0.0
 11
39.462521
 21
105.479617
 31
0.0
  0
LINE
  8
0
  6
CONTINUOUS
 10
38.324064
 20
65.568688
 30
0.0
 11
38.330626
 21
65.565131
 31
0.0
  0
LINE
  8
0
  6
CONTINUOUS
 10
38.330626
 20
65.565131
 30
0.0
 11
38.338452
 21
65.561047
 31
0.0
  0
LINE
  8
0
  6
CONTINUOUS
 10
38.338452
 20
65.561047
 30
0.0
 11
38.358028
 21
65.551322
 31
0.0
  0
LINE
  8
0
  6
CONTINUOUS
 10
38.358028
 20
65.551322
 30
0.0
 11
38.411518
 21
65.526794
 31
0.0
  0
LINE
  8
0
  6
CONTINUOUS
 10
38.411518
 20
65.526794
 30
0.0
 11
38.561573
 21
65.467443
 31
0.0
  0
LINE
  8
0
  6
CONTINUOUS
 10
38.561573
 20
65.467443
 30
0.0
 11
38.929078
 21
65.372819
 31
0.0
  0
LINE
  8
0
  6
CONTINUOUS
 10
38.929078
 20
65.372819
 30
0.0
 11
39.205487
 21
65.359173
 31
0.0
  0
LINE
  8
0
  6
CONTINUOUS
 10
39.205487
 20
65.359173
 30
0.0
 11
39.35554
 21
65.374517
 31
0.0
  0
LINE
  8
0
  6
CONTINUOUS
 10
39.35554
 20
65.374517
 30
0.0
 11
39.530819
 21
65.410519
 31
0.0
  0
LINE
  8
0
  6
CONTINUOUS
 10
39.530819
 20
65.410519
 30
0.0
 11
39.628045
 21
65.441023
 31
0.0
  0
LINE
  8
0
  6
CONTINUOUS
 10
39.628045
 20
65.441023
 30
0.0
 11
39.779896
 21
65.511368
 31
0.0
  0
LINE
  8
0
  6
CONTINUOUS
 10
25.0
 20
73.109372
 30
0.0
 11
32.486592
 21
68.964659
 31
0.0
  0
LINE
  8
0
  6
CONTINUOUS
 10
32.486592
 20
68.964659
 30
0.0
 11
38.211707
 21
65.795132
 31
0.0
  0
LINE
  8
0
  6
CONTINUOUS
 10
25.111138
 20
72.883602
 30
0.0
 11
31.717593
 21
69.226149
 31
0.0
  0
LINE
  8
0
  6
CONTINUOUS
 10
31.717593
 20
69.226149
 30
0.0
 11
38.324066
 21
65.568686
 31
0.0
  0
LINE
  8
0
  6
CONTINUOUS
 10
25.111105
 20
72.883621
 30
0.0
 11
25.10741
 21
72.885723
 31
0.0
  0
LINE
  8
0
  6
CONTINUOUS
 10
25.10741
 20
72.885723
 30
0.0
 11
25.029306
 21
72.971465
 31
0.0
  0
LINE
  8
0
  6
CONTINUOUS
 10
25.029306
 20
72.971465
 30
0.0
 11
25.0
 21
73.109372
 31
0.0
  0
LINE
  8
0
  6
CONTINUOUS
 10
38.324053
 20
65.568694
 30
0.0
 11
38.320275
 21
65.570844
 31
0.0
  0
LINE
  8
0
  6
CONTINUOUS
 10
38.320275
 20
65.570844
 30
0.0
 11
38.211707
 21
65.795132
 31
0.0
  0
LINE
  8
0
  6
CONTINUOUS
 10
38.211707
 20
106.377494
 30
0.0
 11
32.486592
 21
109.66177
 31
0.0
  0
LINE
  8
0
  6
CONTINUOUS
 10
32.486592
 20
109.66177
 30
0.0
 11
25.0
 21
113.956538
 31
0.0
  0
LINE
  8
0
  6
CONTINUOUS
 10
38.565233
 20
106.989845
 30
0.0
 11
32.840118
 21
110.274121
 31
0.0
  0
LINE
  8
0
  6
CONTINUOUS
 10
32.840118
 20
110.274121
 30
0.0
 11
25.353526
 21
114.568888
 31
0.0
  0
LINE
  8
0
  6
CONTINUOUS
 10
25.353526
 20
114.568888
 30
0.0
 11
25.219972
 21
114.458324
 31
0.0
  0
LINE
  8
0
  6
CONTINUOUS
 10
25.219972
 20
114.458324
 30
0.0
 11
25.107283
 21
114.3032
 31
0.0
  0
LINE
  8
0
  6
CONTINUOUS
 10
25.107283
 20
114.3032
 30
0.0
 11
25.029282
 21
114.12799
 31
0.0
  0
LINE
  8
0
  6
CONTINUOUS
 10
25.029282
 20
114.12799
 30
0.0
 11
25.0
 21
113.956538
 31
0.0
  0
LINE
  8
0
  6
CONTINUOUS
 10
38.320275
 20
106.723564
 30
0.0
 11
38.565233
 21
106.989845
 31
0.0
  0
LINE
  8
0
  6
CONTINUOUS
 10
38.211707
 20
106.377494
 30
0.0
 11
38.320275
 21
106.723564
 31
0.0
  0
LINE
  8
0
  6
CONTINUOUS
 10
39.625867
 20
103.942221
 30
0.0
 11
39.625867
 21
85.289236
 31
0.0
  0
LINE
  8
0
  6
CONTINUOUS
 10
39.625867
 20
85.289236
 30
0.0
 11
39.625867
 21
66.636251
 31
0.0
  0
LINE
  8
0
  6
CONTINUOUS
 10
40.329875
 20
103.943999
 30
0.0
 11
40.329875
 21
85.291014
 31
0.0
  0
LINE
  8
0
  6
CONTINUOUS
 10
40.329875
 20
85.291014
 30
0.0
 11
40.329875
 21
66.638029
 31
0.0
  0
LINE
  8
0
  6
CONTINUOUS
 10
57.125901
 20
88.509742
 30
0.0
 11
57.858204
 21
87.483115
 31
0.0
  0
LINE
  8
0
  6
CONTINUOUS
 10
57.858204
 20
87.483115
 30
0.0
 11
57.12604
 21
86.463857
 31
0.0
  0
LINE
  8
0
  6
CONTINUOUS
 10
44.876257
 20
86.260821
 30
0.0
 11
44.979801
 21
86.609816
 31
0.0
  0
LINE
  8
0
  6
CONTINUOUS
 10
44.979801
 20
86.609816
 30
0.0
 11
45.229783
 21
86.873171
 31
0.0
  0
LINE
  8
0
  6
CONTINUOUS
 10
44.345948
 20
86.570954
 30
0.0
 11
44.449491
 21
86.919949
 31
0.0
  0
LINE
  8
0
  6
CONTINUOUS
 10
44.449491
 20
86.919949
 30
0.0
 11
44.699474
 21
87.183304
 31
0.0
  0
LINE
  8
0
  6
CONTINUOUS
 10
39.266114
 20
66.816625
 30
0.0
 11
39.272842
 21
66.820485
 31
0.0
  0
LINE
  8
0
  6
CONTINUOUS
 10
39.272842
 20
66.820485
 30
0.0
 11
40.32249
 21
67.42262
 31
0.0
  0
LINE
  8
0
  6
CONTINUOUS
 10
39.792726
 20
65.518863
 30
0.0
 11
40.182686
 21
65.950733
 31
0.0
  0
LINE
  8
0
  6
CONTINUOUS
 10
40.182686
 20
65.950733
 30
0.0
 11
40.329875
 21
66.638029
 31
0.0
  0
LINE
  8
0
  6
CONTINUOUS
 10
39.978477
 20
66.55829
 30
0.0
 11
40.329875
 21
66.638029
 31
0.0
  0
LINE
  8
0
  6
CONTINUOUS
 10
39.625867
 20
66.636251
 30
0.0
 11
39.509358
 21
66.087123
 31
0.0
  0
LINE
  8
0
  6
CONTINUOUS
 10
39.509358
 20
66.087123
 30
0.0
 11
39.197329
 21
65.741595
 31
0.0
  0
LINE
  8
0
  6
CONTINUOUS
 10
39.792726
 20
65.518863
 30
0.0
 11
39.467629
 21
65.524751
 31
0.0
  0
LINE
  8
0
  6
CONTINUOUS
 10
39.978477
 20
66.55829
 30
0.0
 11
39.858206
 21
65.966746
 31
0.0
  0
LINE
  8
0
  6
CONTINUOUS
 10
39.858206
 20
65.966746
 30
0.0
 11
39.467629
 21
65.524751
 31
0.0
  0
LINE
  8
0
  6
CONTINUOUS
 10
39.197329
 20
65.741595
 30
0.0
 11
39.467629
 21
65.524751
 31
0.0
  0
LINE
  8
0
  6
CONTINUOUS
 10
39.792726
 20
65.518863
 30
0.0
 11
39.779987
 21
65.51142
 31
0.0
  0
LINE
  8
0
  6
CONTINUOUS
 10
39.625867
 20
66.636251
 30
0.0
 11
39.978477
 21
66.55829
 31
0.0
  0
LINE
  8
0
  6
CONTINUOUS
 10
46.785043
 20
74.556892
 30
0.0
 11
45.547655
 21
74.231159
 31
0.0
  0
LINE
  8
0
  6
CONTINUOUS
 10
45.547655
 20
74.231159
 30
0.0
 11
44.641824
 21
74.760903
 31
0.0
  0
LINE
  8
0
  6
CONTINUOUS
 10
44.641824
 20
74.760903
 30
0.0
 11
44.310267
 21
76.00418
 31
0.0
  0
LINE
  8
0
  6
CONTINUOUS
 10
46.82063
 20
74.618263
 30
0.0
 11
45.070754
 21
74.454106
 31
0.0
  0
LINE
  8
0
  6
CONTINUOUS
 10
45.070754
 20
74.454106
 30
0.0
 11
44.345948
 21
76.065496
 31
0.0
  0
LINE
  8
0
  6
CONTINUOUS
 10
44.752518
 20
76.155488
 30
0.0
 11
45.013027
 21
77.431233
 31
0.0
  0
LINE
  8
0
  6
CONTINUOUS
 10
45.013027
 20
77.431233
 30
0.0
 11
45.724752
 21
78.664027
 31
0.0
  0
LINE
  8
0
  6
CONTINUOUS
 10
45.724752
 20
78.664027
 30
0.0
 11
46.696985
 21
79.523545
 31
0.0
  0
LINE
  8
0
  6
CONTINUOUS
 10
46.696985
 20
79.523545
 30
0.0
 11
47.669219
 21
79.779479
 31
0.0
  0
LINE
  8
0
  6
CONTINUOUS
 10
47.669219
 20
79.779479
 30
0.0
 11
48.380944
 21
79.363251
 31
0.0
  0
LINE
  8
0
  6
CONTINUOUS
 10
48.380944
 20
79.363251
 30
0.0
 11
48.641453
 21
78.386391
 31
0.0
  0
LINE
  8
0
  6
CONTINUOUS
 10
48.641453
 20
78.386391
 30
0.0
 11
48.380944
 21
77.110646
 31
0.0
  0
LINE
  8
0
  6
CONTINUOUS
 10
48.380944
 20
77.110646
 30
0.0
 11
47.669219
 21
75.877851
 31
0.0
  0
LINE
  8
0
  6
CONTINUOUS
 10
47.669219
 20
75.877851
 30
0.0
 11
46.696985
 21
75.018334
 31
0.0
  0
LINE
  8
0
  6
CONTINUOUS
 10
46.696985
 20
75.018334
 30
0.0
 11
45.724752
 21
74.7624
 31
0.0
  0
LINE
  8
0
  6
CONTINUOUS
 10
45.724752
 20
74.7624
 30
0.0
 11
45.013027
 21
75.178627
 31
0.0
  0
LINE
  8
0
  6
CONTINUOUS
 10
45.013027
 20
75.178627
 30
0.0
 11
44.752518
 21
76.155488
 31
0.0
  0
LINE
  8
0
  6
CONTINUOUS
 10
49.348525
 20
76.682747
 30
0.0
 11
49.223534
 21
76.671022
 31
0.0
  0
LINE
  8
0
  6
CONTINUOUS
 10
49.223534
 20
76.671022
 30
0.0
 11
49.171762
 21
76.786121
 31
0.0
  0
LINE
  8
0
  6
CONTINUOUS
 10
46.69708
 20
80.137946
 30
0.0
 11
48.446956
 21
80.302103
 31
0.0
  0
LINE
  8
0
  6
CONTINUOUS
 10
48.446956
 20
80.302103
 30
0.0
 11
49.171762
 21
78.690714
 31
0.0
  0
LINE
  8
0
  6
CONTINUOUS
 10
45.05302
 20
79.194825
 30
0.0
 11
44.928029
 21
79.183099
 31
0.0
  0
LINE
  8
0
  6
CONTINUOUS
 10
44.928029
 20
79.183099
 30
0.0
 11
44.876257
 21
79.298198
 31
0.0
  0
LINE
  8
0
  6
CONTINUOUS
 10
55.712243
 20
81.951131
 30
0.0
 11
55.91933
 21
82.649121
 31
0.0
  0
LINE
  8
0
  6
CONTINUOUS
 10
55.91933
 20
82.649121
 30
0.0
 11
56.419295
 21
83.175832
 31
0.0
  0
LINE
  8
0
  6
CONTINUOUS
 10
56.242552
 20
80.432735
 30
0.0
 11
56.139008
 21
80.08374
 31
0.0
  0
LINE
  8
0
  6
CONTINUOUS
 10
56.139008
 20
80.08374
 30
0.0
 11
55.889026
 21
79.820385
 31
0.0
  0
LINE
  8
0
  6
CONTINUOUS
 10
51.07576
 20
84.610902
 30
0.0
 11
51.282847
 21
85.308892
 31
0.0
  0
LINE
  8
0
  6
CONTINUOUS
 10
51.282847
 20
85.308892
 30
0.0
 11
51.782812
 21
85.835603
 31
0.0
  0
LINE
  8
0
  6
CONTINUOUS
 10
51.07576
 20
83.402639
 30
0.0
 11
50.972216
 21
83.053644
 31
0.0
  0
LINE
  8
0
  6
CONTINUOUS
 10
50.972216
 20
83.053644
 30
0.0
 11
50.722234
 21
82.790288
 31
0.0
  0
LINE
  8
0
  6
CONTINUOUS
 10
52.570162
 20
86.28727
 30
0.0
 11
52.842027
 21
86.380259
 31
0.0
  0
LINE
  8
0
  6
CONTINUOUS
 10
52.842027
 20
86.380259
 30
0.0
 11
53.072089
 21
86.333016
 31
0.0
  0
LINE
  8
0
  6
CONTINUOUS
 10
55.712243
 20
80.742868
 30
0.0
 11
55.608699
 21
80.393873
 31
0.0
  0
LINE
  8
0
  6
CONTINUOUS
 10
55.608699
 20
80.393873
 30
0.0
 11
55.358717
 21
80.130518
 31
0.0
  0
LINE
  8
0
  6
CONTINUOUS
 10
56.772862
 20
83.051005
 30
0.0
 11
57.038016
 21
83.120805
 31
0.0
  0
LINE
  8
0
  6
CONTINUOUS
 10
57.038016
 20
83.120805
 30
0.0
 11
57.232123
 21
83.007289
 31
0.0
  0
LINE
  8
0
  6
CONTINUOUS
 10
57.232123
 20
83.007289
 30
0.0
 11
57.303171
 21
82.740872
 31
0.0
  0
LINE
  8
0
  6
CONTINUOUS
 10
57.303171
 20
82.740872
 30
0.0
 11
57.232123
 21
82.392942
 31
0.0
  0
LINE
  8
0
  6
CONTINUOUS
 10
57.232123
 20
82.392942
 30
0.0
 11
57.038016
 21
82.056725
 31
0.0
  0
LINE
  8
0
  6
CONTINUOUS
 10
57.038016
 20
82.056725
 30
0.0
 11
56.772862
 21
81.822311
 31
0.0
  0
LINE
  8
0
  6
CONTINUOUS
 10
56.772862
 20
81.822311
 30
0.0
 11
56.461154
 21
81.760829
 31
0.0
  0
LINE
  8
0
  6
CONTINUOUS
 10
56.461154
 20
81.760829
 30
0.0
 11
56.268507
 21
81.95749
 31
0.0
  0
LINE
  8
0
  6
CONTINUOUS
 10
56.268507
 20
81.95749
 30
0.0
 11
56.268507
 21
82.337177
 31
0.0
  0
LINE
  8
0
  6
CONTINUOUS
 10
56.268507
 20
82.337177
 30
0.0
 11
56.461154
 21
82.754863
 31
0.0
  0
LINE
  8
0
  6
CONTINUOUS
 10
56.461154
 20
82.754863
 30
0.0
 11
56.772862
 21
83.051005
 31
0.0
  0
LINE
  8
0
  6
CONTINUOUS
 10
56.925648
 20
83.112484
 30
0.0
 11
56.922272
 21
82.733304
 31
0.0
  0
LINE
  8
0
  6
CONTINUOUS
 10
56.922272
 20
82.733304
 30
0.0
 11
56.72922
 21
82.318732
 31
0.0
  0
LINE
  8
0
  6
CONTINUOUS
 10
56.72922
 20
82.318732
 30
0.0
 11
56.419294
 21
82.025105
 31
0.0
  0
LINE
  8
0
  6
CONTINUOUS
 10
56.823947
 20
83.077365
 30
0.0
 11
56.847716
 21
82.759633
 31
0.0
  0
LINE
  8
0
  6
CONTINUOUS
 10
56.847716
 20
82.759633
 30
0.0
 11
56.690763
 21
82.391205
 31
0.0
  0
LINE
  8
0
  6
CONTINUOUS
 10
56.690763
 20
82.391205
 30
0.0
 11
56.419294
 21
82.127496
 31
0.0
  0
LINE
  8
0
  6
CONTINUOUS
 10
57.656697
 20
80.834416
 30
0.0
 11
57.406715
 21
80.810965
 31
0.0
  0
LINE
  8
0
  6
CONTINUOUS
 10
57.406715
 20
80.810965
 30
0.0
 11
57.303171
 21
81.041163
 31
0.0
  0
LINE
  8
0
  6
CONTINUOUS
 10
56.242552
 20
80.698984
 30
0.0
 11
56.346096
 21
81.047979
 31
0.0
  0
LINE
  8
0
  6
CONTINUOUS
 10
56.346096
 20
81.047979
 30
0.0
 11
56.596078
 21
81.311334
 31
0.0
  0
LINE
  8
0
  6
CONTINUOUS
 10
56.419294
 20
82.025105
 30
0.0
 11
56.342156
 21
81.987388
 31
0.0
  0
LINE
  8
0
  6
CONTINUOUS
 10
56.342156
 20
81.987388
 30
0.0
 11
56.266659
 21
81.963542
 31
0.0
  0
LINE
  8
0
  6
CONTINUOUS
 10
56.419294
 20
82.127496
 30
0.0
 11
56.330656
 21
82.087052
 31
0.0
  0
LINE
  8
0
  6
CONTINUOUS
 10
56.330656
 20
82.087052
 30
0.0
 11
56.245619
 21
82.069059
 31
0.0
  0
LINE
  8
0
  6
CONTINUOUS
 10
56.949645
 20
81.514159
 30
0.0
 11
57.199627
 21
81.53761
 31
0.0
  0
LINE
  8
0
  6
CONTINUOUS
 10
57.199627
 20
81.53761
 30
0.0
 11
57.303171
 21
81.307412
 31
0.0
  0
LINE
  8
0
  6
CONTINUOUS
 10
58.187006
 20
81.752977
 30
0.0
 11
57.937024
 21
81.729526
 31
0.0
  0
LINE
  8
0
  6
CONTINUOUS
 10
57.937024
 20
81.729526
 30
0.0
 11
57.83348
 21
81.959724
 31
0.0
  0
LINE
  8
0
  6
CONTINUOUS
 10
57.126428
 20
83.581482
 30
0.0
 11
57.626393
 21
83.628384
 31
0.0
  0
LINE
  8
0
  6
CONTINUOUS
 10
57.626393
 20
83.628384
 30
0.0
 11
57.83348
 21
83.167987
 31
0.0
  0
LINE
  8
0
  6
CONTINUOUS
 10
50.107858
 20
95.595425
 30
0.0
 11
50.832665
 21
98.03839
 31
0.0
  0
LINE
  8
0
  6
CONTINUOUS
 10
50.832665
 20
98.03839
 30
0.0
 11
52.582541
 21
99.881879
 31
0.0
  0
LINE
  8
0
  6
CONTINUOUS
 10
51.822392
 20
90.755011
 30
0.0
 11
50.701647
 21
91.117203
 31
0.0
  0
LINE
  8
0
  6
CONTINUOUS
 10
50.701647
 20
91.117203
 30
0.0
 11
49.407552
 21
91.110632
 31
0.0
  0
LINE
  8
0
  6
CONTINUOUS
 10
49.407552
 20
91.110632
 30
0.0
 11
48.286858
 21
90.73706
 31
0.0
  0
LINE
  8
0
  6
CONTINUOUS
 10
48.286858
 20
91.623048
 30
0.0
 11
49.407552
 21
91.991831
 31
0.0
  0
LINE
  8
0
  6
CONTINUOUS
 10
49.407552
 20
91.991831
 30
0.0
 11
50.701647
 21
91.985319
 31
0.0
  0
LINE
  8
0
  6
CONTINUOUS
 10
50.701647
 20
91.985319
 30
0.0
 11
51.822392
 21
91.605256
 31
0.0
  0
LINE
  8
0
  6
CONTINUOUS
 10
39.197329
 20
105.319959
 30
0.0
 11
39.509358
 21
104.622688
 31
0.0
  0
LINE
  8
0
  6
CONTINUOUS
 10
39.509358
 20
104.622688
 30
0.0
 11
39.625867
 21
103.942221
 31
0.0
  0
LINE
  8
0
  6
CONTINUOUS
 10
40.329875
 20
103.943999
 30
0.0
 11
40.182686
 21
104.793681
 31
0.0
  0
LINE
  8
0
  6
CONTINUOUS
 10
40.182686
 20
104.793681
 30
0.0
 11
39.792726
 21
105.665309
 31
0.0
  0
LINE
  8
0
  6
CONTINUOUS
 10
39.462521
 20
105.479617
 30
0.0
 11
39.85613
 21
104.599738
 31
0.0
  0
LINE
  8
0
  6
CONTINUOUS
 10
39.85613
 20
104.599738
 30
0.0
 11
39.978477
 21
103.864259
 31
0.0
  0
LINE
  8
0
  6
CONTINUOUS
 10
44.310267
 20
99.144583
 30
0.0
 11
45.035112
 21
101.587635
 31
0.0
  0
LINE
  8
0
  6
CONTINUOUS
 10
45.035112
 20
101.587635
 30
0.0
 11
46.785043
 21
103.431201
 31
0.0
  0
LINE
  8
0
  6
CONTINUOUS
 10
44.345948
 20
99.124204
 30
0.0
 11
45.070754
 21
101.56717
 31
0.0
  0
LINE
  8
0
  6
CONTINUOUS
 10
45.070754
 20
101.56717
 30
0.0
 11
46.82063
 21
103.410659
 31
0.0
  0
LINE
  8
0
  6
CONTINUOUS
 10
44.699474
 20
88.411998
 30
0.0
 11
44.449491
 21
88.388547
 31
0.0
  0
LINE
  8
0
  6
CONTINUOUS
 10
44.449491
 20
88.388547
 30
0.0
 11
44.345948
 21
88.618746
 31
0.0
  0
LINE
  8
0
  6
CONTINUOUS
 10
40.329875
 20
103.943999
 30
0.0
 11
39.978477
 21
103.864259
 31
0.0
  0
LINE
  8
0
  6
CONTINUOUS
 10
39.978477
 20
103.864259
 30
0.0
 11
39.625867
 21
103.942221
 31
0.0
  0
LINE
  8
0
  6
CONTINUOUS
 10
46.696985
 20
88.943532
 30
0.0
 11
46.595705
 21
88.524328
 31
0.0
  0
LINE
  8
0
  6
CONTINUOUS
 10
46.595705
 20
88.524328
 30
0.0
 11
46.330551
 21
88.149046
 31
0.0
  0
LINE
  8
0
  6
CONTINUOUS
 10
46.330551
 20
88.149046
 30
0.0
 11
46.002802
 21
87.961032
 31
0.0
  0
LINE
  8
0
  6
CONTINUOUS
 10
46.002802
 20
87.961032
 30
0.0
 11
45.737647
 21
88.032099
 31
0.0
  0
LINE
  8
0
  6
CONTINUOUS
 10
45.737647
 20
88.032099
 30
0.0
 11
45.636367
 21
88.335104
 31
0.0
  0
LINE
  8
0
  6
CONTINUOUS
 10
45.636367
 20
88.335104
 30
0.0
 11
45.707415
 21
88.683034
 31
0.0
  0
LINE
  8
0
  6
CONTINUOUS
 10
45.707415
 20
88.683034
 30
0.0
 11
45.901522
 21
89.019251
 31
0.0
  0
LINE
  8
0
  6
CONTINUOUS
 10
45.901522
 20
89.019251
 30
0.0
 11
46.166676
 21
89.253665
 31
0.0
  0
LINE
  8
0
  6
CONTINUOUS
 10
46.166676
 20
89.253665
 30
0.0
 11
46.431831
 21
89.323465
 31
0.0
  0
LINE
  8
0
  6
CONTINUOUS
 10
46.431831
 20
89.323465
 30
0.0
 11
46.625938
 21
89.209948
 31
0.0
  0
LINE
  8
0
  6
CONTINUOUS
 10
46.625938
 20
89.209948
 30
0.0
 11
46.696985
 21
88.943532
 31
0.0
  0
LINE
  8
0
  6
CONTINUOUS
 10
46.343418
 20
89.146325
 30
0.0
 11
46.244435
 21
88.73213
 31
0.0
  0
LINE
  8
0
  6
CONTINUOUS
 10
46.244435
 20
88.73213
 30
0.0
 11
45.984437
 21
88.358992
 31
0.0
  0
LINE
  8
0
  6
CONTINUOUS
 10
45.984437
 20
88.358992
 30
0.0
 11
45.660481
 21
88.166203
 31
0.0
  0
LINE
  8
0
  6
CONTINUOUS
 10
46.255033
 20
89.095623
 30
0.0
 11
46.162706
 21
88.729488
 31
0.0
  0
LINE
  8
0
  6
CONTINUOUS
 10
46.162706
 20
88.729488
 30
0.0
 11
45.924301
 21
88.410411
 31
0.0
  0
LINE
  8
0
  6
CONTINUOUS
 10
45.924301
 20
88.410411
 30
0.0
 11
45.639436
 21
88.271718
 31
0.0
  0
LINE
  8
0
  6
CONTINUOUS
 10
44.929301
 20
88.54384
 30
0.0
 11
45.179284
 21
88.567291
 31
0.0
  0
LINE
  8
0
  6
CONTINUOUS
 10
45.179284
 20
88.567291
 30
0.0
 11
45.282827
 21
88.337092
 31
0.0
  0
LINE
  8
0
  6
CONTINUOUS
 10
45.282827
 20
87.927497
 30
0.0
 11
45.179284
 21
87.578501
 31
0.0
  0
LINE
  8
0
  6
CONTINUOUS
 10
45.179284
 20
87.578501
 30
0.0
 11
44.929301
 21
87.315146
 31
0.0
  0
LINE
  8
0
  6
CONTINUOUS
 10
44.941303
 20
87.362987
 30
0.0
 11
45.008055
 21
87.418242
 31
0.0
  0
LINE
  8
0
  6
CONTINUOUS
 10
45.008055
 20
87.418242
 30
0.0
 11
45.064365
 21
87.495728
 31
0.0
  0
LINE
  8
0
  6
CONTINUOUS
 10
45.064365
 20
87.495728
 30
0.0
 11
45.103418
 21
87.583406
 31
0.0
  0
LINE
  8
0
  6
CONTINUOUS
 10
45.103418
 20
87.583406
 30
0.0
 11
45.118073
 21
87.669174
 31
0.0
  0
LINE
  8
0
  6
CONTINUOUS
 10
44.941303
 20
88.509768
 30
0.0
 11
45.008082
 21
88.5311
 31
0.0
  0
LINE
  8
0
  6
CONTINUOUS
 10
45.008082
 20
88.5311
 30
0.0
 11
45.064428
 21
88.51818
 31
0.0
  0
LINE
  8
0
  6
CONTINUOUS
 10
45.064428
 20
88.51818
 30
0.0
 11
45.103431
 21
88.475321
 31
0.0
  0
LINE
  8
0
  6
CONTINUOUS
 10
45.103431
 20
88.475321
 30
0.0
 11
45.118073
 21
88.40639
 31
0.0
  0
LINE
  8
0
  6
CONTINUOUS
 10
44.905605
 20
88.530243
 30
0.0
 11
44.941303
 21
88.509768
 31
0.0
  0
LINE
  8
0
  6
CONTINUOUS
 10
45.063722
 20
88.51859
 30
0.0
 11
44.978019
 21
88.567746
 31
0.0
  0
LINE
  8
0
  6
CONTINUOUS
 10
45.229783
 20
89.330559
 30
0.0
 11
44.979801
 21
89.307108
 31
0.0
  0
LINE
  8
0
  6
CONTINUOUS
 10
44.979801
 20
89.307108
 30
0.0
 11
44.876257
 21
89.537307
 31
0.0
  0
LINE
  8
0
  6
CONTINUOUS
 10
46.979817
 20
88.696183
 30
0.0
 11
46.77273
 21
87.998193
 31
0.0
  0
LINE
  8
0
  6
CONTINUOUS
 10
46.77273
 20
87.998193
 30
0.0
 11
46.272765
 21
87.471482
 31
0.0
  0
LINE
  8
0
  6
CONTINUOUS
 10
46.272765
 20
89.92887
 30
0.0
 11
46.77273
 21
89.975772
 31
0.0
  0
LINE
  8
0
  6
CONTINUOUS
 10
46.77273
 20
89.975772
 30
0.0
 11
46.979817
 21
89.515375
 31
0.0
  0
LINE
  8
0
  6
CONTINUOUS
 10
46.319465
 20
89.315137
 30
0.0
 11
46.337396
 21
89.235195
 31
0.0
  0
LINE
  8
0
  6
CONTINUOUS
 10
46.337396
 20
89.235195
 30
0.0
 11
46.343418
 21
89.146325
 31
0.0
  0
LINE
  8
0
  6
CONTINUOUS
 10
46.217762
 20
89.280023
 30
0.0
 11
46.245615
 21
89.195351
 31
0.0
  0
LINE
  8
0
  6
CONTINUOUS
 10
46.245615
 20
89.195351
 30
0.0
 11
46.255033
 21
89.095623
 31
0.0
  0
LINE
  8
0
  6
CONTINUOUS
 10
50.107858
 20
93.690832
 30
0.0
 11
50.056087
 21
93.516335
 31
0.0
  0
LINE
  8
0
  6
CONTINUOUS
 10
50.056087
 20
93.516335
 30
0.0
 11
49.931095
 21
93.384657
 31
0.0
  0
LINE
  8
0
  6
CONTINUOUS
 10
44.752518
 20
99.500673
 30
0.0
 11
45.013027
 21
100.776418
 31
0.0
  0
LINE
  8
0
  6
CONTINUOUS
 10
45.013027
 20
100.776418
 30
0.0
 11
45.724752
 21
102.009212
 31
0.0
  0
LINE
  8
0
  6
CONTINUOUS
 10
45.724752
 20
102.009212
 30
0.0
 11
46.696985
 21
102.86873
 31
0.0
  0
LINE
  8
0
  6
CONTINUOUS
 10
46.696985
 20
102.86873
 30
0.0
 11
47.669219
 21
103.124664
 31
0.0
  0
LINE
  8
0
  6
CONTINUOUS
 10
47.669219
 20
103.124664
 30
0.0
 11
48.380944
 21
102.708436
 31
0.0
  0
LINE
  8
0
  6
CONTINUOUS
 10
48.380944
 20
102.708436
 30
0.0
 11
48.641453
 21
101.731576
 31
0.0
  0
LINE
  8
0
  6
CONTINUOUS
 10
49.171762
 20
102.035681
 30
0.0
 11
48.446956
 21
99.592715
 31
0.0
  0
LINE
  8
0
  6
CONTINUOUS
 10
48.446956
 20
99.592715
 30
0.0
 11
46.69708
 21
97.749226
 31
0.0
  0
LINE
  8
0
  6
CONTINUOUS
 10
48.641453
 20
101.731576
 30
0.0
 11
48.270093
 21
100.194495
 31
0.0
  0
LINE
  8
0
  6
CONTINUOUS
 10
48.270093
 20
100.194495
 30
0.0
 11
47.297859
 21
98.818463
 31
0.0
  0
LINE
  8
0
  6
CONTINUOUS
 10
47.297859
 20
98.818463
 30
0.0
 11
46.096112
 21
98.129076
 31
0.0
  0
LINE
  8
0
  6
CONTINUOUS
 10
46.096112
 20
98.129076
 30
0.0
 11
45.123878
 21
98.389657
 31
0.0
  0
LINE
  8
0
  6
CONTINUOUS
 10
45.123878
 20
98.389657
 30
0.0
 11
44.752518
 21
99.500673
 31
0.0
  0
LINE
  8
0
  6
CONTINUOUS
 10
44.876257
 20
96.499929
 30
0.0
 11
44.928029
 21
96.674427
 31
0.0
  0
LINE
  8
0
  6
CONTINUOUS
 10
44.928029
 20
96.674427
 30
0.0
 11
45.05302
 21
96.806105
 31
0.0
  0
LINE
  8
0
  6
CONTINUOUS
 10
49.171762
 20
103.940273
 30
0.0
 11
49.223534
 21
104.114771
 31
0.0
  0
LINE
  8
0
  6
CONTINUOUS
 10
49.223534
 20
104.114771
 30
0.0
 11
49.348525
 21
104.246449
 31
0.0
  0
LINE
  8
0
  6
CONTINUOUS
 10
39.792726
 20
105.665309
 30
0.0
 11
39.462521
 21
105.479617
 31
0.0
  0
LINE
  8
0
  6
CONTINUOUS
 10
39.197329
 20
105.319959
 30
0.0
 11
39.462521
 21
105.479617
 31
0.0
  0
LINE
  8
0
  6
CONTINUOUS
 10
54.403363
 20
101.131176
 30
0.0
 11
54.351592
 21
100.956679
 31
0.0
  0
LINE
  8
0
  6
CONTINUOUS
 10
54.351592
 20
100.956679
 30
0.0
 11
54.2266
 21
100.825001
 31
0.0
  0
LINE
  8
0
  6
CONTINUOUS
 10
57.778706
 20
87.120506
 30
0.0
 11
57.528808
 21
87.468857
 31
0.0
  0
LINE
  8
0
  6
CONTINUOUS
 10
57.528808
 20
87.468857
 30
0.0
 11
57.125901
 21
87.766723
 31
0.0
  0
LINE
  8
0
  6
CONTINUOUS
 10
56.419295
 20
105.865714
 30
0.0
 11
55.91933
 21
105.818812
 31
0.0
  0
LINE
  8
0
  6
CONTINUOUS
 10
55.91933
 20
105.818812
 30
0.0
 11
55.712243
 21
106.279209
 31
0.0
  0
LINE
  8
0
  6
CONTINUOUS
 10
55.889026
 20
108.61278
 30
0.0
 11
56.139008
 21
108.636231
 31
0.0
  0
LINE
  8
0
  6
CONTINUOUS
 10
56.139008
 20
108.636231
 30
0.0
 11
56.242552
 21
108.406032
 31
0.0
  0
LINE
  8
0
  6
CONTINUOUS
 10
55.358717
 20
107.694219
 30
0.0
 11
55.608699
 21
107.71767
 31
0.0
  0
LINE
  8
0
  6
CONTINUOUS
 10
55.608699
 20
107.71767
 30
0.0
 11
55.712243
 21
107.487471
 31
0.0
  0
LINE
  8
0
  6
CONTINUOUS
 10
57.83348
 20
108.704327
 30
0.0
 11
57.937024
 21
109.053323
 31
0.0
  0
LINE
  8
0
  6
CONTINUOUS
 10
57.937024
 20
109.053323
 30
0.0
 11
58.187006
 21
109.316678
 31
0.0
  0
LINE
  8
0
  6
CONTINUOUS
 10
57.303171
 20
109.01446
 30
0.0
 11
57.406715
 21
109.363456
 31
0.0
  0
LINE
  8
0
  6
CONTINUOUS
 10
57.406715
 20
109.363456
 30
0.0
 11
57.656697
 21
109.626811
 31
0.0
  0
LINE
  8
0
  6
CONTINUOUS
 10
57.83348
 20
107.496065
 30
0.0
 11
57.626393
 21
106.798075
 31
0.0
  0
LINE
  8
0
  6
CONTINUOUS
 10
57.626393
 20
106.798075
 30
0.0
 11
57.126428
 21
106.271364
 31
0.0
  0
LINE
  8
0
  6
CONTINUOUS
 10
56.772862
 20
106.396191
 30
0.0
 11
56.461154
 21
106.334708
 31
0.0
  0
LINE
  8
0
  6
CONTINUOUS
 10
56.461154
 20
106.334708
 30
0.0
 11
56.268507
 21
106.531369
 31
0.0
  0
LINE
  8
0
  6
CONTINUOUS
 10
56.268507
 20
106.531369
 30
0.0
 11
56.268507
 21
106.911056
 31
0.0
  0
LINE
  8
0
  6
CONTINUOUS
 10
56.268507
 20
106.911056
 30
0.0
 11
56.461154
 21
107.328742
 31
0.0
  0
LINE
  8
0
  6
CONTINUOUS
 10
56.461154
 20
107.328742
 30
0.0
 11
56.772862
 21
107.624885
 31
0.0
  0
LINE
  8
0
  6
CONTINUOUS
 10
56.772862
 20
107.624885
 30
0.0
 11
57.038016
 21
107.694685
 31
0.0
  0
LINE
  8
0
  6
CONTINUOUS
 10
57.038016
 20
107.694685
 30
0.0
 11
57.232123
 21
107.581168
 31
0.0
  0
LINE
  8
0
  6
CONTINUOUS
 10
57.232123
 20
107.581168
 30
0.0
 11
57.303171
 21
107.314752
 31
0.0
  0
LINE
  8
0
  6
CONTINUOUS
 10
57.303171
 20
107.314752
 30
0.0
 11
57.232123
 21
106.966821
 31
0.0
  0
LINE
  8
0
  6
CONTINUOUS
 10
57.232123
 20
106.966821
 30
0.0
 11
57.038016
 21
106.630604
 31
0.0
  0
LINE
  8
0
  6
CONTINUOUS
 10
57.038016
 20
106.630604
 30
0.0
 11
56.772862
 21
106.396191
 31
0.0
  0
LINE
  8
0
  6
CONTINUOUS
 10
56.925648
 20
107.686363
 30
0.0
 11
56.922272
 21
107.307183
 31
0.0
  0
LINE
  8
0
  6
CONTINUOUS
 10
56.922272
 20
107.307183
 30
0.0
 11
56.72922
 21
106.892611
 31
0.0
  0
LINE
  8
0
  6
CONTINUOUS
 10
56.72922
 20
106.892611
 30
0.0
 11
56.419294
 21
106.598984
 31
0.0
  0
LINE
  8
0
  6
CONTINUOUS
 10
56.823947
 20
107.651244
 30
0.0
 11
56.847716
 21
107.333513
 31
0.0
  0
LINE
  8
0
  6
CONTINUOUS
 10
56.847716
 20
107.333513
 30
0.0
 11
56.690763
 21
106.965084
 31
0.0
  0
LINE
  8
0
  6
CONTINUOUS
 10
56.690763
 20
106.965084
 30
0.0
 11
56.419294
 21
106.701375
 31
0.0
  0
LINE
  8
0
  6
CONTINUOUS
 10
56.419294
 20
106.598984
 30
0.0
 11
56.342156
 21
106.561267
 31
0.0
  0
LINE
  8
0
  6
CONTINUOUS
 10
56.342156
 20
106.561267
 30
0.0
 11
56.266659
 21
106.537421
 31
0.0
  0
LINE
  8
0
  6
CONTINUOUS
 10
56.419294
 20
106.701375
 30
0.0
 11
56.330656
 21
106.660931
 31
0.0
  0
LINE
  8
0
  6
CONTINUOUS
 10
56.330656
 20
106.660931
 30
0.0
 11
56.245619
 21
106.642938
 31
0.0
  0
LINE
  8
0
  6
CONTINUOUS
 10
56.596078
 20
107.933037
 30
0.0
 11
56.346096
 21
107.909586
 31
0.0
  0
LINE
  8
0
  6
CONTINUOUS
 10
56.346096
 20
107.909586
 30
0.0
 11
56.242552
 21
108.139784
 31
0.0
  0
LINE
  8
0
  6
CONTINUOUS
 10
57.303171
 20
108.748212
 30
0.0
 11
57.199627
 21
108.399217
 31
0.0
  0
LINE
  8
0
  6
CONTINUOUS
 10
57.199627
 20
108.399217
 30
0.0
 11
56.949645
 21
108.135862
 31
0.0
  0
LINE
  8
0
  6
CONTINUOUS
 10
57.777174
 20
120.756911
 30
0.0
 11
57.423627
 21
120.6729
 31
0.0
  0
LINE
  8
0
  6
CONTINUOUS
 10
57.423627
 20
120.6729
 30
0.0
 11
57.070067
 21
120.756895
 31
0.0
  0
LINE
  8
0
  6
CONTINUOUS
 10
57.777174
 20
121.125519
 30
0.0
 11
57.553035
 21
121.051284
 31
0.0
  0
LINE
  8
0
  6
CONTINUOUS
 10
57.553035
 20
121.051284
 30
0.0
 11
57.294216
 21
121.051278
 31
0.0
  0
LINE
  8
0
  6
CONTINUOUS
 10
57.294216
 20
121.051278
 30
0.0
 11
57.070067
 21
121.125503
 31
0.0
  0
LINE
  8
0
  6
CONTINUOUS
 10
57.600391
 20
121.431698
 30
0.0
 11
57.488321
 21
121.39458
 31
0.0
  0
LINE
  8
0
  6
CONTINUOUS
 10
57.488321
 20
121.39458
 30
0.0
 11
57.358912
 21
121.394577
 31
0.0
  0
LINE
  8
0
  6
CONTINUOUS
 10
57.358912
 20
121.394577
 30
0.0
 11
57.246837
 21
121.43169
 31
0.0
  0
LINE
  8
0
  6
CONTINUOUS
 10
56.796864
 20
120.913514
 30
0.0
 11
56.784335
 21
120.920018
 31
0.0
  0
LINE
  8
0
  6
CONTINUOUS
 10
56.784335
 20
120.920018
 30
0.0
 11
56.772187
 21
120.926759
 31
0.0
  0
LINE
  8
0
  6
CONTINUOUS
 10
57.070067
 20
121.125503
 30
0.0
 11
57.09375
 21
121.24148
 31
0.0
  0
LINE
  8
0
  6
CONTINUOUS
 10
57.09375
 20
121.24148
 30
0.0
 11
57.158452
 21
121.353552
 31
0.0
  0
LINE
  8
0
  6
CONTINUOUS
 10
57.158452
 20
121.353552
 30
0.0
 11
57.246837
 21
121.43169
 31
0.0
  0
LINE
  8
0
  6
CONTINUOUS
 10
57.600391
 20
121.431698
 30
0.0
 11
57.688782
 21
121.353564
 31
0.0
  0
LINE
  8
0
  6
CONTINUOUS
 10
57.688782
 20
121.353564
 30
0.0
 11
57.75349
 21
121.241495
 31
0.0
  0
LINE
  8
0
  6
CONTINUOUS
 10
57.75349
 20
121.241495
 30
0.0
 11
57.777174
 21
121.125519
 31
0.0
  0
LINE
  8
0
  6
CONTINUOUS
 10
49.245164
 20
132.370068
 30
0.0
 11
52.323632
 21
130.60437
 31
0.0
  0
LINE
  8
0
  6
CONTINUOUS
 10
52.323632
 20
130.60437
 30
0.0
 11
55.094748
 21
129.014958
 31
0.0
  0
LINE
  8
0
  6
CONTINUOUS
 10
48.356867
 20
128.338237
 30
0.0
 11
51.649005
 21
126.449986
 31
0.0
  0
LINE
  8
0
  6
CONTINUOUS
 10
51.649005
 20
126.449986
 30
0.0
 11
54.569628
 21
124.774822
 31
0.0
  0
LINE
  8
0
  6
CONTINUOUS
 10
48.895065
 20
131.816668
 30
0.0
 11
51.973533
 21
130.05097
 31
0.0
  0
LINE
  8
0
  6
CONTINUOUS
 10
51.973533
 20
130.05097
 30
0.0
 11
54.744649
 21
128.461558
 31
0.0
  0
LINE
  8
0
  6
CONTINUOUS
 10
48.531917
 20
128.614937
 30
0.0
 11
51.824054
 21
126.726686
 31
0.0
  0
LINE
  8
0
  6
CONTINUOUS
 10
51.824054
 20
126.726686
 30
0.0
 11
54.744678
 21
125.051521
 31
0.0
  0
LINE
  8
0
  6
CONTINUOUS
 10
46.604476
 20
127.128188
 30
0.0
 11
46.628159
 21
127.244165
 31
0.0
  0
LINE
  8
0
  6
CONTINUOUS
 10
46.628159
 20
127.244165
 30
0.0
 11
46.692861
 21
127.356237
 31
0.0
  0
LINE
  8
0
  6
CONTINUOUS
 10
46.692861
 20
127.356237
 30
0.0
 11
46.781246
 21
127.434375
 31
0.0
  0
LINE
  8
0
  6
CONTINUOUS
 10
48.356867
 20
128.338237
 30
0.0
 11
48.418238
 21
128.387425
 31
0.0
  0
LINE
  8
0
  6
CONTINUOUS
 10
48.418238
 20
128.387425
 30
0.0
 11
48.471675
 21
128.456019
 31
0.0
  0
LINE
  8
0
  6
CONTINUOUS
 10
48.471675
 20
128.456019
 30
0.0
 11
48.511502
 21
128.534927
 31
0.0
  0
LINE
  8
0
  6
CONTINUOUS
 10
48.511502
 20
128.534927
 30
0.0
 11
48.531917
 21
128.614937
 31
0.0
  0
LINE
  8
0
  6
CONTINUOUS
 10
48.895065
 20
131.816668
 30
0.0
 11
48.936053
 21
131.977097
 31
0.0
  0
LINE
  8
0
  6
CONTINUOUS
 10
48.936053
 20
131.977097
 30
0.0
 11
49.01579
 21
132.134882
 31
0.0
  0
LINE
  8
0
  6
CONTINUOUS
 10
49.01579
 20
132.134882
 30
0.0
 11
49.122718
 21
132.271997
 31
0.0
  0
LINE
  8
0
  6
CONTINUOUS
 10
49.122718
 20
132.271997
 30
0.0
 11
49.245164
 21
132.370068
 31
0.0
  0
LINE
  8
0
  6
CONTINUOUS
 10
49.644933
 20
132.356025
 30
0.0
 11
49.590736
 21
132.402547
 31
0.0
  0
LINE
  8
0
  6
CONTINUOUS
 10
49.590736
 20
132.402547
 30
0.0
 11
49.571702
 21
132.457424
 31
0.0
  0
LINE
  8
0
  6
CONTINUOUS
 10
55.444874
 20
128.461574
 30
0.0
 11
55.444888
 21
126.794498
 31
0.0
  0
LINE
  8
0
  6
CONTINUOUS
 10
55.444888
 20
126.794498
 30
0.0
 11
55.444903
 21
125.051537
 31
0.0
  0
LINE
  8
0
  6
CONTINUOUS
 10
54.744649
 20
128.461558
 30
0.0
 11
54.744663
 21
126.794482
 31
0.0
  0
LINE
  8
0
  6
CONTINUOUS
 10
54.744663
 20
126.794482
 30
0.0
 11
54.744678
 21
125.051521
 31
0.0
  0
LINE
  8
0
  6
CONTINUOUS
 10
55.619966
 20
124.774845
 30
0.0
 11
55.094805
 21
124.656536
 31
0.0
  0
LINE
  8
0
  6
CONTINUOUS
 10
55.094795
 20
124.996815
 30
0.0
 11
55.444903
 21
125.051537
 31
0.0
  0
LINE
  8
0
  6
CONTINUOUS
 10
55.093962
 20
124.807041
 30
0.0
 11
55.50521
 21
124.892528
 31
0.0
  0
LINE
  8
0
  6
CONTINUOUS
 10
55.094805
 20
124.656536
 30
0.0
 11
54.569628
 21
124.774822
 31
0.0
  0
LINE
  8
0
  6
CONTINUOUS
 10
54.569628
 20
124.774822
 30
0.0
 11
54.684375
 21
124.892509
 31
0.0
  0
LINE
  8
0
  6
CONTINUOUS
 10
54.684375
 20
124.892509
 30
0.0
 11
54.744678
 21
125.051521
 31
0.0
  0
LINE
  8
0
  6
CONTINUOUS
 10
54.744678
 20
125.051521
 30
0.0
 11
55.094795
 21
124.996815
 31
0.0
  0
LINE
  8
0
  6
CONTINUOUS
 10
54.684375
 20
124.892509
 30
0.0
 11
55.093962
 21
124.807041
 31
0.0
  0
LINE
  8
0
  6
CONTINUOUS
 10
55.094795
 20
124.996815
 30
0.0
 11
55.093962
 21
124.807041
 31
0.0
  0
LINE
  8
0
  6
CONTINUOUS
 10
55.094805
 20
124.656536
 30
0.0
 11
55.093962
 21
124.807041
 31
0.0
  0
LINE
  8
0
  6
CONTINUOUS
 10
55.444903
 20
125.051537
 30
0.0
 11
55.50521
 21
124.892528
 31
0.0
  0
LINE
  8
0
  6
CONTINUOUS
 10
55.50521
 20
124.892528
 30
0.0
 11
55.619966
 21
124.774845
 31
0.0
  0
LINE
  8
0
  6
CONTINUOUS
 10
55.094748
 20
129.014958
 30
0.0
 11
55.32426
 21
128.779592
 31
0.0
  0
LINE
  8
0
  6
CONTINUOUS
 10
55.444874
 20
128.461574
 30
0.0
 11
55.094767
 21
128.406852
 31
0.0
  0
LINE
  8
0
  6
CONTINUOUS
 10
55.32426
 20
128.779592
 30
0.0
 11
55.095143
 21
128.663595
 31
0.0
  0
LINE
  8
0
  6
CONTINUOUS
 10
54.744649
 20
128.461558
 30
0.0
 11
54.865254
 21
128.779582
 31
0.0
  0
LINE
  8
0
  6
CONTINUOUS
 10
54.865254
 20
128.779582
 30
0.0
 11
55.094748
 21
129.014958
 31
0.0
  0
LINE
  8
0
  6
CONTINUOUS
 10
55.094767
 20
128.406852
 30
0.0
 11
54.744649
 21
128.461558
 31
0.0
  0
LINE
  8
0
  6
CONTINUOUS
 10
54.865254
 20
128.779582
 30
0.0
 11
55.095143
 21
128.663595
 31
0.0
  0
LINE
  8
0
  6
CONTINUOUS
 10
55.095143
 20
128.663595
 30
0.0
 11
55.094767
 21
128.406852
 31
0.0
  0
LINE
  8
0
  6
CONTINUOUS
 10
55.32426
 20
128.779592
 30
0.0
 11
55.444874
 21
128.461574
 31
0.0
  0
LINE
  8
0
  6
CONTINUOUS
 10
49.644933
 20
173.31249
 30
0.0
 11
49.571702
 21
173.413889
 31
0.0
  0
LINE
  8
0
  6
CONTINUOUS
 10
49.571702
 20
173.413889
 30
0.0
 11
49.644919
 21
173.515292
 31
0.0
  0
LINE
  8
0
  6
CONTINUOUS
 10
55.247891
 20
175.777498
 30
0.0
 11
55.105776
 21
175.906727
 31
0.0
  0
LINE
  8
0
  6
CONTINUOUS
 10
55.105776
 20
175.906727
 30
0.0
 11
55.099513
 21
176.059477
 31
0.0
  0
LINE
  8
0
  6
CONTINUOUS
 10
55.099513
 20
176.059477
 30
0.0
 11
55.230879
 21
176.192396
 31
0.0
  0
LINE
  8
0
  6
CONTINUOUS
 10
55.230879
 20
176.192396
 30
0.0
 11
55.462592
 21
176.267759
 31
0.0
  0
LINE
  8
0
  6
CONTINUOUS
 10
55.462592
 20
176.267759
 30
0.0
 11
55.728889
 21
176.264179
 31
0.0
  0
LINE
  8
0
  6
CONTINUOUS
 10
55.728889
 20
176.264179
 30
0.0
 11
55.954191
 21
176.18267
 31
0.0
  0
LINE
  8
0
  6
CONTINUOUS
 10
53.710892
 20
171.913253
 30
0.0
 11
53.357345
 21
171.829241
 31
0.0
  0
LINE
  8
0
  6
CONTINUOUS
 10
53.357345
 20
171.829241
 30
0.0
 11
53.003786
 21
171.913237
 31
0.0
  0
LINE
  8
0
  6
CONTINUOUS
 10
50.740955
 20
173.211114
 30
0.0
 11
50.594495
 21
173.413913
 31
0.0
  0
LINE
  8
0
  6
CONTINUOUS
 10
50.594495
 20
173.413913
 30
0.0
 11
50.740927
 21
173.616717
 31
0.0
  0
LINE
  8
0
  6
CONTINUOUS
 10
55.802345
 20
171.646521
 30
0.0
 11
55.957647
 21
171.492239
 31
0.0
  0
LINE
  8
0
  6
CONTINUOUS
 10
55.957647
 20
171.492239
 30
0.0
 11
55.957659
 21
171.314086
 31
0.0
  0
LINE
  8
0
  6
CONTINUOUS
 10
55.957659
 20
171.314086
 30
0.0
 11
55.802378
 21
171.159797
 31
0.0
  0
LINE
  8
0
  6
CONTINUOUS
 10
55.802378
 20
171.159797
 30
0.0
 11
55.533412
 21
171.070715
 31
0.0
  0
LINE
  8
0
  6
CONTINUOUS
 10
54.836322
 20
170.963556
 30
0.0
 11
54.706913
 21
170.963554
 31
0.0
  0
LINE
  8
0
  6
CONTINUOUS
 10
54.706913
 20
170.963554
 30
0.0
 11
54.594838
 21
171.000666
 31
0.0
  0
LINE
  8
0
  6
CONTINUOUS
 10
54.594838
 20
171.000666
 30
0.0
 11
54.530129
 21
171.06495
 31
0.0
  0
LINE
  8
0
  6
CONTINUOUS
 10
54.530129
 20
171.06495
 30
0.0
 11
54.530124
 21
171.139181
 31
0.0
  0
LINE
  8
0
  6
CONTINUOUS
 10
54.530124
 20
171.139181
 30
0.0
 11
54.594824
 21
171.203468
 31
0.0
  0
LINE
  8
0
  6
CONTINUOUS
 10
53.534173
 20
171.081763
 30
0.0
 11
53.469463
 21
171.146047
 31
0.0
  0
LINE
  8
0
  6
CONTINUOUS
 10
53.469463
 20
171.146047
 30
0.0
 11
53.469458
 21
171.220277
 31
0.0
  0
LINE
  8
0
  6
CONTINUOUS
 10
53.469458
 20
171.220277
 30
0.0
 11
53.534159
 21
171.284564
 31
0.0
  0
LINE
  8
0
  6
CONTINUOUS
 10
53.534159
 20
171.284564
 30
0.0
 11
53.422089
 21
171.247447
 31
0.0
  0
LINE
  8
0
  6
CONTINUOUS
 10
53.422089
 20
171.247447
 30
0.0
 11
53.29268
 21
171.247444
 31
0.0
  0
LINE
  8
0
  6
CONTINUOUS
 10
53.29268
 20
171.247444
 30
0.0
 11
53.180605
 21
171.284556
 31
0.0
  0
LINE
  8
0
  6
CONTINUOUS
 10
54.36502
 20
171.132482
 30
0.0
 11
54.332665
 21
171.164624
 31
0.0
  0
LINE
  8
0
  6
CONTINUOUS
 10
54.332665
 20
171.164624
 30
0.0
 11
54.332663
 21
171.201739
 31
0.0
  0
LINE
  8
0
  6
CONTINUOUS
 10
54.332663
 20
171.201739
 30
0.0
 11
54.365013
 21
171.233883
 31
0.0
  0
LINE
  8
0
  6
CONTINUOUS
 10
55.266638
 20
170.290877
 30
0.0
 11
55.089865
 21
170.248871
 31
0.0
  0
LINE
  8
0
  6
CONTINUOUS
 10
55.089865
 20
170.248871
 30
0.0
 11
54.913085
 21
170.290869
 31
0.0
  0
LINE
  8
0
  6
CONTINUOUS
 10
55.266602
 20
170.81816
 30
0.0
 11
55.154533
 21
170.781042
 31
0.0
  0
LINE
  8
0
  6
CONTINUOUS
 10
55.154533
 20
170.781042
 30
0.0
 11
55.025123
 21
170.781039
 31
0.0
  0
LINE
  8
0
  6
CONTINUOUS
 10
55.025123
 20
170.781039
 30
0.0
 11
54.913049
 21
170.818152
 31
0.0
  0
LINE
  8
0
  6
CONTINUOUS
 10
54.294269
 20
171.720604
 30
0.0
 11
54.473234
 21
171.772915
 31
0.0
  0
LINE
  8
0
  6
CONTINUOUS
 10
54.473234
 20
171.772915
 30
0.0
 11
54.671623
 21
171.754896
 31
0.0
  0
LINE
  8
0
  6
CONTINUOUS
 10
54.671623
 20
171.754896
 30
0.0
 11
54.813659
 21
171.673429
 31
0.0
  0
LINE
  8
0
  6
CONTINUOUS
 10
54.813659
 20
171.673429
 30
0.0
 11
54.845088
 21
171.559633
 31
0.0
  0
LINE
  8
0
  6
CONTINUOUS
 10
54.845088
 20
171.559633
 30
0.0
 11
54.753906
 21
171.456973
 31
0.0
  0
LINE
  8
0
  6
CONTINUOUS
 10
54.231571
 20
175.619138
 30
0.0
 11
54.402476
 21
175.661104
 31
0.0
  0
LINE
  8
0
  6
CONTINUOUS
 10
54.402476
 20
175.661104
 30
0.0
 11
54.576632
 21
175.623794
 31
0.0
  0
LINE
  8
0
  6
CONTINUOUS
 10
54.170494
 20
172.176905
 30
0.0
 11
54.524041
 21
172.260916
 31
0.0
  0
LINE
  8
0
  6
CONTINUOUS
 10
54.524041
 20
172.260916
 30
0.0
 11
54.877601
 21
172.176921
 31
0.0
  0
LINE
  8
0
  6
CONTINUOUS
 10
54.453361
 20
171.811869
 30
0.0
 11
54.524071
 21
171.828671
 31
0.0
  0
LINE
  8
0
  6
CONTINUOUS
 10
54.524071
 20
171.828671
 30
0.0
 11
54.594783
 21
171.811872
 31
0.0
  0
LINE
  8
0
  6
CONTINUOUS
 10
55.05442
 20
171.54824
 30
0.0
 11
55.080304
 21
171.522527
 31
0.0
  0
LINE
  8
0
  6
CONTINUOUS
 10
55.080304
 20
171.522527
 30
0.0
 11
55.080306
 21
171.492835
 31
0.0
  0
LINE
  8
0
  6
CONTINUOUS
 10
55.080306
 20
171.492835
 30
0.0
 11
55.054426
 21
171.46712
 31
0.0
  0
LINE
  8
0
  6
CONTINUOUS
 10
58.889734
 20
172.937146
 30
0.0
 11
58.744044
 21
172.888893
 31
0.0
  0
LINE
  8
0
  6
CONTINUOUS
 10
58.744044
 20
172.888893
 30
0.0
 11
58.575812
 21
172.888889
 31
0.0
  0
LINE
  8
0
  6
CONTINUOUS
 10
58.575812
 20
172.888889
 30
0.0
 11
58.430115
 21
172.937136
 31
0.0
  0
LINE
  8
0
  6
CONTINUOUS
 10
58.430115
 20
172.937136
 30
0.0
 11
58.345993
 21
173.020705
 31
0.0
  0
LINE
  8
0
  6
CONTINUOUS
 10
58.345993
 20
173.020705
 30
0.0
 11
58.345986
 21
173.117204
 31
0.0
  0
LINE
  8
0
  6
CONTINUOUS
 10
58.345986
 20
173.117204
 30
0.0
 11
58.430097
 21
173.200777
 31
0.0
  0
LINE
  8
0
  6
CONTINUOUS
 10
58.611582
 20
173.517215
 30
0.0
 11
58.68264
 21
173.452601
 31
0.0
  0
LINE
  8
0
  6
CONTINUOUS
 10
58.68264
 20
173.452601
 30
0.0
 11
58.685772
 21
173.376226
 31
0.0
  0
LINE
  8
0
  6
CONTINUOUS
 10
58.685772
 20
173.376226
 30
0.0
 11
58.620088
 21
173.309767
 31
0.0
  0
LINE
  8
0
  6
CONTINUOUS
 10
60.605046
 20
173.921141
 30
0.0
 11
60.257477
 21
173.808096
 31
0.0
  0
LINE
  8
0
  6
CONTINUOUS
 10
60.257477
 20
173.808096
 30
0.0
 11
59.858032
 21
173.813467
 31
0.0
  0
LINE
  8
0
  6
CONTINUOUS
 10
59.858032
 20
173.813467
 30
0.0
 11
59.520078
 21
173.93573
 31
0.0
  0
LINE
  8
0
  6
CONTINUOUS
 10
59.16537
 20
173.73225
 30
0.0
 11
59.378543
 21
173.538407
 31
0.0
  0
LINE
  8
0
  6
CONTINUOUS
 10
59.378543
 20
173.538407
 30
0.0
 11
59.387938
 21
173.309282
 31
0.0
  0
LINE
  8
0
  6
CONTINUOUS
 10
59.387938
 20
173.309282
 30
0.0
 11
59.190888
 21
173.109904
 31
0.0
  0
LINE
  8
0
  6
CONTINUOUS
 10
60.256571
 20
174.248542
 30
0.0
 11
60.140715
 21
174.21086
 31
0.0
  0
LINE
  8
0
  6
CONTINUOUS
 10
60.140715
 20
174.21086
 30
0.0
 11
60.007566
 21
174.21265
 31
0.0
  0
LINE
  8
0
  6
CONTINUOUS
 10
60.007566
 20
174.21265
 30
0.0
 11
59.894915
 21
174.253404
 31
0.0
  0
LINE
  8
0
  6
CONTINUOUS
 10
60.453098
 20
174.36128
 30
0.0
 11
60.632063
 21
174.413591
 31
0.0
  0
LINE
  8
0
  6
CONTINUOUS
 10
60.632063
 20
174.413591
 30
0.0
 11
60.830453
 21
174.395572
 31
0.0
  0
LINE
  8
0
  6
CONTINUOUS
 10
60.830453
 20
174.395572
 30
0.0
 11
60.972488
 21
174.314105
 31
0.0
  0
LINE
  8
0
  6
CONTINUOUS
 10
60.972488
 20
174.314105
 30
0.0
 11
61.003918
 21
174.200309
 31
0.0
  0
LINE
  8
0
  6
CONTINUOUS
 10
61.003918
 20
174.200309
 30
0.0
 11
60.912736
 21
174.097649
 31
0.0
  0
LINE
  8
0
  6
CONTINUOUS
 10
56.222099
 20
176.567723
 30
0.0
 11
56.15704
 21
176.667617
 31
0.0
  0
LINE
  8
0
  6
CONTINUOUS
 10
56.15704
 20
176.667617
 30
0.0
 11
56.230188
 21
176.765653
 31
0.0
  0
LINE
  8
0
  6
CONTINUOUS
 10
59.720831
 20
178.768074
 30
0.0
 11
60.074379
 21
178.852085
 31
0.0
  0
LINE
  8
0
  6
CONTINUOUS
 10
60.074379
 20
178.852085
 30
0.0
 11
60.427938
 21
178.76809
 31
0.0
  0
LINE
  8
0
  6
CONTINUOUS
 10
59.897565
 20
179.396763
 30
0.0
 11
60.009634
 21
179.43388
 31
0.0
  0
LINE
  8
0
  6
CONTINUOUS
 10
60.009634
 20
179.43388
 30
0.0
 11
60.139043
 21
179.433883
 31
0.0
  0
LINE
  8
0
  6
CONTINUOUS
 10
60.139043
 20
179.433883
 30
0.0
 11
60.251118
 21
179.396771
 31
0.0
  0
LINE
  8
0
  6
CONTINUOUS
 10
81.696729
 20
122.332124
 30
0.0
 11
81.446747
 21
122.308673
 31
0.0
  0
LINE
  8
0
  6
CONTINUOUS
 10
81.446747
 20
122.308673
 30
0.0
 11
81.343203
 21
122.538872
 31
0.0
  0
LINE
  8
0
  6
CONTINUOUS
 10
98.316499
 20
99.902285
 30
0.0
 11
98.316499
 21
118.555269
 31
0.0
  0
LINE
  8
0
  6
CONTINUOUS
 10
98.316499
 20
118.555269
 30
0.0
 11
98.316499
 21
137.208254
 31
0.0
  0
LINE
  8
0
  6
CONTINUOUS
 10
98.45549
 20
100.105224
 30
0.0
 11
98.45549
 21
118.758209
 31
0.0
  0
LINE
  8
0
  6
CONTINUOUS
 10
98.45549
 20
118.758209
 30
0.0
 11
98.45549
 21
137.411194
 31
0.0
  0
LINE
  8
0
  6
CONTINUOUS
 10
69.199775
 20
90.322992
 30
0.0
 11
68.474969
 21
87.880026
 31
0.0
  0
LINE
  8
0
  6
CONTINUOUS
 10
68.474969
 20
87.880026
 30
0.0
 11
66.725093
 21
86.036537
 31
0.0
  0
LINE
  8
0
  6
CONTINUOUS
 10
68.793205
 20
89.946523
 30
0.0
 11
68.421845
 21
88.409442
 31
0.0
  0
LINE
  8
0
  6
CONTINUOUS
 10
68.421845
 20
88.409442
 30
0.0
 11
67.449611
 21
87.03341
 31
0.0
  0
LINE
  8
0
  6
CONTINUOUS
 10
67.449611
 20
87.03341
 30
0.0
 11
66.247864
 21
86.344023
 31
0.0
  0
LINE
  8
0
  6
CONTINUOUS
 10
66.247864
 20
86.344023
 30
0.0
 11
65.27563
 21
86.604604
 31
0.0
  0
LINE
  8
0
  6
CONTINUOUS
 10
65.27563
 20
86.604604
 30
0.0
 11
64.90427
 21
87.71562
 31
0.0
  0
LINE
  8
0
  6
CONTINUOUS
 10
64.373961
 20
85.506923
 30
0.0
 11
64.322189
 21
85.332425
 31
0.0
  0
LINE
  8
0
  6
CONTINUOUS
 10
64.322189
 20
85.332425
 30
0.0
 11
64.197198
 21
85.200747
 31
0.0
  0
LINE
  8
0
  6
CONTINUOUS
 10
69.853169
 20
113.899761
 30
0.0
 11
70.113678
 21
115.175506
 31
0.0
  0
LINE
  8
0
  6
CONTINUOUS
 10
70.113678
 20
115.175506
 30
0.0
 11
70.825403
 21
116.4083
 31
0.0
  0
LINE
  8
0
  6
CONTINUOUS
 10
70.825403
 20
116.4083
 30
0.0
 11
71.797636
 21
117.267818
 31
0.0
  0
LINE
  8
0
  6
CONTINUOUS
 10
71.797636
 20
117.267818
 30
0.0
 11
72.76987
 21
117.523751
 31
0.0
  0
LINE
  8
0
  6
CONTINUOUS
 10
72.76987
 20
117.523751
 30
0.0
 11
73.481594
 21
117.107524
 31
0.0
  0
LINE
  8
0
  6
CONTINUOUS
 10
73.481594
 20
117.107524
 30
0.0
 11
73.742104
 21
116.130663
 31
0.0
  0
LINE
  8
0
  6
CONTINUOUS
 10
69.853169
 20
90.554575
 30
0.0
 11
70.113678
 21
91.83032
 31
0.0
  0
LINE
  8
0
  6
CONTINUOUS
 10
70.113678
 20
91.83032
 30
0.0
 11
70.825403
 21
93.063115
 31
0.0
  0
LINE
  8
0
  6
CONTINUOUS
 10
70.825403
 20
93.063115
 30
0.0
 11
71.797636
 21
93.922632
 31
0.0
  0
LINE
  8
0
  6
CONTINUOUS
 10
71.797636
 20
93.922632
 30
0.0
 11
72.76987
 21
94.178566
 31
0.0
  0
LINE
  8
0
  6
CONTINUOUS
 10
72.76987
 20
94.178566
 30
0.0
 11
73.481594
 21
93.762339
 31
0.0
  0
LINE
  8
0
  6
CONTINUOUS
 10
73.481594
 20
93.762339
 30
0.0
 11
73.742104
 21
92.785478
 31
0.0
  0
LINE
  8
0
  6
CONTINUOUS
 10
71.797731
 20
94.537033
 30
0.0
 11
73.547607
 21
94.701191
 31
0.0
  0
LINE
  8
0
  6
CONTINUOUS
 10
73.547607
 20
94.701191
 30
0.0
 11
74.272413
 21
93.089801
 31
0.0
  0
LINE
  8
0
  6
CONTINUOUS
 10
74.272413
 20
116.434768
 30
0.0
 11
73.547607
 21
113.991803
 31
0.0
  0
LINE
  8
0
  6
CONTINUOUS
 10
73.547607
 20
113.991803
 30
0.0
 11
71.797731
 21
112.148314
 31
0.0
  0
LINE
  8
0
  6
CONTINUOUS
 10
73.742104
 20
116.130663
 30
0.0
 11
73.370743
 21
114.593583
 31
0.0
  0
LINE
  8
0
  6
CONTINUOUS
 10
73.370743
 20
114.593583
 30
0.0
 11
72.39851
 21
113.21755
 31
0.0
  0
LINE
  8
0
  6
CONTINUOUS
 10
72.39851
 20
113.21755
 30
0.0
 11
71.196763
 21
112.528163
 31
0.0
  0
LINE
  8
0
  6
CONTINUOUS
 10
71.196763
 20
112.528163
 30
0.0
 11
70.224529
 21
112.788745
 31
0.0
  0
LINE
  8
0
  6
CONTINUOUS
 10
70.224529
 20
112.788745
 30
0.0
 11
69.853169
 21
113.899761
 31
0.0
  0
LINE
  8
0
  6
CONTINUOUS
 10
73.742104
 20
92.785478
 30
0.0
 11
73.481594
 21
91.509733
 31
0.0
  0
LINE
  8
0
  6
CONTINUOUS
 10
73.481594
 20
91.509733
 30
0.0
 11
72.76987
 21
90.276939
 31
0.0
  0
LINE
  8
0
  6
CONTINUOUS
 10
72.76987
 20
90.276939
 30
0.0
 11
71.797636
 21
89.417421
 31
0.0
  0
LINE
  8
0
  6
CONTINUOUS
 10
71.797636
 20
89.417421
 30
0.0
 11
70.825403
 21
89.161487
 31
0.0
  0
LINE
  8
0
  6
CONTINUOUS
 10
70.825403
 20
89.161487
 30
0.0
 11
70.113678
 21
89.577715
 31
0.0
  0
LINE
  8
0
  6
CONTINUOUS
 10
70.113678
 20
89.577715
 30
0.0
 11
69.853169
 21
90.554575
 31
0.0
  0
LINE
  8
0
  6
CONTINUOUS
 10
67.467404
 20
101.264183
 30
0.0
 11
67.375076
 21
100.898048
 31
0.0
  0
LINE
  8
0
  6
CONTINUOUS
 10
67.375076
 20
100.898048
 30
0.0
 11
67.136672
 21
100.578972
 31
0.0
  0
LINE
  8
0
  6
CONTINUOUS
 10
67.136672
 20
100.578972
 30
0.0
 11
66.851806
 21
100.440279
 31
0.0
  0
LINE
  8
0
  6
CONTINUOUS
 10
64.90427
 20
87.71562
 30
0.0
 11
65.164779
 21
88.991365
 31
0.0
  0
LINE
  8
0
  6
CONTINUOUS
 10
65.164779
 20
88.991365
 30
0.0
 11
65.876504
 21
90.224159
 31
0.0
  0
LINE
  8
0
  6
CONTINUOUS
 10
65.876504
 20
90.224159
 30
0.0
 11
66.848738
 21
91.083677
 31
0.0
  0
LINE
  8
0
  6
CONTINUOUS
 10
66.848738
 20
91.083677
 30
0.0
 11
67.820971
 21
91.339611
 31
0.0
  0
LINE
  8
0
  6
CONTINUOUS
 10
67.820971
 20
91.339611
 30
0.0
 11
68.532696
 21
90.923383
 31
0.0
  0
LINE
  8
0
  6
CONTINUOUS
 10
68.532696
 20
90.923383
 30
0.0
 11
68.793205
 21
89.946523
 31
0.0
  0
LINE
  8
0
  6
CONTINUOUS
 10
66.848738
 20
100.503664
 30
0.0
 11
66.919785
 21
100.851594
 31
0.0
  0
LINE
  8
0
  6
CONTINUOUS
 10
66.919785
 20
100.851594
 30
0.0
 11
67.113892
 21
101.187811
 31
0.0
  0
LINE
  8
0
  6
CONTINUOUS
 10
67.113892
 20
101.187811
 30
0.0
 11
67.379047
 21
101.422225
 31
0.0
  0
LINE
  8
0
  6
CONTINUOUS
 10
67.379047
 20
101.422225
 30
0.0
 11
67.644201
 21
101.492025
 31
0.0
  0
LINE
  8
0
  6
CONTINUOUS
 10
67.644201
 20
101.492025
 30
0.0
 11
67.838308
 21
101.378509
 31
0.0
  0
LINE
  8
0
  6
CONTINUOUS
 10
67.838308
 20
101.378509
 30
0.0
 11
67.909356
 21
101.112092
 31
0.0
  0
LINE
  8
0
  6
CONTINUOUS
 10
67.909356
 20
101.112092
 30
0.0
 11
67.808076
 21
100.692888
 31
0.0
  0
LINE
  8
0
  6
CONTINUOUS
 10
67.808076
 20
100.692888
 30
0.0
 11
67.542921
 21
100.317607
 31
0.0
  0
LINE
  8
0
  6
CONTINUOUS
 10
67.542921
 20
100.317607
 30
0.0
 11
67.215172
 21
100.129592
 31
0.0
  0
LINE
  8
0
  6
CONTINUOUS
 10
67.215172
 20
100.129592
 30
0.0
 11
66.950018
 21
100.20066
 31
0.0
  0
LINE
  8
0
  6
CONTINUOUS
 10
66.950018
 20
100.20066
 30
0.0
 11
66.848738
 21
100.503664
 31
0.0
  0
LINE
  8
0
  6
CONTINUOUS
 10
67.555789
 20
101.314885
 30
0.0
 11
67.456806
 21
100.900691
 31
0.0
  0
LINE
  8
0
  6
CONTINUOUS
 10
67.456806
 20
100.900691
 30
0.0
 11
67.196807
 21
100.527552
 31
0.0
  0
LINE
  8
0
  6
CONTINUOUS
 10
67.196807
 20
100.527552
 30
0.0
 11
66.872852
 21
100.334763
 31
0.0
  0
LINE
  8
0
  6
CONTINUOUS
 10
67.430133
 20
101.448583
 30
0.0
 11
67.457986
 21
101.363911
 31
0.0
  0
LINE
  8
0
  6
CONTINUOUS
 10
67.457986
 20
101.363911
 30
0.0
 11
67.467404
 21
101.264183
 31
0.0
  0
LINE
  8
0
  6
CONTINUOUS
 10
64.373961
 20
87.411515
 30
0.0
 11
65.098767
 21
89.854481
 31
0.0
  0
LINE
  8
0
  6
CONTINUOUS
 10
65.098767
 20
89.854481
 30
0.0
 11
66.848643
 21
91.69797
 31
0.0
  0
LINE
  8
0
  6
CONTINUOUS
 10
67.272958
 20
99.518326
 30
0.0
 11
66.772993
 21
99.471424
 31
0.0
  0
LINE
  8
0
  6
CONTINUOUS
 10
66.772993
 20
99.471424
 30
0.0
 11
66.565906
 21
99.931821
 31
0.0
  0
LINE
  8
0
  6
CONTINUOUS
 10
66.565906
 20
100.751012
 30
0.0
 11
66.772993
 21
101.449003
 31
0.0
  0
LINE
  8
0
  6
CONTINUOUS
 10
66.772993
 20
101.449003
 30
0.0
 11
67.272958
 21
101.975714
 31
0.0
  0
LINE
  8
0
  6
CONTINUOUS
 10
71.921281
 20
89.017351
 30
0.0
 11
70.171405
 21
88.853193
 31
0.0
  0
LINE
  8
0
  6
CONTINUOUS
 10
70.171405
 20
88.853193
 30
0.0
 11
69.446599
 21
90.464583
 31
0.0
  0
LINE
  8
0
  6
CONTINUOUS
 10
68.669466
 20
92.947267
 30
0.0
 11
68.617694
 21
92.772769
 31
0.0
  0
LINE
  8
0
  6
CONTINUOUS
 10
68.617694
 20
92.772769
 30
0.0
 11
68.492703
 21
92.641091
 31
0.0
  0
LINE
  8
0
  6
CONTINUOUS
 10
70.153671
 20
93.593912
 30
0.0
 11
70.02868
 21
93.582187
 31
0.0
  0
LINE
  8
0
  6
CONTINUOUS
 10
70.02868
 20
93.582187
 30
0.0
 11
69.976908
 21
93.697286
 31
0.0
  0
LINE
  8
0
  6
CONTINUOUS
 10
70.029952
 20
102.942927
 30
0.0
 11
70.279935
 21
102.966379
 31
0.0
  0
LINE
  8
0
  6
CONTINUOUS
 10
70.279935
 20
102.966379
 30
0.0
 11
70.383478
 21
102.73618
 31
0.0
  0
LINE
  8
0
  6
CONTINUOUS
 10
70.383478
 20
102.326584
 30
0.0
 11
70.279935
 21
101.977589
 31
0.0
  0
LINE
  8
0
  6
CONTINUOUS
 10
70.279935
 20
101.977589
 30
0.0
 11
70.029952
 21
101.714233
 31
0.0
  0
LINE
  8
0
  6
CONTINUOUS
 10
68.31594
 20
100.116637
 30
0.0
 11
68.565922
 21
100.140088
 31
0.0
  0
LINE
  8
0
  6
CONTINUOUS
 10
68.565922
 20
100.140088
 30
0.0
 11
68.669466
 21
99.909889
 31
0.0
  0
LINE
  8
0
  6
CONTINUOUS
 10
68.846249
 20
101.035198
 30
0.0
 11
69.096232
 21
101.058649
 31
0.0
  0
LINE
  8
0
  6
CONTINUOUS
 10
69.096232
 20
101.058649
 30
0.0
 11
69.199775
 21
100.82845
 31
0.0
  0
LINE
  8
0
  6
CONTINUOUS
 10
69.199775
 20
102.876242
 30
0.0
 11
69.096232
 21
102.527247
 31
0.0
  0
LINE
  8
0
  6
CONTINUOUS
 10
69.096232
 20
102.527247
 30
0.0
 11
68.846249
 21
102.263891
 31
0.0
  0
LINE
  8
0
  6
CONTINUOUS
 10
67.531835
 20
101.483697
 30
0.0
 11
67.549766
 21
101.403755
 31
0.0
  0
LINE
  8
0
  6
CONTINUOUS
 10
67.549766
 20
101.403755
 30
0.0
 11
67.555789
 21
101.314885
 31
0.0
  0
LINE
  8
0
  6
CONTINUOUS
 10
68.616422
 20
100.903356
 30
0.0
 11
68.366439
 21
100.879905
 31
0.0
  0
LINE
  8
0
  6
CONTINUOUS
 10
68.366439
 20
100.879905
 30
0.0
 11
68.262896
 21
101.110103
 31
0.0
  0
LINE
  8
0
  6
CONTINUOUS
 10
68.262896
 20
101.519699
 30
0.0
 11
68.366439
 21
101.868694
 31
0.0
  0
LINE
  8
0
  6
CONTINUOUS
 10
68.366439
 20
101.868694
 30
0.0
 11
68.616422
 21
102.13205
 31
0.0
  0
LINE
  8
0
  6
CONTINUOUS
 10
68.669466
 20
103.186375
 30
0.0
 11
68.565922
 21
102.83738
 31
0.0
  0
LINE
  8
0
  6
CONTINUOUS
 10
68.565922
 20
102.83738
 30
0.0
 11
68.31594
 21
102.574024
 31
0.0
  0
LINE
  8
0
  6
CONTINUOUS
 10
69.446599
 20
100.970041
 30
0.0
 11
69.550142
 21
101.319036
 31
0.0
  0
LINE
  8
0
  6
CONTINUOUS
 10
69.550142
 20
101.319036
 30
0.0
 11
69.800125
 21
101.582392
 31
0.0
  0
LINE
  8
0
  6
CONTINUOUS
 10
69.976908
 20
100.659908
 30
0.0
 11
70.080452
 21
101.008903
 31
0.0
  0
LINE
  8
0
  6
CONTINUOUS
 10
70.080452
 20
101.008903
 30
0.0
 11
70.330434
 21
101.272259
 31
0.0
  0
LINE
  8
0
  6
CONTINUOUS
 10
69.800125
 20
102.811086
 30
0.0
 11
69.550142
 21
102.787635
 31
0.0
  0
LINE
  8
0
  6
CONTINUOUS
 10
69.550142
 20
102.787635
 30
0.0
 11
69.446599
 21
103.017833
 31
0.0
  0
LINE
  8
0
  6
CONTINUOUS
 10
70.330434
 20
103.729647
 30
0.0
 11
70.080452
 21
103.706196
 31
0.0
  0
LINE
  8
0
  6
CONTINUOUS
 10
70.080452
 20
103.706196
 30
0.0
 11
69.976908
 21
103.936394
 31
0.0
  0
LINE
  8
0
  6
CONTINUOUS
 10
72.080468
 20
103.095271
 30
0.0
 11
71.873381
 21
102.397281
 31
0.0
  0
LINE
  8
0
  6
CONTINUOUS
 10
71.873381
 20
102.397281
 30
0.0
 11
71.373416
 21
101.87057
 31
0.0
  0
LINE
  8
0
  6
CONTINUOUS
 10
71.373416
 20
104.327958
 30
0.0
 11
71.873381
 21
104.37486
 31
0.0
  0
LINE
  8
0
  6
CONTINUOUS
 10
71.873381
 20
104.37486
 30
0.0
 11
72.080468
 21
103.914463
 31
0.0
  0
LINE
  8
0
  6
CONTINUOUS
 10
71.797636
 20
103.342619
 30
0.0
 11
71.696356
 21
102.923416
 31
0.0
  0
LINE
  8
0
  6
CONTINUOUS
 10
71.696356
 20
102.923416
 30
0.0
 11
71.431202
 21
102.548134
 31
0.0
  0
LINE
  8
0
  6
CONTINUOUS
 10
71.431202
 20
102.548134
 30
0.0
 11
71.103453
 21
102.360119
 31
0.0
  0
LINE
  8
0
  6
CONTINUOUS
 10
71.103453
 20
102.360119
 30
0.0
 11
70.838298
 21
102.431187
 31
0.0
  0
LINE
  8
0
  6
CONTINUOUS
 10
70.838298
 20
102.431187
 30
0.0
 11
70.737018
 21
102.734191
 31
0.0
  0
LINE
  8
0
  6
CONTINUOUS
 10
70.737018
 20
102.734191
 30
0.0
 11
70.808066
 21
103.082122
 31
0.0
  0
LINE
  8
0
  6
CONTINUOUS
 10
70.808066
 20
103.082122
 30
0.0
 11
71.002173
 21
103.418338
 31
0.0
  0
LINE
  8
0
  6
CONTINUOUS
 10
71.002173
 20
103.418338
 30
0.0
 11
71.267327
 21
103.652752
 31
0.0
  0
LINE
  8
0
  6
CONTINUOUS
 10
71.267327
 20
103.652752
 30
0.0
 11
71.532482
 21
103.722552
 31
0.0
  0
LINE
  8
0
  6
CONTINUOUS
 10
71.532482
 20
103.722552
 30
0.0
 11
71.726588
 21
103.609036
 31
0.0
  0
LINE
  8
0
  6
CONTINUOUS
 10
71.726588
 20
103.609036
 30
0.0
 11
71.797636
 21
103.342619
 31
0.0
  0
LINE
  8
0
  6
CONTINUOUS
 10
71.444069
 20
103.545413
 30
0.0
 11
71.345086
 21
103.131218
 31
0.0
  0
LINE
  8
0
  6
CONTINUOUS
 10
71.345086
 20
103.131218
 30
0.0
 11
71.085088
 21
102.758079
 31
0.0
  0
LINE
  8
0
  6
CONTINUOUS
 10
71.085088
 20
102.758079
 30
0.0
 11
70.761132
 21
102.565291
 31
0.0
  0
LINE
  8
0
  6
CONTINUOUS
 10
71.355684
 20
103.49471
 30
0.0
 11
71.263357
 21
103.128575
 31
0.0
  0
LINE
  8
0
  6
CONTINUOUS
 10
71.263357
 20
103.128575
 30
0.0
 11
71.024952
 21
102.809499
 31
0.0
  0
LINE
  8
0
  6
CONTINUOUS
 10
71.024952
 20
102.809499
 30
0.0
 11
70.740087
 21
102.670806
 31
0.0
  0
LINE
  8
0
  6
CONTINUOUS
 10
71.420116
 20
103.714224
 30
0.0
 11
71.438047
 21
103.634283
 31
0.0
  0
LINE
  8
0
  6
CONTINUOUS
 10
71.438047
 20
103.634283
 30
0.0
 11
71.444069
 21
103.545413
 31
0.0
  0
LINE
  8
0
  6
CONTINUOUS
 10
71.318413
 20
103.67911
 30
0.0
 11
71.346266
 21
103.594439
 31
0.0
  0
LINE
  8
0
  6
CONTINUOUS
 10
71.346266
 20
103.594439
 30
0.0
 11
71.355684
 21
103.49471
 31
0.0
  0
LINE
  8
0
  6
CONTINUOUS
 10
66.725093
 20
114.828932
 30
0.0
 11
68.474969
 21
114.99309
 31
0.0
  0
LINE
  8
0
  6
CONTINUOUS
 10
68.474969
 20
114.99309
 30
0.0
 11
69.199775
 21
113.3817
 31
0.0
  0
LINE
  8
0
  6
CONTINUOUS
 10
64.90427
 20
111.060805
 30
0.0
 11
65.164779
 21
112.33655
 31
0.0
  0
LINE
  8
0
  6
CONTINUOUS
 10
65.164779
 20
112.33655
 30
0.0
 11
65.876504
 21
113.569345
 31
0.0
  0
LINE
  8
0
  6
CONTINUOUS
 10
65.876504
 20
113.569345
 30
0.0
 11
66.848738
 21
114.428862
 31
0.0
  0
LINE
  8
0
  6
CONTINUOUS
 10
66.848738
 20
114.428862
 30
0.0
 11
67.820971
 21
114.684796
 31
0.0
  0
LINE
  8
0
  6
CONTINUOUS
 10
67.820971
 20
114.684796
 30
0.0
 11
68.532696
 21
114.268569
 31
0.0
  0
LINE
  8
0
  6
CONTINUOUS
 10
68.532696
 20
114.268569
 30
0.0
 11
68.793205
 21
113.291708
 31
0.0
  0
LINE
  8
0
  6
CONTINUOUS
 10
68.793205
 20
113.291708
 30
0.0
 11
68.532696
 21
112.015963
 31
0.0
  0
LINE
  8
0
  6
CONTINUOUS
 10
68.532696
 20
112.015963
 30
0.0
 11
67.820971
 21
110.783169
 31
0.0
  0
LINE
  8
0
  6
CONTINUOUS
 10
67.820971
 20
110.783169
 30
0.0
 11
66.848738
 21
109.923651
 31
0.0
  0
LINE
  8
0
  6
CONTINUOUS
 10
66.848738
 20
109.923651
 30
0.0
 11
65.876504
 21
109.667717
 31
0.0
  0
LINE
  8
0
  6
CONTINUOUS
 10
65.876504
 20
109.667717
 30
0.0
 11
65.164779
 21
110.083945
 31
0.0
  0
LINE
  8
0
  6
CONTINUOUS
 10
65.164779
 20
110.083945
 30
0.0
 11
64.90427
 21
111.060805
 31
0.0
  0
LINE
  8
0
  6
CONTINUOUS
 10
66.848643
 20
109.30925
 30
0.0
 11
65.098767
 21
109.145092
 31
0.0
  0
LINE
  8
0
  6
CONTINUOUS
 10
65.098767
 20
109.145092
 30
0.0
 11
64.373961
 21
110.756482
 31
0.0
  0
LINE
  8
0
  6
CONTINUOUS
 10
64.197198
 20
112.764448
 30
0.0
 11
64.322189
 21
112.776174
 31
0.0
  0
LINE
  8
0
  6
CONTINUOUS
 10
64.322189
 20
112.776174
 30
0.0
 11
64.373961
 21
112.661075
 31
0.0
  0
LINE
  8
0
  6
CONTINUOUS
 10
68.492703
 20
110.252371
 30
0.0
 11
68.617694
 21
110.264097
 31
0.0
  0
LINE
  8
0
  6
CONTINUOUS
 10
68.617694
 20
110.264097
 30
0.0
 11
68.669466
 21
110.148998
 31
0.0
  0
LINE
  8
0
  6
CONTINUOUS
 10
69.976908
 20
110.899017
 30
0.0
 11
70.02868
 21
111.073514
 31
0.0
  0
LINE
  8
0
  6
CONTINUOUS
 10
70.02868
 20
111.073514
 30
0.0
 11
70.153671
 21
111.205192
 31
0.0
  0
LINE
  8
0
  6
CONTINUOUS
 10
69.446599
 20
113.523291
 30
0.0
 11
70.171405
 21
115.966257
 31
0.0
  0
LINE
  8
0
  6
CONTINUOUS
 10
70.171405
 20
115.966257
 30
0.0
 11
71.921281
 21
117.809746
 31
0.0
  0
LINE
  8
0
  6
CONTINUOUS
 10
74.449176
 20
91.081835
 30
0.0
 11
74.324185
 21
91.070109
 31
0.0
  0
LINE
  8
0
  6
CONTINUOUS
 10
74.324185
 20
91.070109
 30
0.0
 11
74.272413
 21
91.185209
 31
0.0
  0
LINE
  8
0
  6
CONTINUOUS
 10
76.176411
 20
97.801727
 30
0.0
 11
76.072867
 21
97.452731
 31
0.0
  0
LINE
  8
0
  6
CONTINUOUS
 10
76.072867
 20
97.452731
 30
0.0
 11
75.822885
 21
97.189376
 31
0.0
  0
LINE
  8
0
  6
CONTINUOUS
 10
76.176411
 20
99.009989
 30
0.0
 11
76.383498
 21
99.707979
 31
0.0
  0
LINE
  8
0
  6
CONTINUOUS
 10
76.383498
 20
99.707979
 30
0.0
 11
76.883463
 21
100.23469
 31
0.0
  0
LINE
  8
0
  6
CONTINUOUS
 10
77.670813
 20
100.686357
 30
0.0
 11
77.942678
 21
100.779347
 31
0.0
  0
LINE
  8
0
  6
CONTINUOUS
 10
77.942678
 20
100.779347
 30
0.0
 11
78.172739
 21
100.732103
 31
0.0
  0
LINE
  8
0
  6
CONTINUOUS
 10
81.343203
 20
95.098071
 30
0.0
 11
81.446747
 21
95.447066
 31
0.0
  0
LINE
  8
0
  6
CONTINUOUS
 10
81.446747
 20
95.447066
 30
0.0
 11
81.696729
 21
95.710422
 31
0.0
  0
LINE
  8
0
  6
CONTINUOUS
 10
81.343203
 20
94.831823
 30
0.0
 11
81.239659
 21
94.482828
 31
0.0
  0
LINE
  8
0
  6
CONTINUOUS
 10
81.239659
 20
94.482828
 30
0.0
 11
80.989677
 21
94.219472
 31
0.0
  0
LINE
  8
0
  6
CONTINUOUS
 10
80.812894
 20
95.141956
 30
0.0
 11
80.70935
 21
94.792961
 31
0.0
  0
LINE
  8
0
  6
CONTINUOUS
 10
80.70935
 20
94.792961
 30
0.0
 11
80.459368
 21
94.529605
 31
0.0
  0
LINE
  8
0
  6
CONTINUOUS
 10
82.757348
 20
95.233504
 30
0.0
 11
82.507365
 21
95.210052
 31
0.0
  0
LINE
  8
0
  6
CONTINUOUS
 10
82.507365
 20
95.210052
 30
0.0
 11
82.403822
 21
95.440251
 31
0.0
  0
LINE
  8
0
  6
CONTINUOUS
 10
81.873512
 20
96.221399
 30
0.0
 11
81.561804
 21
96.159916
 31
0.0
  0
LINE
  8
0
  6
CONTINUOUS
 10
81.561804
 20
96.159916
 30
0.0
 11
81.369158
 21
96.356578
 31
0.0
  0
LINE
  8
0
  6
CONTINUOUS
 10
81.369158
 20
96.356578
 30
0.0
 11
81.369158
 21
96.736265
 31
0.0
  0
LINE
  8
0
  6
CONTINUOUS
 10
81.369158
 20
96.736265
 30
0.0
 11
81.561804
 21
97.153951
 31
0.0
  0
LINE
  8
0
  6
CONTINUOUS
 10
81.561804
 20
97.153951
 30
0.0
 11
81.873512
 21
97.450093
 31
0.0
  0
LINE
  8
0
  6
CONTINUOUS
 10
82.026299
 20
97.511572
 30
0.0
 11
82.022923
 21
97.132392
 31
0.0
  0
LINE
  8
0
  6
CONTINUOUS
 10
82.022923
 20
97.132392
 30
0.0
 11
81.829871
 21
96.717819
 31
0.0
  0
LINE
  8
0
  6
CONTINUOUS
 10
81.829871
 20
96.717819
 30
0.0
 11
81.519945
 21
96.424192
 31
0.0
  0
LINE
  8
0
  6
CONTINUOUS
 10
81.924598
 20
97.476452
 30
0.0
 11
81.948367
 21
97.158721
 31
0.0
  0
LINE
  8
0
  6
CONTINUOUS
 10
81.948367
 20
97.158721
 30
0.0
 11
81.791414
 21
96.790293
 31
0.0
  0
LINE
  8
0
  6
CONTINUOUS
 10
81.791414
 20
96.790293
 30
0.0
 11
81.519945
 21
96.526583
 31
0.0
  0
LINE
  8
0
  6
CONTINUOUS
 10
80.812894
 20
96.350218
 30
0.0
 11
81.019981
 21
97.048209
 31
0.0
  0
LINE
  8
0
  6
CONTINUOUS
 10
81.019981
 20
97.048209
 30
0.0
 11
81.519946
 21
97.57492
 31
0.0
  0
LINE
  8
0
  6
CONTINUOUS
 10
81.519945
 20
96.424192
 30
0.0
 11
81.442807
 21
96.386476
 31
0.0
  0
LINE
  8
0
  6
CONTINUOUS
 10
81.442807
 20
96.386476
 30
0.0
 11
81.36731
 21
96.36263
 31
0.0
  0
LINE
  8
0
  6
CONTINUOUS
 10
81.519945
 20
96.526583
 30
0.0
 11
81.431306
 21
96.486139
 31
0.0
  0
LINE
  8
0
  6
CONTINUOUS
 10
81.431306
 20
96.486139
 30
0.0
 11
81.34627
 21
96.468146
 31
0.0
  0
LINE
  8
0
  6
CONTINUOUS
 10
83.287657
 20
96.152065
 30
0.0
 11
83.037675
 21
96.128613
 31
0.0
  0
LINE
  8
0
  6
CONTINUOUS
 10
83.037675
 20
96.128613
 30
0.0
 11
82.934131
 21
96.358812
 31
0.0
  0
LINE
  8
0
  6
CONTINUOUS
 10
82.227079
 20
97.980569
 30
0.0
 11
82.727043
 21
98.027472
 31
0.0
  0
LINE
  8
0
  6
CONTINUOUS
 10
82.727043
 20
98.027472
 30
0.0
 11
82.934131
 21
97.567074
 31
0.0
  0
LINE
  8
0
  6
CONTINUOUS
 10
82.050296
 20
95.913247
 30
0.0
 11
82.300278
 21
95.936698
 31
0.0
  0
LINE
  8
0
  6
CONTINUOUS
 10
82.300278
 20
95.936698
 30
0.0
 11
82.403822
 21
95.706499
 31
0.0
  0
LINE
  8
0
  6
CONTINUOUS
 10
81.873512
 20
97.450093
 30
0.0
 11
82.138667
 21
97.519893
 31
0.0
  0
LINE
  8
0
  6
CONTINUOUS
 10
82.138667
 20
97.519893
 30
0.0
 11
82.332774
 21
97.406376
 31
0.0
  0
LINE
  8
0
  6
CONTINUOUS
 10
82.332774
 20
97.406376
 30
0.0
 11
82.403822
 21
97.13996
 31
0.0
  0
LINE
  8
0
  6
CONTINUOUS
 10
82.403822
 20
97.13996
 30
0.0
 11
82.332774
 21
96.792029
 31
0.0
  0
LINE
  8
0
  6
CONTINUOUS
 10
82.332774
 20
96.792029
 30
0.0
 11
82.138667
 21
96.455813
 31
0.0
  0
LINE
  8
0
  6
CONTINUOUS
 10
82.138667
 20
96.455813
 30
0.0
 11
81.873512
 21
96.221399
 31
0.0
  0
LINE
  8
0
  6
CONTINUOUS
 10
82.226552
 20
102.90883
 30
0.0
 11
82.958855
 21
101.882202
 31
0.0
  0
LINE
  8
0
  6
CONTINUOUS
 10
82.958855
 20
101.882202
 30
0.0
 11
82.226691
 21
100.862945
 31
0.0
  0
LINE
  8
0
  6
CONTINUOUS
 10
82.879357
 20
101.519593
 30
0.0
 11
82.629459
 21
101.867944
 31
0.0
  0
LINE
  8
0
  6
CONTINUOUS
 10
82.629459
 20
101.867944
 30
0.0
 11
82.226552
 21
102.165811
 31
0.0
  0
LINE
  8
0
  6
CONTINUOUS
 10
75.208509
 20
109.994512
 30
0.0
 11
75.933316
 21
112.437478
 31
0.0
  0
LINE
  8
0
  6
CONTINUOUS
 10
75.933316
 20
112.437478
 30
0.0
 11
77.683192
 21
114.280967
 31
0.0
  0
LINE
  8
0
  6
CONTINUOUS
 10
76.923043
 20
105.154099
 30
0.0
 11
75.802298
 21
105.51629
 31
0.0
  0
LINE
  8
0
  6
CONTINUOUS
 10
75.802298
 20
105.51629
 30
0.0
 11
74.508203
 21
105.50972
 31
0.0
  0
LINE
  8
0
  6
CONTINUOUS
 10
74.508203
 20
105.50972
 30
0.0
 11
73.387509
 21
105.136148
 31
0.0
  0
LINE
  8
0
  6
CONTINUOUS
 10
73.387509
 20
106.022135
 30
0.0
 11
74.508203
 21
106.390919
 31
0.0
  0
LINE
  8
0
  6
CONTINUOUS
 10
74.508203
 20
106.390919
 30
0.0
 11
75.802298
 21
106.384407
 31
0.0
  0
LINE
  8
0
  6
CONTINUOUS
 10
75.802298
 20
106.384407
 30
0.0
 11
76.923043
 21
106.004344
 31
0.0
  0
LINE
  8
0
  6
CONTINUOUS
 10
75.208509
 20
108.08992
 30
0.0
 11
75.156737
 21
107.915422
 31
0.0
  0
LINE
  8
0
  6
CONTINUOUS
 10
75.156737
 20
107.915422
 30
0.0
 11
75.031746
 21
107.783744
 31
0.0
  0
LINE
  8
0
  6
CONTINUOUS
 10
74.272413
 20
118.339361
 30
0.0
 11
74.324185
 21
118.513858
 31
0.0
  0
LINE
  8
0
  6
CONTINUOUS
 10
74.324185
 20
118.513858
 30
0.0
 11
74.449176
 21
118.645536
 31
0.0
  0
LINE
  8
0
  6
CONTINUOUS
 10
81.873512
 20
120.795278
 30
0.0
 11
81.561804
 21
120.733795
 31
0.0
  0
LINE
  8
0
  6
CONTINUOUS
 10
81.561804
 20
120.733795
 30
0.0
 11
81.369158
 21
120.930457
 31
0.0
  0
LINE
  8
0
  6
CONTINUOUS
 10
81.369158
 20
120.930457
 30
0.0
 11
81.369158
 21
121.310144
 31
0.0
  0
LINE
  8
0
  6
CONTINUOUS
 10
81.369158
 20
121.310144
 30
0.0
 11
81.561804
 21
121.72783
 31
0.0
  0
LINE
  8
0
  6
CONTINUOUS
 10
81.561804
 20
121.72783
 30
0.0
 11
81.873512
 21
122.023972
 31
0.0
  0
LINE
  8
0
  6
CONTINUOUS
 10
82.026299
 20
122.085451
 30
0.0
 11
82.022923
 21
121.706271
 31
0.0
  0
LINE
  8
0
  6
CONTINUOUS
 10
82.022923
 20
121.706271
 30
0.0
 11
81.829871
 21
121.291699
 31
0.0
  0
LINE
  8
0
  6
CONTINUOUS
 10
81.829871
 20
121.291699
 30
0.0
 11
81.519945
 21
120.998072
 31
0.0
  0
LINE
  8
0
  6
CONTINUOUS
 10
81.924598
 20
122.050332
 30
0.0
 11
81.948367
 21
121.7326
 31
0.0
  0
LINE
  8
0
  6
CONTINUOUS
 10
81.948367
 20
121.7326
 30
0.0
 11
81.791414
 21
121.364172
 31
0.0
  0
LINE
  8
0
  6
CONTINUOUS
 10
81.791414
 20
121.364172
 30
0.0
 11
81.519945
 21
121.100463
 31
0.0
  0
LINE
  8
0
  6
CONTINUOUS
 10
79.504014
 20
115.530264
 30
0.0
 11
79.452242
 21
115.355766
 31
0.0
  0
LINE
  8
0
  6
CONTINUOUS
 10
79.452242
 20
115.355766
 30
0.0
 11
79.327251
 21
115.224088
 31
0.0
  0
LINE
  8
0
  6
CONTINUOUS
 10
81.519946
 20
120.264802
 30
0.0
 11
81.019981
 21
120.217899
 31
0.0
  0
LINE
  8
0
  6
CONTINUOUS
 10
81.019981
 20
120.217899
 30
0.0
 11
80.812894
 21
120.678296
 31
0.0
  0
LINE
  8
0
  6
CONTINUOUS
 10
80.459368
 20
122.093306
 30
0.0
 11
80.70935
 21
122.116758
 31
0.0
  0
LINE
  8
0
  6
CONTINUOUS
 10
80.70935
 20
122.116758
 30
0.0
 11
80.812894
 21
121.886559
 31
0.0
  0
LINE
  8
0
  6
CONTINUOUS
 10
81.519945
 20
120.998072
 30
0.0
 11
81.442807
 21
120.960355
 31
0.0
  0
LINE
  8
0
  6
CONTINUOUS
 10
81.442807
 20
120.960355
 30
0.0
 11
81.36731
 21
120.936509
 31
0.0
  0
LINE
  8
0
  6
CONTINUOUS
 10
81.519945
 20
121.100463
 30
0.0
 11
81.431306
 21
121.060018
 31
0.0
  0
LINE
  8
0
  6
CONTINUOUS
 10
81.431306
 20
121.060018
 30
0.0
 11
81.34627
 21
121.042025
 31
0.0
  0
LINE
  8
0
  6
CONTINUOUS
 10
82.934131
 20
121.895153
 30
0.0
 11
82.727043
 21
121.197162
 31
0.0
  0
LINE
  8
0
  6
CONTINUOUS
 10
82.727043
 20
121.197162
 30
0.0
 11
82.227079
 21
120.670451
 31
0.0
  0
LINE
  8
0
  6
CONTINUOUS
 10
81.873512
 20
122.023972
 30
0.0
 11
82.138667
 21
122.093772
 31
0.0
  0
LINE
  8
0
  6
CONTINUOUS
 10
82.138667
 20
122.093772
 30
0.0
 11
82.332774
 21
121.980256
 31
0.0
  0
LINE
  8
0
  6
CONTINUOUS
 10
82.332774
 20
121.980256
 30
0.0
 11
82.403822
 21
121.713839
 31
0.0
  0
LINE
  8
0
  6
CONTINUOUS
 10
82.403822
 20
121.713839
 30
0.0
 11
82.332774
 21
121.365909
 31
0.0
  0
LINE
  8
0
  6
CONTINUOUS
 10
82.332774
 20
121.365909
 30
0.0
 11
82.138667
 21
121.029692
 31
0.0
  0
LINE
  8
0
  6
CONTINUOUS
 10
82.138667
 20
121.029692
 30
0.0
 11
81.873512
 21
120.795278
 31
0.0
  0
LINE
  8
0
  6
CONTINUOUS
 10
89.474612
 20
101.810603
 30
0.0
 11
90.199418
 21
104.253568
 31
0.0
  0
LINE
  8
0
  6
CONTINUOUS
 10
90.199418
 20
104.253568
 30
0.0
 11
91.949294
 21
106.097057
 31
0.0
  0
LINE
  8
0
  6
CONTINUOUS
 10
90.004921
 20
102.114708
 30
0.0
 11
90.26543
 21
103.390453
 31
0.0
  0
LINE
  8
0
  6
CONTINUOUS
 10
90.26543
 20
103.390453
 30
0.0
 11
90.977155
 21
104.623247
 31
0.0
  0
LINE
  8
0
  6
CONTINUOUS
 10
90.977155
 20
104.623247
 30
0.0
 11
91.949388
 21
105.482765
 31
0.0
  0
LINE
  8
0
  6
CONTINUOUS
 10
91.949388
 20
105.482765
 30
0.0
 11
92.921622
 21
105.738698
 31
0.0
  0
LINE
  8
0
  6
CONTINUOUS
 10
92.921622
 20
105.738698
 30
0.0
 11
93.633347
 21
105.322471
 31
0.0
  0
LINE
  8
0
  6
CONTINUOUS
 10
93.633347
 20
105.322471
 30
0.0
 11
93.893856
 21
104.34561
 31
0.0
  0
LINE
  8
0
  6
CONTINUOUS
 10
94.300426
 20
104.72208
 30
0.0
 11
93.57562
 21
102.279114
 31
0.0
  0
LINE
  8
0
  6
CONTINUOUS
 10
93.57562
 20
102.279114
 30
0.0
 11
91.825744
 21
100.435625
 31
0.0
  0
LINE
  8
0
  6
CONTINUOUS
 10
94.336107
 20
104.701701
 30
0.0
 11
93.611262
 21
102.258649
 31
0.0
  0
LINE
  8
0
  6
CONTINUOUS
 10
93.611262
 20
102.258649
 30
0.0
 11
91.861331
 21
100.415083
 31
0.0
  0
LINE
  8
0
  6
CONTINUOUS
 10
93.893856
 20
104.34561
 30
0.0
 11
93.522496
 21
102.80853
 31
0.0
  0
LINE
  8
0
  6
CONTINUOUS
 10
93.522496
 20
102.80853
 30
0.0
 11
92.550262
 21
101.432497
 31
0.0
  0
LINE
  8
0
  6
CONTINUOUS
 10
92.550262
 20
101.432497
 30
0.0
 11
91.348515
 21
100.74311
 31
0.0
  0
LINE
  8
0
  6
CONTINUOUS
 10
91.348515
 20
100.74311
 30
0.0
 11
90.376281
 21
101.003692
 31
0.0
  0
LINE
  8
0
  6
CONTINUOUS
 10
90.376281
 20
101.003692
 30
0.0
 11
90.004921
 21
102.114708
 31
0.0
  0
LINE
  8
0
  6
CONTINUOUS
 10
89.474612
 20
99.90601
 30
0.0
 11
89.42284
 21
99.731513
 31
0.0
  0
LINE
  8
0
  6
CONTINUOUS
 10
89.42284
 20
99.731513
 30
0.0
 11
89.297849
 21
99.599835
 31
0.0
  0
LINE
  8
0
  6
CONTINUOUS
 10
93.770117
 20
107.346354
 30
0.0
 11
93.718345
 21
107.171857
 31
0.0
  0
LINE
  8
0
  6
CONTINUOUS
 10
93.718345
 20
107.171857
 30
0.0
 11
93.593354
 21
107.040179
 31
0.0
  0
LINE
  8
0
  6
CONTINUOUS
 10
91.666557
 20
115.1501
 30
0.0
 11
91.873644
 21
115.84809
 31
0.0
  0
LINE
  8
0
  6
CONTINUOUS
 10
91.873644
 20
115.84809
 30
0.0
 11
92.373609
 21
116.374801
 31
0.0
  0
LINE
  8
0
  6
CONTINUOUS
 10
92.373609
 20
113.917413
 30
0.0
 11
91.873644
 21
113.870511
 31
0.0
  0
LINE
  8
0
  6
CONTINUOUS
 10
91.873644
 20
113.870511
 30
0.0
 11
91.666557
 21
114.330908
 31
0.0
  0
LINE
  8
0
  6
CONTINUOUS
 10
91.949388
 20
114.902752
 30
0.0
 11
92.020436
 21
115.250682
 31
0.0
  0
LINE
  8
0
  6
CONTINUOUS
 10
92.020436
 20
115.250682
 30
0.0
 11
92.214543
 21
115.586899
 31
0.0
  0
LINE
  8
0
  6
CONTINUOUS
 10
92.214543
 20
115.586899
 30
0.0
 11
92.479698
 21
115.821313
 31
0.0
  0
LINE
  8
0
  6
CONTINUOUS
 10
92.479698
 20
115.821313
 30
0.0
 11
92.744852
 21
115.891113
 31
0.0
  0
LINE
  8
0
  6
CONTINUOUS
 10
92.744852
 20
115.891113
 30
0.0
 11
92.938959
 21
115.777596
 31
0.0
  0
LINE
  8
0
  6
CONTINUOUS
 10
92.938959
 20
115.777596
 30
0.0
 11
93.010007
 21
115.51118
 31
0.0
  0
LINE
  8
0
  6
CONTINUOUS
 10
92.65644
 20
115.713973
 30
0.0
 11
92.557457
 21
115.299778
 31
0.0
  0
LINE
  8
0
  6
CONTINUOUS
 10
92.557457
 20
115.299778
 30
0.0
 11
92.297458
 21
114.926639
 31
0.0
  0
LINE
  8
0
  6
CONTINUOUS
 10
92.297458
 20
114.926639
 30
0.0
 11
91.973503
 21
114.733851
 31
0.0
  0
LINE
  8
0
  6
CONTINUOUS
 10
92.530784
 20
115.847671
 30
0.0
 11
92.558637
 21
115.762999
 31
0.0
  0
LINE
  8
0
  6
CONTINUOUS
 10
92.558637
 20
115.762999
 30
0.0
 11
92.568055
 21
115.663271
 31
0.0
  0
LINE
  8
0
  6
CONTINUOUS
 10
93.010007
 20
115.51118
 30
0.0
 11
92.908727
 21
115.091976
 31
0.0
  0
LINE
  8
0
  6
CONTINUOUS
 10
92.908727
 20
115.091976
 30
0.0
 11
92.643572
 21
114.716694
 31
0.0
  0
LINE
  8
0
  6
CONTINUOUS
 10
92.643572
 20
114.716694
 30
0.0
 11
92.315823
 21
114.52868
 31
0.0
  0
LINE
  8
0
  6
CONTINUOUS
 10
92.315823
 20
114.52868
 30
0.0
 11
92.050668
 21
114.599747
 31
0.0
  0
LINE
  8
0
  6
CONTINUOUS
 10
92.050668
 20
114.599747
 30
0.0
 11
91.949388
 21
114.902752
 31
0.0
  0
LINE
  8
0
  6
CONTINUOUS
 10
92.568055
 20
115.663271
 30
0.0
 11
92.475727
 21
115.297135
 31
0.0
  0
LINE
  8
0
  6
CONTINUOUS
 10
92.475727
 20
115.297135
 30
0.0
 11
92.237323
 21
114.978059
 31
0.0
  0
LINE
  8
0
  6
CONTINUOUS
 10
92.237323
 20
114.978059
 30
0.0
 11
91.952457
 21
114.839366
 31
0.0
  0
LINE
  8
0
  6
CONTINUOUS
 10
92.632486
 20
115.882784
 30
0.0
 11
92.650417
 21
115.802843
 31
0.0
  0
LINE
  8
0
  6
CONTINUOUS
 10
92.650417
 20
115.802843
 30
0.0
 11
92.65644
 21
115.713973
 31
0.0
  0
LINE
  8
0
  6
CONTINUOUS
 10
93.9469
 20
115.434285
 30
0.0
 11
94.196882
 21
115.457736
 31
0.0
  0
LINE
  8
0
  6
CONTINUOUS
 10
94.196882
 20
115.457736
 30
0.0
 11
94.300426
 21
115.227538
 31
0.0
  0
LINE
  8
0
  6
CONTINUOUS
 10
93.416591
 20
114.515724
 30
0.0
 11
93.666573
 21
114.539175
 31
0.0
  0
LINE
  8
0
  6
CONTINUOUS
 10
93.666573
 20
114.539175
 30
0.0
 11
93.770117
 21
114.308977
 31
0.0
  0
LINE
  8
0
  6
CONTINUOUS
 10
93.717073
 20
115.302444
 30
0.0
 11
93.46709
 21
115.278992
 31
0.0
  0
LINE
  8
0
  6
CONTINUOUS
 10
93.46709
 20
115.278992
 30
0.0
 11
93.363546
 21
115.509191
 31
0.0
  0
LINE
  8
0
  6
CONTINUOUS
 10
93.705071
 20
115.336515
 30
0.0
 11
93.638319
 21
115.315185
 31
0.0
  0
LINE
  8
0
  6
CONTINUOUS
 10
93.638319
 20
115.315185
 30
0.0
 11
93.582009
 21
115.328066
 31
0.0
  0
LINE
  8
0
  6
CONTINUOUS
 10
93.582009
 20
115.328066
 30
0.0
 11
93.542956
 21
115.370938
 31
0.0
  0
LINE
  8
0
  6
CONTINUOUS
 10
93.542956
 20
115.370938
 30
0.0
 11
93.528301
 21
115.439893
 31
0.0
  0
LINE
  8
0
  6
CONTINUOUS
 10
93.363536
 20
115.534396
 30
0.0
 11
93.528301
 21
115.439893
 31
0.0
  0
LINE
  8
0
  6
CONTINUOUS
 10
94.300426
 20
117.27533
 30
0.0
 11
94.196882
 21
116.926335
 31
0.0
  0
LINE
  8
0
  6
CONTINUOUS
 10
94.196882
 20
116.926335
 30
0.0
 11
93.9469
 21
116.662979
 31
0.0
  0
LINE
  8
0
  6
CONTINUOUS
 10
93.770117
 20
117.585463
 30
0.0
 11
93.666573
 21
117.236468
 31
0.0
  0
LINE
  8
0
  6
CONTINUOUS
 10
93.666573
 20
117.236468
 30
0.0
 11
93.416591
 21
116.973112
 31
0.0
  0
LINE
  8
0
  6
CONTINUOUS
 10
93.363546
 20
115.918787
 30
0.0
 11
93.46709
 21
116.267782
 31
0.0
  0
LINE
  8
0
  6
CONTINUOUS
 10
93.46709
 20
116.267782
 30
0.0
 11
93.717073
 21
116.531138
 31
0.0
  0
LINE
  8
0
  6
CONTINUOUS
 10
93.705071
 20
116.483296
 30
0.0
 11
93.638292
 21
116.428012
 31
0.0
  0
LINE
  8
0
  6
CONTINUOUS
 10
93.638292
 20
116.428012
 30
0.0
 11
93.581946
 21
116.350446
 31
0.0
  0
LINE
  8
0
  6
CONTINUOUS
 10
93.581946
 20
116.350446
 30
0.0
 11
93.542943
 21
116.262839
 31
0.0
  0
LINE
  8
0
  6
CONTINUOUS
 10
93.542943
 20
116.262839
 30
0.0
 11
93.528301
 21
116.177109
 31
0.0
  0
LINE
  8
0
  6
CONTINUOUS
 10
93.672267
 20
116.502112
 30
0.0
 11
93.705071
 21
116.483296
 31
0.0
  0
LINE
  8
0
  6
CONTINUOUS
 10
93.444174
 20
116.225362
 30
0.0
 11
93.528301
 21
116.177109
 31
0.0
  0
LINE
  8
0
  6
CONTINUOUS
 10
98.316499
 20
99.902285
 30
0.0
 11
98.174939
 21
99.218218
 31
0.0
  0
LINE
  8
0
  6
CONTINUOUS
 10
98.174939
 20
99.218218
 30
0.0
 11
97.791583
 21
98.790136
 31
0.0
  0
LINE
  8
0
  6
CONTINUOUS
 10
97.791745
 20
98.79023
 30
0.0
 11
97.89068
 21
98.858064
 31
0.0
  0
LINE
  8
0
  6
CONTINUOUS
 10
97.89068
 20
98.858064
 30
0.0
 11
97.969182
 21
98.926163
 31
0.0
  0
LINE
  8
0
  6
CONTINUOUS
 10
97.969182
 20
98.926163
 30
0.0
 11
98.038541
 21
98.997592
 31
0.0
  0
LINE
  8
0
  6
CONTINUOUS
 10
98.038541
 20
98.997592
 30
0.0
 11
98.156501
 21
99.142803
 31
0.0
  0
LINE
  8
0
  6
CONTINUOUS
 10
98.156501
 20
99.142803
 30
0.0
 11
98.260094
 21
99.308404
 31
0.0
  0
LINE
  8
0
  6
CONTINUOUS
 10
98.260094
 20
99.308404
 30
0.0
 11
98.395422
 21
99.678378
 31
0.0
  0
LINE
  8
0
  6
CONTINUOUS
 10
98.395422
 20
99.678378
 30
0.0
 11
98.44521
 21
99.963516
 31
0.0
  0
LINE
  8
0
  6
CONTINUOUS
 10
98.44521
 20
99.963516
 30
0.0
 11
98.454112
 21
100.064991
 31
0.0
  0
LINE
  8
0
  6
CONTINUOUS
 10
98.454112
 20
100.064991
 30
0.0
 11
98.455233
 21
100.089878
 31
0.0
  0
LINE
  8
0
  6
CONTINUOUS
 10
98.455233
 20
100.089878
 30
0.0
 11
98.455478
 21
100.102211
 31
0.0
  0
LINE
  8
0
  6
CONTINUOUS
 10
97.779019
 20
98.782794
 30
0.0
 11
97.791583
 21
98.790136
 31
0.0
  0
LINE
  8
0
  6
CONTINUOUS
 10
97.791583
 20
98.790136
 30
0.0
 11
97.791746
 21
98.790231
 31
0.0
  0
LINE
  8
0
  6
CONTINUOUS
 10
97.791745
 20
98.79023
 30
0.0
 11
97.779031
 21
98.782801
 31
0.0
  0
LINE
  8
0
  6
CONTINUOUS
 10
98.316499
 20
99.902285
 30
0.0
 11
98.455484
 21
100.103856
 31
0.0
  0
LINE
  8
0
  6
CONTINUOUS
 10
98.455484
 20
100.103856
 30
0.0
 11
98.45549
 21
100.10522
 31
0.0
  0
LINE
  8
0
  6
CONTINUOUS
 10
98.455478
 20
100.102211
 30
0.0
 11
98.455484
 21
100.103856
 31
0.0
  0
LINE
  8
0
  6
CONTINUOUS
 10
98.45549
 20
100.105224
 30
0.0
 11
98.455478
 21
100.102211
 31
0.0
  0
LINE
  8
0
  6
CONTINUOUS
 10
83.593197
 20
147.978306
 30
0.0
 11
90.950261
 21
143.609234
 31
0.0
  0
LINE
  8
0
  6
CONTINUOUS
 10
90.950261
 20
143.609234
 30
0.0
 11
96.576323
 21
140.268136
 31
0.0
  0
LINE
  8
0
  6
CONTINUOUS
 10
96.824774
 20
140.283656
 30
0.0
 11
90.332602
 21
144.139103
 31
0.0
  0
LINE
  8
0
  6
CONTINUOUS
 10
90.332602
 20
144.139103
 30
0.0
 11
83.840448
 21
147.994539
 31
0.0
  0
LINE
  8
0
  6
CONTINUOUS
 10
73.156115
 20
130.55811
 30
0.0
 11
73.223359
 21
130.58129
 31
0.0
  0
LINE
  8
0
  6
CONTINUOUS
 10
73.223359
 20
130.58129
 30
0.0
 11
73.280492
 21
130.570193
 31
0.0
  0
LINE
  8
0
  6
CONTINUOUS
 10
73.156115
 20
130.55811
 30
0.0
 11
73.229345
 21
130.456711
 31
0.0
  0
LINE
  8
0
  6
CONTINUOUS
 10
73.229345
 20
130.456711
 30
0.0
 11
73.156129
 21
130.355309
 31
0.0
  0
LINE
  8
0
  6
CONTINUOUS
 10
73.156129
 20
130.355309
 30
0.0
 11
73.244521
 21
130.277175
 31
0.0
  0
LINE
  8
0
  6
CONTINUOUS
 10
73.244521
 20
130.277175
 30
0.0
 11
73.309228
 21
130.165106
 31
0.0
  0
LINE
  8
0
  6
CONTINUOUS
 10
73.309228
 20
130.165106
 30
0.0
 11
73.332913
 21
130.04913
 31
0.0
  0
LINE
  8
0
  6
CONTINUOUS
 10
67.327663
 20
132.093519
 30
0.0
 11
67.533917
 21
131.792282
 31
0.0
  0
LINE
  8
0
  6
CONTINUOUS
 10
67.533917
 20
131.792282
 30
0.0
 11
67.327704
 21
131.491036
 31
0.0
  0
LINE
  8
0
  6
CONTINUOUS
 10
67.533917
 20
131.792282
 30
0.0
 11
67.377808
 21
131.852758
 31
0.0
  0
LINE
  8
0
  6
CONTINUOUS
 10
66.076189
 20
135.314505
 30
0.0
 11
65.592485
 21
135.59194
 31
0.0
  0
LINE
  8
0
  6
CONTINUOUS
 10
66.323937
 20
135.333278
 30
0.0
 11
65.59247
 21
135.752822
 31
0.0
  0
LINE
  8
0
  6
CONTINUOUS
 10
65.592501
 20
135.317284
 30
0.0
 11
65.573474
 21
135.262406
 31
0.0
  0
LINE
  8
0
  6
CONTINUOUS
 10
65.573474
 20
135.262406
 30
0.0
 11
65.519284
 21
135.215882
 31
0.0
  0
LINE
  8
0
  6
CONTINUOUS
 10
67.152641
 20
131.767728
 30
0.0
 11
66.781397
 21
133.297731
 31
0.0
  0
LINE
  8
0
  6
CONTINUOUS
 10
66.781397
 20
133.297731
 30
0.0
 11
66.426316
 21
134.761121
 31
0.0
  0
LINE
  8
0
  6
CONTINUOUS
 10
66.554563
 20
135.025338
 30
0.0
 11
66.917726
 21
133.528642
 31
0.0
  0
LINE
  8
0
  6
CONTINUOUS
 10
66.917726
 20
133.528642
 30
0.0
 11
67.280888
 21
132.031945
 31
0.0
  0
LINE
  8
0
  6
CONTINUOUS
 10
67.327663
 20
132.093519
 30
0.0
 11
67.255941
 21
132.134656
 31
0.0
  0
LINE
  8
0
  6
CONTINUOUS
 10
67.327704
 20
131.491036
 30
0.0
 11
67.212948
 21
131.608718
 31
0.0
  0
LINE
  8
0
  6
CONTINUOUS
 10
67.212948
 20
131.608718
 30
0.0
 11
67.152641
 21
131.767728
 31
0.0
  0
LINE
  8
0
  6
CONTINUOUS
 10
67.152641
 20
131.767728
 30
0.0
 11
67.285816
 21
131.990242
 31
0.0
  0
LINE
  8
0
  6
CONTINUOUS
 10
67.285816
 20
131.990242
 30
0.0
 11
67.280924
 21
132.031797
 31
0.0
  0
LINE
  8
0
  6
CONTINUOUS
 10
67.270988
 20
132.072909
 30
0.0
 11
67.327663
 21
132.093519
 31
0.0
  0
LINE
  8
0
  6
CONTINUOUS
 10
67.212948
 20
131.608718
 30
0.0
 11
67.377808
 21
131.852758
 31
0.0
  0
LINE
  8
0
  6
CONTINUOUS
 10
67.285816
 20
131.990242
 30
0.0
 11
67.377808
 21
131.852758
 31
0.0
  0
LINE
  8
0
  6
CONTINUOUS
 10
67.377808
 20
131.852758
 30
0.0
 11
67.279986
 21
132.034703
 31
0.0
  0
LINE
  8
0
  6
CONTINUOUS
 10
67.204178
 20
132.08391
 30
0.0
 11
67.222403
 21
132.073186
 31
0.0
  0
LINE
  8
0
  6
CONTINUOUS
 10
67.222403
 20
132.073186
 30
0.0
 11
67.245644
 21
132.058022
 31
0.0
  0
LINE
  8
0
  6
CONTINUOUS
 10
67.245644
 20
132.058022
 30
0.0
 11
67.258234
 21
132.048845
 31
0.0
  0
LINE
  8
0
  6
CONTINUOUS
 10
67.258234
 20
132.048845
 30
0.0
 11
67.279655
 21
132.029243
 31
0.0
  0
LINE
  8
0
  6
CONTINUOUS
 10
67.279655
 20
132.029243
 30
0.0
 11
67.282499
 21
132.023695
 31
0.0
  0
LINE
  8
0
  6
CONTINUOUS
 10
67.282499
 20
132.023695
 30
0.0
 11
67.283277
 21
132.020912
 31
0.0
  0
LINE
  8
0
  6
CONTINUOUS
 10
67.283277
 20
132.020912
 30
0.0
 11
67.283161
 21
132.021471
 31
0.0
  0
LINE
  8
0
  6
CONTINUOUS
 10
67.283161
 20
132.021471
 30
0.0
 11
67.283039
 21
132.022065
 31
0.0
  0
LINE
  8
0
  6
CONTINUOUS
 10
67.283039
 20
132.022065
 30
0.0
 11
67.282928
 21
132.022611
 31
0.0
  0
LINE
  8
0
  6
CONTINUOUS
 10
67.282928
 20
132.022611
 30
0.0
 11
67.282809
 21
132.023199
 31
0.0
  0
LINE
  8
0
  6
CONTINUOUS
 10
67.282809
 20
132.023199
 30
0.0
 11
67.282653
 21
132.023962
 31
0.0
  0
LINE
  8
0
  6
CONTINUOUS
 10
67.282653
 20
132.023962
 30
0.0
 11
67.282409
 21
132.025142
 31
0.0
  0
LINE
  8
0
  6
CONTINUOUS
 10
67.282409
 20
132.025142
 30
0.0
 11
67.281576
 21
132.028997
 31
0.0
  0
LINE
  8
0
  6
CONTINUOUS
 10
66.554599
 20
135.02519
 30
0.0
 11
66.55949
 21
134.983635
 31
0.0
  0
LINE
  8
0
  6
CONTINUOUS
 10
66.55949
 20
134.983635
 30
0.0
 11
66.426316
 21
134.761121
 31
0.0
  0
LINE
  8
0
  6
CONTINUOUS
 10
66.076189
 20
135.314505
 30
0.0
 11
66.305684
 21
135.34243
 31
0.0
  0
LINE
  8
0
  6
CONTINUOUS
 10
66.305684
 20
135.34243
 30
0.0
 11
66.323856
 21
135.333325
 31
0.0
  0
LINE
  8
0
  6
CONTINUOUS
 10
66.426316
 20
134.761121
 30
0.0
 11
66.305702
 21
135.07914
 31
0.0
  0
LINE
  8
0
  6
CONTINUOUS
 10
66.305702
 20
135.07914
 30
0.0
 11
66.076189
 21
135.314505
 31
0.0
  0
LINE
  8
0
  6
CONTINUOUS
 10
66.446623
 20
135.175852
 30
0.0
 11
66.305684
 21
135.34243
 31
0.0
  0
LINE
  8
0
  6
CONTINUOUS
 10
66.55949
 20
134.983635
 30
0.0
 11
66.446623
 21
135.175852
 31
0.0
  0
LINE
  8
0
  6
CONTINUOUS
 10
66.305702
 20
135.07914
 30
0.0
 11
66.446623
 21
135.175852
 31
0.0
  0
LINE
  8
0
  6
CONTINUOUS
 10
73.479345
 20
129.883326
 30
0.0
 11
73.441293
 21
129.77357
 31
0.0
  0
LINE
  8
0
  6
CONTINUOUS
 10
73.441293
 20
129.77357
 30
0.0
 11
73.332913
 21
129.680522
 31
0.0
  0
LINE
  8
0
  6
CONTINUOUS
 10
73.479345
 20
130.251935
 30
0.0
 11
73.441293
 21
130.142178
 31
0.0
  0
LINE
  8
0
  6
CONTINUOUS
 10
73.441293
 20
130.142178
 30
0.0
 11
73.332913
 21
130.04913
 31
0.0
  0
LINE
  8
0
  6
CONTINUOUS
 10
73.479346
 20
130.251922
 30
0.0
 11
73.474875
 21
130.306276
 31
0.0
  0
LINE
  8
0
  6
CONTINUOUS
 10
73.474875
 20
130.306276
 30
0.0
 11
73.42137
 21
130.441062
 31
0.0
  0
LINE
  8
0
  6
CONTINUOUS
 10
73.42137
 20
130.441062
 30
0.0
 11
73.298714
 21
130.559198
 31
0.0
  0
LINE
  8
0
  6
CONTINUOUS
 10
73.298714
 20
130.559198
 30
0.0
 11
73.280499
 21
130.570189
 31
0.0
  0
LINE
  8
0
  6
CONTINUOUS
 10
80.989677
 20
123.011867
 30
0.0
 11
81.239659
 21
123.035319
 31
0.0
  0
LINE
  8
0
  6
CONTINUOUS
 10
81.239659
 20
123.035319
 30
0.0
 11
81.343203
 21
122.80512
 31
0.0
  0
LINE
  8
0
  6
CONTINUOUS
 10
82.934131
 20
123.103415
 30
0.0
 11
83.037675
 21
123.45241
 31
0.0
  0
LINE
  8
0
  6
CONTINUOUS
 10
83.037675
 20
123.45241
 30
0.0
 11
83.287657
 21
123.715766
 31
0.0
  0
LINE
  8
0
  6
CONTINUOUS
 10
82.403822
 20
123.413548
 30
0.0
 11
82.507365
 21
123.762543
 31
0.0
  0
LINE
  8
0
  6
CONTINUOUS
 10
82.507365
 20
123.762543
 30
0.0
 11
82.757348
 21
124.025899
 31
0.0
  0
LINE
  8
0
  6
CONTINUOUS
 10
82.403822
 20
123.1473
 30
0.0
 11
82.300278
 21
122.798305
 31
0.0
  0
LINE
  8
0
  6
CONTINUOUS
 10
82.300278
 20
122.798305
 30
0.0
 11
82.050296
 21
122.534949
 31
0.0
  0
LINE
  8
0
  6
CONTINUOUS
 10
83.593197
 20
147.978306
 30
0.0
 11
83.726696
 21
148.020966
 31
0.0
  0
LINE
  8
0
  6
CONTINUOUS
 10
83.726696
 20
148.020966
 30
0.0
 11
83.839314
 21
147.995207
 31
0.0
  0
LINE
  8
0
  6
CONTINUOUS
 10
83.839314
 20
147.995207
 30
0.0
 11
83.840441
 21
147.994543
 31
0.0
  0
LINE
  8
0
  6
CONTINUOUS
 10
64.159776
 20
176.019262
 30
0.0
 11
64.004495
 21
175.864974
 31
0.0
  0
LINE
  8
0
  6
CONTINUOUS
 10
64.004495
 20
175.864974
 30
0.0
 11
63.735529
 21
175.775891
 31
0.0
  0
LINE
  8
0
  6
CONTINUOUS
 10
63.735529
 20
175.775891
 30
0.0
 11
63.424946
 21
175.775884
 31
0.0
  0
LINE
  8
0
  6
CONTINUOUS
 10
63.424946
 20
175.775884
 30
0.0
 11
63.155967
 21
175.864955
 31
0.0
  0
LINE
  8
0
  6
CONTINUOUS
 10
63.610071
 20
176.537347
 30
0.0
 11
63.464381
 21
176.489094
 31
0.0
  0
LINE
  8
0
  6
CONTINUOUS
 10
63.464381
 20
176.489094
 30
0.0
 11
63.296148
 21
176.48909
 31
0.0
  0
LINE
  8
0
  6
CONTINUOUS
 10
63.296148
 20
176.48909
 30
0.0
 11
63.150451
 21
176.537336
 31
0.0
  0
LINE
  8
0
  6
CONTINUOUS
 10
63.150451
 20
176.537336
 30
0.0
 11
63.06633
 21
176.620906
 31
0.0
  0
LINE
  8
0
  6
CONTINUOUS
 10
63.06633
 20
176.620906
 30
0.0
 11
63.066323
 21
176.717405
 31
0.0
  0
LINE
  8
0
  6
CONTINUOUS
 10
63.066323
 20
176.717405
 30
0.0
 11
63.150433
 21
176.800978
 31
0.0
  0
LINE
  8
0
  6
CONTINUOUS
 10
62.231222
 20
176.395355
 30
0.0
 11
62.101804
 21
176.523923
 31
0.0
  0
LINE
  8
0
  6
CONTINUOUS
 10
62.101804
 20
176.523923
 30
0.0
 11
62.101794
 21
176.672384
 31
0.0
  0
LINE
  8
0
  6
CONTINUOUS
 10
62.101794
 20
176.672384
 30
0.0
 11
62.231195
 21
176.800958
 31
0.0
  0
LINE
  8
0
  6
CONTINUOUS
 10
62.867607
 20
176.55761
 30
0.0
 11
62.841724
 21
176.583324
 31
0.0
  0
LINE
  8
0
  6
CONTINUOUS
 10
62.841724
 20
176.583324
 30
0.0
 11
62.841722
 21
176.613016
 31
0.0
  0
LINE
  8
0
  6
CONTINUOUS
 10
62.841722
 20
176.613016
 30
0.0
 11
62.867602
 21
176.638731
 31
0.0
  0
LINE
  8
0
  6
CONTINUOUS
 10
62.690768
 20
177.470212
 30
0.0
 11
62.820187
 21
177.341644
 31
0.0
  0
LINE
  8
0
  6
CONTINUOUS
 10
62.820187
 20
177.341644
 30
0.0
 11
62.820197
 21
177.193184
 31
0.0
  0
LINE
  8
0
  6
CONTINUOUS
 10
62.820197
 20
177.193184
 30
0.0
 11
62.690796
 21
177.06461
 31
0.0
  0
LINE
  8
0
  6
CONTINUOUS
 10
63.786841
 20
176.638751
 30
0.0
 11
63.89891
 21
176.675869
 31
0.0
  0
LINE
  8
0
  6
CONTINUOUS
 10
63.89891
 20
176.675869
 30
0.0
 11
64.02832
 21
176.675872
 31
0.0
  0
LINE
  8
0
  6
CONTINUOUS
 10
64.02832
 20
176.675872
 30
0.0
 11
64.140394
 21
176.638759
 31
0.0
  0
LINE
  8
0
  6
CONTINUOUS
 10
63.786805
 20
177.166035
 30
0.0
 11
63.898874
 21
177.203153
 31
0.0
  0
LINE
  8
0
  6
CONTINUOUS
 10
63.898874
 20
177.203153
 30
0.0
 11
64.028283
 21
177.203156
 31
0.0
  0
LINE
  8
0
  6
CONTINUOUS
 10
64.028283
 20
177.203156
 30
0.0
 11
64.140358
 21
177.166043
 31
0.0
  0
LINE
  8
0
  6
CONTINUOUS
 10
63.786791
 20
177.368836
 30
0.0
 11
63.860021
 21
177.267437
 31
0.0
  0
LINE
  8
0
  6
CONTINUOUS
 10
63.860021
 20
177.267437
 30
0.0
 11
63.786805
 21
177.166035
 31
0.0
  0
LINE
  8
0
  6
CONTINUOUS
 10
63.468666
 20
176.293982
 30
0.0
 11
63.423838
 21
176.279135
 31
0.0
  0
LINE
  8
0
  6
CONTINUOUS
 10
63.423838
 20
176.279135
 30
0.0
 11
63.372075
 21
176.279134
 31
0.0
  0
LINE
  8
0
  6
CONTINUOUS
 10
63.372075
 20
176.279134
 30
0.0
 11
63.327245
 21
176.293979
 31
0.0
  0
LINE
  8
0
  6
CONTINUOUS
 10
63.928268
 20
176.557634
 30
0.0
 11
64.040337
 21
176.594752
 31
0.0
  0
LINE
  8
0
  6
CONTINUOUS
 10
64.040337
 20
176.594752
 30
0.0
 11
64.169746
 21
176.594755
 31
0.0
  0
LINE
  8
0
  6
CONTINUOUS
 10
64.169746
 20
176.594755
 30
0.0
 11
64.281821
 21
176.557642
 31
0.0
  0
LINE
  8
0
  6
CONTINUOUS
 10
64.281821
 20
176.557642
 30
0.0
 11
64.34653
 21
176.493358
 31
0.0
  0
LINE
  8
0
  6
CONTINUOUS
 10
64.34653
 20
176.493358
 30
0.0
 11
64.346535
 21
176.419128
 31
0.0
  0
LINE
  8
0
  6
CONTINUOUS
 10
64.600031
 20
176.375128
 30
0.0
 11
64.673262
 21
176.273729
 31
0.0
  0
LINE
  8
0
  6
CONTINUOUS
 10
64.673262
 20
176.273729
 30
0.0
 11
64.600045
 21
176.172327
 31
0.0
  0
LINE
  8
0
  6
CONTINUOUS
 10
65.51927
 20
176.375149
 30
0.0
 11
65.592501
 21
176.27375
 31
0.0
  0
LINE
  8
0
  6
CONTINUOUS
 10
65.592501
 20
176.27375
 30
0.0
 11
65.519284
 21
176.172347
 31
0.0
  0
LINE
  8
0
  6
CONTINUOUS
 10
91.949294
 20
123.708338
 30
0.0
 11
90.199418
 21
123.54418
 31
0.0
  0
LINE
  8
0
  6
CONTINUOUS
 10
90.199418
 20
123.54418
 30
0.0
 11
89.474612
 21
125.15557
 31
0.0
  0
LINE
  8
0
  6
CONTINUOUS
 10
90.004921
 20
125.459893
 30
0.0
 11
90.26543
 21
126.735638
 31
0.0
  0
LINE
  8
0
  6
CONTINUOUS
 10
90.26543
 20
126.735638
 30
0.0
 11
90.977155
 21
127.968432
 31
0.0
  0
LINE
  8
0
  6
CONTINUOUS
 10
90.977155
 20
127.968432
 30
0.0
 11
91.949388
 21
128.82795
 31
0.0
  0
LINE
  8
0
  6
CONTINUOUS
 10
91.949388
 20
128.82795
 30
0.0
 11
92.921622
 21
129.083884
 31
0.0
  0
LINE
  8
0
  6
CONTINUOUS
 10
92.921622
 20
129.083884
 30
0.0
 11
93.633347
 21
128.667656
 31
0.0
  0
LINE
  8
0
  6
CONTINUOUS
 10
93.633347
 20
128.667656
 30
0.0
 11
93.893856
 21
127.690796
 31
0.0
  0
LINE
  8
0
  6
CONTINUOUS
 10
93.893856
 20
127.690796
 30
0.0
 11
93.522496
 21
126.153715
 31
0.0
  0
LINE
  8
0
  6
CONTINUOUS
 10
93.522496
 20
126.153715
 30
0.0
 11
92.550262
 21
124.777682
 31
0.0
  0
LINE
  8
0
  6
CONTINUOUS
 10
92.550262
 20
124.777682
 30
0.0
 11
91.348515
 21
124.088296
 31
0.0
  0
LINE
  8
0
  6
CONTINUOUS
 10
91.348515
 20
124.088296
 30
0.0
 11
90.376281
 21
124.348877
 31
0.0
  0
LINE
  8
0
  6
CONTINUOUS
 10
90.376281
 20
124.348877
 30
0.0
 11
90.004921
 21
125.459893
 31
0.0
  0
LINE
  8
0
  6
CONTINUOUS
 10
89.297849
 20
127.163536
 30
0.0
 11
89.42284
 21
127.175262
 31
0.0
  0
LINE
  8
0
  6
CONTINUOUS
 10
89.42284
 20
127.175262
 30
0.0
 11
89.474612
 21
127.060162
 31
0.0
  0
LINE
  8
0
  6
CONTINUOUS
 10
91.825744
 20
129.22802
 30
0.0
 11
93.57562
 21
129.392178
 31
0.0
  0
LINE
  8
0
  6
CONTINUOUS
 10
93.57562
 20
129.392178
 30
0.0
 11
94.300426
 21
127.780788
 31
0.0
  0
LINE
  8
0
  6
CONTINUOUS
 10
91.861331
 20
129.289391
 30
0.0
 11
93.098719
 21
129.615125
 31
0.0
  0
LINE
  8
0
  6
CONTINUOUS
 10
93.098719
 20
129.615125
 30
0.0
 11
94.00455
 21
129.085381
 31
0.0
  0
LINE
  8
0
  6
CONTINUOUS
 10
94.00455
 20
129.085381
 30
0.0
 11
94.336107
 21
127.842104
 31
0.0
  0
LINE
  8
0
  6
CONTINUOUS
 10
93.593354
 20
124.651459
 30
0.0
 11
93.718345
 21
124.663184
 31
0.0
  0
LINE
  8
0
  6
CONTINUOUS
 10
93.718345
 20
124.663184
 30
0.0
 11
93.770117
 21
124.548085
 31
0.0
  0
LINE
  8
0
  6
CONTINUOUS
 10
96.576323
 20
140.268136
 30
0.0
 11
97.23564
 21
139.712806
 31
0.0
  0
LINE
  8
0
  6
CONTINUOUS
 10
97.23564
 20
139.712806
 30
0.0
 11
97.791583
 21
138.936583
 31
0.0
  0
LINE
  8
0
  6
CONTINUOUS
 10
96.823703
 20
140.284287
 30
0.0
 11
97.392002
 21
139.804923
 31
0.0
  0
LINE
  8
0
  6
CONTINUOUS
 10
97.392002
 20
139.804923
 30
0.0
 11
97.955966
 21
139.022874
 31
0.0
  0
LINE
  8
0
  6
CONTINUOUS
 10
97.961705
 20
139.024884
 30
0.0
 11
97.65953
 21
139.499972
 31
0.0
  0
LINE
  8
0
  6
CONTINUOUS
 10
97.65953
 20
139.499972
 30
0.0
 11
97.265161
 21
139.935404
 31
0.0
  0
LINE
  8
0
  6
CONTINUOUS
 10
97.265161
 20
139.935404
 30
0.0
 11
96.928705
 21
140.212961
 31
0.0
  0
LINE
  8
0
  6
CONTINUOUS
 10
96.928705
 20
140.212961
 30
0.0
 11
96.851836
 21
140.266538
 31
0.0
  0
LINE
  8
0
  6
CONTINUOUS
 10
96.851836
 20
140.266538
 30
0.0
 11
96.834599
 21
140.277649
 31
0.0
  0
LINE
  8
0
  6
CONTINUOUS
 10
96.834599
 20
140.277649
 30
0.0
 11
96.824774
 21
140.283656
 31
0.0
  0
LINE
  8
0
  6
CONTINUOUS
 10
97.791583
 20
138.936583
 30
0.0
 11
98.174939
 21
138.061166
 31
0.0
  0
LINE
  8
0
  6
CONTINUOUS
 10
98.174939
 20
138.061166
 30
0.0
 11
98.316499
 21
137.208254
 31
0.0
  0
LINE
  8
0
  6
CONTINUOUS
 10
97.955966
 20
139.022874
 30
0.0
 11
98.336137
 21
138.138806
 31
0.0
  0
LINE
  8
0
  6
CONTINUOUS
 10
98.336137
 20
138.138806
 30
0.0
 11
98.455484
 21
137.409826
 31
0.0
  0
LINE
  8
0
  6
CONTINUOUS
 10
98.45549
 20
137.411194
 30
0.0
 11
98.455444
 21
137.417365
 31
0.0
  0
LINE
  8
0
  6
CONTINUOUS
 10
98.455444
 20
137.417365
 30
0.0
 11
98.455295
 21
137.424588
 31
0.0
  0
LINE
  8
0
  6
CONTINUOUS
 10
98.455295
 20
137.424588
 30
0.0
 11
98.454642
 21
137.442321
 31
0.0
  0
LINE
  8
0
  6
CONTINUOUS
 10
98.454642
 20
137.442321
 30
0.0
 11
98.45174
 21
137.490176
 31
0.0
  0
LINE
  8
0
  6
CONTINUOUS
 10
98.45174
 20
137.490176
 30
0.0
 11
98.438344
 21
137.627951
 31
0.0
  0
LINE
  8
0
  6
CONTINUOUS
 10
98.438344
 20
137.627951
 30
0.0
 11
98.372746
 21
138.009949
 31
0.0
  0
LINE
  8
0
  6
CONTINUOUS
 10
98.372746
 20
138.009949
 30
0.0
 11
98.241079
 21
138.450841
 31
0.0
  0
LINE
  8
0
  6
CONTINUOUS
 10
98.241079
 20
138.450841
 30
0.0
 11
97.961705
 21
139.024884
 31
0.0
  0
LINE
  8
0
  6
CONTINUOUS
 10
98.45549
 20
137.41119
 30
0.0
 11
98.455484
 21
137.409826
 31
0.0
  0
LINE
  8
0
  6
CONTINUOUS
 10
98.455484
 20
137.409826
 30
0.0
 11
98.316499
 21
137.208254
 31
0.0
  0
LINE
  8
0
  6
CONTINUOUS
 10
97.791583
 20
138.936583
 30
0.0
 11
97.955966
 21
139.022874
 31
0.0
  0
LINE
  8
0
  6
CONTINUOUS
 10
97.961705
 20
139.024884
 30
0.0
 11
97.955966
 21
139.022874
 31
0.0
  0
LINE
  8
0
  6
CONTINUOUS
 10
96.576323
 20
140.268136
 30
0.0
 11
96.823703
 21
140.284287
 31
0.0
  0
LINE
  8
0
  6
CONTINUOUS
 10
96.823703
 20
140.284287
 30
0.0
 11
96.824771
 21
140.283658
 31
0.0
  0
ENDSEC
  0
EOF
