  0
SECTION
  2
HEADER
  9
$ACADVER
  1
AC1009
  9
$INSBASE
 10
0.0
 20
0.0
 30
0.0
  9
$EXTMIN
 10
24.971154
 20
57.886632
 30
0.0
  9
$EXTMAX
 10
121.286771
 20
165.276552
 30
0.0
  9
$LIMMIN
 10
24.971154
 20
57.886632
  9
$LIMMAX
 10
121.286771
 20
165.276552
  9
$ORTHOMODE
 70
     0
  9
$REGENMODE
 70
     1
  9
$FILLMODE
 70
     1
  9
$QTEXTMODE
 70
     0
  9
$MIRRTEXT
 70
     1
  9
$DRAGMODE
 70
     2
  9
$LTSCALE
 40
1.0
  9
$OSMODE
 70
     0
  9
$ATTMODE
 70
     1
  9
$TEXTSIZE
 40
3.5
  9
$TRACEWID
 40
0.5
  9
$TEXTSTYLE
  7
STANDARD
  9
$CLAYER
  8
0
  9
$CELTYPE
  6
BYLAYER
  9
$CECOLOR
 62
   256
  9
$DIMSCALE
 40
1.0
  9
$DIMASZ
 40
0.18
  9
$DIMEXO
 40
0.0625
  9
$DIMDLI
 40
0.38
  9
$DIMRND
 40
0.0
  9
$DIMDLE
 40
0.0
  9
$DIMEXE
 40
0.18
  9
$DIMTP
 40
0.0
  9
$DIMTM
 40
0.0
  9
$DIMTXT
 40
0.18
  9
$DIMCEN
 40
0.09
  9
$DIMTSZ
 40
0.0
  9
$DIMTOL
 70
     0
  9
$DIMLIM
 70
     0
  9
$DIMTIH
 70
     1
  9
$DIMTOH
 70
     1
  9
$DIMSE1
 70
     0
  9
$DIMSE2
 70
     0
  9
$DIMTAD
 70
     0
  9
$DIMZIN
 70
     0
  9
$DIMBLK
  1

  9
$DIMASO
 70
     1
  9
$DIMSHO
 70
     1
  9
$DIMPOST
  1

  9
$DIMAPOST
  1

  9
$DIMALT
 70
     0
  9
$DIMALTD
 70
     2
  9
$DIMALTF
 40
25.4
  9
$DIMLFAC
 40
1.0
  9
$DIMTOFL
 70
     0
  9
$DIMTVP
 40
0.0
  9
$DIMTIX
 70
     0
  9
$DIMSOXD
 70
     0
  9
$DIMSAH
 70
     0
  9
$DIMBLK1
  1

  9
$DIMBLK2
  1

  9
$DIMSTYLE
  2
*UNNAMED
  9
$DIMCLRD
 70
     0
  9
$DIMCLRE
 70
     0
  9
$DIMCLRT
 70
     0
  9
$DIMTFAC
 40
1.0
  9
$DIMGAP
 40
0.09
  9
$LUNITS
 70
     2
  9
$LUPREC
 70
     4
  9
$SKETCHINC
 40
0.1
  9
$FILLETRAD
 40
2.0
  9
$AUNITS
 70
     0
  9
$AUPREC
 70
     0
  9
$MENU
  1
ACAD
  9
$ELEVATION
 40
0.0
  9
$PELEVATION
 40
0.0
  9
$THICKNESS
 40
0.0
  9
$LIMCHECK
 70
     0
  9
$BLIPMODE
 70
     1
  9
$CHAMFERA
 40
0.0
  9
$CHAMFERB
 40
0.0
  9
$SKPOLY
 70
     0
  9
$TDCREATE
 40
2450954.715479514
  9
$TDUPDATE
 40
2450954.715479514
  9
$TDINDWG
 40
0.0000000000
  9
$TDUSRTIMER
 40
0.0000000000
  9
$USRTIMER
 70
     1
  9
$ANGBASE
 50
0.0
  9
$ANGDIR
 70
     0
  9
$PDMODE
 70
     0
  9
$PDSIZE
 40
0.0
  9
$PLINEWID
 40
0.0
  9
$COORDS
 70
     2
  9
$SPLFRAME
 70
     0
  9
$SPLINETYPE
 70
     6
  9
$SPLINESEGS
 70
     8
  9
$ATTDIA
 70
     0
  9
$ATTREQ
 70
     1
  9
$HANDLING
 70
     0
  9
$HANDSEED
  5
0
  9
$SURFTAB1
 70
     6
  9
$SURFTAB2
 70
     6
  9
$SURFTYPE
 70
     6
  9
$SURFU
 70
     6
  9
$SURFV
 70
     6
  9
$UCSNAME
  2

  9
$UCSORG
 10
0.0
 20
0.0
 30
0.0
  9
$UCSXDIR
 10
1.0
 20
0.0
 30
0.0
  9
$UCSYDIR
 10
0.0
 20
1.0
 30
0.0
  9
$PUCSNAME
  2

  9
$PUCSORG
 10
0.0
 20
0.0
 30
0.0
  9
$PUCSXDIR
 10
1.0
 20
0.0
 30
0.0
  9
$PUCSYDIR
 10
0.0
 20
1.0
 30
0.0
  9
$USERI1
 70
     0
  9
$USERI2
 70
     0
  9
$USERI3
 70
     0
  9
$USERI4
 70
     0
  9
$USERI5
 70
     0
  9
$USERR1
 40
0.0
  9
$USERR2
 40
0.0
  9
$USERR3
 40
0.0
  9
$USERR4
 40
0.0
  9
$USERR5
 40
0.0
  9
$WORLDVIEW
 70
     1
  9
$SHADEDGE
 70
     3
  9
$SHADEDIF
 70
    70
  9
$TILEMODE
 70
     1
  9
$MAXACTVP
 70
    16
  9
$PINSBASE
 10
0.0
 20
0.0
 30
0.0
  9
$PLIMCHECK
 70
     0
  9
$PEXTMIN
 10
1.000000E+20
 20
1.000000E+20
 30
1.000000E+20
  9
$PEXTMAX
 10
-1.000000E+20
 20
-1.000000E+20
 30
-1.000000E+20
  9
$PLIMMIN
 10
0.0
 20
0.0
  9
$PLIMMAX
 10
420.0
 20
297.0
  9
$UNITMODE
 70
     0
  9
$VISRETAIN
 70
     0
  9
$PLINEGEN
 70
     0
  9
$PSLTSCALE
 70
     1
  9
$TREEDEPTH
 70
  3020
  9
$DWGCODEPAGE
  3
iso8859-1
  0
ENDSEC
  0
SECTION
  2
TABLES
  0
TABLE
  2
VPORT
 70
     2
  0
VPORT
  2
*ACTIVE
 70
     0
 10
0.0
 20
0.0
 11
1.0
 21
1.0
 12
98.908443
 22
112.134681
 13
0.0
 23
0.0
 14
1.0
 24
1.0
 15
0.0
 25
0.0
 16
0.0
 26
0.0
 36
1.0
 17
0.0
 27
0.0
 37
0.0
 40
139.401168
 41
1.748359
 42
50.0
 43
0.0
 44
0.0
 50
0.0
 51
0.0
 71
     0
 72
   100
 73
     1
 74
     0
 75
     0
 76
     0
 77
     0
 78
     0
  0
ENDTAB
  0
TABLE
  2
LTYPE
 70
     1
  0
LTYPE
  2
CONTINUOUS
 70
    64
  3
Solid line
 72
    65
 73
     0
 40
0.0
  0
ENDTAB
  0
TABLE
  2
LAYER
 70
     1
  0
LAYER
  2
0
 70
    64
 62
     7
  6
CONTINUOUS
  0
ENDTAB
  0
TABLE
  2
STYLE
 70
     1
  0
STYLE
  2
STANDARD
 70
     0
 40
0.0
 41
1.0
 50
0.0
 71
     0
 42
3.5
  3
txt
  4

  0
ENDTAB
  0
TABLE
  2
VIEW
 70
     0
  0
ENDTAB
  0
TABLE
  2
UCS
 70
     0
  0
ENDTAB
  0
TABLE
  2
APPID
 70
     1
  0
APPID
  2
ACAD
 70
    64
  0
ENDTAB
  0
TABLE
  2
DIMSTYLE
 70
     0
  0
ENDTAB
  0
ENDSEC
  0
SECTION
  2
BLOCKS
  0
ENDSEC
  0
SECTION
  2
ENTITIES
  0
LINE
  8
0
  6
CONTINUOUS
 10
84.889861
 20
117.906992
 30
0.0
 11
85.420191
 21
117.600805
 31
0.0
  0
LINE
  8
0
  6
CONTINUOUS
 10
85.420191
 20
117.600805
 30
0.0
 11
87.187631
 21
118.621237
 31
0.0
  0
LINE
  8
0
  6
CONTINUOUS
 10
67.43843
 20
77.960578
 30
0.0
 11
67.512276
 21
91.540323
 31
0.0
  0
LINE
  8
0
  6
CONTINUOUS
 10
106.4923
 20
132.711597
 30
0.0
 11
106.353176
 21
132.789141
 31
0.0
  0
LINE
  8
0
  6
CONTINUOUS
 10
81.496243
 20
120.153361
 30
0.0
 11
81.844612
 21
119.945147
 31
0.0
  0
LINE
  8
0
  6
CONTINUOUS
 10
91.387293
 20
138.457477
 30
0.0
 11
93.321455
 21
137.379432
 31
0.0
  0
LINE
  8
0
  6
CONTINUOUS
 10
93.958358
 20
112.934323
 30
0.0
 11
94.806706
 21
112.461478
 31
0.0
  0
LINE
  8
0
  6
CONTINUOUS
 10
93.538931
 20
140.190228
 30
0.0
 11
93.400293
 21
140.27309
 31
0.0
  0
LINE
  8
0
  6
CONTINUOUS
 10
95.028546
 20
115.269755
 30
0.0
 11
90.472462
 21
117.992842
 31
0.0
  0
LINE
  8
0
  6
CONTINUOUS
 10
84.174457
 20
121.536367
 30
0.0
 11
82.272693
 21
122.673016
 31
0.0
  0
LINE
  8
0
  6
CONTINUOUS
 10
91.197315
 20
138.346506
 30
0.0
 11
104.175544
 21
131.112821
 31
0.0
  0
LINE
  8
0
  6
CONTINUOUS
 10
105.888408
 20
146.587621
 30
0.0
 11
105.542924
 21
146.794111
 31
0.0
  0
LINE
  8
0
  6
CONTINUOUS
 10
81.395474
 20
106.655354
 30
0.0
 11
82.483407
 21
106.048971
 31
0.0
  0
LINE
  8
0
  6
CONTINUOUS
 10
85.859608
 20
111.896723
 30
0.0
 11
82.271919
 21
114.041019
 31
0.0
  0
LINE
  8
0
  6
CONTINUOUS
 10
98.863398
 20
142.773609
 30
0.0
 11
102.512207
 21
140.73987
 31
0.0
  0
LINE
  8
0
  6
CONTINUOUS
 10
81.390664
 20
118.21916
 30
0.0
 11
80.559261
 21
118.68256
 31
0.0
  0
LINE
  8
0
  6
CONTINUOUS
 10
56.605854
 20
105.534666
 30
0.0
 11
56.742975
 21
105.452711
 31
0.0
  0
LINE
  8
0
  6
CONTINUOUS
 10
66.285656
 20
123.965041
 30
0.0
 11
68.219818
 21
122.886995
 31
0.0
  0
LINE
  8
0
  6
CONTINUOUS
 10
68.856722
 20
98.441886
 30
0.0
 11
69.70507
 21
97.969042
 31
0.0
  0
LINE
  8
0
  6
CONTINUOUS
 10
68.437295
 20
125.697791
 30
0.0
 11
68.298656
 21
125.780653
 31
0.0
  0
LINE
  8
0
  6
CONTINUOUS
 10
69.926909
 20
100.777319
 30
0.0
 11
65.370826
 21
103.500406
 31
0.0
  0
LINE
  8
0
  6
CONTINUOUS
 10
59.07282
 20
107.04393
 30
0.0
 11
57.171057
 21
108.180579
 31
0.0
  0
LINE
  8
0
  6
CONTINUOUS
 10
66.095679
 20
123.85407
 30
0.0
 11
79.073907
 21
116.620384
 31
0.0
  0
LINE
  8
0
  6
CONTINUOUS
 10
80.786772
 20
132.095185
 30
0.0
 11
80.02474
 21
132.550637
 31
0.0
  0
LINE
  8
0
  6
CONTINUOUS
 10
57.029498
 20
91.752881
 30
0.0
 11
57.381771
 21
91.556535
 31
0.0
  0
LINE
  8
0
  6
CONTINUOUS
 10
60.757972
 20
97.404286
 30
0.0
 11
57.170283
 21
99.548582
 31
0.0
  0
LINE
  8
0
  6
CONTINUOUS
 10
73.761762
 20
128.281172
 30
0.0
 11
77.41057
 21
126.247433
 31
0.0
  0
LINE
  8
0
  6
CONTINUOUS
 10
67.43843
 20
77.960578
 30
0.0
 11
70.801321
 21
76.019012
 31
0.0
  0
LINE
  8
0
  6
CONTINUOUS
 10
71.049696
 20
76.018081
 30
0.0
 11
87.097826
 21
85.123862
 31
0.0
  0
LINE
  8
0
  6
CONTINUOUS
 10
87.224444
 20
85.343172
 30
0.0
 11
87.093343
 21
102.842891
 31
0.0
  0
LINE
  8
0
  6
CONTINUOUS
 10
31.467132
 20
66.846086
 30
0.0
 11
31.575319
 21
66.907472
 31
0.0
  0
LINE
  8
0
  6
CONTINUOUS
 10
31.612419
 20
61.865333
 30
0.0
 11
30.033379
 21
60.969378
 31
0.0
  0
LINE
  8
0
  6
CONTINUOUS
 10
31.615231
 20
61.559161
 30
0.0
 11
31.167754
 21
61.305261
 31
0.0
  0
LINE
  8
0
  6
CONTINUOUS
 10
31.268333
 20
58.936705
 30
0.0
 11
31.633364
 21
59.143825
 31
0.0
  0
LINE
  8
0
  6
CONTINUOUS
 10
30.326442
 20
58.908958
 30
0.0
 11
30.390524
 21
58.945319
 31
0.0
  0
LINE
  8
0
  6
CONTINUOUS
 10
114.179277
 20
132.855153
 30
0.0
 11
110.691652
 21
130.876258
 31
0.0
  0
LINE
  8
0
  6
CONTINUOUS
 10
67.217428
 20
106.208788
 30
0.0
 11
60.194732
 21
102.224079
 31
0.0
  0
LINE
  8
0
  6
CONTINUOUS
 10
38.07263
 20
89.671899
 30
0.0
 11
25.023
 21
82.26748
 31
0.0
  0
LINE
  8
0
  6
CONTINUOUS
 10
30.930236
 20
78.343274
 30
0.0
 11
30.87967
 21
78.314583
 31
0.0
  0
LINE
  8
0
  6
CONTINUOUS
 10
31.400778
 20
75.703234
 30
0.0
 11
31.508965
 21
75.76462
 31
0.0
  0
LINE
  8
0
  6
CONTINUOUS
 10
31.548877
 20
70.416309
 30
0.0
 11
31.1014
 21
70.162408
 31
0.0
  0
LINE
  8
0
  6
CONTINUOUS
 10
31.367893
 20
68.833843
 30
0.0
 11
31.560033
 21
68.942863
 31
0.0
  0
LINE
  8
0
  6
CONTINUOUS
 10
32.078648
 20
57.897321
 30
0.0
 11
67.438431
 21
77.960621
 31
0.0
  0
LINE
  8
0
  6
CONTINUOUS
 10
87.194353
 20
89.17022
 30
0.0
 11
121.234925
 21
108.484993
 31
0.0
  0
LINE
  8
0
  6
CONTINUOUS
 10
30.510383
 20
60.292368
 30
0.0
 11
30.442886
 21
60.25407
 31
0.0
  0
LINE
  8
0
  6
CONTINUOUS
 10
30.653762
 20
77.608317
 30
0.0
 11
30.831408
 21
77.709114
 31
0.0
  0
LINE
  8
0
  6
CONTINUOUS
 10
119.435897
 20
129.820242
 30
0.0
 11
110.741064
 21
124.886755
 31
0.0
  0
LINE
  8
0
  6
CONTINUOUS
 10
43.422623
 20
86.689969
 30
0.0
 11
30.27962
 21
79.23257
 31
0.0
  0
LINE
  8
0
  6
CONTINUOUS
 10
84.061005
 20
111.099943
 30
0.0
 11
86.038909
 21
109.997181
 31
0.0
  0
LINE
  8
0
  6
CONTINUOUS
 10
81.743236
 20
120.172754
 30
0.0
 11
81.496289
 21
120.320349
 31
0.0
  0
LINE
  8
0
  6
CONTINUOUS
 10
94.524191
 20
120.20628
 30
0.0
 11
94.524191
 21
119.465649
 31
0.0
  0
LINE
  8
0
  6
CONTINUOUS
 10
88.473673
 20
115.06219
 30
0.0
 11
88.473673
 21
116.266569
 31
0.0
  0
LINE
  8
0
  6
CONTINUOUS
 10
93.109977
 20
139.044062
 30
0.0
 11
92.750249
 21
139.244564
 31
0.0
  0
LINE
  8
0
  6
CONTINUOUS
 10
93.109977
 20
113.589797
 30
0.0
 11
88.473673
 21
116.266569
 31
0.0
  0
LINE
  8
0
  6
CONTINUOUS
 10
93.109977
 20
137.839683
 30
0.0
 11
91.688971
 21
138.631711
 31
0.0
  0
LINE
  8
0
  6
CONTINUOUS
 10
89.22089
 20
123.321583
 30
0.0
 11
89.22089
 21
122.474071
 31
0.0
  0
LINE
  8
0
  6
CONTINUOUS
 10
85.685356
 20
123.339397
 30
0.0
 11
85.685356
 21
122.456257
 31
0.0
  0
LINE
  8
0
  6
CONTINUOUS
 10
88.473673
 20
115.06219
 30
0.0
 11
93.109977
 21
112.385418
 31
0.0
  0
LINE
  8
0
  6
CONTINUOUS
 10
106.244499
 20
132.685587
 30
0.0
 11
106.208525
 21
132.705638
 31
0.0
  0
LINE
  8
0
  6
CONTINUOUS
 10
105.976316
 20
132.574265
 30
0.0
 11
106.014663
 21
132.552891
 31
0.0
  0
LINE
  8
0
  6
CONTINUOUS
 10
83.740812
 20
120.713699
 30
0.0
 11
84.094366
 21
120.509574
 31
0.0
  0
LINE
  8
0
  6
CONTINUOUS
 10
93.647549
 20
138.367965
 30
0.0
 11
93.817084
 21
138.268375
 31
0.0
  0
LINE
  8
0
  6
CONTINUOUS
 10
93.817084
 20
138.166313
 30
0.0
 11
94.170637
 21
137.962189
 31
0.0
  0
LINE
  8
0
  6
CONTINUOUS
 10
93.647549
 20
113.873067
 30
0.0
 11
93.817084
 21
113.773478
 31
0.0
  0
LINE
  8
0
  6
CONTINUOUS
 10
93.817084
 20
113.671416
 30
0.0
 11
94.170637
 21
113.467291
 31
0.0
  0
LINE
  8
0
  6
CONTINUOUS
 10
104.694832
 20
133.007019
 30
0.0
 11
104.865627
 21
132.910116
 31
0.0
  0
LINE
  8
0
  6
CONTINUOUS
 10
104.954016
 20
132.961147
 30
0.0
 11
105.307569
 21
132.757023
 31
0.0
  0
LINE
  8
0
  6
CONTINUOUS
 10
82.680152
 20
119.897218
 30
0.0
 11
82.332767
 21
120.104843
 31
0.0
  0
LINE
  8
0
  6
CONTINUOUS
 10
82.680152
 20
119.488938
 30
0.0
 11
81.932959
 21
119.920331
 31
0.0
  0
LINE
  8
0
  6
CONTINUOUS
 10
82.326612
 20
118.876589
 30
0.0
 11
81.249424
 21
119.498504
 31
0.0
  0
LINE
  8
0
  6
CONTINUOUS
 10
82.096776
 20
118.743893
 30
0.0
 11
81.036224
 21
119.356202
 31
0.0
  0
LINE
  8
0
  6
CONTINUOUS
 10
93.817057
 20
114.814495
 30
0.0
 11
89.180753
 21
117.491267
 31
0.0
  0
LINE
  8
0
  6
CONTINUOUS
 10
89.180753
 20
117.491267
 30
0.0
 11
89.968134
 21
117.945862
 31
0.0
  0
LINE
  8
0
  6
CONTINUOUS
 10
89.968134
 20
117.945862
 30
0.0
 11
94.524218
 21
115.222775
 31
0.0
  0
LINE
  8
0
  6
CONTINUOUS
 10
82.273404
 20
121.098598
 30
0.0
 11
82.627106
 21
120.887196
 31
0.0
  0
LINE
  8
0
  6
CONTINUOUS
 10
83.670129
 20
121.489386
 30
0.0
 11
82.272925
 21
122.324469
 31
0.0
  0
LINE
  8
0
  6
CONTINUOUS
 10
94.082298
 20
140.66679
 30
0.0
 11
94.700968
 21
140.309601
 31
0.0
  0
LINE
  8
0
  6
CONTINUOUS
 10
94.312112
 20
140.7995
 30
0.0
 11
94.700968
 21
140.574993
 31
0.0
  0
LINE
  8
0
  6
CONTINUOUS
 10
93.993847
 20
139.493112
 30
0.0
 11
93.640145
 21
139.704513
 31
0.0
  0
LINE
  8
0
  6
CONTINUOUS
 10
93.598937
 20
140.129393
 30
0.0
 11
94.347428
 21
139.697252
 31
0.0
  0
LINE
  8
0
  6
CONTINUOUS
 10
82.096776
 20
118.743893
 30
0.0
 11
82.326612
 21
118.876589
 31
0.0
  0
LINE
  8
0
  6
CONTINUOUS
 10
82.680152
 20
119.488938
 30
0.0
 11
82.680152
 21
119.897218
 31
0.0
  0
LINE
  8
0
  6
CONTINUOUS
 10
81.743236
 20
120.172754
 30
0.0
 11
81.743236
 21
122.214011
 31
0.0
  0
LINE
  8
0
  6
CONTINUOUS
 10
93.640307
 20
139.962621
 30
0.0
 11
93.640307
 21
139.697229
 31
0.0
  0
LINE
  8
0
  6
CONTINUOUS
 10
93.993847
 20
139.493112
 30
0.0
 11
94.347428
 21
139.697252
 31
0.0
  0
LINE
  8
0
  6
CONTINUOUS
 10
94.700968
 20
140.309601
 30
0.0
 11
94.700968
 21
140.574993
 31
0.0
  0
LINE
  8
0
  6
CONTINUOUS
 10
106.598039
 20
136.563938
 30
0.0
 11
106.598039
 21
134.522681
 31
0.0
  0
LINE
  8
0
  6
CONTINUOUS
 10
106.244499
 20
133.910332
 30
0.0
 11
106.014663
 21
133.777636
 31
0.0
  0
LINE
  8
0
  6
CONTINUOUS
 10
106.014663
 20
132.552891
 30
0.0
 11
106.244499
 21
132.685587
 31
0.0
  0
LINE
  8
0
  6
CONTINUOUS
 10
106.598039
 20
132.481471
 30
0.0
 11
106.598039
 21
130.440214
 31
0.0
  0
LINE
  8
0
  6
CONTINUOUS
 10
94.524218
 20
137.83973
 30
0.0
 11
93.817057
 21
137.431451
 31
0.0
  0
LINE
  8
0
  6
CONTINUOUS
 10
93.109977
 20
137.839683
 30
0.0
 11
93.109977
 21
139.044062
 31
0.0
  0
LINE
  8
0
  6
CONTINUOUS
 10
82.627106
 20
120.887196
 30
0.0
 11
83.670129
 21
121.489386
 31
0.0
  0
LINE
  8
0
  6
CONTINUOUS
 10
84.377209
 20
121.081153
 30
0.0
 11
84.377209
 21
120.264594
 31
0.0
  0
LINE
  8
0
  6
CONTINUOUS
 10
83.670129
 20
119.039896
 30
0.0
 11
82.627106
 21
118.437707
 31
0.0
  0
LINE
  8
0
  6
CONTINUOUS
 10
93.109977
 20
112.385418
 30
0.0
 11
93.109977
 21
113.589797
 31
0.0
  0
LINE
  8
0
  6
CONTINUOUS
 10
93.817057
 20
114.814495
 30
0.0
 11
94.524218
 21
115.222775
 31
0.0
  0
LINE
  8
0
  6
CONTINUOUS
 10
95.231298
 20
114.814542
 30
0.0
 11
95.231298
 21
113.610163
 31
0.0
  0
LINE
  8
0
  6
CONTINUOUS
 10
105.661123
 20
133.165287
 30
0.0
 11
105.661123
 21
132.757008
 31
0.0
  0
LINE
  8
0
  6
CONTINUOUS
 10
82.326612
 20
120.101334
 30
0.0
 11
82.096776
 21
119.968638
 31
0.0
  0
LINE
  8
0
  6
CONTINUOUS
 10
81.743236
 20
107.659851
 30
0.0
 11
81.743236
 21
116.090287
 31
0.0
  0
LINE
  8
0
  6
CONTINUOUS
 10
81.496291
 20
116.227926
 30
0.0
 11
81.743236
 21
116.090287
 31
0.0
  0
LINE
  8
0
  6
CONTINUOUS
 10
103.964066
 20
131.573072
 30
0.0
 11
103.964066
 21
132.389631
 31
0.0
  0
LINE
  8
0
  6
CONTINUOUS
 10
93.609307
 20
137.344513
 30
0.0
 11
103.964066
 21
131.573072
 31
0.0
  0
LINE
  8
0
  6
CONTINUOUS
 10
94.525119
 20
137.83921
 30
0.0
 11
103.964066
 21
132.389631
 31
0.0
  0
LINE
  8
0
  6
CONTINUOUS
 10
95.231298
 20
139.064428
 30
0.0
 11
104.671146
 21
133.614329
 31
0.0
  0
LINE
  8
0
  6
CONTINUOUS
 10
105.714169
 20
134.216519
 30
0.0
 11
95.226647
 21
140.271492
 31
0.0
  0
LINE
  8
0
  6
CONTINUOUS
 10
104.671146
 20
133.614329
 30
0.0
 11
105.714169
 21
134.216519
 31
0.0
  0
LINE
  8
0
  6
CONTINUOUS
 10
95.231298
 20
140.268807
 30
0.0
 11
95.231298
 21
139.064428
 31
0.0
  0
LINE
  8
0
  6
CONTINUOUS
 10
105.714169
 20
131.767029
 30
0.0
 11
104.671146
 21
131.164839
 31
0.0
  0
LINE
  8
0
  6
CONTINUOUS
 10
94.347428
 20
113.161113
 30
0.0
 11
93.993847
 21
112.956973
 31
0.0
  0
LINE
  8
0
  6
CONTINUOUS
 10
94.700968
 20
112.956997
 30
0.0
 11
94.34124
 21
113.157498
 31
0.0
  0
LINE
  8
0
  6
CONTINUOUS
 10
94.700968
 20
112.691604
 30
0.0
 11
94.700968
 21
112.956997
 31
0.0
  0
LINE
  8
0
  6
CONTINUOUS
 10
94.10738
 20
113.022452
 30
0.0
 11
94.700968
 21
112.691604
 31
0.0
  0
LINE
  8
0
  6
CONTINUOUS
 10
93.640307
 20
112.344624
 30
0.0
 11
93.640307
 21
112.079232
 31
0.0
  0
LINE
  8
0
  6
CONTINUOUS
 10
82.273566
 20
110.885113
 30
0.0
 11
82.273566
 21
117.825357
 31
0.0
  0
LINE
  8
0
  6
CONTINUOUS
 10
104.12326
 20
146.423189
 30
0.0
 11
104.08852
 21
146.443953
 31
0.0
  0
LINE
  8
0
  6
CONTINUOUS
 10
95.054507
 20
141.187343
 30
0.0
 11
104.12326
 21
146.423189
 31
0.0
  0
LINE
  8
0
  6
CONTINUOUS
 10
95.019156
 20
141.207753
 30
0.0
 11
95.054507
 21
141.187343
 31
0.0
  0
LINE
  8
0
  6
CONTINUOUS
 10
86.746009
 20
135.778057
 30
0.0
 11
92.756437
 21
139.248179
 31
0.0
  0
LINE
  8
0
  6
CONTINUOUS
 10
101.595265
 20
116.876169
 30
0.0
 11
95.584838
 21
113.406046
 31
0.0
  0
LINE
  8
0
  6
CONTINUOUS
 10
95.584838
 20
113.406046
 30
0.0
 11
95.231135
 21
113.617448
 31
0.0
  0
LINE
  8
0
  6
CONTINUOUS
 10
92.330847
 20
116.880897
 30
0.0
 11
94.524191
 21
118.147225
 31
0.0
  0
LINE
  8
0
  6
CONTINUOUS
 10
94.524191
 20
120.20628
 30
0.0
 11
89.22089
 21
123.321583
 31
0.0
  0
LINE
  8
0
  6
CONTINUOUS
 10
85.685356
 20
123.339397
 30
0.0
 11
83.37537
 21
122.005726
 31
0.0
  0
LINE
  8
0
  6
CONTINUOUS
 10
87.329713
 20
125.112389
 30
0.0
 11
101.595265
 21
116.876169
 31
0.0
  0
LINE
  8
0
  6
CONTINUOUS
 10
81.496291
 20
107.79749
 30
0.0
 11
81.743236
 21
107.659851
 31
0.0
  0
LINE
  8
0
  6
CONTINUOUS
 10
105.887845
 20
141.869363
 30
0.0
 11
106.067709
 21
141.769112
 31
0.0
  0
LINE
  8
0
  6
CONTINUOUS
 10
106.067709
 20
141.769112
 30
0.0
 11
106.067709
 21
134.828868
 31
0.0
  0
LINE
  8
0
  6
CONTINUOUS
 10
106.067709
 20
134.828868
 30
0.0
 11
95.585896
 21
140.880545
 31
0.0
  0
LINE
  8
0
  6
CONTINUOUS
 10
93.286767
 20
111.466883
 30
0.0
 11
84.218015
 21
106.231036
 31
0.0
  0
LINE
  8
0
  6
CONTINUOUS
 10
106.598039
 20
130.440214
 30
0.0
 11
106.598039
 21
122.009778
 31
0.0
  0
LINE
  8
0
  6
CONTINUOUS
 10
84.061005
 20
134.370096
 30
0.0
 11
86.038909
 21
133.267333
 31
0.0
  0
LINE
  8
0
  6
CONTINUOUS
 10
101.772035
 20
119.080814
 30
0.0
 11
101.772035
 21
117.182343
 31
0.0
  0
LINE
  8
0
  6
CONTINUOUS
 10
87.506483
 20
125.418563
 30
0.0
 11
101.772035
 21
117.182343
 31
0.0
  0
LINE
  8
0
  6
CONTINUOUS
 10
82.450336
 20
128.337731
 30
0.0
 11
84.09446
 21
129.286967
 31
0.0
  0
LINE
  8
0
  6
CONTINUOUS
 10
86.56924
 20
135.471882
 30
0.0
 11
86.56924
 21
133.573411
 31
0.0
  0
LINE
  8
0
  6
CONTINUOUS
 10
101.772035
 20
144.24922
 30
0.0
 11
101.592171
 21
144.349471
 31
0.0
  0
LINE
  8
0
  6
CONTINUOUS
 10
101.772035
 20
144.24922
 30
0.0
 11
101.772035
 21
142.350749
 31
0.0
  0
LINE
  8
0
  6
CONTINUOUS
 10
91.625387
 20
132.552714
 30
0.0
 11
105.890939
 21
124.316494
 31
0.0
  0
LINE
  8
0
  6
CONTINUOUS
 10
104.246815
 20
123.367258
 30
0.0
 11
105.890939
 21
124.316494
 31
0.0
  0
LINE
  8
0
  6
CONTINUOUS
 10
104.246815
 20
140.921935
 30
0.0
 11
105.890939
 21
141.87117
 31
0.0
  0
LINE
  8
0
  6
CONTINUOUS
 10
82.450336
 20
110.783055
 30
0.0
 11
84.09446
 21
111.732291
 31
0.0
  0
LINE
  8
0
  6
CONTINUOUS
 10
82.273485
 20
110.888756
 30
0.0
 11
82.450336
 21
110.783055
 31
0.0
  0
LINE
  8
0
  6
CONTINUOUS
 10
86.56924
 20
110.303476
 30
0.0
 11
86.56924
 21
108.405005
 31
0.0
  0
LINE
  8
0
  6
CONTINUOUS
 10
93.252027
 20
140.187501
 30
0.0
 11
93.286767
 21
140.166737
 31
0.0
  0
LINE
  8
0
  6
CONTINUOUS
 10
84.218015
 20
134.930891
 30
0.0
 11
93.286767
 21
140.166737
 31
0.0
  0
LINE
  8
0
  6
CONTINUOUS
 10
84.218015
 20
134.930891
 30
0.0
 11
84.182663
 21
134.951301
 31
0.0
  0
LINE
  8
0
  6
CONTINUOUS
 10
81.743236
 20
130.644447
 30
0.0
 11
81.4824
 21
130.795041
 31
0.0
  0
LINE
  8
0
  6
CONTINUOUS
 10
81.743236
 20
122.214011
 30
0.0
 11
81.743236
 21
130.644447
 31
0.0
  0
LINE
  8
0
  6
CONTINUOUS
 10
81.743236
 20
122.214011
 30
0.0
 11
81.496291
 21
122.356584
 31
0.0
  0
LINE
  8
0
  6
CONTINUOUS
 10
84.126538
 20
121.556273
 30
0.0
 11
85.685356
 21
122.456257
 31
0.0
  0
LINE
  8
0
  6
CONTINUOUS
 10
89.22089
 20
122.474071
 30
0.0
 11
94.524191
 21
119.465649
 31
0.0
  0
LINE
  8
0
  6
CONTINUOUS
 10
104.12326
 20
117.723334
 30
0.0
 11
95.054507
 21
112.487488
 31
0.0
  0
LINE
  8
0
  6
CONTINUOUS
 10
106.598039
 20
144.994374
 30
0.0
 11
106.598039
 21
136.563938
 31
0.0
  0
LINE
  8
0
  6
CONTINUOUS
 10
84.09446
 20
111.732291
 30
0.0
 11
82.27273
 21
112.821105
 31
0.0
  0
LINE
  8
0
  6
CONTINUOUS
 10
95.584838
 20
140.881156
 30
0.0
 11
101.595265
 21
144.351278
 31
0.0
  0
LINE
  8
0
  6
CONTINUOUS
 10
106.067709
 20
131.562912
 30
0.0
 11
106.067709
 21
124.622668
 31
0.0
  0
LINE
  8
0
  6
CONTINUOUS
 10
91.802157
 20
132.858889
 30
0.0
 11
106.067709
 21
124.622668
 31
0.0
  0
LINE
  8
0
  6
CONTINUOUS
 10
105.707981
 20
131.763414
 30
0.0
 11
106.067709
 21
131.562912
 31
0.0
  0
LINE
  8
0
  6
CONTINUOUS
 10
87.506483
 20
127.317035
 30
0.0
 11
87.506483
 21
125.418563
 31
0.0
  0
LINE
  8
0
  6
CONTINUOUS
 10
87.329713
 20
125.112389
 30
0.0
 11
82.674434
 21
122.424662
 31
0.0
  0
LINE
  8
0
  6
CONTINUOUS
 10
91.802157
 20
138.008196
 30
0.0
 11
91.802157
 21
132.858889
 31
0.0
  0
LINE
  8
0
  6
CONTINUOUS
 10
91.625387
 20
132.552714
 30
0.0
 11
89.981263
 21
131.603478
 31
0.0
  0
LINE
  8
0
  6
CONTINUOUS
 10
82.273566
 20
121.091313
 30
0.0
 11
82.273566
 21
128.031557
 31
0.0
  0
LINE
  8
0
  6
CONTINUOUS
 10
92.756437
 20
111.773069
 30
0.0
 11
86.746009
 21
108.302947
 31
0.0
  0
LINE
  8
0
  6
CONTINUOUS
 10
86.569158
 20
108.408647
 30
0.0
 11
86.746009
 21
108.302947
 31
0.0
  0
LINE
  8
0
  6
CONTINUOUS
 10
84.795551
 20
112.530392
 30
0.0
 11
88.120133
 21
114.44984
 31
0.0
  0
LINE
  8
0
  6
CONTINUOUS
 10
88.120133
 20
114.44984
 30
0.0
 11
92.756437
 21
111.773069
 31
0.0
  0
LINE
  8
0
  6
CONTINUOUS
 10
83.481629
 20
120.75957
 30
0.0
 11
83.652424
 21
120.662668
 31
0.0
  0
LINE
  8
0
  6
CONTINUOUS
 10
104.246815
 20
123.367258
 30
0.0
 11
89.981263
 21
131.603478
 31
0.0
  0
LINE
  8
0
  6
CONTINUOUS
 10
101.772035
 20
119.080814
 30
0.0
 11
87.506483
 21
127.317035
 31
0.0
  0
LINE
  8
0
  6
CONTINUOUS
 10
101.772035
 20
142.350749
 30
0.0
 11
99.91927
 21
143.383426
 31
0.0
  0
LINE
  8
0
  6
CONTINUOUS
 10
104.213548
 20
146.005172
 30
0.0
 11
106.191453
 21
144.90241
 31
0.0
  0
LINE
  8
0
  6
CONTINUOUS
 10
89.84761
 20
122.116569
 30
0.0
 11
89.662505
 21
122.009698
 31
0.0
  0
LINE
  8
0
  6
CONTINUOUS
 10
89.662505
 20
122.009698
 30
0.0
 11
89.662505
 21
121.356501
 31
0.0
  0
LINE
  8
0
  6
CONTINUOUS
 10
89.662505
 20
121.356501
 30
0.0
 11
88.601844
 21
120.744128
 31
0.0
  0
LINE
  8
0
  6
CONTINUOUS
 10
88.601844
 20
120.744128
 30
0.0
 11
88.601844
 21
120.090931
 31
0.0
  0
LINE
  8
0
  6
CONTINUOUS
 10
88.601844
 20
120.090931
 30
0.0
 11
87.187631
 21
119.274434
 31
0.0
  0
LINE
  8
0
  6
CONTINUOUS
 10
87.187631
 20
119.274434
 30
0.0
 11
87.187631
 21
118.621237
 31
0.0
  0
LINE
  8
0
  6
CONTINUOUS
 10
82.414987
 20
117.82528
 30
0.0
 11
82.414987
 21
117.784517
 31
0.0
  0
LINE
  8
0
  6
CONTINUOUS
 10
82.945317
 20
118.131528
 30
0.0
 11
82.945317
 21
117.478331
 31
0.0
  0
LINE
  8
0
  6
CONTINUOUS
 10
82.414987
 20
117.784517
 30
0.0
 11
82.945317
 21
117.478331
 31
0.0
  0
LINE
  8
0
  6
CONTINUOUS
 10
82.945317
 20
117.478331
 30
0.0
 11
84.005977
 21
118.090703
 31
0.0
  0
LINE
  8
0
  6
CONTINUOUS
 10
83.475647
 20
117.784455
 30
0.0
 11
83.475647
 21
117.743692
 31
0.0
  0
LINE
  8
0
  6
CONTINUOUS
 10
84.005977
 20
118.090703
 30
0.0
 11
84.005977
 21
117.437506
 31
0.0
  0
LINE
  8
0
  6
CONTINUOUS
 10
83.475647
 20
117.743692
 30
0.0
 11
84.005977
 21
117.437506
 31
0.0
  0
LINE
  8
0
  6
CONTINUOUS
 10
84.005977
 20
117.437506
 30
0.0
 11
85.420191
 21
118.254003
 31
0.0
  0
LINE
  8
0
  6
CONTINUOUS
 10
85.420191
 20
118.254003
 30
0.0
 11
85.420191
 21
117.600805
 31
0.0
  0
LINE
  8
0
  6
CONTINUOUS
 10
82.267132
 20
117.739978
 30
0.0
 11
82.945317
 21
118.131528
 31
0.0
  0
LINE
  8
0
  6
CONTINUOUS
 10
104.213548
 20
122.73502
 30
0.0
 11
106.191453
 21
121.632257
 31
0.0
  0
LINE
  8
0
  6
CONTINUOUS
 10
81.743236
 20
116.090287
 30
0.0
 11
81.743236
 21
118.131544
 31
0.0
  0
LINE
  8
0
  6
CONTINUOUS
 10
81.496289
 20
116.232861
 30
0.0
 11
81.743236
 21
116.090287
 31
0.0
  0
LINE
  8
0
  6
CONTINUOUS
 10
81.743236
 20
118.131544
 30
0.0
 11
80.575602
 21
118.805678
 31
0.0
  0
LINE
  8
0
  6
CONTINUOUS
 10
58.959368
 20
96.607507
 30
0.0
 11
60.937273
 21
95.504744
 31
0.0
  0
LINE
  8
0
  6
CONTINUOUS
 10
56.641599
 20
105.680317
 30
0.0
 11
56.6059
 21
105.701654
 31
0.0
  0
LINE
  8
0
  6
CONTINUOUS
 10
69.422554
 20
105.713844
 30
0.0
 11
69.422554
 21
104.973213
 31
0.0
  0
LINE
  8
0
  6
CONTINUOUS
 10
63.372036
 20
100.569753
 30
0.0
 11
63.372036
 21
101.774132
 31
0.0
  0
LINE
  8
0
  6
CONTINUOUS
 10
68.008341
 20
124.551626
 30
0.0
 11
67.648613
 21
124.752128
 31
0.0
  0
LINE
  8
0
  6
CONTINUOUS
 10
68.008341
 20
99.09736
 30
0.0
 11
63.372036
 21
101.774132
 31
0.0
  0
LINE
  8
0
  6
CONTINUOUS
 10
68.008341
 20
123.347247
 30
0.0
 11
66.587334
 21
124.139274
 31
0.0
  0
LINE
  8
0
  6
CONTINUOUS
 10
64.119254
 20
108.829147
 30
0.0
 11
64.119254
 21
107.981634
 31
0.0
  0
LINE
  8
0
  6
CONTINUOUS
 10
60.58372
 20
108.84696
 30
0.0
 11
60.58372
 21
107.96382
 31
0.0
  0
LINE
  8
0
  6
CONTINUOUS
 10
63.372036
 20
100.569753
 30
0.0
 11
68.008341
 21
97.892981
 31
0.0
  0
LINE
  8
0
  6
CONTINUOUS
 10
81.142863
 20
118.193151
 30
0.0
 11
80.559223
 21
118.518455
 31
0.0
  0
LINE
  8
0
  6
CONTINUOUS
 10
80.559325
 20
118.257597
 30
0.0
 11
80.913026
 21
118.060455
 31
0.0
  0
LINE
  8
0
  6
CONTINUOUS
 10
58.639176
 20
106.221262
 30
0.0
 11
58.992729
 21
106.017138
 31
0.0
  0
LINE
  8
0
  6
CONTINUOUS
 10
68.545913
 20
123.875528
 30
0.0
 11
68.715448
 21
123.775938
 31
0.0
  0
LINE
  8
0
  6
CONTINUOUS
 10
68.715448
 20
123.673876
 30
0.0
 11
69.069001
 21
123.469752
 31
0.0
  0
LINE
  8
0
  6
CONTINUOUS
 10
68.545913
 20
99.380631
 30
0.0
 11
68.715448
 21
99.281041
 31
0.0
  0
LINE
  8
0
  6
CONTINUOUS
 10
68.715448
 20
99.178979
 30
0.0
 11
69.069001
 21
98.974855
 31
0.0
  0
LINE
  8
0
  6
CONTINUOUS
 10
79.593196
 20
118.514582
 30
0.0
 11
79.763991
 21
118.41768
 31
0.0
  0
LINE
  8
0
  6
CONTINUOUS
 10
79.852379
 20
118.468711
 30
0.0
 11
80.205933
 21
118.264587
 31
0.0
  0
LINE
  8
0
  6
CONTINUOUS
 10
57.578516
 20
104.996502
 30
0.0
 11
57.413679
 21
105.09167
 31
0.0
  0
LINE
  8
0
  6
CONTINUOUS
 10
57.224976
 20
104.384152
 30
0.0
 11
57.189624
 21
104.404563
 31
0.0
  0
LINE
  8
0
  6
CONTINUOUS
 10
56.995139
 20
104.251456
 30
0.0
 11
56.959788
 21
104.271867
 31
0.0
  0
LINE
  8
0
  6
CONTINUOUS
 10
68.715421
 20
100.322059
 30
0.0
 11
64.079116
 21
102.99883
 31
0.0
  0
LINE
  8
0
  6
CONTINUOUS
 10
64.079116
 20
102.99883
 30
0.0
 11
64.866498
 21
103.453425
 31
0.0
  0
LINE
  8
0
  6
CONTINUOUS
 10
64.866498
 20
103.453425
 30
0.0
 11
69.422581
 21
100.730338
 31
0.0
  0
LINE
  8
0
  6
CONTINUOUS
 10
57.171767
 20
106.606161
 30
0.0
 11
57.525469
 21
106.39476
 31
0.0
  0
LINE
  8
0
  6
CONTINUOUS
 10
58.568492
 20
106.996949
 30
0.0
 11
57.171288
 21
107.832032
 31
0.0
  0
LINE
  8
0
  6
CONTINUOUS
 10
68.980662
 20
126.174353
 30
0.0
 11
69.599331
 21
125.817164
 31
0.0
  0
LINE
  8
0
  6
CONTINUOUS
 10
69.210475
 20
126.307063
 30
0.0
 11
69.599331
 21
126.082557
 31
0.0
  0
LINE
  8
0
  6
CONTINUOUS
 10
68.892211
 20
125.000676
 30
0.0
 11
68.538509
 21
125.212077
 31
0.0
  0
LINE
  8
0
  6
CONTINUOUS
 10
68.497301
 20
125.636956
 30
0.0
 11
69.245791
 21
125.204815
 31
0.0
  0
LINE
  8
0
  6
CONTINUOUS
 10
56.995139
 20
104.251456
 30
0.0
 11
57.224976
 21
104.384152
 31
0.0
  0
LINE
  8
0
  6
CONTINUOUS
 10
57.578516
 20
104.996502
 30
0.0
 11
57.578516
 21
105.404781
 31
0.0
  0
LINE
  8
0
  6
CONTINUOUS
 10
56.641599
 20
105.680317
 30
0.0
 11
56.641599
 21
107.721574
 31
0.0
  0
LINE
  8
0
  6
CONTINUOUS
 10
68.538671
 20
125.470184
 30
0.0
 11
68.538671
 21
125.204792
 31
0.0
  0
LINE
  8
0
  6
CONTINUOUS
 10
68.892211
 20
125.000676
 30
0.0
 11
69.245791
 21
125.204815
 31
0.0
  0
LINE
  8
0
  6
CONTINUOUS
 10
69.599331
 20
125.817164
 30
0.0
 11
69.599331
 21
126.082557
 31
0.0
  0
LINE
  8
0
  6
CONTINUOUS
 10
81.496403
 20
122.071502
 30
0.0
 11
81.496403
 21
120.030245
 31
0.0
  0
LINE
  8
0
  6
CONTINUOUS
 10
81.142863
 20
119.417896
 30
0.0
 11
80.913026
 21
119.2852
 31
0.0
  0
LINE
  8
0
  6
CONTINUOUS
 10
80.913026
 20
118.060455
 30
0.0
 11
81.142863
 21
118.193151
 31
0.0
  0
LINE
  8
0
  6
CONTINUOUS
 10
81.496403
 20
117.989035
 30
0.0
 11
81.496403
 21
115.947778
 31
0.0
  0
LINE
  8
0
  6
CONTINUOUS
 10
69.422581
 20
123.347293
 30
0.0
 11
68.715421
 21
122.939014
 31
0.0
  0
LINE
  8
0
  6
CONTINUOUS
 10
68.008341
 20
123.347247
 30
0.0
 11
68.008341
 21
124.551626
 31
0.0
  0
LINE
  8
0
  6
CONTINUOUS
 10
57.525469
 20
106.39476
 30
0.0
 11
58.568492
 21
106.996949
 31
0.0
  0
LINE
  8
0
  6
CONTINUOUS
 10
59.275572
 20
106.588717
 30
0.0
 11
59.275572
 21
105.772158
 31
0.0
  0
LINE
  8
0
  6
CONTINUOUS
 10
58.568492
 20
104.54746
 30
0.0
 11
57.525469
 21
103.94527
 31
0.0
  0
LINE
  8
0
  6
CONTINUOUS
 10
68.008341
 20
97.892981
 30
0.0
 11
68.008341
 21
99.09736
 31
0.0
  0
LINE
  8
0
  6
CONTINUOUS
 10
68.715421
 20
100.322059
 30
0.0
 11
69.422581
 21
100.730338
 31
0.0
  0
LINE
  8
0
  6
CONTINUOUS
 10
70.129661
 20
100.322105
 30
0.0
 11
70.129661
 21
99.117726
 31
0.0
  0
LINE
  8
0
  6
CONTINUOUS
 10
80.559486
 20
118.67285
 30
0.0
 11
80.559486
 21
118.264571
 31
0.0
  0
LINE
  8
0
  6
CONTINUOUS
 10
57.224976
 20
105.608897
 30
0.0
 11
56.995139
 21
105.476201
 31
0.0
  0
LINE
  8
0
  6
CONTINUOUS
 10
56.641599
 20
93.167414
 30
0.0
 11
56.641599
 21
101.59785
 31
0.0
  0
LINE
  8
0
  6
CONTINUOUS
 10
56.605901
 20
101.617747
 30
0.0
 11
56.641599
 21
101.59785
 31
0.0
  0
LINE
  8
0
  6
CONTINUOUS
 10
78.86243
 20
117.080635
 30
0.0
 11
78.86243
 21
117.897194
 31
0.0
  0
LINE
  8
0
  6
CONTINUOUS
 10
68.50767
 20
122.852076
 30
0.0
 11
78.86243
 21
117.080635
 31
0.0
  0
LINE
  8
0
  6
CONTINUOUS
 10
69.423482
 20
123.346773
 30
0.0
 11
78.86243
 21
117.897194
 31
0.0
  0
LINE
  8
0
  6
CONTINUOUS
 10
70.129661
 20
124.571992
 30
0.0
 11
79.56951
 21
119.121892
 31
0.0
  0
LINE
  8
0
  6
CONTINUOUS
 10
80.612533
 20
119.724082
 30
0.0
 11
70.125011
 21
125.779056
 31
0.0
  0
LINE
  8
0
  6
CONTINUOUS
 10
79.56951
 20
119.121892
 30
0.0
 11
80.612533
 21
119.724082
 31
0.0
  0
LINE
  8
0
  6
CONTINUOUS
 10
70.129661
 20
125.776371
 30
0.0
 11
70.129661
 21
124.571992
 31
0.0
  0
LINE
  8
0
  6
CONTINUOUS
 10
80.612533
 20
117.274592
 30
0.0
 11
79.56951
 21
116.672403
 31
0.0
  0
LINE
  8
0
  6
CONTINUOUS
 10
69.245791
 20
98.668676
 30
0.0
 11
68.892211
 21
98.464537
 31
0.0
  0
LINE
  8
0
  6
CONTINUOUS
 10
69.599331
 20
98.46456
 30
0.0
 11
69.239603
 21
98.665062
 31
0.0
  0
LINE
  8
0
  6
CONTINUOUS
 10
69.599331
 20
98.199168
 30
0.0
 11
69.599331
 21
98.46456
 31
0.0
  0
LINE
  8
0
  6
CONTINUOUS
 10
69.005744
 20
98.530016
 30
0.0
 11
69.599331
 21
98.199168
 31
0.0
  0
LINE
  8
0
  6
CONTINUOUS
 10
68.538671
 20
97.852188
 30
0.0
 11
68.538671
 21
97.586795
 31
0.0
  0
LINE
  8
0
  6
CONTINUOUS
 10
57.171929
 20
96.392677
 30
0.0
 11
57.171929
 21
103.332921
 31
0.0
  0
LINE
  8
0
  6
CONTINUOUS
 10
79.021623
 20
131.930752
 30
0.0
 11
78.986883
 21
131.951516
 31
0.0
  0
LINE
  8
0
  6
CONTINUOUS
 10
69.952871
 20
126.694906
 30
0.0
 11
79.021623
 21
131.930752
 31
0.0
  0
LINE
  8
0
  6
CONTINUOUS
 10
69.917519
 20
126.715316
 30
0.0
 11
69.952871
 21
126.694906
 31
0.0
  0
LINE
  8
0
  6
CONTINUOUS
 10
61.644373
 20
121.28562
 30
0.0
 11
67.654801
 21
124.755742
 31
0.0
  0
LINE
  8
0
  6
CONTINUOUS
 10
76.493629
 20
102.383732
 30
0.0
 11
70.483201
 21
98.91361
 31
0.0
  0
LINE
  8
0
  6
CONTINUOUS
 10
70.483201
 20
98.91361
 30
0.0
 11
70.129499
 21
99.125011
 31
0.0
  0
LINE
  8
0
  6
CONTINUOUS
 10
67.22921
 20
102.388461
 30
0.0
 11
69.422554
 21
103.654788
 31
0.0
  0
LINE
  8
0
  6
CONTINUOUS
 10
69.422554
 20
105.713844
 30
0.0
 11
64.119254
 21
108.829147
 31
0.0
  0
LINE
  8
0
  6
CONTINUOUS
 10
60.58372
 20
108.84696
 30
0.0
 11
58.273734
 21
107.513289
 31
0.0
  0
LINE
  8
0
  6
CONTINUOUS
 10
62.228077
 20
110.619952
 30
0.0
 11
76.493629
 21
102.383732
 31
0.0
  0
LINE
  8
0
  6
CONTINUOUS
 10
56.605901
 20
93.187311
 30
0.0
 11
56.641599
 21
93.167414
 31
0.0
  0
LINE
  8
0
  6
CONTINUOUS
 10
80.786209
 20
127.376926
 30
0.0
 11
80.966073
 21
127.276675
 31
0.0
  0
LINE
  8
0
  6
CONTINUOUS
 10
80.966073
 20
127.276675
 30
0.0
 11
80.966073
 21
120.336431
 31
0.0
  0
LINE
  8
0
  6
CONTINUOUS
 10
80.966073
 20
120.336431
 30
0.0
 11
70.484259
 21
126.388109
 31
0.0
  0
LINE
  8
0
  6
CONTINUOUS
 10
68.185131
 20
96.974446
 30
0.0
 11
59.116379
 21
91.738599
 31
0.0
  0
LINE
  8
0
  6
CONTINUOUS
 10
81.496403
 20
115.947778
 30
0.0
 11
81.496403
 21
107.517341
 31
0.0
  0
LINE
  8
0
  6
CONTINUOUS
 10
58.959368
 20
119.877659
 30
0.0
 11
60.937273
 21
118.774897
 31
0.0
  0
LINE
  8
0
  6
CONTINUOUS
 10
76.670399
 20
104.588378
 30
0.0
 11
76.670399
 21
102.689907
 31
0.0
  0
LINE
  8
0
  6
CONTINUOUS
 10
62.404847
 20
110.926127
 30
0.0
 11
76.670399
 21
102.689907
 31
0.0
  0
LINE
  8
0
  6
CONTINUOUS
 10
57.348699
 20
113.845295
 30
0.0
 11
58.992824
 21
114.79453
 31
0.0
  0
LINE
  8
0
  6
CONTINUOUS
 10
61.467603
 20
120.979445
 30
0.0
 11
61.467603
 21
119.080974
 31
0.0
  0
LINE
  8
0
  6
CONTINUOUS
 10
76.670399
 20
129.756784
 30
0.0
 11
76.490535
 21
129.857035
 31
0.0
  0
LINE
  8
0
  6
CONTINUOUS
 10
76.670399
 20
129.756784
 30
0.0
 11
76.670399
 21
127.858313
 31
0.0
  0
LINE
  8
0
  6
CONTINUOUS
 10
66.52375
 20
118.060277
 30
0.0
 11
80.789303
 21
109.824057
 31
0.0
  0
LINE
  8
0
  6
CONTINUOUS
 10
79.145178
 20
108.874821
 30
0.0
 11
80.789303
 21
109.824057
 31
0.0
  0
LINE
  8
0
  6
CONTINUOUS
 10
79.145178
 20
126.429498
 30
0.0
 11
80.789303
 21
127.378734
 31
0.0
  0
LINE
  8
0
  6
CONTINUOUS
 10
57.348699
 20
96.290618
 30
0.0
 11
58.992824
 21
97.239854
 31
0.0
  0
LINE
  8
0
  6
CONTINUOUS
 10
57.171848
 20
96.396319
 30
0.0
 11
57.348699
 21
96.290618
 31
0.0
  0
LINE
  8
0
  6
CONTINUOUS
 10
61.467603
 20
95.811039
 30
0.0
 11
61.467603
 21
93.912568
 31
0.0
  0
LINE
  8
0
  6
CONTINUOUS
 10
68.150391
 20
125.695064
 30
0.0
 11
68.185131
 21
125.674301
 31
0.0
  0
LINE
  8
0
  6
CONTINUOUS
 10
59.116379
 20
120.438454
 30
0.0
 11
68.185131
 21
125.674301
 31
0.0
  0
LINE
  8
0
  6
CONTINUOUS
 10
59.116379
 20
120.438454
 30
0.0
 11
59.081027
 21
120.458865
 31
0.0
  0
LINE
  8
0
  6
CONTINUOUS
 10
56.641599
 20
116.15201
 30
0.0
 11
56.605904
 21
116.172619
 31
0.0
  0
LINE
  8
0
  6
CONTINUOUS
 10
56.641599
 20
107.721574
 30
0.0
 11
56.641599
 21
116.15201
 31
0.0
  0
LINE
  8
0
  6
CONTINUOUS
 10
56.641599
 20
107.721574
 30
0.0
 11
56.605901
 21
107.742185
 31
0.0
  0
LINE
  8
0
  6
CONTINUOUS
 10
59.024901
 20
107.063836
 30
0.0
 11
60.58372
 21
107.96382
 31
0.0
  0
LINE
  8
0
  6
CONTINUOUS
 10
64.119254
 20
107.981634
 30
0.0
 11
69.422554
 21
104.973213
 31
0.0
  0
LINE
  8
0
  6
CONTINUOUS
 10
79.021623
 20
103.230898
 30
0.0
 11
69.952871
 21
97.995051
 31
0.0
  0
LINE
  8
0
  6
CONTINUOUS
 10
81.496403
 20
130.501938
 30
0.0
 11
81.496403
 21
122.071502
 31
0.0
  0
LINE
  8
0
  6
CONTINUOUS
 10
58.992824
 20
97.239854
 30
0.0
 11
57.171093
 21
98.328669
 31
0.0
  0
LINE
  8
0
  6
CONTINUOUS
 10
70.483201
 20
126.38872
 30
0.0
 11
76.493629
 21
129.858842
 31
0.0
  0
LINE
  8
0
  6
CONTINUOUS
 10
80.966073
 20
117.070476
 30
0.0
 11
80.966073
 21
110.130232
 31
0.0
  0
LINE
  8
0
  6
CONTINUOUS
 10
66.70052
 20
118.366452
 30
0.0
 11
80.966073
 21
110.130232
 31
0.0
  0
LINE
  8
0
  6
CONTINUOUS
 10
80.606345
 20
117.270978
 30
0.0
 11
80.966073
 21
117.070476
 31
0.0
  0
LINE
  8
0
  6
CONTINUOUS
 10
62.404847
 20
112.824598
 30
0.0
 11
62.404847
 21
110.926127
 31
0.0
  0
LINE
  8
0
  6
CONTINUOUS
 10
62.228077
 20
110.619952
 30
0.0
 11
57.572798
 21
107.932226
 31
0.0
  0
LINE
  8
0
  6
CONTINUOUS
 10
66.70052
 20
123.515759
 30
0.0
 11
66.70052
 21
118.366452
 31
0.0
  0
LINE
  8
0
  6
CONTINUOUS
 10
66.52375
 20
118.060277
 30
0.0
 11
64.879626
 21
117.111042
 31
0.0
  0
LINE
  8
0
  6
CONTINUOUS
 10
57.171929
 20
106.598876
 30
0.0
 11
57.171929
 21
113.53912
 31
0.0
  0
LINE
  8
0
  6
CONTINUOUS
 10
67.654801
 20
97.280632
 30
0.0
 11
61.644373
 21
93.81051
 31
0.0
  0
LINE
  8
0
  6
CONTINUOUS
 10
61.467522
 20
93.916211
 30
0.0
 11
61.644373
 21
93.81051
 31
0.0
  0
LINE
  8
0
  6
CONTINUOUS
 10
59.693914
 20
98.037956
 30
0.0
 11
63.018496
 21
99.957404
 31
0.0
  0
LINE
  8
0
  6
CONTINUOUS
 10
63.018496
 20
99.957404
 30
0.0
 11
67.654801
 21
97.280632
 31
0.0
  0
LINE
  8
0
  6
CONTINUOUS
 10
58.379992
 20
106.267133
 30
0.0
 11
58.550788
 21
106.170231
 31
0.0
  0
LINE
  8
0
  6
CONTINUOUS
 10
79.145178
 20
108.874821
 30
0.0
 11
64.879626
 21
117.111042
 31
0.0
  0
LINE
  8
0
  6
CONTINUOUS
 10
76.670399
 20
104.588378
 30
0.0
 11
62.404847
 21
112.824598
 31
0.0
  0
LINE
  8
0
  6
CONTINUOUS
 10
76.670399
 20
127.858313
 30
0.0
 11
74.817634
 21
128.89099
 31
0.0
  0
LINE
  8
0
  6
CONTINUOUS
 10
79.111911
 20
131.512736
 30
0.0
 11
81.089816
 21
130.409973
 31
0.0
  0
LINE
  8
0
  6
CONTINUOUS
 10
64.745973
 20
107.624132
 30
0.0
 11
64.560868
 21
107.517261
 31
0.0
  0
LINE
  8
0
  6
CONTINUOUS
 10
64.560868
 20
107.517261
 30
0.0
 11
64.560868
 21
106.864064
 31
0.0
  0
LINE
  8
0
  6
CONTINUOUS
 10
64.560868
 20
106.864064
 30
0.0
 11
63.500208
 21
106.251692
 31
0.0
  0
LINE
  8
0
  6
CONTINUOUS
 10
63.500208
 20
106.251692
 30
0.0
 11
63.500208
 21
105.598494
 31
0.0
  0
LINE
  8
0
  6
CONTINUOUS
 10
63.500208
 20
105.598494
 30
0.0
 11
62.085994
 21
104.781998
 31
0.0
  0
LINE
  8
0
  6
CONTINUOUS
 10
62.085994
 20
104.781998
 30
0.0
 11
62.085994
 21
104.128801
 31
0.0
  0
LINE
  8
0
  6
CONTINUOUS
 10
60.318555
 20
103.108369
 30
0.0
 11
62.085994
 21
104.128801
 31
0.0
  0
LINE
  8
0
  6
CONTINUOUS
 10
57.313351
 20
103.332843
 30
0.0
 11
57.313351
 21
103.292081
 31
0.0
  0
LINE
  8
0
  6
CONTINUOUS
 10
57.843681
 20
103.639092
 30
0.0
 11
57.843681
 21
102.985894
 31
0.0
  0
LINE
  8
0
  6
CONTINUOUS
 10
57.313351
 20
103.292081
 30
0.0
 11
57.843681
 21
102.985894
 31
0.0
  0
LINE
  8
0
  6
CONTINUOUS
 10
57.843681
 20
102.985894
 30
0.0
 11
58.904341
 21
103.598267
 31
0.0
  0
LINE
  8
0
  6
CONTINUOUS
 10
58.374011
 20
103.292018
 30
0.0
 11
58.374011
 21
103.251256
 31
0.0
  0
LINE
  8
0
  6
CONTINUOUS
 10
58.904341
 20
103.598267
 30
0.0
 11
58.904341
 21
102.945069
 31
0.0
  0
LINE
  8
0
  6
CONTINUOUS
 10
58.374011
 20
103.251256
 30
0.0
 11
58.904341
 21
102.945069
 31
0.0
  0
LINE
  8
0
  6
CONTINUOUS
 10
58.904341
 20
102.945069
 30
0.0
 11
60.318555
 21
103.761566
 31
0.0
  0
LINE
  8
0
  6
CONTINUOUS
 10
59.788224
 20
103.414555
 30
0.0
 11
60.318555
 21
103.108369
 31
0.0
  0
LINE
  8
0
  6
CONTINUOUS
 10
59.788224
 20
103.455317
 30
0.0
 11
59.788224
 21
103.414555
 31
0.0
  0
LINE
  8
0
  6
CONTINUOUS
 10
60.318555
 20
103.761566
 30
0.0
 11
60.318555
 21
103.108369
 31
0.0
  0
LINE
  8
0
  6
CONTINUOUS
 10
57.165496
 20
103.247541
 30
0.0
 11
57.843681
 21
103.639092
 31
0.0
  0
LINE
  8
0
  6
CONTINUOUS
 10
79.111911
 20
108.242583
 30
0.0
 11
81.089816
 21
107.139821
 31
0.0
  0
LINE
  8
0
  6
CONTINUOUS
 10
56.641599
 20
101.59785
 30
0.0
 11
56.641599
 21
103.639107
 31
0.0
  0
LINE
  8
0
  6
CONTINUOUS
 10
56.6059
 20
101.618461
 30
0.0
 11
56.641599
 21
101.59785
 31
0.0
  0
LINE
  8
0
  6
CONTINUOUS
 10
56.641599
 20
103.639107
 30
0.0
 11
56.6059
 21
103.659718
 31
0.0
  0
LINE
  8
0
  6
CONTINUOUS
 10
67.438904
 20
78.047745
 30
0.0
 11
70.748009
 21
76.134343
 31
0.0
  0
LINE
  8
0
  6
CONTINUOUS
 10
87.149672
 20
85.240135
 30
0.0
 11
87.018124
 21
102.79947
 31
0.0
  0
LINE
  8
0
  6
CONTINUOUS
 10
87.149672
 20
85.240135
 30
0.0
 11
71.101542
 21
76.134354
 31
0.0
  0
LINE
  8
0
  6
CONTINUOUS
 10
71.101542
 20
76.134354
 30
0.0
 11
70.971185
 21
93.534749
 31
0.0
  0
LINE
  8
0
  6
CONTINUOUS
 10
70.748009
 20
76.134343
 30
0.0
 11
70.619175
 21
93.331495
 31
0.0
  0
LINE
  8
0
  6
CONTINUOUS
 10
25.900528
 20
71.204542
 30
0.0
 11
30.987414
 21
68.47115
 31
0.0
  0
LINE
  8
0
  6
CONTINUOUS
 10
30.987414
 20
68.47115
 30
0.0
 11
31.560954
 21
68.796579
 31
0.0
  0
LINE
  8
0
  6
CONTINUOUS
 10
31.535719
 20
67.542575
 30
0.0
 11
31.539717
 21
67.008869
 31
0.0
  0
LINE
  8
0
  6
CONTINUOUS
 10
31.535719
 20
67.542575
 30
0.0
 11
31.570448
 21
67.56228
 31
0.0
  0
LINE
  8
0
  6
CONTINUOUS
 10
31.539717
 20
67.008869
 30
0.0
 11
31.574446
 21
67.028574
 31
0.0
  0
LINE
  8
0
  6
CONTINUOUS
 10
31.049099
 20
67.292127
 30
0.0
 11
31.046373
 21
67.656048
 31
0.0
  0
LINE
  8
0
  6
CONTINUOUS
 10
30.863605
 20
67.965573
 30
0.0
 11
25.713668
 21
70.732844
 31
0.0
  0
LINE
  8
0
  6
CONTINUOUS
 10
25.545995
 20
70.625647
 30
0.0
 11
25.60645
 21
62.555925
 31
0.0
  0
LINE
  8
0
  6
CONTINUOUS
 10
25.545995
 20
70.625647
 30
0.0
 11
25.724483
 21
70.726921
 31
0.0
  0
LINE
  8
0
  6
CONTINUOUS
 10
25.60645
 20
62.555925
 30
0.0
 11
31.579841
 21
65.945254
 31
0.0
  0
LINE
  8
0
  6
CONTINUOUS
 10
25.959963
 20
61.943576
 30
0.0
 11
29.534464
 21
59.879837
 31
0.0
  0
LINE
  8
0
  6
CONTINUOUS
 10
25.959963
 20
61.943576
 30
0.0
 11
31.586064
 21
65.135851
 31
0.0
  0
LINE
  8
0
  6
CONTINUOUS
 10
29.534464
 20
59.879837
 30
0.0
 11
29.881708
 21
60.076865
 31
0.0
  0
LINE
  8
0
  6
CONTINUOUS
 10
29.881834
 20
60.087531
 30
0.0
 11
29.87784
 21
60.620559
 31
0.0
  0
LINE
  8
0
  6
CONTINUOUS
 10
30.398895
 20
60.932101
 30
0.0
 11
30.924557
 21
60.62861
 31
0.0
  0
LINE
  8
0
  6
CONTINUOUS
 10
30.398895
 20
60.932101
 30
0.0
 11
31.61441
 21
61.62179
 31
0.0
  0
LINE
  8
0
  6
CONTINUOUS
 10
30.924557
 20
60.62861
 30
0.0
 11
31.098179
 21
60.727124
 31
0.0
  0
LINE
  8
0
  6
CONTINUOUS
 10
31.098241
 20
60.732457
 30
0.0
 11
31.09517
 21
61.142479
 31
0.0
  0
LINE
  8
0
  6
CONTINUOUS
 10
31.585788
 20
60.85922
 30
0.0
 11
31.595041
 21
59.624056
 31
0.0
  0
LINE
  8
0
  6
CONTINUOUS
 10
31.585788
 20
60.85922
 30
0.0
 11
31.620517
 21
60.878926
 31
0.0
  0
LINE
  8
0
  6
CONTINUOUS
 10
31.595041
 20
59.624056
 30
0.0
 11
31.62977
 21
59.643762
 31
0.0
  0
LINE
  8
0
  6
CONTINUOUS
 10
31.504212
 20
59.268248
 30
0.0
 11
31.297472
 21
58.964026
 31
0.0
  0
LINE
  8
0
  6
CONTINUOUS
 10
31.504212
 20
59.268248
 30
0.0
 11
31.631997
 21
59.340754
 31
0.0
  0
LINE
  8
0
  6
CONTINUOUS
 10
31.297472
 20
58.964026
 30
0.0
 11
31.633297
 21
59.154574
 31
0.0
  0
LINE
  8
0
  6
CONTINUOUS
 10
30.969737
 20
59.255305
 30
0.0
 11
30.965437
 21
59.829336
 31
0.0
  0
LINE
  8
0
  6
CONTINUOUS
 10
30.788681
 20
60.13551
 30
0.0
 11
30.543372
 21
60.277139
 31
0.0
  0
LINE
  8
0
  6
CONTINUOUS
 10
30.369687
 20
60.173292
 30
0.0
 11
30.370301
 21
60.091288
 31
0.0
  0
LINE
  8
0
  6
CONTINUOUS
 10
30.369687
 20
60.173292
 30
0.0
 11
30.384743
 21
60.181835
 31
0.0
  0
LINE
  8
0
  6
CONTINUOUS
 10
30.204603
 20
58.921384
 30
0.0
 11
25.298425
 21
61.753967
 31
0.0
  0
LINE
  8
0
  6
CONTINUOUS
 10
25.121668
 20
62.060142
 30
0.0
 11
24.971154
 21
82.151207
 31
0.0
  0
LINE
  8
0
  6
CONTINUOUS
 10
25.144839
 20
82.255055
 30
0.0
 11
30.051017
 21
79.422471
 31
0.0
  0
LINE
  8
0
  6
CONTINUOUS
 10
25.144839
 20
82.255055
 30
0.0
 11
38.145169
 21
89.6315
 31
0.0
  0
LINE
  8
0
  6
CONTINUOUS
 10
60.267271
 20
102.18368
 30
0.0
 11
67.289334
 21
106.16803
 31
0.0
  0
LINE
  8
0
  6
CONTINUOUS
 10
110.691708
 20
130.794732
 30
0.0
 11
114.301116
 21
132.842727
 31
0.0
  0
LINE
  8
0
  6
CONTINUOUS
 10
119.207294
 20
130.010144
 30
0.0
 11
114.301116
 21
132.842727
 31
0.0
  0
LINE
  8
0
  6
CONTINUOUS
 10
30.051017
 20
79.422471
 30
0.0
 11
43.138496
 21
86.848366
 31
0.0
  0
LINE
  8
0
  6
CONTINUOUS
 10
110.74096
 20
125.206308
 30
0.0
 11
119.207294
 21
130.010144
 31
0.0
  0
LINE
  8
0
  6
CONTINUOUS
 10
30.235729
 20
78.054358
 30
0.0
 11
30.236374
 21
77.968236
 31
0.0
  0
LINE
  8
0
  6
CONTINUOUS
 10
30.236374
 20
77.968236
 30
0.0
 11
30.245084
 21
77.973178
 31
0.0
  0
LINE
  8
0
  6
CONTINUOUS
 10
30.413131
 20
77.662061
 30
0.0
 11
30.65844
 21
77.520432
 31
0.0
  0
LINE
  8
0
  6
CONTINUOUS
 10
30.413131
 20
77.662061
 30
0.0
 11
30.42407
 21
77.668269
 31
0.0
  0
LINE
  8
0
  6
CONTINUOUS
 10
30.65844
 20
77.520432
 30
0.0
 11
30.832062
 21
77.618946
 31
0.0
  0
LINE
  8
0
  6
CONTINUOUS
 10
30.832125
 20
77.624279
 30
0.0
 11
30.827824
 21
78.19831
 31
0.0
  0
LINE
  8
0
  6
CONTINUOUS
 10
31.154022
 20
78.112041
 30
0.0
 11
31.367137
 21
77.565416
 31
0.0
  0
LINE
  8
0
  6
CONTINUOUS
 10
31.154022
 20
78.112041
 30
0.0
 11
31.243129
 21
78.162601
 31
0.0
  0
LINE
  8
0
  6
CONTINUOUS
 10
31.367137
 20
77.565416
 30
0.0
 11
31.494922
 21
77.637921
 31
0.0
  0
LINE
  8
0
  6
CONTINUOUS
 10
31.464109
 20
77.10118
 30
0.0
 11
31.473363
 21
75.866016
 31
0.0
  0
LINE
  8
0
  6
CONTINUOUS
 10
31.464109
 20
77.10118
 30
0.0
 11
31.498838
 21
77.120886
 31
0.0
  0
LINE
  8
0
  6
CONTINUOUS
 10
31.473363
 20
75.866016
 30
0.0
 11
31.508092
 21
75.885722
 31
0.0
  0
LINE
  8
0
  6
CONTINUOUS
 10
30.982745
 20
76.149275
 30
0.0
 11
30.979673
 21
76.559296
 31
0.0
  0
LINE
  8
0
  6
CONTINUOUS
 10
30.802917
 20
76.865471
 30
0.0
 11
30.277255
 21
77.168962
 31
0.0
  0
LINE
  8
0
  6
CONTINUOUS
 10
29.746985
 20
78.087486
 30
0.0
 11
29.742992
 21
78.620514
 31
0.0
  0
LINE
  8
0
  6
CONTINUOUS
 10
29.389479
 20
79.232863
 30
0.0
 11
25.814978
 21
81.296602
 31
0.0
  0
LINE
  8
0
  6
CONTINUOUS
 10
25.467608
 20
81.088908
 30
0.0
 11
25.528063
 21
73.019186
 31
0.0
  0
LINE
  8
0
  6
CONTINUOUS
 10
25.467608
 20
81.088908
 30
0.0
 11
25.824033
 21
81.291145
 31
0.0
  0
LINE
  8
0
  6
CONTINUOUS
 10
25.528063
 20
73.019186
 30
0.0
 11
30.982093
 21
76.113827
 31
0.0
  0
LINE
  8
0
  6
CONTINUOUS
 10
25.698806
 20
72.716604
 30
0.0
 11
30.851844
 21
69.53545
 31
0.0
  0
LINE
  8
0
  6
CONTINUOUS
 10
25.698806
 20
72.716604
 30
0.0
 11
31.130161
 21
75.798378
 31
0.0
  0
LINE
  8
0
  6
CONTINUOUS
 10
30.851844
 20
69.53545
 30
0.0
 11
31.031447
 21
69.637358
 31
0.0
  0
LINE
  8
0
  6
CONTINUOUS
 10
31.031542
 20
69.635706
 30
0.0
 11
31.028816
 21
69.999626
 31
0.0
  0
LINE
  8
0
  6
CONTINUOUS
 10
31.519433
 20
69.716368
 30
0.0
 11
31.523432
 21
69.182662
 31
0.0
  0
LINE
  8
0
  6
CONTINUOUS
 10
31.519433
 20
69.716368
 30
0.0
 11
31.554162
 21
69.736073
 31
0.0
  0
LINE
  8
0
  6
CONTINUOUS
 10
31.523432
 20
69.182662
 30
0.0
 11
31.558161
 21
69.202367
 31
0.0
  0
LINE
  8
0
  6
CONTINUOUS
 10
30.984337
 20
68.881896
 30
0.0
 11
25.894388
 21
72.024103
 31
0.0
  0
LINE
  8
0
  6
CONTINUOUS
 10
25.900528
 20
71.204542
 30
0.0
 11
26.588709
 21
71.595019
 31
0.0
  0
LINE
  8
0
  6
CONTINUOUS
 10
31.956809
 20
57.909747
 30
0.0
 11
30.555044
 21
58.719057
 31
0.0
  0
LINE
  8
0
  6
CONTINUOUS
 10
30.378288
 20
59.025231
 30
0.0
 11
30.370301
 21
60.091288
 31
0.0
  0
LINE
  8
0
  6
CONTINUOUS
 10
30.860919
 20
59.808029
 30
0.0
 11
30.864605
 21
59.316003
 31
0.0
  0
LINE
  8
0
  6
CONTINUOUS
 10
30.860919
 20
59.808029
 30
0.0
 11
30.962394
 21
59.865607
 31
0.0
  0
LINE
  8
0
  6
CONTINUOUS
 10
30.864605
 20
59.316003
 30
0.0
 11
30.968792
 21
59.37512
 31
0.0
  0
LINE
  8
0
  6
CONTINUOUS
 10
31.041362
 20
59.009829
 30
0.0
 11
31.461891
 21
58.767036
 31
0.0
  0
LINE
  8
0
  6
CONTINUOUS
 10
31.041362
 20
59.009829
 30
0.0
 11
31.062909
 21
59.022055
 31
0.0
  0
LINE
  8
0
  6
CONTINUOUS
 10
31.461891
 20
58.767036
 30
0.0
 11
31.635513
 21
58.86555
 31
0.0
  0
LINE
  8
0
  6
CONTINUOUS
 10
31.635576
 20
58.870883
 30
0.0
 11
31.493663
 21
77.813888
 31
0.0
  0
LINE
  8
0
  6
CONTINUOUS
 10
31.316906
 20
78.120062
 30
0.0
 11
30.896377
 21
78.362855
 31
0.0
  0
LINE
  8
0
  6
CONTINUOUS
 10
30.722692
 20
78.259008
 30
0.0
 11
30.726347
 21
77.7711
 31
0.0
  0
LINE
  8
0
  6
CONTINUOUS
 10
30.722692
 20
78.259008
 30
0.0
 11
30.900904
 21
78.360127
 31
0.0
  0
LINE
  8
0
  6
CONTINUOUS
 10
30.726347
 20
77.7711
 30
0.0
 11
30.830534
 21
77.830216
 31
0.0
  0
LINE
  8
0
  6
CONTINUOUS
 10
30.235729
 20
78.054358
 30
0.0
 11
30.227774
 21
79.116297
 31
0.0
  0
LINE
  8
0
  6
CONTINUOUS
 10
30.401458
 20
79.220144
 30
0.0
 11
31.803223
 21
78.410835
 31
0.0
  0
LINE
  8
0
  6
CONTINUOUS
 10
30.401458
 20
79.220144
 30
0.0
 11
43.495162
 21
86.64957
 31
0.0
  0
LINE
  8
0
  6
CONTINUOUS
 10
110.741119
 20
124.805229
 30
0.0
 11
119.557735
 21
129.807816
 31
0.0
  0
LINE
  8
0
  6
CONTINUOUS
 10
120.9595
 20
128.998507
 30
0.0
 11
119.557735
 21
129.807816
 31
0.0
  0
LINE
  8
0
  6
CONTINUOUS
 10
31.803223
 20
78.410835
 30
0.0
 11
44.921827
 21
85.854389
 31
0.0
  0
LINE
  8
0
  6
CONTINUOUS
 10
110.741757
 20
123.200913
 30
0.0
 11
120.9595
 21
128.998507
 31
0.0
  0
LINE
  8
0
  6
CONTINUOUS
 10
32.130494
 20
58.013594
 30
0.0
 11
67.438904
 21
78.047745
 31
0.0
  0
LINE
  8
0
  6
CONTINUOUS
 10
87.193729
 20
89.256721
 30
0.0
 11
121.286771
 21
108.601266
 31
0.0
  0
LINE
  8
0
  6
CONTINUOUS
 10
31.97998
 20
78.10466
 30
0.0
 11
32.130494
 21
58.013594
 31
0.0
  0
LINE
  8
0
  6
CONTINUOUS
 10
31.97998
 20
78.10466
 30
0.0
 11
45.283103
 21
85.652912
 31
0.0
  0
LINE
  8
0
  6
CONTINUOUS
 10
110.741838
 20
122.794492
 30
0.0
 11
121.136257
 21
128.692332
 31
0.0
  0
LINE
  8
0
  6
CONTINUOUS
 10
121.286771
 20
108.601266
 30
0.0
 11
121.136257
 21
128.692332
 31
0.0
  0
LINE
  8
0
  6
CONTINUOUS
 10
61.467222
 20
100.595714
 30
0.0
 11
61.467222
 21
102.138621
 31
0.0
  0
LINE
  8
0
  6
CONTINUOUS
 10
62.784498
 20
99.821672
 30
0.0
 11
61.467222
 21
100.595714
 31
0.0
  0
LINE
  8
0
  6
CONTINUOUS
 10
61.467222
 20
102.138621
 30
0.0
 11
64.207315
 21
103.720615
 31
0.0
  0
LINE
  8
0
  6
CONTINUOUS
 10
63.369861
 20
101.040132
 30
0.0
 11
61.467222
 21
102.138621
 31
0.0
  0
LINE
  8
0
  6
CONTINUOUS
 10
64.207315
 20
103.720615
 30
0.0
 11
64.788879
 21
103.407889
 31
0.0
  0
LINE
  8
0
  6
CONTINUOUS
 10
58.223582
 20
102.769853
 30
0.0
 11
61.467064
 21
100.993604
 31
0.0
  0
LINE
  8
0
  6
CONTINUOUS
 10
59.080791
 20
91.677228
 30
0.0
 11
59.044338
 21
91.698273
 31
0.0
  0
LINE
  8
0
  6
CONTINUOUS
 10
68.549569
 20
97.960526
 30
0.0
 11
69.124578
 21
98.292508
 31
0.0
  0
LINE
  8
0
  6
CONTINUOUS
 10
80.716669
 20
104.985205
 30
0.0
 11
82.522628
 21
106.027875
 31
0.0
  0
LINE
  8
0
  6
CONTINUOUS
 10
93.651205
 20
112.452963
 30
0.0
 11
94.226214
 21
112.784944
 31
0.0
  0
LINE
  8
0
  6
CONTINUOUS
 10
104.158848
 20
117.703056
 30
0.0
 11
104.123494
 21
117.723468
 31
0.0
  0
LINE
  8
0
  6
CONTINUOUS
 10
57.236978
 20
105.575002
 30
0.0
 11
56.605917
 21
105.210659
 31
0.0
  0
LINE
  8
0
  6
CONTINUOUS
 10
57.413755
 20
105.47294
 30
0.0
 11
57.413755
 21
104.738093
 31
0.0
  0
LINE
  8
0
  6
CONTINUOUS
 10
57.236978
 20
104.431907
 30
0.0
 11
56.605917
 21
104.067563
 31
0.0
  0
LINE
  8
0
  6
CONTINUOUS
 10
56.605917
 20
93.106097
 30
0.0
 11
56.605917
 21
104.067563
 31
0.0
  0
LINE
  8
0
  6
CONTINUOUS
 10
59.080791
 20
91.677228
 30
0.0
 11
104.158848
 21
117.703056
 31
0.0
  0
LINE
  8
0
  6
CONTINUOUS
 10
106.002661
 20
132.586787
 30
0.0
 11
106.633722
 21
132.95113
 31
0.0
  0
LINE
  8
0
  6
CONTINUOUS
 10
105.825884
 20
133.423696
 30
0.0
 11
105.825884
 21
132.688849
 31
0.0
  0
LINE
  8
0
  6
CONTINUOUS
 10
106.633722
 20
134.094225
 30
0.0
 11
106.633722
 21
145.055692
 31
0.0
  0
LINE
  8
0
  6
CONTINUOUS
 10
104.158848
 20
146.484561
 30
0.0
 11
59.080791
 21
120.458732
 31
0.0
  0
LINE
  8
0
  6
CONTINUOUS
 10
58.223582
 20
102.769853
 30
0.0
 11
57.165174
 21
102.158781
 31
0.0
  0
LINE
  8
0
  6
CONTINUOUS
 10
82.26681
 20
116.651217
 30
0.0
 11
83.817051
 21
117.546249
 31
0.0
  0
LINE
  8
0
  6
CONTINUOUS
 10
88.601523
 20
120.308565
 30
0.0
 11
90.797718
 21
121.576539
 31
0.0
  0
LINE
  8
0
  6
CONTINUOUS
 10
37.649598
 20
131.607277
 30
0.0
 11
95.891556
 21
165.233287
 31
0.0
  0
LINE
  8
0
  6
CONTINUOUS
 10
37.296058
 20
130.994928
 30
0.0
 11
37.296058
 21
90.279046
 31
0.0
  0
LINE
  8
0
  6
CONTINUOUS
 10
58.404935
 20
102.670426
 30
0.0
 11
58.8921
 21
102.95169
 31
0.0
  0
LINE
  8
0
  6
CONTINUOUS
 10
61.466771
 20
101.527177
 30
0.0
 11
58.913517
 21
102.950286
 31
0.0
  0
LINE
  8
0
  6
CONTINUOUS
 10
56.605917
 20
105.210659
 30
0.0
 11
56.605917
 21
116.172125
 31
0.0
  0
LINE
  8
0
  6
CONTINUOUS
 10
106.633722
 20
145.055692
 30
0.0
 11
106.596942
 21
145.076927
 31
0.0
  0
LINE
  8
0
  6
CONTINUOUS
 10
106.633722
 20
121.989663
 30
0.0
 11
106.633722
 21
132.95113
 31
0.0
  0
LINE
  8
0
  6
CONTINUOUS
 10
106.633722
 20
121.989663
 30
0.0
 11
106.598023
 21
122.010274
 31
0.0
  0
LINE
  8
0
  6
CONTINUOUS
 10
106.49463
 20
134.174529
 30
0.0
 11
106.633722
 21
134.094225
 31
0.0
  0
LINE
  8
0
  6
CONTINUOUS
 10
106.002661
 20
133.729882
 30
0.0
 11
106.633722
 21
134.094225
 31
0.0
  0
ARC
  8
0
  6
CONTINUOUS
 10
86.974451
 20
85.341299
 30
0.0
 40
0.25
 50
299.570771
 51
0.429229
  0
ARC
  8
0
  6
CONTINUOUS
 10
70.926321
 20
76.235518
 30
0.0
 40
0.25
 50
240.0
 51
299.570771
  0
LINE
  8
0
  6
CONTINUOUS
 10
110.614269
 20
117.227815
 30
0.0
 11
110.613046
 21
117.227108
 31
0.0
  0
LINE
  8
0
  6
CONTINUOUS
 10
110.613046
 20
117.227108
 30
0.0
 11
81.619819
 21
100.487861
 31
0.0
  0
LINE
  8
0
  6
CONTINUOUS
 10
81.619819
 20
100.487861
 30
0.0
 11
52.626593
 21
83.748614
 31
0.0
  0
LINE
  8
0
  6
CONTINUOUS
 10
52.626593
 20
83.748614
 30
0.0
 11
52.625369
 21
83.747908
 31
0.0
  0
LINE
  8
0
  6
CONTINUOUS
 10
110.614269
 20
154.413881
 30
0.0
 11
110.613046
 21
154.413175
 31
0.0
  0
LINE
  8
0
  6
CONTINUOUS
 10
110.613046
 20
154.413175
 30
0.0
 11
81.619819
 21
137.673927
 31
0.0
  0
LINE
  8
0
  6
CONTINUOUS
 10
81.619819
 20
137.673927
 30
0.0
 11
52.626593
 21
120.93468
 31
0.0
  0
LINE
  8
0
  6
CONTINUOUS
 10
52.626593
 20
120.93468
 30
0.0
 11
52.625369
 21
120.933974
 31
0.0
  0
LINE
  8
0
  6
CONTINUOUS
 10
108.874163
 20
157.473822
 30
0.0
 11
108.860705
 21
157.466053
 31
0.0
  0
LINE
  8
0
  6
CONTINUOUS
 10
108.860705
 20
157.466053
 30
0.0
 11
79.867479
 21
140.726805
 31
0.0
  0
LINE
  8
0
  6
CONTINUOUS
 10
79.867479
 20
140.726805
 30
0.0
 11
50.874252
 21
123.987558
 31
0.0
  0
LINE
  8
0
  6
CONTINUOUS
 10
50.874252
 20
123.987558
 30
0.0
 11
50.860795
 21
123.979789
 31
0.0
  0
LINE
  8
0
  6
CONTINUOUS
 10
110.083415
 20
116.118781
 30
0.0
 11
81.082806
 21
99.375272
 31
0.0
  0
LINE
  8
0
  6
CONTINUOUS
 10
81.082806
 20
99.375272
 30
0.0
 11
52.082198
 21
82.631762
 31
0.0
  0
LINE
  8
0
  6
CONTINUOUS
 10
52.625369
 20
120.933974
 30
0.0
 11
52.625369
 21
102.340941
 31
0.0
  0
LINE
  8
0
  6
CONTINUOUS
 10
52.625369
 20
102.340941
 30
0.0
 11
52.625369
 21
83.747908
 31
0.0
  0
LINE
  8
0
  6
CONTINUOUS
 10
51.921361
 20
120.9322
 30
0.0
 11
51.921361
 21
102.339167
 31
0.0
  0
LINE
  8
0
  6
CONTINUOUS
 10
51.921361
 20
102.339167
 30
0.0
 11
51.921361
 21
83.746134
 31
0.0
  0
LINE
  8
0
  6
CONTINUOUS
 10
37.296058
 20
90.279046
 30
0.0
 11
44.782361
 21
86.1064
 31
0.0
  0
LINE
  8
0
  6
CONTINUOUS
 10
44.782361
 20
86.1064
 30
0.0
 11
50.507255
 21
82.915511
 31
0.0
  0
LINE
  8
0
  6
CONTINUOUS
 10
37.405827
 20
90.055378
 30
0.0
 11
44.012027
 21
86.373275
 31
0.0
  0
LINE
  8
0
  6
CONTINUOUS
 10
44.012027
 20
86.373275
 30
0.0
 11
50.618246
 21
82.691162
 31
0.0
  0
LINE
  8
0
  6
CONTINUOUS
 10
30.726347
 20
77.7711
 30
0.0
 11
30.680761
 21
77.629445
 31
0.0
  0
LINE
  8
0
  6
CONTINUOUS
 10
30.680761
 20
77.629445
 30
0.0
 11
30.558888
 21
77.595995
 31
0.0
  0
LINE
  8
0
  6
CONTINUOUS
 10
30.558888
 20
77.595995
 30
0.0
 11
30.407278
 21
77.683527
 31
0.0
  0
LINE
  8
0
  6
CONTINUOUS
 10
30.407278
 20
77.683527
 30
0.0
 11
30.283843
 21
77.858606
 31
0.0
  0
LINE
  8
0
  6
CONTINUOUS
 10
30.283843
 20
77.858606
 30
0.0
 11
30.235729
 21
78.054358
 31
0.0
  0
LINE
  8
0
  6
CONTINUOUS
 10
31.316906
 20
78.120062
 30
0.0
 11
31.404722
 21
78.042014
 31
0.0
  0
LINE
  8
0
  6
CONTINUOUS
 10
31.404722
 20
78.042014
 30
0.0
 11
31.46942
 21
77.929947
 31
0.0
  0
LINE
  8
0
  6
CONTINUOUS
 10
31.46942
 20
77.929947
 30
0.0
 11
31.493663
 21
77.813888
 31
0.0
  0
LINE
  8
0
  6
CONTINUOUS
 10
30.277255
 20
77.168962
 30
0.0
 11
29.904206
 21
77.563701
 31
0.0
  0
LINE
  8
0
  6
CONTINUOUS
 10
29.904206
 20
77.563701
 30
0.0
 11
29.746985
 21
78.087486
 31
0.0
  0
LINE
  8
0
  6
CONTINUOUS
 10
25.298425
 20
61.753967
 30
0.0
 11
25.174075
 21
61.885547
 31
0.0
  0
LINE
  8
0
  6
CONTINUOUS
 10
25.174075
 20
61.885547
 30
0.0
 11
25.121668
 21
62.060142
 31
0.0
  0
LINE
  8
0
  6
CONTINUOUS
 10
25.959963
 20
61.943576
 30
0.0
 11
25.784331
 21
62.099672
 31
0.0
  0
LINE
  8
0
  6
CONTINUOUS
 10
25.784331
 20
62.099672
 30
0.0
 11
25.654936
 21
62.323807
 31
0.0
  0
LINE
  8
0
  6
CONTINUOUS
 10
25.654936
 20
62.323807
 30
0.0
 11
25.60645
 21
62.555925
 31
0.0
  0
LINE
  8
0
  6
CONTINUOUS
 10
25.900528
 20
71.204542
 30
0.0
 11
25.719897
 21
71.358707
 31
0.0
  0
LINE
  8
0
  6
CONTINUOUS
 10
25.719897
 20
71.358707
 30
0.0
 11
25.585533
 21
71.586257
 31
0.0
  0
LINE
  8
0
  6
CONTINUOUS
 10
25.585533
 20
71.586257
 30
0.0
 11
25.534992
 21
71.823592
 31
0.0
  0
LINE
  8
0
  6
CONTINUOUS
 10
25.534992
 20
71.823592
 30
0.0
 11
25.5824
 21
72.004377
 31
0.0
  0
LINE
  8
0
  6
CONTINUOUS
 10
25.5824
 20
72.004377
 30
0.0
 11
25.714507
 21
72.07808
 31
0.0
  0
LINE
  8
0
  6
CONTINUOUS
 10
25.714507
 20
72.07808
 30
0.0
 11
25.894388
 21
72.024103
 31
0.0
  0
LINE
  8
0
  6
CONTINUOUS
 10
25.545995
 20
70.625647
 30
0.0
 11
25.594141
 21
70.739689
 31
0.0
  0
LINE
  8
0
  6
CONTINUOUS
 10
25.594141
 20
70.739689
 30
0.0
 11
25.713668
 21
70.732844
 31
0.0
  0
LINE
  8
0
  6
CONTINUOUS
 10
25.698806
 20
72.716604
 30
0.0
 11
25.578344
 21
72.848317
 31
0.0
  0
LINE
  8
0
  6
CONTINUOUS
 10
25.578344
 20
72.848317
 30
0.0
 11
25.528063
 21
73.019186
 31
0.0
  0
LINE
  8
0
  6
CONTINUOUS
 10
31.09517
 20
61.142479
 30
0.0
 11
31.12696
 21
61.267011
 31
0.0
  0
LINE
  8
0
  6
CONTINUOUS
 10
31.12696
 20
61.267011
 30
0.0
 11
31.215962
 21
61.320226
 31
0.0
  0
LINE
  8
0
  6
CONTINUOUS
 10
31.215962
 20
61.320226
 30
0.0
 11
31.338328
 21
61.287865
 31
0.0
  0
LINE
  8
0
  6
CONTINUOUS
 10
31.338328
 20
61.287865
 30
0.0
 11
31.461271
 21
61.178597
 31
0.0
  0
LINE
  8
0
  6
CONTINUOUS
 10
31.461271
 20
61.178597
 30
0.0
 11
31.551847
 21
61.021703
 31
0.0
  0
LINE
  8
0
  6
CONTINUOUS
 10
31.551847
 20
61.021703
 30
0.0
 11
31.585788
 21
60.85922
 31
0.0
  0
LINE
  8
0
  6
CONTINUOUS
 10
29.881834
 20
60.087531
 30
0.0
 11
29.836419
 21
59.909627
 31
0.0
  0
LINE
  8
0
  6
CONTINUOUS
 10
29.836419
 20
59.909627
 30
0.0
 11
29.709273
 21
59.833605
 31
0.0
  0
LINE
  8
0
  6
CONTINUOUS
 10
29.709273
 20
59.833605
 30
0.0
 11
29.534464
 21
59.879837
 31
0.0
  0
LINE
  8
0
  6
CONTINUOUS
 10
31.041362
 20
59.009829
 30
0.0
 11
30.917012
 21
59.141409
 31
0.0
  0
LINE
  8
0
  6
CONTINUOUS
 10
30.917012
 20
59.141409
 30
0.0
 11
30.864605
 21
59.316003
 31
0.0
  0
LINE
  8
0
  6
CONTINUOUS
 10
31.297472
 20
58.964026
 30
0.0
 11
31.213431
 21
58.926022
 31
0.0
  0
LINE
  8
0
  6
CONTINUOUS
 10
31.213431
 20
58.926022
 30
0.0
 11
31.101091
 21
58.982299
 31
0.0
  0
LINE
  8
0
  6
CONTINUOUS
 10
31.101091
 20
58.982299
 30
0.0
 11
31.006881
 21
59.109597
 31
0.0
  0
LINE
  8
0
  6
CONTINUOUS
 10
31.006881
 20
59.109597
 30
0.0
 11
30.969737
 21
59.255305
 31
0.0
  0
LINE
  8
0
  6
CONTINUOUS
 10
30.555044
 20
58.719057
 30
0.0
 11
30.467228
 21
58.797105
 31
0.0
  0
LINE
  8
0
  6
CONTINUOUS
 10
30.467228
 20
58.797105
 30
0.0
 11
30.402531
 21
58.909172
 31
0.0
  0
LINE
  8
0
  6
CONTINUOUS
 10
30.402531
 20
58.909172
 30
0.0
 11
30.378288
 21
59.025231
 31
0.0
  0
LINE
  8
0
  6
CONTINUOUS
 10
30.378288
 20
59.025231
 30
0.0
 11
30.35558
 21
58.936279
 31
0.0
  0
LINE
  8
0
  6
CONTINUOUS
 10
30.35558
 20
58.936279
 30
0.0
 11
30.292007
 21
58.898268
 31
0.0
  0
LINE
  8
0
  6
CONTINUOUS
 10
30.292007
 20
58.898268
 30
0.0
 11
30.204603
 21
58.921384
 31
0.0
  0
LINE
  8
0
  6
CONTINUOUS
 10
31.635576
 20
58.870883
 30
0.0
 11
31.612869
 21
58.781931
 31
0.0
  0
LINE
  8
0
  6
CONTINUOUS
 10
31.612869
 20
58.781931
 30
0.0
 11
31.549296
 21
58.74392
 31
0.0
  0
LINE
  8
0
  6
CONTINUOUS
 10
31.549296
 20
58.74392
 30
0.0
 11
31.461891
 21
58.767036
 31
0.0
  0
LINE
  8
0
  6
CONTINUOUS
 10
30.370301
 20
60.091288
 30
0.0
 11
30.402091
 21
60.215821
 31
0.0
  0
LINE
  8
0
  6
CONTINUOUS
 10
30.402091
 20
60.215821
 30
0.0
 11
30.491094
 21
60.269036
 31
0.0
  0
LINE
  8
0
  6
CONTINUOUS
 10
30.491094
 20
60.269036
 30
0.0
 11
30.61346
 21
60.236674
 31
0.0
  0
LINE
  8
0
  6
CONTINUOUS
 10
30.61346
 20
60.236674
 30
0.0
 11
30.736402
 21
60.127407
 31
0.0
  0
LINE
  8
0
  6
CONTINUOUS
 10
30.736402
 20
60.127407
 30
0.0
 11
30.826979
 21
59.970512
 31
0.0
  0
LINE
  8
0
  6
CONTINUOUS
 10
30.826979
 20
59.970512
 30
0.0
 11
30.860919
 21
59.808029
 31
0.0
  0
LINE
  8
0
  6
CONTINUOUS
 10
30.788681
 20
60.13551
 30
0.0
 11
30.91303
 21
60.00393
 31
0.0
  0
LINE
  8
0
  6
CONTINUOUS
 10
30.91303
 20
60.00393
 30
0.0
 11
30.965437
 21
59.829336
 31
0.0
  0
LINE
  8
0
  6
CONTINUOUS
 10
30.369687
 20
60.173292
 30
0.0
 11
30.392394
 21
60.262244
 31
0.0
  0
LINE
  8
0
  6
CONTINUOUS
 10
30.392394
 20
60.262244
 30
0.0
 11
30.455967
 21
60.300255
 31
0.0
  0
LINE
  8
0
  6
CONTINUOUS
 10
30.455967
 20
60.300255
 30
0.0
 11
30.543372
 21
60.277139
 31
0.0
  0
LINE
  8
0
  6
CONTINUOUS
 10
29.87784
 20
60.620559
 30
0.0
 11
29.945962
 21
60.887415
 31
0.0
  0
LINE
  8
0
  6
CONTINUOUS
 10
29.945962
 20
60.887415
 30
0.0
 11
30.136681
 21
61.001447
 31
0.0
  0
LINE
  8
0
  6
CONTINUOUS
 10
30.136681
 20
61.001447
 30
0.0
 11
30.398895
 21
60.932101
 31
0.0
  0
LINE
  8
0
  6
CONTINUOUS
 10
31.595041
 20
59.624056
 30
0.0
 11
31.572749
 21
59.425602
 31
0.0
  0
LINE
  8
0
  6
CONTINUOUS
 10
31.572749
 20
59.425602
 30
0.0
 11
31.504212
 21
59.268248
 31
0.0
  0
LINE
  8
0
  6
CONTINUOUS
 10
31.098241
 20
60.732457
 30
0.0
 11
31.075534
 21
60.643505
 31
0.0
  0
LINE
  8
0
  6
CONTINUOUS
 10
31.075534
 20
60.643505
 30
0.0
 11
31.011961
 21
60.605494
 31
0.0
  0
LINE
  8
0
  6
CONTINUOUS
 10
31.011961
 20
60.605494
 30
0.0
 11
30.924557
 21
60.62861
 31
0.0
  0
LINE
  8
0
  6
CONTINUOUS
 10
32.130494
 20
58.013594
 30
0.0
 11
32.107787
 21
57.924642
 31
0.0
  0
LINE
  8
0
  6
CONTINUOUS
 10
32.107787
 20
57.924642
 30
0.0
 11
32.044214
 21
57.886632
 31
0.0
  0
LINE
  8
0
  6
CONTINUOUS
 10
32.044214
 20
57.886632
 30
0.0
 11
31.956809
 21
57.909747
 31
0.0
  0
LINE
  8
0
  6
CONTINUOUS
 10
31.031542
 20
69.635706
 30
0.0
 11
31.007838
 21
69.545313
 31
0.0
  0
LINE
  8
0
  6
CONTINUOUS
 10
31.007838
 20
69.545313
 30
0.0
 11
30.941784
 21
69.508462
 31
0.0
  0
LINE
  8
0
  6
CONTINUOUS
 10
30.941784
 20
69.508462
 30
0.0
 11
30.851844
 21
69.53545
 31
0.0
  0
LINE
  8
0
  6
CONTINUOUS
 10
31.539717
 20
67.008869
 30
0.0
 11
31.494131
 21
66.867214
 31
0.0
  0
LINE
  8
0
  6
CONTINUOUS
 10
31.494131
 20
66.867214
 30
0.0
 11
31.372258
 21
66.833764
 31
0.0
  0
LINE
  8
0
  6
CONTINUOUS
 10
31.372258
 20
66.833764
 30
0.0
 11
31.220648
 21
66.921296
 31
0.0
  0
LINE
  8
0
  6
CONTINUOUS
 10
31.220648
 20
66.921296
 30
0.0
 11
31.097213
 21
67.096375
 31
0.0
  0
LINE
  8
0
  6
CONTINUOUS
 10
31.097213
 20
67.096375
 30
0.0
 11
31.049099
 21
67.292127
 31
0.0
  0
LINE
  8
0
  6
CONTINUOUS
 10
31.523432
 20
69.182662
 30
0.0
 11
31.452319
 21
68.911486
 31
0.0
  0
LINE
  8
0
  6
CONTINUOUS
 10
31.452319
 20
68.911486
 30
0.0
 11
31.254159
 21
68.80093
 31
0.0
  0
LINE
  8
0
  6
CONTINUOUS
 10
31.254159
 20
68.80093
 30
0.0
 11
30.984337
 21
68.881896
 31
0.0
  0
LINE
  8
0
  6
CONTINUOUS
 10
30.863605
 20
67.965573
 30
0.0
 11
30.95392
 21
67.88849
 31
0.0
  0
LINE
  8
0
  6
CONTINUOUS
 10
30.95392
 20
67.88849
 30
0.0
 11
31.021102
 21
67.774715
 31
0.0
  0
LINE
  8
0
  6
CONTINUOUS
 10
31.021102
 20
67.774715
 30
0.0
 11
31.046373
 21
67.656048
 31
0.0
  0
LINE
  8
0
  6
CONTINUOUS
 10
30.987414
 20
68.47115
 30
0.0
 11
31.258362
 21
68.239903
 31
0.0
  0
LINE
  8
0
  6
CONTINUOUS
 10
31.258362
 20
68.239903
 30
0.0
 11
31.459907
 21
67.898577
 31
0.0
  0
LINE
  8
0
  6
CONTINUOUS
 10
31.459907
 20
67.898577
 30
0.0
 11
31.535719
 21
67.542575
 31
0.0
  0
LINE
  8
0
  6
CONTINUOUS
 10
31.028816
 20
69.999626
 30
0.0
 11
31.060606
 21
70.124159
 31
0.0
  0
LINE
  8
0
  6
CONTINUOUS
 10
31.060606
 20
70.124159
 30
0.0
 11
31.149608
 21
70.177374
 31
0.0
  0
LINE
  8
0
  6
CONTINUOUS
 10
31.149608
 20
70.177374
 30
0.0
 11
31.271974
 21
70.145012
 31
0.0
  0
LINE
  8
0
  6
CONTINUOUS
 10
31.271974
 20
70.145012
 30
0.0
 11
31.394917
 21
70.035745
 31
0.0
  0
LINE
  8
0
  6
CONTINUOUS
 10
31.394917
 20
70.035745
 30
0.0
 11
31.485493
 21
69.87885
 31
0.0
  0
LINE
  8
0
  6
CONTINUOUS
 10
31.485493
 20
69.87885
 30
0.0
 11
31.519433
 21
69.716368
 31
0.0
  0
LINE
  8
0
  6
CONTINUOUS
 10
31.473363
 20
75.866016
 30
0.0
 11
31.427777
 21
75.724362
 31
0.0
  0
LINE
  8
0
  6
CONTINUOUS
 10
31.427777
 20
75.724362
 30
0.0
 11
31.305903
 21
75.690912
 31
0.0
  0
LINE
  8
0
  6
CONTINUOUS
 10
31.305903
 20
75.690912
 30
0.0
 11
31.154294
 21
75.778443
 31
0.0
  0
LINE
  8
0
  6
CONTINUOUS
 10
31.154294
 20
75.778443
 30
0.0
 11
31.030859
 21
75.953522
 31
0.0
  0
LINE
  8
0
  6
CONTINUOUS
 10
31.030859
 20
75.953522
 30
0.0
 11
30.982745
 21
76.149275
 31
0.0
  0
LINE
  8
0
  6
CONTINUOUS
 10
30.832125
 20
77.624279
 30
0.0
 11
30.809417
 21
77.535327
 31
0.0
  0
LINE
  8
0
  6
CONTINUOUS
 10
30.809417
 20
77.535327
 30
0.0
 11
30.745844
 21
77.497317
 31
0.0
  0
LINE
  8
0
  6
CONTINUOUS
 10
30.745844
 20
77.497317
 30
0.0
 11
30.65844
 21
77.520432
 31
0.0
  0
LINE
  8
0
  6
CONTINUOUS
 10
30.413131
 20
77.662061
 30
0.0
 11
30.288781
 21
77.793641
 31
0.0
  0
LINE
  8
0
  6
CONTINUOUS
 10
30.288781
 20
77.793641
 30
0.0
 11
30.236374
 21
77.968236
 31
0.0
  0
LINE
  8
0
  6
CONTINUOUS
 10
30.802917
 20
76.865471
 30
0.0
 11
30.890733
 21
76.787423
 31
0.0
  0
LINE
  8
0
  6
CONTINUOUS
 10
30.890733
 20
76.787423
 30
0.0
 11
30.95543
 21
76.675355
 31
0.0
  0
LINE
  8
0
  6
CONTINUOUS
 10
30.95543
 20
76.675355
 30
0.0
 11
30.979673
 21
76.559296
 31
0.0
  0
LINE
  8
0
  6
CONTINUOUS
 10
31.367137
 20
77.565416
 30
0.0
 11
31.438637
 21
77.327211
 31
0.0
  0
LINE
  8
0
  6
CONTINUOUS
 10
31.438637
 20
77.327211
 30
0.0
 11
31.464109
 21
77.10118
 31
0.0
  0
LINE
  8
0
  6
CONTINUOUS
 10
24.971154
 20
82.151207
 30
0.0
 11
24.993861
 21
82.24016
 31
0.0
  0
LINE
  8
0
  6
CONTINUOUS
 10
24.993861
 20
82.24016
 30
0.0
 11
25.057434
 21
82.27817
 31
0.0
  0
LINE
  8
0
  6
CONTINUOUS
 10
25.057434
 20
82.27817
 30
0.0
 11
25.144839
 21
82.255055
 31
0.0
  0
LINE
  8
0
  6
CONTINUOUS
 10
25.467608
 20
81.088908
 30
0.0
 11
25.568078
 21
81.319577
 31
0.0
  0
LINE
  8
0
  6
CONTINUOUS
 10
25.568078
 20
81.319577
 30
0.0
 11
25.814978
 21
81.296602
 31
0.0
  0
LINE
  8
0
  6
CONTINUOUS
 10
29.389479
 20
79.232863
 30
0.0
 11
29.565111
 21
79.076767
 31
0.0
  0
LINE
  8
0
  6
CONTINUOUS
 10
29.565111
 20
79.076767
 30
0.0
 11
29.694506
 21
78.852631
 31
0.0
  0
LINE
  8
0
  6
CONTINUOUS
 10
29.694506
 20
78.852631
 30
0.0
 11
29.742992
 21
78.620514
 31
0.0
  0
LINE
  8
0
  6
CONTINUOUS
 10
30.722692
 20
78.259008
 30
0.0
 11
30.745399
 21
78.34796
 31
0.0
  0
LINE
  8
0
  6
CONTINUOUS
 10
30.745399
 20
78.34796
 30
0.0
 11
30.808972
 21
78.385971
 31
0.0
  0
LINE
  8
0
  6
CONTINUOUS
 10
30.808972
 20
78.385971
 30
0.0
 11
30.896377
 21
78.362855
 31
0.0
  0
LINE
  8
0
  6
CONTINUOUS
 10
30.227774
 20
79.116297
 30
0.0
 11
30.250481
 21
79.205249
 31
0.0
  0
LINE
  8
0
  6
CONTINUOUS
 10
30.250481
 20
79.205249
 30
0.0
 11
30.314054
 21
79.24326
 31
0.0
  0
LINE
  8
0
  6
CONTINUOUS
 10
30.314054
 20
79.24326
 30
0.0
 11
30.401458
 21
79.220144
 31
0.0
  0
LINE
  8
0
  6
CONTINUOUS
 10
30.051017
 20
79.422471
 30
0.0
 11
30.175367
 21
79.290892
 31
0.0
  0
LINE
  8
0
  6
CONTINUOUS
 10
30.175367
 20
79.290892
 30
0.0
 11
30.227774
 21
79.116297
 31
0.0
  0
LINE
  8
0
  6
CONTINUOUS
 10
30.827824
 20
78.19831
 30
0.0
 11
30.863098
 21
78.302207
 31
0.0
  0
LINE
  8
0
  6
CONTINUOUS
 10
30.863098
 20
78.302207
 30
0.0
 11
30.956211
 21
78.321355
 31
0.0
  0
LINE
  8
0
  6
CONTINUOUS
 10
30.956211
 20
78.321355
 30
0.0
 11
31.06868
 21
78.247838
 31
0.0
  0
LINE
  8
0
  6
CONTINUOUS
 10
31.06868
 20
78.247838
 30
0.0
 11
31.154022
 21
78.112041
 31
0.0
  0
LINE
  8
0
  6
CONTINUOUS
 10
31.803223
 20
78.410835
 30
0.0
 11
31.927573
 21
78.279255
 31
0.0
  0
LINE
  8
0
  6
CONTINUOUS
 10
31.927573
 20
78.279255
 30
0.0
 11
31.97998
 21
78.10466
 31
0.0
  0
LINE
  8
0
  6
CONTINUOUS
 10
37.405807
 20
90.05539
 30
0.0
 11
37.403472
 21
90.056714
 31
0.0
  0
LINE
  8
0
  6
CONTINUOUS
 10
37.403472
 20
90.056714
 30
0.0
 11
37.325366
 21
90.141746
 31
0.0
  0
LINE
  8
0
  6
CONTINUOUS
 10
37.325366
 20
90.141746
 30
0.0
 11
37.296058
 21
90.279046
 31
0.0
  0
LINE
  8
0
  6
CONTINUOUS
 10
71.101542
 20
76.134354
 30
0.0
 11
70.988911
 21
76.09732
 31
0.0
  0
LINE
  8
0
  6
CONTINUOUS
 10
70.988911
 20
76.09732
 30
0.0
 11
70.859509
 21
76.097316
 31
0.0
  0
LINE
  8
0
  6
CONTINUOUS
 10
70.859509
 20
76.097316
 30
0.0
 11
70.748009
 21
76.134343
 31
0.0
  0
LINE
  8
0
  6
CONTINUOUS
 10
71.101542
 20
76.134354
 30
0.0
 11
71.088357
 21
76.062613
 31
0.0
  0
LINE
  8
0
  6
CONTINUOUS
 10
71.088357
 20
76.062613
 30
0.0
 11
71.04968
 21
76.018072
 31
0.0
  0
LINE
  8
0
  6
CONTINUOUS
 10
70.801321
 20
76.019012
 30
0.0
 11
70.76217
 21
76.06359
 31
0.0
  0
LINE
  8
0
  6
CONTINUOUS
 10
70.76217
 20
76.06359
 30
0.0
 11
70.748009
 21
76.134343
 31
0.0
  0
LINE
  8
0
  6
CONTINUOUS
 10
59.080791
 20
91.677228
 30
0.0
 11
57.843354
 21
91.345658
 31
0.0
  0
LINE
  8
0
  6
CONTINUOUS
 10
57.843354
 20
91.345658
 30
0.0
 11
56.937487
 21
91.86866
 31
0.0
  0
LINE
  8
0
  6
CONTINUOUS
 10
56.937487
 20
91.86866
 30
0.0
 11
56.605917
 21
93.106097
 31
0.0
  0
LINE
  8
0
  6
CONTINUOUS
 10
59.116379
 20
91.738599
 30
0.0
 11
57.366434
 21
91.565235
 31
0.0
  0
LINE
  8
0
  6
CONTINUOUS
 10
57.366434
 20
91.565235
 30
0.0
 11
56.641599
 21
93.167414
 31
0.0
  0
LINE
  8
0
  6
CONTINUOUS
 10
58.992729
 20
106.017138
 30
0.0
 11
58.891445
 21
105.598718
 31
0.0
  0
LINE
  8
0
  6
CONTINUOUS
 10
58.891445
 20
105.598718
 30
0.0
 11
58.62628
 21
105.223168
 31
0.0
  0
LINE
  8
0
  6
CONTINUOUS
 10
58.62628
 20
105.223168
 30
0.0
 11
58.298518
 21
105.033934
 31
0.0
  0
LINE
  8
0
  6
CONTINUOUS
 10
58.298518
 20
105.033934
 30
0.0
 11
58.033353
 21
105.103298
 31
0.0
  0
LINE
  8
0
  6
CONTINUOUS
 10
58.033353
 20
105.103298
 30
0.0
 11
57.932069
 21
105.404765
 31
0.0
  0
LINE
  8
0
  6
CONTINUOUS
 10
57.932069
 20
105.404765
 30
0.0
 11
58.00312
 21
105.751973
 31
0.0
  0
LINE
  8
0
  6
CONTINUOUS
 10
58.00312
 20
105.751973
 30
0.0
 11
58.197234
 21
106.088189
 31
0.0
  0
LINE
  8
0
  6
CONTINUOUS
 10
58.197234
 20
106.088189
 30
0.0
 11
58.462399
 21
106.323324
 31
0.0
  0
LINE
  8
0
  6
CONTINUOUS
 10
58.462399
 20
106.323324
 30
0.0
 11
58.727564
 21
106.394375
 31
0.0
  0
LINE
  8
0
  6
CONTINUOUS
 10
58.727564
 20
106.394375
 30
0.0
 11
58.921679
 21
106.282303
 31
0.0
  0
LINE
  8
0
  6
CONTINUOUS
 10
58.921679
 20
106.282303
 30
0.0
 11
58.992729
 21
106.017138
 31
0.0
  0
LINE
  8
0
  6
CONTINUOUS
 10
60.937273
 20
95.504744
 30
0.0
 11
60.565898
 21
93.970538
 31
0.0
  0
LINE
  8
0
  6
CONTINUOUS
 10
60.565898
 20
93.970538
 30
0.0
 11
59.593626
 21
92.59352
 31
0.0
  0
LINE
  8
0
  6
CONTINUOUS
 10
59.593626
 20
92.59352
 30
0.0
 11
58.391832
 21
91.899664
 31
0.0
  0
LINE
  8
0
  6
CONTINUOUS
 10
58.391832
 20
91.899664
 30
0.0
 11
57.41956
 21
92.153999
 31
0.0
  0
LINE
  8
0
  6
CONTINUOUS
 10
57.41956
 20
92.153999
 30
0.0
 11
57.048186
 21
93.259379
 31
0.0
  0
LINE
  8
0
  6
CONTINUOUS
 10
57.048186
 20
93.259379
 30
0.0
 11
57.308705
 21
94.532473
 31
0.0
  0
LINE
  8
0
  6
CONTINUOUS
 10
57.308705
 20
94.532473
 30
0.0
 11
58.020458
 21
95.765264
 31
0.0
  0
LINE
  8
0
  6
CONTINUOUS
 10
58.020458
 20
95.765264
 30
0.0
 11
58.992729
 21
96.627427
 31
0.0
  0
LINE
  8
0
  6
CONTINUOUS
 10
58.992729
 20
96.627427
 30
0.0
 11
59.965001
 21
96.887947
 31
0.0
  0
LINE
  8
0
  6
CONTINUOUS
 10
59.965001
 20
96.887947
 30
0.0
 11
60.676754
 21
96.477016
 31
0.0
  0
LINE
  8
0
  6
CONTINUOUS
 10
60.676754
 20
96.477016
 30
0.0
 11
60.937273
 21
95.504744
 31
0.0
  0
LINE
  8
0
  6
CONTINUOUS
 10
58.639176
 20
106.221262
 30
0.0
 11
58.539943
 21
105.807308
 31
0.0
  0
LINE
  8
0
  6
CONTINUOUS
 10
58.539943
 20
105.807308
 30
0.0
 11
58.279379
 21
105.433685
 31
0.0
  0
LINE
  8
0
  6
CONTINUOUS
 10
58.279379
 20
105.433685
 30
0.0
 11
57.954997
 21
105.240213
 31
0.0
  0
LINE
  8
0
  6
CONTINUOUS
 10
58.550788
 20
106.170231
 30
0.0
 11
58.458362
 21
105.804564
 31
0.0
  0
LINE
  8
0
  6
CONTINUOUS
 10
58.458362
 20
105.804564
 30
0.0
 11
58.219744
 21
105.485121
 31
0.0
  0
LINE
  8
0
  6
CONTINUOUS
 10
58.219744
 20
105.485121
 30
0.0
 11
57.934741
 21
105.345515
 31
0.0
  0
LINE
  8
0
  6
CONTINUOUS
 10
51.492839
 20
82.856715
 30
0.0
 11
51.041557
 21
82.751072
 31
0.0
  0
LINE
  8
0
  6
CONTINUOUS
 10
51.041557
 20
82.751072
 30
0.0
 11
50.507255
 21
82.915511
 31
0.0
  0
LINE
  8
0
  6
CONTINUOUS
 10
50.615828
 20
82.692534
 30
0.0
 11
50.507255
 21
82.915511
 31
0.0
  0
LINE
  8
0
  6
CONTINUOUS
 10
52.088241
 20
82.635282
 30
0.0
 11
52.478185
 21
83.063615
 31
0.0
  0
LINE
  8
0
  6
CONTINUOUS
 10
52.478185
 20
83.063615
 30
0.0
 11
52.625369
 21
83.747908
 31
0.0
  0
LINE
  8
0
  6
CONTINUOUS
 10
52.273965
 20
83.667656
 30
0.0
 11
52.625369
 21
83.747908
 31
0.0
  0
LINE
  8
0
  6
CONTINUOUS
 10
51.921361
 20
83.746134
 30
0.0
 11
51.804856
 21
83.199412
 31
0.0
  0
LINE
  8
0
  6
CONTINUOUS
 10
51.804856
 20
83.199412
 30
0.0
 11
51.492839
 21
82.856715
 31
0.0
  0
LINE
  8
0
  6
CONTINUOUS
 10
50.615828
 20
82.692534
 30
0.0
 11
51.194517
 21
82.511401
 31
0.0
  0
LINE
  8
0
  6
CONTINUOUS
 10
51.194517
 20
82.511401
 30
0.0
 11
51.763137
 21
82.640241
 31
0.0
  0
LINE
  8
0
  6
CONTINUOUS
 10
51.492839
 20
82.856715
 30
0.0
 11
51.763137
 21
82.640241
 31
0.0
  0
LINE
  8
0
  6
CONTINUOUS
 10
50.618245
 20
82.691163
 30
0.0
 11
50.624929
 21
82.687516
 31
0.0
  0
LINE
  8
0
  6
CONTINUOUS
 10
50.624929
 20
82.687516
 30
0.0
 11
50.632931
 21
82.683316
 31
0.0
  0
LINE
  8
0
  6
CONTINUOUS
 10
50.632931
 20
82.683316
 30
0.0
 11
50.653022
 21
82.673281
 31
0.0
  0
LINE
  8
0
  6
CONTINUOUS
 10
50.653022
 20
82.673281
 30
0.0
 11
50.708072
 21
82.64791
 31
0.0
  0
LINE
  8
0
  6
CONTINUOUS
 10
50.708072
 20
82.64791
 30
0.0
 11
50.862485
 21
82.586613
 31
0.0
  0
LINE
  8
0
  6
CONTINUOUS
 10
50.862485
 20
82.586613
 30
0.0
 11
51.237729
 21
82.490658
 31
0.0
  0
LINE
  8
0
  6
CONTINUOUS
 10
51.237729
 20
82.490658
 30
0.0
 11
51.509064
 21
82.478474
 31
0.0
  0
LINE
  8
0
  6
CONTINUOUS
 10
51.509064
 20
82.478474
 30
0.0
 11
51.669209
 21
82.495859
 31
0.0
  0
LINE
  8
0
  6
CONTINUOUS
 10
51.669209
 20
82.495859
 30
0.0
 11
51.836151
 21
82.531183
 31
0.0
  0
LINE
  8
0
  6
CONTINUOUS
 10
51.836151
 20
82.531183
 30
0.0
 11
51.931855
 21
82.561564
 31
0.0
  0
LINE
  8
0
  6
CONTINUOUS
 10
51.931855
 20
82.561564
 30
0.0
 11
52.082185
 21
82.631755
 31
0.0
  0
LINE
  8
0
  6
CONTINUOUS
 10
50.618239
 20
82.691166
 30
0.0
 11
50.615828
 21
82.692534
 31
0.0
  0
LINE
  8
0
  6
CONTINUOUS
 10
52.088241
 20
82.635282
 30
0.0
 11
52.082214
 21
82.631772
 31
0.0
  0
LINE
  8
0
  6
CONTINUOUS
 10
51.921361
 20
83.746134
 30
0.0
 11
52.273965
 21
83.667656
 31
0.0
  0
LINE
  8
0
  6
CONTINUOUS
 10
51.763137
 20
82.640241
 30
0.0
 11
52.153699
 21
83.078683
 31
0.0
  0
LINE
  8
0
  6
CONTINUOUS
 10
52.153699
 20
83.078683
 30
0.0
 11
52.273965
 21
83.667656
 31
0.0
  0
LINE
  8
0
  6
CONTINUOUS
 10
52.088241
 20
82.635282
 30
0.0
 11
51.763137
 21
82.640241
 31
0.0
  0
LINE
  8
0
  6
CONTINUOUS
 10
57.348699
 20
96.290618
 30
0.0
 11
57.223703
 21
96.278235
 31
0.0
  0
LINE
  8
0
  6
CONTINUOUS
 10
57.223703
 20
96.278235
 30
0.0
 11
57.171929
 21
96.392677
 31
0.0
  0
LINE
  8
0
  6
CONTINUOUS
 10
56.641599
 20
103.639107
 30
0.0
 11
56.745147
 21
103.987556
 31
0.0
  0
LINE
  8
0
  6
CONTINUOUS
 10
56.745147
 20
103.987556
 30
0.0
 11
56.995139
 21
104.251456
 31
0.0
  0
LINE
  8
0
  6
CONTINUOUS
 10
57.236978
 20
104.431907
 30
0.0
 11
57.30376
 21
104.487385
 31
0.0
  0
LINE
  8
0
  6
CONTINUOUS
 10
57.30376
 20
104.487385
 30
0.0
 11
57.360108
 21
104.565015
 31
0.0
  0
LINE
  8
0
  6
CONTINUOUS
 10
57.360108
 20
104.565015
 30
0.0
 11
57.399112
 21
104.652558
 31
0.0
  0
LINE
  8
0
  6
CONTINUOUS
 10
57.399112
 20
104.652558
 30
0.0
 11
57.413755
 21
104.738093
 31
0.0
  0
LINE
  8
0
  6
CONTINUOUS
 10
57.171929
 20
103.332921
 30
0.0
 11
57.275477
 21
103.68137
 31
0.0
  0
LINE
  8
0
  6
CONTINUOUS
 10
57.275477
 20
103.68137
 30
0.0
 11
57.525469
 21
103.94527
 31
0.0
  0
LINE
  8
0
  6
CONTINUOUS
 10
57.578516
 20
104.996502
 30
0.0
 11
57.474968
 21
104.648052
 31
0.0
  0
LINE
  8
0
  6
CONTINUOUS
 10
57.474968
 20
104.648052
 30
0.0
 11
57.224976
 21
104.384152
 31
0.0
  0
LINE
  8
0
  6
CONTINUOUS
 10
56.995139
 20
105.476201
 30
0.0
 11
56.745147
 21
105.451435
 31
0.0
  0
LINE
  8
0
  6
CONTINUOUS
 10
56.745147
 20
105.451435
 30
0.0
 11
56.641599
 21
105.680317
 31
0.0
  0
LINE
  8
0
  6
CONTINUOUS
 10
57.236978
 20
105.575002
 30
0.0
 11
57.303732
 21
105.596634
 31
0.0
  0
LINE
  8
0
  6
CONTINUOUS
 10
57.303732
 20
105.596634
 30
0.0
 11
57.360045
 21
105.584109
 31
0.0
  0
LINE
  8
0
  6
CONTINUOUS
 10
57.360045
 20
105.584109
 30
0.0
 11
57.3991
 21
105.541592
 31
0.0
  0
LINE
  8
0
  6
CONTINUOUS
 10
57.3991
 20
105.541592
 30
0.0
 11
57.413755
 21
105.47294
 31
0.0
  0
LINE
  8
0
  6
CONTINUOUS
 10
57.201626
 20
105.595412
 30
0.0
 11
57.236978
 21
105.575002
 31
0.0
  0
LINE
  8
0
  6
CONTINUOUS
 10
57.525469
 20
106.39476
 30
0.0
 11
57.275477
 21
106.369993
 31
0.0
  0
LINE
  8
0
  6
CONTINUOUS
 10
57.275477
 20
106.369993
 30
0.0
 11
57.171929
 21
106.598876
 31
0.0
  0
LINE
  8
0
  6
CONTINUOUS
 10
57.224976
 20
105.608897
 30
0.0
 11
57.474968
 21
105.633664
 31
0.0
  0
LINE
  8
0
  6
CONTINUOUS
 10
57.474968
 20
105.633664
 30
0.0
 11
57.578516
 21
105.404781
 31
0.0
  0
LINE
  8
0
  6
CONTINUOUS
 10
61.644373
 20
93.81051
 30
0.0
 11
61.519377
 21
93.798127
 31
0.0
  0
LINE
  8
0
  6
CONTINUOUS
 10
61.519377
 20
93.798127
 30
0.0
 11
61.467603
 21
93.912568
 31
0.0
  0
LINE
  8
0
  6
CONTINUOUS
 10
58.992824
 20
97.239854
 30
0.0
 11
60.742768
 21
97.413218
 31
0.0
  0
LINE
  8
0
  6
CONTINUOUS
 10
60.742768
 20
97.413218
 30
0.0
 11
61.467603
 21
95.811039
 31
0.0
  0
LINE
  8
0
  6
CONTINUOUS
 10
63.372036
 20
101.774132
 30
0.0
 11
63.579132
 21
102.471031
 31
0.0
  0
LINE
  8
0
  6
CONTINUOUS
 10
63.579132
 20
102.471031
 30
0.0
 11
64.079116
 21
102.99883
 31
0.0
  0
LINE
  8
0
  6
CONTINUOUS
 10
63.372036
 20
100.569753
 30
0.0
 11
63.268489
 21
100.221304
 31
0.0
  0
LINE
  8
0
  6
CONTINUOUS
 10
63.268489
 20
100.221304
 30
0.0
 11
63.018496
 21
99.957404
 31
0.0
  0
LINE
  8
0
  6
CONTINUOUS
 10
64.119254
 20
107.981634
 30
0.0
 11
62.351487
 21
108.391793
 31
0.0
  0
LINE
  8
0
  6
CONTINUOUS
 10
62.351487
 20
108.391793
 30
0.0
 11
60.58372
 21
107.96382
 31
0.0
  0
LINE
  8
0
  6
CONTINUOUS
 10
60.58372
 20
108.84696
 30
0.0
 11
62.351487
 21
109.264498
 31
0.0
  0
LINE
  8
0
  6
CONTINUOUS
 10
62.351487
 20
109.264498
 30
0.0
 11
64.119254
 21
108.829147
 31
0.0
  0
LINE
  8
0
  6
CONTINUOUS
 10
59.275572
 20
105.772158
 30
0.0
 11
59.068476
 21
105.075259
 31
0.0
  0
LINE
  8
0
  6
CONTINUOUS
 10
59.068476
 20
105.075259
 30
0.0
 11
58.568492
 21
104.54746
 31
0.0
  0
LINE
  8
0
  6
CONTINUOUS
 10
58.568492
 20
106.996949
 30
0.0
 11
59.068476
 21
107.046482
 31
0.0
  0
LINE
  8
0
  6
CONTINUOUS
 10
59.068476
 20
107.046482
 30
0.0
 11
59.275572
 21
106.588717
 31
0.0
  0
LINE
  8
0
  6
CONTINUOUS
 10
58.515051
 20
106.35063
 30
0.0
 11
58.541761
 21
106.267631
 31
0.0
  0
LINE
  8
0
  6
CONTINUOUS
 10
58.541761
 20
106.267631
 30
0.0
 11
58.550788
 21
106.170231
 31
0.0
  0
LINE
  8
0
  6
CONTINUOUS
 10
58.616377
 20
106.385721
 30
0.0
 11
58.633445
 21
106.307734
 31
0.0
  0
LINE
  8
0
  6
CONTINUOUS
 10
58.633445
 20
106.307734
 30
0.0
 11
58.639176
 21
106.221262
 31
0.0
  0
LINE
  8
0
  6
CONTINUOUS
 10
64.866498
 20
103.453425
 30
0.0
 11
65.139967
 21
103.547779
 31
0.0
  0
LINE
  8
0
  6
CONTINUOUS
 10
65.139967
 20
103.547779
 30
0.0
 11
65.370871
 21
103.500379
 31
0.0
  0
LINE
  8
0
  6
CONTINUOUS
 10
62.404847
 20
110.926127
 30
0.0
 11
62.353073
 21
110.751902
 31
0.0
  0
LINE
  8
0
  6
CONTINUOUS
 10
62.353073
 20
110.751902
 30
0.0
 11
62.228077
 21
110.619952
 31
0.0
  0
LINE
  8
0
  6
CONTINUOUS
 10
69.245791
 20
98.668676
 30
0.0
 11
69.495783
 21
98.693443
 31
0.0
  0
LINE
  8
0
  6
CONTINUOUS
 10
69.495783
 20
98.693443
 30
0.0
 11
69.599331
 21
98.46456
 31
0.0
  0
LINE
  8
0
  6
CONTINUOUS
 10
69.069001
 20
100.1996
 30
0.0
 11
69.334166
 21
100.27065
 31
0.0
  0
LINE
  8
0
  6
CONTINUOUS
 10
69.334166
 20
100.27065
 30
0.0
 11
69.52828
 21
100.158579
 31
0.0
  0
LINE
  8
0
  6
CONTINUOUS
 10
69.52828
 20
100.158579
 30
0.0
 11
69.599331
 21
99.893413
 31
0.0
  0
LINE
  8
0
  6
CONTINUOUS
 10
69.599331
 20
99.893413
 30
0.0
 11
69.52828
 21
99.546206
 31
0.0
  0
LINE
  8
0
  6
CONTINUOUS
 10
69.52828
 20
99.546206
 30
0.0
 11
69.334166
 21
99.20999
 31
0.0
  0
LINE
  8
0
  6
CONTINUOUS
 10
69.334166
 20
99.20999
 30
0.0
 11
69.069001
 21
98.974855
 31
0.0
  0
LINE
  8
0
  6
CONTINUOUS
 10
69.069001
 20
98.974855
 30
0.0
 11
68.803836
 21
98.903804
 31
0.0
  0
LINE
  8
0
  6
CONTINUOUS
 10
68.803836
 20
98.903804
 30
0.0
 11
68.609722
 21
99.015876
 31
0.0
  0
LINE
  8
0
  6
CONTINUOUS
 10
68.609722
 20
99.015876
 30
0.0
 11
68.538671
 21
99.281041
 31
0.0
  0
LINE
  8
0
  6
CONTINUOUS
 10
68.538671
 20
99.281041
 30
0.0
 11
68.609722
 21
99.628248
 31
0.0
  0
LINE
  8
0
  6
CONTINUOUS
 10
68.609722
 20
99.628248
 30
0.0
 11
68.803836
 21
99.964464
 31
0.0
  0
LINE
  8
0
  6
CONTINUOUS
 10
68.803836
 20
99.964464
 30
0.0
 11
69.069001
 21
100.1996
 31
0.0
  0
LINE
  8
0
  6
CONTINUOUS
 10
68.538671
 20
97.586795
 30
0.0
 11
68.435123
 21
97.238346
 31
0.0
  0
LINE
  8
0
  6
CONTINUOUS
 10
68.435123
 20
97.238346
 30
0.0
 11
68.185131
 21
96.974446
 31
0.0
  0
LINE
  8
0
  6
CONTINUOUS
 10
68.008341
 20
97.892981
 30
0.0
 11
67.904793
 21
97.544532
 31
0.0
  0
LINE
  8
0
  6
CONTINUOUS
 10
67.904793
 20
97.544532
 30
0.0
 11
67.654801
 21
97.280632
 31
0.0
  0
LINE
  8
0
  6
CONTINUOUS
 10
68.538671
 20
97.852188
 30
0.0
 11
68.642219
 21
98.200637
 31
0.0
  0
LINE
  8
0
  6
CONTINUOUS
 10
68.642219
 20
98.200637
 30
0.0
 11
68.892211
 21
98.464537
 31
0.0
  0
LINE
  8
0
  6
CONTINUOUS
 10
68.008341
 20
99.09736
 30
0.0
 11
68.215436
 21
99.794259
 31
0.0
  0
LINE
  8
0
  6
CONTINUOUS
 10
68.215436
 20
99.794259
 30
0.0
 11
68.715421
 21
100.322059
 31
0.0
  0
LINE
  8
0
  6
CONTINUOUS
 10
68.715448
 20
99.178979
 30
0.0
 11
68.637683
 21
99.140701
 31
0.0
  0
LINE
  8
0
  6
CONTINUOUS
 10
68.637683
 20
99.140701
 30
0.0
 11
68.561599
 21
99.116489
 31
0.0
  0
LINE
  8
0
  6
CONTINUOUS
 10
69.222979
 20
100.261996
 30
0.0
 11
69.217606
 21
99.884339
 31
0.0
  0
LINE
  8
0
  6
CONTINUOUS
 10
69.217606
 20
99.884339
 30
0.0
 11
69.024319
 21
99.471885
 31
0.0
  0
LINE
  8
0
  6
CONTINUOUS
 10
69.024319
 20
99.471885
 30
0.0
 11
68.715448
 21
99.178979
 31
0.0
  0
LINE
  8
0
  6
CONTINUOUS
 10
68.715448
 20
99.281041
 30
0.0
 11
68.62658
 21
99.240157
 31
0.0
  0
LINE
  8
0
  6
CONTINUOUS
 10
68.62658
 20
99.240157
 30
0.0
 11
68.541343
 21
99.22179
 31
0.0
  0
LINE
  8
0
  6
CONTINUOUS
 10
69.121652
 20
100.226905
 30
0.0
 11
69.143248
 21
99.910282
 31
0.0
  0
LINE
  8
0
  6
CONTINUOUS
 10
69.143248
 20
99.910282
 30
0.0
 11
68.98591
 21
99.543915
 31
0.0
  0
LINE
  8
0
  6
CONTINUOUS
 10
68.98591
 20
99.543915
 30
0.0
 11
68.715448
 21
99.281041
 31
0.0
  0
LINE
  8
0
  6
CONTINUOUS
 10
70.483201
 20
98.91361
 30
0.0
 11
70.233209
 21
98.888844
 31
0.0
  0
LINE
  8
0
  6
CONTINUOUS
 10
70.233209
 20
98.888844
 30
0.0
 11
70.129661
 21
99.117726
 31
0.0
  0
LINE
  8
0
  6
CONTINUOUS
 10
69.952871
 20
97.995051
 30
0.0
 11
69.702879
 21
97.970285
 31
0.0
  0
LINE
  8
0
  6
CONTINUOUS
 10
69.702879
 20
97.970285
 30
0.0
 11
69.599331
 21
98.199168
 31
0.0
  0
LINE
  8
0
  6
CONTINUOUS
 10
69.422581
 20
100.730338
 30
0.0
 11
69.922566
 21
100.779871
 31
0.0
  0
LINE
  8
0
  6
CONTINUOUS
 10
69.922566
 20
100.779871
 30
0.0
 11
70.129661
 21
100.322105
 31
0.0
  0
LINE
  8
0
  6
CONTINUOUS
 10
69.422554
 20
105.713844
 30
0.0
 11
70.069602
 21
105.057889
 31
0.0
  0
LINE
  8
0
  6
CONTINUOUS
 10
70.069602
 20
105.057889
 30
0.0
 11
70.069602
 21
104.304223
 31
0.0
  0
LINE
  8
0
  6
CONTINUOUS
 10
70.069602
 20
104.304223
 30
0.0
 11
69.422554
 21
103.654788
 31
0.0
  0
LINE
  8
0
  6
CONTINUOUS
 10
70.076291
 20
104.320512
 30
0.0
 11
69.826411
 21
104.672381
 31
0.0
  0
LINE
  8
0
  6
CONTINUOUS
 10
69.826411
 20
104.672381
 30
0.0
 11
69.422554
 21
104.973213
 31
0.0
  0
LINE
  8
0
  6
CONTINUOUS
 10
50.507255
 20
123.367439
 30
0.0
 11
44.782361
 21
126.672708
 31
0.0
  0
LINE
  8
0
  6
CONTINUOUS
 10
44.782361
 20
126.672708
 30
0.0
 11
37.296058
 21
130.994928
 31
0.0
  0
LINE
  8
0
  6
CONTINUOUS
 10
50.860795
 20
123.979789
 30
0.0
 11
45.135901
 21
127.285058
 31
0.0
  0
LINE
  8
0
  6
CONTINUOUS
 10
45.135901
 20
127.285058
 30
0.0
 11
37.649598
 21
131.607277
 31
0.0
  0
LINE
  8
0
  6
CONTINUOUS
 10
37.649598
 20
131.607277
 30
0.0
 11
37.516039
 21
131.496325
 31
0.0
  0
LINE
  8
0
  6
CONTINUOUS
 10
37.516039
 20
131.496325
 30
0.0
 11
37.403346
 21
131.341072
 31
0.0
  0
LINE
  8
0
  6
CONTINUOUS
 10
37.403346
 20
131.341072
 30
0.0
 11
37.325341
 21
131.165992
 31
0.0
  0
LINE
  8
0
  6
CONTINUOUS
 10
37.325341
 20
131.165992
 30
0.0
 11
37.296058
 21
130.994928
 31
0.0
  0
LINE
  8
0
  6
CONTINUOUS
 10
56.605917
 20
116.172125
 30
0.0
 11
57.330791
 21
118.611357
 31
0.0
  0
LINE
  8
0
  6
CONTINUOUS
 10
57.330791
 20
118.611357
 30
0.0
 11
59.080791
 21
120.458732
 31
0.0
  0
LINE
  8
0
  6
CONTINUOUS
 10
60.937273
 20
118.774897
 30
0.0
 11
60.676754
 21
117.501803
 31
0.0
  0
LINE
  8
0
  6
CONTINUOUS
 10
60.676754
 20
117.501803
 30
0.0
 11
59.965001
 21
116.269012
 31
0.0
  0
LINE
  8
0
  6
CONTINUOUS
 10
59.965001
 20
116.269012
 30
0.0
 11
58.992729
 21
115.406849
 31
0.0
  0
LINE
  8
0
  6
CONTINUOUS
 10
58.992729
 20
115.406849
 30
0.0
 11
58.020458
 21
115.146329
 31
0.0
  0
LINE
  8
0
  6
CONTINUOUS
 10
58.020458
 20
115.146329
 30
0.0
 11
57.308705
 21
115.557259
 31
0.0
  0
LINE
  8
0
  6
CONTINUOUS
 10
57.308705
 20
115.557259
 30
0.0
 11
57.048186
 21
116.529531
 31
0.0
  0
LINE
  8
0
  6
CONTINUOUS
 10
56.641599
 20
116.15201
 30
0.0
 11
57.366434
 21
118.591156
 31
0.0
  0
LINE
  8
0
  6
CONTINUOUS
 10
57.366434
 20
118.591156
 30
0.0
 11
59.116379
 21
120.438454
 31
0.0
  0
LINE
  8
0
  6
CONTINUOUS
 10
57.048186
 20
116.529531
 30
0.0
 11
57.308705
 21
117.802625
 31
0.0
  0
LINE
  8
0
  6
CONTINUOUS
 10
57.308705
 20
117.802625
 30
0.0
 11
58.020458
 21
119.035416
 31
0.0
  0
LINE
  8
0
  6
CONTINUOUS
 10
58.020458
 20
119.035416
 30
0.0
 11
58.992729
 21
119.89758
 31
0.0
  0
LINE
  8
0
  6
CONTINUOUS
 10
58.992729
 20
119.89758
 30
0.0
 11
59.965001
 21
120.158099
 31
0.0
  0
LINE
  8
0
  6
CONTINUOUS
 10
59.965001
 20
120.158099
 30
0.0
 11
60.676754
 21
119.747169
 31
0.0
  0
LINE
  8
0
  6
CONTINUOUS
 10
60.676754
 20
119.747169
 30
0.0
 11
60.937273
 21
118.774897
 31
0.0
  0
LINE
  8
0
  6
CONTINUOUS
 10
50.507255
 20
123.367439
 30
0.0
 11
51.041557
 21
122.925595
 31
0.0
  0
LINE
  8
0
  6
CONTINUOUS
 10
51.041557
 20
122.925595
 30
0.0
 11
51.492839
 21
122.307872
 31
0.0
  0
LINE
  8
0
  6
CONTINUOUS
 10
50.507255
 20
123.367439
 30
0.0
 11
50.615828
 21
123.712988
 31
0.0
  0
LINE
  8
0
  6
CONTINUOUS
 10
57.171929
 20
113.53912
 30
0.0
 11
57.223703
 21
113.713345
 31
0.0
  0
LINE
  8
0
  6
CONTINUOUS
 10
57.223703
 20
113.713345
 30
0.0
 11
57.348699
 21
113.845295
 31
0.0
  0
LINE
  8
0
  6
CONTINUOUS
 10
52.625369
 20
120.933974
 30
0.0
 11
52.478185
 21
121.781719
 31
0.0
  0
LINE
  8
0
  6
CONTINUOUS
 10
52.478185
 20
121.781719
 30
0.0
 11
52.088241
 21
122.652696
 31
0.0
  0
LINE
  8
0
  6
CONTINUOUS
 10
52.625369
 20
120.933974
 30
0.0
 11
52.273965
 21
120.853722
 31
0.0
  0
LINE
  8
0
  6
CONTINUOUS
 10
51.492839
 20
122.307872
 30
0.0
 11
51.804856
 21
121.611123
 31
0.0
  0
LINE
  8
0
  6
CONTINUOUS
 10
51.804856
 20
121.611123
 30
0.0
 11
51.921361
 21
120.9322
 31
0.0
  0
LINE
  8
0
  6
CONTINUOUS
 10
52.273965
 20
120.853722
 30
0.0
 11
52.151623
 21
121.587519
 31
0.0
  0
LINE
  8
0
  6
CONTINUOUS
 10
52.151623
 20
121.587519
 30
0.0
 11
51.758029
 21
122.466718
 31
0.0
  0
LINE
  8
0
  6
CONTINUOUS
 10
52.273965
 20
120.853722
 30
0.0
 11
51.921361
 21
120.9322
 31
0.0
  0
LINE
  8
0
  6
CONTINUOUS
 10
52.088241
 20
122.652696
 30
0.0
 11
51.525717
 21
123.425765
 31
0.0
  0
LINE
  8
0
  6
CONTINUOUS
 10
51.525717
 20
123.425765
 30
0.0
 11
50.860795
 21
123.979789
 31
0.0
  0
LINE
  8
0
  6
CONTINUOUS
 10
51.758029
 20
122.466718
 30
0.0
 11
51.189448
 21
123.243237
 31
0.0
  0
LINE
  8
0
  6
CONTINUOUS
 10
51.189448
 20
123.243237
 30
0.0
 11
50.615828
 21
123.712988
 31
0.0
  0
LINE
  8
0
  6
CONTINUOUS
 10
51.492839
 20
122.307872
 30
0.0
 11
51.758029
 21
122.466718
 31
0.0
  0
LINE
  8
0
  6
CONTINUOUS
 10
50.615828
 20
123.712988
 30
0.0
 11
50.860795
 21
123.979789
 31
0.0
  0
LINE
  8
0
  6
CONTINUOUS
 10
52.088241
 20
122.652696
 30
0.0
 11
51.758029
 21
122.466718
 31
0.0
  0
LINE
  8
0
  6
CONTINUOUS
 10
61.467603
 20
119.080974
 30
0.0
 11
60.742768
 21
116.641829
 31
0.0
  0
LINE
  8
0
  6
CONTINUOUS
 10
60.742768
 20
116.641829
 30
0.0
 11
58.992824
 21
114.79453
 31
0.0
  0
LINE
  8
0
  6
CONTINUOUS
 10
62.404847
 20
112.824598
 30
0.0
 11
63.129681
 21
115.263744
 31
0.0
  0
LINE
  8
0
  6
CONTINUOUS
 10
63.129681
 20
115.263744
 30
0.0
 11
64.879626
 21
117.111042
 31
0.0
  0
LINE
  8
0
  6
CONTINUOUS
 10
61.467603
 20
120.979445
 30
0.0
 11
61.519377
 21
121.15367
 31
0.0
  0
LINE
  8
0
  6
CONTINUOUS
 10
61.519377
 20
121.15367
 30
0.0
 11
61.644373
 21
121.28562
 31
0.0
  0
LINE
  8
0
  6
CONTINUOUS
 10
66.70052
 20
118.366452
 30
0.0
 11
66.648746
 21
118.192227
 31
0.0
  0
LINE
  8
0
  6
CONTINUOUS
 10
66.648746
 20
118.192227
 30
0.0
 11
66.52375
 21
118.060277
 31
0.0
  0
LINE
  8
0
  6
CONTINUOUS
 10
69.599331
 20
125.817164
 30
0.0
 11
69.495783
 21
125.468715
 31
0.0
  0
LINE
  8
0
  6
CONTINUOUS
 10
69.495783
 20
125.468715
 30
0.0
 11
69.245791
 21
125.204815
 31
0.0
  0
LINE
  8
0
  6
CONTINUOUS
 10
69.069001
 20
124.694497
 30
0.0
 11
69.334166
 21
124.765548
 31
0.0
  0
LINE
  8
0
  6
CONTINUOUS
 10
69.334166
 20
124.765548
 30
0.0
 11
69.52828
 21
124.653476
 31
0.0
  0
LINE
  8
0
  6
CONTINUOUS
 10
69.52828
 20
124.653476
 30
0.0
 11
69.599331
 21
124.388311
 31
0.0
  0
LINE
  8
0
  6
CONTINUOUS
 10
69.599331
 20
124.388311
 30
0.0
 11
69.52828
 21
124.041104
 31
0.0
  0
LINE
  8
0
  6
CONTINUOUS
 10
69.52828
 20
124.041104
 30
0.0
 11
69.334166
 21
123.704888
 31
0.0
  0
LINE
  8
0
  6
CONTINUOUS
 10
69.334166
 20
123.704888
 30
0.0
 11
69.069001
 21
123.469752
 31
0.0
  0
LINE
  8
0
  6
CONTINUOUS
 10
69.069001
 20
123.469752
 30
0.0
 11
68.757281
 21
123.406733
 31
0.0
  0
LINE
  8
0
  6
CONTINUOUS
 10
68.757281
 20
123.406733
 30
0.0
 11
68.564627
 21
123.601691
 31
0.0
  0
LINE
  8
0
  6
CONTINUOUS
 10
68.564627
 20
123.601691
 30
0.0
 11
68.564627
 21
123.980158
 31
0.0
  0
LINE
  8
0
  6
CONTINUOUS
 10
68.564627
 20
123.980158
 30
0.0
 11
68.757281
 21
124.397573
 31
0.0
  0
LINE
  8
0
  6
CONTINUOUS
 10
68.757281
 20
124.397573
 30
0.0
 11
69.069001
 21
124.694497
 31
0.0
  0
LINE
  8
0
  6
CONTINUOUS
 10
69.222979
 20
124.756894
 30
0.0
 11
69.217606
 21
124.379236
 31
0.0
  0
LINE
  8
0
  6
CONTINUOUS
 10
69.217606
 20
124.379236
 30
0.0
 11
69.024319
 21
123.966782
 31
0.0
  0
LINE
  8
0
  6
CONTINUOUS
 10
69.024319
 20
123.966782
 30
0.0
 11
68.715448
 21
123.673876
 31
0.0
  0
LINE
  8
0
  6
CONTINUOUS
 10
69.121652
 20
124.721803
 30
0.0
 11
69.143248
 21
124.40518
 31
0.0
  0
LINE
  8
0
  6
CONTINUOUS
 10
69.143248
 20
124.40518
 30
0.0
 11
68.98591
 21
124.038812
 31
0.0
  0
LINE
  8
0
  6
CONTINUOUS
 10
68.98591
 20
124.038812
 30
0.0
 11
68.715448
 21
123.775938
 31
0.0
  0
LINE
  8
0
  6
CONTINUOUS
 10
68.715421
 20
122.939014
 30
0.0
 11
68.215436
 21
122.889481
 31
0.0
  0
LINE
  8
0
  6
CONTINUOUS
 10
68.215436
 20
122.889481
 30
0.0
 11
68.008341
 21
123.347247
 31
0.0
  0
LINE
  8
0
  6
CONTINUOUS
 10
68.715448
 20
123.673876
 30
0.0
 11
68.637683
 21
123.635598
 31
0.0
  0
LINE
  8
0
  6
CONTINUOUS
 10
68.637683
 20
123.635598
 30
0.0
 11
68.561599
 21
123.611386
 31
0.0
  0
LINE
  8
0
  6
CONTINUOUS
 10
68.715448
 20
123.775938
 30
0.0
 11
68.62658
 21
123.735054
 31
0.0
  0
LINE
  8
0
  6
CONTINUOUS
 10
68.62658
 20
123.735054
 30
0.0
 11
68.541343
 21
123.716688
 31
0.0
  0
LINE
  8
0
  6
CONTINUOUS
 10
68.185131
 20
125.674301
 30
0.0
 11
68.435123
 21
125.699067
 31
0.0
  0
LINE
  8
0
  6
CONTINUOUS
 10
68.435123
 20
125.699067
 30
0.0
 11
68.538671
 21
125.470184
 31
0.0
  0
LINE
  8
0
  6
CONTINUOUS
 10
67.654801
 20
124.755742
 30
0.0
 11
67.904793
 21
124.780508
 31
0.0
  0
LINE
  8
0
  6
CONTINUOUS
 10
67.904793
 20
124.780508
 30
0.0
 11
68.008341
 21
124.551626
 31
0.0
  0
LINE
  8
0
  6
CONTINUOUS
 10
68.892211
 20
125.000676
 30
0.0
 11
68.642219
 21
124.975909
 31
0.0
  0
LINE
  8
0
  6
CONTINUOUS
 10
68.642219
 20
124.975909
 30
0.0
 11
68.538671
 21
125.204792
 31
0.0
  0
LINE
  8
0
  6
CONTINUOUS
 10
70.129661
 20
124.571992
 30
0.0
 11
69.922566
 21
123.875093
 31
0.0
  0
LINE
  8
0
  6
CONTINUOUS
 10
69.922566
 20
123.875093
 30
0.0
 11
69.422581
 21
123.347293
 31
0.0
  0
LINE
  8
0
  6
CONTINUOUS
 10
70.129661
 20
125.776371
 30
0.0
 11
70.233209
 21
126.12482
 31
0.0
  0
LINE
  8
0
  6
CONTINUOUS
 10
70.233209
 20
126.12482
 30
0.0
 11
70.483201
 21
126.38872
 31
0.0
  0
LINE
  8
0
  6
CONTINUOUS
 10
69.599331
 20
126.082557
 30
0.0
 11
69.702879
 21
126.431006
 31
0.0
  0
LINE
  8
0
  6
CONTINUOUS
 10
69.702879
 20
126.431006
 30
0.0
 11
69.952871
 21
126.694906
 31
0.0
  0
LINE
  8
0
  6
CONTINUOUS
 10
84.09446
 20
111.732291
 30
0.0
 11
85.844405
 21
111.905655
 31
0.0
  0
LINE
  8
0
  6
CONTINUOUS
 10
85.844405
 20
111.905655
 30
0.0
 11
86.56924
 21
110.303476
 31
0.0
  0
LINE
  8
0
  6
CONTINUOUS
 10
93.640307
 20
112.079232
 30
0.0
 11
93.53676
 21
111.730782
 31
0.0
  0
LINE
  8
0
  6
CONTINUOUS
 10
93.53676
 20
111.730782
 30
0.0
 11
93.286767
 21
111.466883
 31
0.0
  0
LINE
  8
0
  6
CONTINUOUS
 10
87.224444
 20
85.34319
 30
0.0
 11
87.205209
 21
85.287425
 31
0.0
  0
LINE
  8
0
  6
CONTINUOUS
 10
87.205209
 20
85.287425
 30
0.0
 11
87.149672
 21
85.240135
 31
0.0
  0
LINE
  8
0
  6
CONTINUOUS
 10
87.149672
 20
85.240135
 30
0.0
 11
87.136486
 21
85.168394
 31
0.0
  0
LINE
  8
0
  6
CONTINUOUS
 10
87.136486
 20
85.168394
 30
0.0
 11
87.09781
 21
85.123853
 31
0.0
  0
LINE
  8
0
  6
CONTINUOUS
 10
81.089816
 20
107.139821
 30
0.0
 11
80.829297
 21
105.866727
 31
0.0
  0
LINE
  8
0
  6
CONTINUOUS
 10
80.829297
 20
105.866727
 30
0.0
 11
80.117544
 21
104.633936
 31
0.0
  0
LINE
  8
0
  6
CONTINUOUS
 10
80.117544
 20
104.633936
 30
0.0
 11
79.145273
 21
103.771772
 31
0.0
  0
LINE
  8
0
  6
CONTINUOUS
 10
79.145273
 20
103.771772
 30
0.0
 11
78.173001
 21
103.511253
 31
0.0
  0
LINE
  8
0
  6
CONTINUOUS
 10
78.173001
 20
103.511253
 30
0.0
 11
77.461248
 21
103.922183
 31
0.0
  0
LINE
  8
0
  6
CONTINUOUS
 10
77.461248
 20
103.922183
 30
0.0
 11
77.200729
 21
104.894455
 31
0.0
  0
LINE
  8
0
  6
CONTINUOUS
 10
81.496403
 20
107.517341
 30
0.0
 11
80.771568
 21
105.078196
 31
0.0
  0
LINE
  8
0
  6
CONTINUOUS
 10
80.771568
 20
105.078196
 30
0.0
 11
79.021623
 21
103.230898
 31
0.0
  0
LINE
  8
0
  6
CONTINUOUS
 10
77.200729
 20
104.894455
 30
0.0
 11
77.461248
 21
106.167549
 31
0.0
  0
LINE
  8
0
  6
CONTINUOUS
 10
77.461248
 20
106.167549
 30
0.0
 11
78.173001
 21
107.40034
 31
0.0
  0
LINE
  8
0
  6
CONTINUOUS
 10
78.173001
 20
107.40034
 30
0.0
 11
79.145273
 21
108.262503
 31
0.0
  0
LINE
  8
0
  6
CONTINUOUS
 10
79.145273
 20
108.262503
 30
0.0
 11
80.117544
 21
108.523023
 31
0.0
  0
LINE
  8
0
  6
CONTINUOUS
 10
80.117544
 20
108.523023
 30
0.0
 11
80.829297
 21
108.112092
 31
0.0
  0
LINE
  8
0
  6
CONTINUOUS
 10
80.829297
 20
108.112092
 30
0.0
 11
81.089816
 21
107.139821
 31
0.0
  0
LINE
  8
0
  6
CONTINUOUS
 10
76.670399
 20
102.689907
 30
0.0
 11
76.618625
 21
102.515682
 31
0.0
  0
LINE
  8
0
  6
CONTINUOUS
 10
76.618625
 20
102.515682
 30
0.0
 11
76.493629
 21
102.383732
 31
0.0
  0
LINE
  8
0
  6
CONTINUOUS
 10
76.670399
 20
104.588378
 30
0.0
 11
77.395234
 21
107.027523
 31
0.0
  0
LINE
  8
0
  6
CONTINUOUS
 10
77.395234
 20
107.027523
 30
0.0
 11
79.145178
 21
108.874821
 31
0.0
  0
LINE
  8
0
  6
CONTINUOUS
 10
86.038909
 20
109.997181
 30
0.0
 11
85.667535
 21
108.462975
 31
0.0
  0
LINE
  8
0
  6
CONTINUOUS
 10
85.667535
 20
108.462975
 30
0.0
 11
84.695263
 21
107.085957
 31
0.0
  0
LINE
  8
0
  6
CONTINUOUS
 10
84.695263
 20
107.085957
 30
0.0
 11
83.493469
 21
106.3921
 31
0.0
  0
LINE
  8
0
  6
CONTINUOUS
 10
83.493469
 20
106.3921
 30
0.0
 11
82.521197
 21
106.646436
 31
0.0
  0
LINE
  8
0
  6
CONTINUOUS
 10
82.521197
 20
106.646436
 30
0.0
 11
82.149822
 21
107.751815
 31
0.0
  0
LINE
  8
0
  6
CONTINUOUS
 10
82.149822
 20
107.751815
 30
0.0
 11
82.410342
 21
109.024909
 31
0.0
  0
LINE
  8
0
  6
CONTINUOUS
 10
82.410342
 20
109.024909
 30
0.0
 11
83.122094
 21
110.2577
 31
0.0
  0
LINE
  8
0
  6
CONTINUOUS
 10
83.122094
 20
110.2577
 30
0.0
 11
84.094366
 21
111.119864
 31
0.0
  0
LINE
  8
0
  6
CONTINUOUS
 10
84.094366
 20
111.119864
 30
0.0
 11
85.066638
 21
111.380383
 31
0.0
  0
LINE
  8
0
  6
CONTINUOUS
 10
85.066638
 20
111.380383
 30
0.0
 11
85.77839
 21
110.969453
 31
0.0
  0
LINE
  8
0
  6
CONTINUOUS
 10
85.77839
 20
110.969453
 30
0.0
 11
86.038909
 21
109.997181
 31
0.0
  0
LINE
  8
0
  6
CONTINUOUS
 10
84.218015
 20
106.231036
 30
0.0
 11
82.46807
 21
106.057672
 31
0.0
  0
LINE
  8
0
  6
CONTINUOUS
 10
82.46807
 20
106.057672
 30
0.0
 11
81.743236
 21
107.659851
 31
0.0
  0
LINE
  8
0
  6
CONTINUOUS
 10
80.966073
 20
110.130232
 30
0.0
 11
80.914299
 21
109.956007
 31
0.0
  0
LINE
  8
0
  6
CONTINUOUS
 10
80.914299
 20
109.956007
 30
0.0
 11
80.789303
 21
109.824057
 31
0.0
  0
LINE
  8
0
  6
CONTINUOUS
 10
82.450336
 20
110.783055
 30
0.0
 11
82.32534
 21
110.770672
 31
0.0
  0
LINE
  8
0
  6
CONTINUOUS
 10
82.32534
 20
110.770672
 30
0.0
 11
82.273566
 21
110.885113
 31
0.0
  0
LINE
  8
0
  6
CONTINUOUS
 10
86.746009
 20
108.302947
 30
0.0
 11
86.621013
 21
108.290563
 31
0.0
  0
LINE
  8
0
  6
CONTINUOUS
 10
86.621013
 20
108.290563
 30
0.0
 11
86.56924
 21
108.405005
 31
0.0
  0
LINE
  8
0
  6
CONTINUOUS
 10
121.286771
 20
108.601266
 30
0.0
 11
121.273586
 21
108.529525
 31
0.0
  0
LINE
  8
0
  6
CONTINUOUS
 10
121.273586
 20
108.529525
 30
0.0
 11
121.234909
 21
108.484984
 31
0.0
  0
LINE
  8
0
  6
CONTINUOUS
 10
95.891556
 20
165.233287
 30
0.0
 11
103.248325
 21
160.836281
 31
0.0
  0
LINE
  8
0
  6
CONTINUOUS
 10
103.248325
 20
160.836281
 30
0.0
 11
108.874163
 21
157.473822
 31
0.0
  0
LINE
  8
0
  6
CONTINUOUS
 10
106.191453
 20
121.632257
 30
0.0
 11
105.930933
 21
120.359163
 31
0.0
  0
LINE
  8
0
  6
CONTINUOUS
 10
105.930933
 20
120.359163
 30
0.0
 11
105.219181
 21
119.126372
 31
0.0
  0
LINE
  8
0
  6
CONTINUOUS
 10
105.219181
 20
119.126372
 30
0.0
 11
104.246909
 21
118.264209
 31
0.0
  0
LINE
  8
0
  6
CONTINUOUS
 10
104.246909
 20
118.264209
 30
0.0
 11
103.274637
 21
118.003689
 31
0.0
  0
LINE
  8
0
  6
CONTINUOUS
 10
103.274637
 20
118.003689
 30
0.0
 11
102.562885
 21
118.41462
 31
0.0
  0
LINE
  8
0
  6
CONTINUOUS
 10
102.562885
 20
118.41462
 30
0.0
 11
102.302365
 21
119.386892
 31
0.0
  0
LINE
  8
0
  6
CONTINUOUS
 10
106.191453
 20
144.90241
 30
0.0
 11
105.820078
 21
143.368204
 31
0.0
  0
LINE
  8
0
  6
CONTINUOUS
 10
105.820078
 20
143.368204
 30
0.0
 11
104.847806
 21
141.991185
 31
0.0
  0
LINE
  8
0
  6
CONTINUOUS
 10
104.847806
 20
141.991185
 30
0.0
 11
103.646012
 21
141.297329
 31
0.0
  0
LINE
  8
0
  6
CONTINUOUS
 10
103.646012
 20
141.297329
 30
0.0
 11
102.67374
 21
141.551665
 31
0.0
  0
LINE
  8
0
  6
CONTINUOUS
 10
102.67374
 20
141.551665
 30
0.0
 11
102.302365
 21
142.657044
 31
0.0
  0
LINE
  8
0
  6
CONTINUOUS
 10
104.246815
 20
140.921935
 30
0.0
 11
102.49687
 21
140.74857
 31
0.0
  0
LINE
  8
0
  6
CONTINUOUS
 10
102.49687
 20
140.74857
 30
0.0
 11
101.772035
 21
142.350749
 31
0.0
  0
LINE
  8
0
  6
CONTINUOUS
 10
101.772035
 20
119.080814
 30
0.0
 11
102.49687
 21
121.51996
 31
0.0
  0
LINE
  8
0
  6
CONTINUOUS
 10
102.49687
 20
121.51996
 30
0.0
 11
104.246815
 21
123.367258
 31
0.0
  0
LINE
  8
0
  6
CONTINUOUS
 10
102.302365
 20
119.386892
 30
0.0
 11
102.562885
 21
120.659985
 31
0.0
  0
LINE
  8
0
  6
CONTINUOUS
 10
102.562885
 20
120.659985
 30
0.0
 11
103.274637
 21
121.892777
 31
0.0
  0
LINE
  8
0
  6
CONTINUOUS
 10
103.274637
 20
121.892777
 30
0.0
 11
104.246909
 21
122.75494
 31
0.0
  0
LINE
  8
0
  6
CONTINUOUS
 10
104.246909
 20
122.75494
 30
0.0
 11
105.219181
 21
123.015459
 31
0.0
  0
LINE
  8
0
  6
CONTINUOUS
 10
105.219181
 20
123.015459
 30
0.0
 11
105.930933
 21
122.604529
 31
0.0
  0
LINE
  8
0
  6
CONTINUOUS
 10
105.930933
 20
122.604529
 30
0.0
 11
106.191453
 21
121.632257
 31
0.0
  0
LINE
  8
0
  6
CONTINUOUS
 10
102.302365
 20
142.657044
 30
0.0
 11
102.562885
 21
143.930138
 31
0.0
  0
LINE
  8
0
  6
CONTINUOUS
 10
102.562885
 20
143.930138
 30
0.0
 11
103.274637
 21
145.162929
 31
0.0
  0
LINE
  8
0
  6
CONTINUOUS
 10
103.274637
 20
145.162929
 30
0.0
 11
104.246909
 21
146.025093
 31
0.0
  0
LINE
  8
0
  6
CONTINUOUS
 10
104.246909
 20
146.025093
 30
0.0
 11
105.219181
 21
146.285612
 31
0.0
  0
LINE
  8
0
  6
CONTINUOUS
 10
105.219181
 20
146.285612
 30
0.0
 11
105.930933
 21
145.874682
 31
0.0
  0
LINE
  8
0
  6
CONTINUOUS
 10
105.930933
 20
145.874682
 30
0.0
 11
106.191453
 21
144.90241
 31
0.0
  0
LINE
  8
0
  6
CONTINUOUS
 10
109.12395
 20
157.489876
 30
0.0
 11
102.632037
 21
161.369972
 31
0.0
  0
LINE
  8
0
  6
CONTINUOUS
 10
102.632037
 20
161.369972
 30
0.0
 11
96.140142
 21
165.250058
 31
0.0
  0
LINE
  8
0
  6
CONTINUOUS
 10
87.506483
 20
127.317035
 30
0.0
 11
88.231318
 21
129.75618
 31
0.0
  0
LINE
  8
0
  6
CONTINUOUS
 10
88.231318
 20
129.75618
 30
0.0
 11
89.981263
 21
131.603478
 31
0.0
  0
LINE
  8
0
  6
CONTINUOUS
 10
89.22089
 20
122.474071
 30
0.0
 11
87.453123
 21
122.884229
 31
0.0
  0
LINE
  8
0
  6
CONTINUOUS
 10
87.453123
 20
122.884229
 30
0.0
 11
85.685356
 21
122.456257
 31
0.0
  0
LINE
  8
0
  6
CONTINUOUS
 10
85.685356
 20
123.339397
 30
0.0
 11
87.453123
 21
123.756934
 31
0.0
  0
LINE
  8
0
  6
CONTINUOUS
 10
87.453123
 20
123.756934
 30
0.0
 11
89.22089
 21
123.321583
 31
0.0
  0
LINE
  8
0
  6
CONTINUOUS
 10
88.473673
 20
115.06219
 30
0.0
 11
88.370125
 21
114.71374
 31
0.0
  0
LINE
  8
0
  6
CONTINUOUS
 10
88.370125
 20
114.71374
 30
0.0
 11
88.120133
 21
114.44984
 31
0.0
  0
LINE
  8
0
  6
CONTINUOUS
 10
81.089816
 20
130.409973
 30
0.0
 11
80.718441
 21
128.875767
 31
0.0
  0
LINE
  8
0
  6
CONTINUOUS
 10
80.718441
 20
128.875767
 30
0.0
 11
79.74617
 21
127.498749
 31
0.0
  0
LINE
  8
0
  6
CONTINUOUS
 10
79.74617
 20
127.498749
 30
0.0
 11
78.544376
 21
126.804893
 31
0.0
  0
LINE
  8
0
  6
CONTINUOUS
 10
78.544376
 20
126.804893
 30
0.0
 11
77.572104
 21
127.059228
 31
0.0
  0
LINE
  8
0
  6
CONTINUOUS
 10
77.572104
 20
127.059228
 30
0.0
 11
77.200729
 21
128.164608
 31
0.0
  0
LINE
  8
0
  6
CONTINUOUS
 10
77.200729
 20
128.164608
 30
0.0
 11
77.461248
 21
129.437701
 31
0.0
  0
LINE
  8
0
  6
CONTINUOUS
 10
77.461248
 20
129.437701
 30
0.0
 11
78.173001
 21
130.670493
 31
0.0
  0
LINE
  8
0
  6
CONTINUOUS
 10
78.173001
 20
130.670493
 30
0.0
 11
79.145273
 21
131.532656
 31
0.0
  0
LINE
  8
0
  6
CONTINUOUS
 10
79.145273
 20
131.532656
 30
0.0
 11
80.117544
 21
131.793175
 31
0.0
  0
LINE
  8
0
  6
CONTINUOUS
 10
80.117544
 20
131.793175
 30
0.0
 11
80.829297
 21
131.382245
 31
0.0
  0
LINE
  8
0
  6
CONTINUOUS
 10
80.829297
 20
131.382245
 30
0.0
 11
81.089816
 21
130.409973
 31
0.0
  0
LINE
  8
0
  6
CONTINUOUS
 10
80.966073
 20
120.336431
 30
0.0
 11
80.862525
 21
119.987982
 31
0.0
  0
LINE
  8
0
  6
CONTINUOUS
 10
80.862525
 20
119.987982
 30
0.0
 11
80.612533
 21
119.724082
 31
0.0
  0
LINE
  8
0
  6
CONTINUOUS
 10
80.612533
 20
117.274592
 30
0.0
 11
80.862525
 21
117.299359
 31
0.0
  0
LINE
  8
0
  6
CONTINUOUS
 10
80.862525
 20
117.299359
 30
0.0
 11
80.966073
 21
117.070476
 31
0.0
  0
LINE
  8
0
  6
CONTINUOUS
 10
80.913026
 20
118.060455
 30
0.0
 11
80.663034
 21
118.035688
 31
0.0
  0
LINE
  8
0
  6
CONTINUOUS
 10
80.663034
 20
118.035688
 30
0.0
 11
80.559486
 21
118.264571
 31
0.0
  0
LINE
  8
0
  6
CONTINUOUS
 10
80.559486
 20
118.67285
 30
0.0
 11
80.663034
 21
119.0213
 31
0.0
  0
LINE
  8
0
  6
CONTINUOUS
 10
80.663034
 20
119.0213
 30
0.0
 11
80.913026
 21
119.2852
 31
0.0
  0
LINE
  8
0
  6
CONTINUOUS
 10
79.145273
 20
117.652214
 30
0.0
 11
79.216323
 21
117.999422
 31
0.0
  0
LINE
  8
0
  6
CONTINUOUS
 10
79.216323
 20
117.999422
 30
0.0
 11
79.410438
 21
118.335637
 31
0.0
  0
LINE
  8
0
  6
CONTINUOUS
 10
79.410438
 20
118.335637
 30
0.0
 11
79.675603
 21
118.570773
 31
0.0
  0
LINE
  8
0
  6
CONTINUOUS
 10
79.675603
 20
118.570773
 30
0.0
 11
79.940768
 21
118.641824
 31
0.0
  0
LINE
  8
0
  6
CONTINUOUS
 10
79.940768
 20
118.641824
 30
0.0
 11
80.134882
 21
118.529752
 31
0.0
  0
LINE
  8
0
  6
CONTINUOUS
 10
80.134882
 20
118.529752
 30
0.0
 11
80.205933
 21
118.264587
 31
0.0
  0
LINE
  8
0
  6
CONTINUOUS
 10
80.205933
 20
118.264587
 30
0.0
 11
80.134882
 21
117.917379
 31
0.0
  0
LINE
  8
0
  6
CONTINUOUS
 10
80.134882
 20
117.917379
 30
0.0
 11
79.940768
 21
117.581163
 31
0.0
  0
LINE
  8
0
  6
CONTINUOUS
 10
79.940768
 20
117.581163
 30
0.0
 11
79.675603
 21
117.346028
 31
0.0
  0
LINE
  8
0
  6
CONTINUOUS
 10
79.675603
 20
117.346028
 30
0.0
 11
79.410438
 21
117.274977
 31
0.0
  0
LINE
  8
0
  6
CONTINUOUS
 10
79.410438
 20
117.274977
 30
0.0
 11
79.216323
 21
117.387049
 31
0.0
  0
LINE
  8
0
  6
CONTINUOUS
 10
79.216323
 20
117.387049
 30
0.0
 11
79.145273
 21
117.652214
 31
0.0
  0
LINE
  8
0
  6
CONTINUOUS
 10
79.852379
 20
118.468711
 30
0.0
 11
79.753146
 21
118.054757
 31
0.0
  0
LINE
  8
0
  6
CONTINUOUS
 10
79.753146
 20
118.054757
 30
0.0
 11
79.492583
 21
117.681133
 31
0.0
  0
LINE
  8
0
  6
CONTINUOUS
 10
79.492583
 20
117.681133
 30
0.0
 11
79.1682
 21
117.487662
 31
0.0
  0
LINE
  8
0
  6
CONTINUOUS
 10
79.763991
 20
118.41768
 30
0.0
 11
79.671566
 21
118.052013
 31
0.0
  0
LINE
  8
0
  6
CONTINUOUS
 10
79.671566
 20
118.052013
 30
0.0
 11
79.432948
 21
117.732569
 31
0.0
  0
LINE
  8
0
  6
CONTINUOUS
 10
79.432948
 20
117.732569
 30
0.0
 11
79.147945
 21
117.592963
 31
0.0
  0
LINE
  8
0
  6
CONTINUOUS
 10
79.56951
 20
116.672403
 30
0.0
 11
79.069526
 21
116.62287
 31
0.0
  0
LINE
  8
0
  6
CONTINUOUS
 10
79.069526
 20
116.62287
 30
0.0
 11
78.86243
 21
117.080635
 31
0.0
  0
LINE
  8
0
  6
CONTINUOUS
 10
78.86243
 20
117.897194
 30
0.0
 11
79.069526
 21
118.594093
 31
0.0
  0
LINE
  8
0
  6
CONTINUOUS
 10
79.069526
 20
118.594093
 30
0.0
 11
79.56951
 21
119.121892
 31
0.0
  0
LINE
  8
0
  6
CONTINUOUS
 10
79.829581
 20
118.633169
 30
0.0
 11
79.846649
 21
118.555183
 31
0.0
  0
LINE
  8
0
  6
CONTINUOUS
 10
79.846649
 20
118.555183
 30
0.0
 11
79.852379
 21
118.468711
 31
0.0
  0
LINE
  8
0
  6
CONTINUOUS
 10
79.728254
 20
118.598078
 30
0.0
 11
79.754965
 21
118.51508
 31
0.0
  0
LINE
  8
0
  6
CONTINUOUS
 10
79.754965
 20
118.51508
 30
0.0
 11
79.763991
 21
118.41768
 31
0.0
  0
LINE
  8
0
  6
CONTINUOUS
 10
79.145178
 20
126.429498
 30
0.0
 11
77.395234
 21
126.256134
 31
0.0
  0
LINE
  8
0
  6
CONTINUOUS
 10
77.395234
 20
126.256134
 30
0.0
 11
76.670399
 21
127.858313
 31
0.0
  0
LINE
  8
0
  6
CONTINUOUS
 10
81.496403
 20
120.030245
 30
0.0
 11
81.392855
 21
119.681795
 31
0.0
  0
LINE
  8
0
  6
CONTINUOUS
 10
81.392855
 20
119.681795
 30
0.0
 11
81.142863
 21
119.417896
 31
0.0
  0
LINE
  8
0
  6
CONTINUOUS
 10
84.377209
 20
120.264594
 30
0.0
 11
84.170113
 21
119.567696
 31
0.0
  0
LINE
  8
0
  6
CONTINUOUS
 10
84.170113
 20
119.567696
 30
0.0
 11
83.670129
 21
119.039896
 31
0.0
  0
LINE
  8
0
  6
CONTINUOUS
 10
82.096776
 20
119.968638
 30
0.0
 11
81.846784
 21
119.943871
 31
0.0
  0
LINE
  8
0
  6
CONTINUOUS
 10
81.846784
 20
119.943871
 30
0.0
 11
81.743236
 21
120.172754
 31
0.0
  0
LINE
  8
0
  6
CONTINUOUS
 10
82.326612
 20
120.101334
 30
0.0
 11
82.576604
 21
120.1261
 31
0.0
  0
LINE
  8
0
  6
CONTINUOUS
 10
82.576604
 20
120.1261
 30
0.0
 11
82.680152
 21
119.897218
 31
0.0
  0
LINE
  8
0
  6
CONTINUOUS
 10
84.094366
 20
120.509574
 30
0.0
 11
84.023315
 21
120.162367
 31
0.0
  0
LINE
  8
0
  6
CONTINUOUS
 10
84.023315
 20
120.162367
 30
0.0
 11
83.829201
 21
119.826151
 31
0.0
  0
LINE
  8
0
  6
CONTINUOUS
 10
83.829201
 20
119.826151
 30
0.0
 11
83.564036
 21
119.591016
 31
0.0
  0
LINE
  8
0
  6
CONTINUOUS
 10
83.564036
 20
119.591016
 30
0.0
 11
83.298871
 21
119.519965
 31
0.0
  0
LINE
  8
0
  6
CONTINUOUS
 10
83.298871
 20
119.519965
 30
0.0
 11
83.104756
 21
119.632037
 31
0.0
  0
LINE
  8
0
  6
CONTINUOUS
 10
83.104756
 20
119.632037
 30
0.0
 11
83.033706
 21
119.897202
 31
0.0
  0
LINE
  8
0
  6
CONTINUOUS
 10
83.033706
 20
119.897202
 30
0.0
 11
83.104756
 21
120.244409
 31
0.0
  0
LINE
  8
0
  6
CONTINUOUS
 10
83.104756
 20
120.244409
 30
0.0
 11
83.298871
 21
120.580625
 31
0.0
  0
LINE
  8
0
  6
CONTINUOUS
 10
83.298871
 20
120.580625
 30
0.0
 11
83.564036
 21
120.815761
 31
0.0
  0
LINE
  8
0
  6
CONTINUOUS
 10
83.564036
 20
120.815761
 30
0.0
 11
83.829201
 21
120.886811
 31
0.0
  0
LINE
  8
0
  6
CONTINUOUS
 10
83.829201
 20
120.886811
 30
0.0
 11
84.023315
 21
120.774739
 31
0.0
  0
LINE
  8
0
  6
CONTINUOUS
 10
84.023315
 20
120.774739
 30
0.0
 11
84.094366
 21
120.509574
 31
0.0
  0
LINE
  8
0
  6
CONTINUOUS
 10
83.740812
 20
120.713699
 30
0.0
 11
83.641579
 21
120.299745
 31
0.0
  0
LINE
  8
0
  6
CONTINUOUS
 10
83.641579
 20
120.299745
 30
0.0
 11
83.381016
 21
119.926121
 31
0.0
  0
LINE
  8
0
  6
CONTINUOUS
 10
83.381016
 20
119.926121
 30
0.0
 11
83.056633
 21
119.732649
 31
0.0
  0
LINE
  8
0
  6
CONTINUOUS
 10
83.652424
 20
120.662668
 30
0.0
 11
83.559999
 21
120.297
 31
0.0
  0
LINE
  8
0
  6
CONTINUOUS
 10
83.559999
 20
120.297
 30
0.0
 11
83.321381
 21
119.977557
 31
0.0
  0
LINE
  8
0
  6
CONTINUOUS
 10
83.321381
 20
119.977557
 30
0.0
 11
83.036378
 21
119.837951
 31
0.0
  0
LINE
  8
0
  6
CONTINUOUS
 10
82.273566
 20
117.825357
 30
0.0
 11
82.377114
 21
118.173807
 31
0.0
  0
LINE
  8
0
  6
CONTINUOUS
 10
82.377114
 20
118.173807
 30
0.0
 11
82.627106
 21
118.437707
 31
0.0
  0
LINE
  8
0
  6
CONTINUOUS
 10
82.680152
 20
119.488938
 30
0.0
 11
82.576604
 21
119.140489
 31
0.0
  0
LINE
  8
0
  6
CONTINUOUS
 10
82.576604
 20
119.140489
 30
0.0
 11
82.326612
 21
118.876589
 31
0.0
  0
LINE
  8
0
  6
CONTINUOUS
 10
81.142863
 20
118.193151
 30
0.0
 11
81.392855
 21
118.217917
 31
0.0
  0
LINE
  8
0
  6
CONTINUOUS
 10
81.392855
 20
118.217917
 30
0.0
 11
81.496403
 21
117.989035
 31
0.0
  0
LINE
  8
0
  6
CONTINUOUS
 10
81.743236
 20
118.131544
 30
0.0
 11
81.846784
 21
118.479993
 31
0.0
  0
LINE
  8
0
  6
CONTINUOUS
 10
81.846784
 20
118.479993
 30
0.0
 11
82.096776
 21
118.743893
 31
0.0
  0
LINE
  8
0
  6
CONTINUOUS
 10
82.627106
 20
120.887196
 30
0.0
 11
82.377114
 21
120.86243
 31
0.0
  0
LINE
  8
0
  6
CONTINUOUS
 10
82.377114
 20
120.86243
 30
0.0
 11
82.273566
 21
121.091313
 31
0.0
  0
LINE
  8
0
  6
CONTINUOUS
 10
83.616687
 20
120.843066
 30
0.0
 11
83.643398
 21
120.760068
 31
0.0
  0
LINE
  8
0
  6
CONTINUOUS
 10
83.643398
 20
120.760068
 30
0.0
 11
83.652424
 21
120.662668
 31
0.0
  0
LINE
  8
0
  6
CONTINUOUS
 10
83.670129
 20
121.489386
 30
0.0
 11
84.170113
 21
121.538918
 31
0.0
  0
LINE
  8
0
  6
CONTINUOUS
 10
84.170113
 20
121.538918
 30
0.0
 11
84.377209
 21
121.081153
 31
0.0
  0
LINE
  8
0
  6
CONTINUOUS
 10
83.718014
 20
120.878157
 30
0.0
 11
83.735082
 21
120.800171
 31
0.0
  0
LINE
  8
0
  6
CONTINUOUS
 10
83.735082
 20
120.800171
 30
0.0
 11
83.740812
 21
120.713699
 31
0.0
  0
LINE
  8
0
  6
CONTINUOUS
 10
80.789303
 20
127.378734
 30
0.0
 11
80.914299
 21
127.391117
 31
0.0
  0
LINE
  8
0
  6
CONTINUOUS
 10
80.914299
 20
127.391117
 30
0.0
 11
80.966073
 21
127.276675
 31
0.0
  0
LINE
  8
0
  6
CONTINUOUS
 10
82.273566
 20
128.031557
 30
0.0
 11
82.32534
 21
128.205782
 31
0.0
  0
LINE
  8
0
  6
CONTINUOUS
 10
82.32534
 20
128.205782
 30
0.0
 11
82.450336
 21
128.337731
 31
0.0
  0
LINE
  8
0
  6
CONTINUOUS
 10
87.506483
 20
125.418563
 30
0.0
 11
87.454709
 21
125.244339
 31
0.0
  0
LINE
  8
0
  6
CONTINUOUS
 10
87.454709
 20
125.244339
 30
0.0
 11
87.329713
 21
125.112389
 31
0.0
  0
LINE
  8
0
  6
CONTINUOUS
 10
79.021623
 20
131.930752
 30
0.0
 11
80.771568
 21
132.104117
 31
0.0
  0
LINE
  8
0
  6
CONTINUOUS
 10
80.771568
 20
132.104117
 30
0.0
 11
81.496403
 21
130.501938
 31
0.0
  0
LINE
  8
0
  6
CONTINUOUS
 10
76.493629
 20
129.858842
 30
0.0
 11
76.618625
 21
129.871225
 31
0.0
  0
LINE
  8
0
  6
CONTINUOUS
 10
76.618625
 20
129.871225
 30
0.0
 11
76.670399
 21
129.756784
 31
0.0
  0
LINE
  8
0
  6
CONTINUOUS
 10
86.56924
 20
133.573411
 30
0.0
 11
85.844405
 21
131.134265
 31
0.0
  0
LINE
  8
0
  6
CONTINUOUS
 10
85.844405
 20
131.134265
 30
0.0
 11
84.09446
 21
129.286967
 31
0.0
  0
LINE
  8
0
  6
CONTINUOUS
 10
86.038909
 20
133.267333
 30
0.0
 11
85.77839
 21
131.99424
 31
0.0
  0
LINE
  8
0
  6
CONTINUOUS
 10
85.77839
 20
131.99424
 30
0.0
 11
85.066638
 21
130.761448
 31
0.0
  0
LINE
  8
0
  6
CONTINUOUS
 10
85.066638
 20
130.761448
 30
0.0
 11
84.094366
 21
129.899285
 31
0.0
  0
LINE
  8
0
  6
CONTINUOUS
 10
84.094366
 20
129.899285
 30
0.0
 11
83.122094
 21
129.638766
 31
0.0
  0
LINE
  8
0
  6
CONTINUOUS
 10
83.122094
 20
129.638766
 30
0.0
 11
82.410342
 21
130.049696
 31
0.0
  0
LINE
  8
0
  6
CONTINUOUS
 10
82.410342
 20
130.049696
 30
0.0
 11
82.149822
 21
131.021968
 31
0.0
  0
LINE
  8
0
  6
CONTINUOUS
 10
82.149822
 20
131.021968
 30
0.0
 11
82.410342
 21
132.295062
 31
0.0
  0
LINE
  8
0
  6
CONTINUOUS
 10
82.410342
 20
132.295062
 30
0.0
 11
83.122094
 21
133.527853
 31
0.0
  0
LINE
  8
0
  6
CONTINUOUS
 10
83.122094
 20
133.527853
 30
0.0
 11
84.094366
 21
134.390016
 31
0.0
  0
LINE
  8
0
  6
CONTINUOUS
 10
84.094366
 20
134.390016
 30
0.0
 11
85.066638
 21
134.650536
 31
0.0
  0
LINE
  8
0
  6
CONTINUOUS
 10
85.066638
 20
134.650536
 30
0.0
 11
85.77839
 21
134.239605
 31
0.0
  0
LINE
  8
0
  6
CONTINUOUS
 10
85.77839
 20
134.239605
 30
0.0
 11
86.038909
 21
133.267333
 31
0.0
  0
LINE
  8
0
  6
CONTINUOUS
 10
81.743236
 20
130.644447
 30
0.0
 11
82.46807
 21
133.083593
 31
0.0
  0
LINE
  8
0
  6
CONTINUOUS
 10
82.46807
 20
133.083593
 30
0.0
 11
84.218015
 21
134.930891
 31
0.0
  0
LINE
  8
0
  6
CONTINUOUS
 10
86.56924
 20
135.471882
 30
0.0
 11
86.621013
 21
135.646107
 31
0.0
  0
LINE
  8
0
  6
CONTINUOUS
 10
86.621013
 20
135.646107
 30
0.0
 11
86.746009
 21
135.778057
 31
0.0
  0
LINE
  8
0
  6
CONTINUOUS
 10
94.524191
 20
120.20628
 30
0.0
 11
95.171238
 21
119.550326
 31
0.0
  0
LINE
  8
0
  6
CONTINUOUS
 10
95.171238
 20
119.550326
 30
0.0
 11
95.171238
 21
118.796659
 31
0.0
  0
LINE
  8
0
  6
CONTINUOUS
 10
95.171238
 20
118.796659
 30
0.0
 11
94.524191
 21
118.147225
 31
0.0
  0
LINE
  8
0
  6
CONTINUOUS
 10
89.968134
 20
117.945862
 30
0.0
 11
90.241603
 21
118.040216
 31
0.0
  0
LINE
  8
0
  6
CONTINUOUS
 10
90.241603
 20
118.040216
 30
0.0
 11
90.472507
 21
117.992816
 31
0.0
  0
LINE
  8
0
  6
CONTINUOUS
 10
88.473673
 20
116.266569
 30
0.0
 11
88.680768
 21
116.963467
 31
0.0
  0
LINE
  8
0
  6
CONTINUOUS
 10
88.680768
 20
116.963467
 30
0.0
 11
89.180753
 21
117.491267
 31
0.0
  0
LINE
  8
0
  6
CONTINUOUS
 10
93.640307
 20
112.344624
 30
0.0
 11
93.743855
 21
112.693074
 31
0.0
  0
LINE
  8
0
  6
CONTINUOUS
 10
93.743855
 20
112.693074
 30
0.0
 11
93.993847
 21
112.956973
 31
0.0
  0
LINE
  8
0
  6
CONTINUOUS
 10
94.170637
 20
113.467291
 30
0.0
 11
93.858917
 21
113.404272
 31
0.0
  0
LINE
  8
0
  6
CONTINUOUS
 10
93.858917
 20
113.404272
 30
0.0
 11
93.666264
 21
113.59923
 31
0.0
  0
LINE
  8
0
  6
CONTINUOUS
 10
93.666264
 20
113.59923
 30
0.0
 11
93.666264
 21
113.977697
 31
0.0
  0
LINE
  8
0
  6
CONTINUOUS
 10
93.666264
 20
113.977697
 30
0.0
 11
93.858917
 21
114.395112
 31
0.0
  0
LINE
  8
0
  6
CONTINUOUS
 10
93.858917
 20
114.395112
 30
0.0
 11
94.170637
 21
114.692036
 31
0.0
  0
LINE
  8
0
  6
CONTINUOUS
 10
94.324615
 20
114.754433
 30
0.0
 11
94.319242
 21
114.376776
 31
0.0
  0
LINE
  8
0
  6
CONTINUOUS
 10
94.319242
 20
114.376776
 30
0.0
 11
94.125955
 21
113.964321
 31
0.0
  0
LINE
  8
0
  6
CONTINUOUS
 10
94.125955
 20
113.964321
 30
0.0
 11
93.817084
 21
113.671416
 31
0.0
  0
LINE
  8
0
  6
CONTINUOUS
 10
94.223289
 20
114.719342
 30
0.0
 11
94.244884
 21
114.402719
 31
0.0
  0
LINE
  8
0
  6
CONTINUOUS
 10
94.244884
 20
114.402719
 30
0.0
 11
94.087546
 21
114.036351
 31
0.0
  0
LINE
  8
0
  6
CONTINUOUS
 10
94.087546
 20
114.036351
 30
0.0
 11
93.817084
 21
113.773478
 31
0.0
  0
LINE
  8
0
  6
CONTINUOUS
 10
93.109977
 20
113.589797
 30
0.0
 11
93.317073
 21
114.286696
 31
0.0
  0
LINE
  8
0
  6
CONTINUOUS
 10
93.317073
 20
114.286696
 30
0.0
 11
93.817057
 21
114.814495
 31
0.0
  0
LINE
  8
0
  6
CONTINUOUS
 10
93.109977
 20
112.385418
 30
0.0
 11
93.006429
 21
112.036968
 31
0.0
  0
LINE
  8
0
  6
CONTINUOUS
 10
93.006429
 20
112.036968
 30
0.0
 11
92.756437
 21
111.773069
 31
0.0
  0
LINE
  8
0
  6
CONTINUOUS
 10
93.817084
 20
113.671416
 30
0.0
 11
93.739319
 21
113.633137
 31
0.0
  0
LINE
  8
0
  6
CONTINUOUS
 10
93.739319
 20
113.633137
 30
0.0
 11
93.663235
 21
113.608925
 31
0.0
  0
LINE
  8
0
  6
CONTINUOUS
 10
93.817084
 20
113.773478
 30
0.0
 11
93.728217
 21
113.732594
 31
0.0
  0
LINE
  8
0
  6
CONTINUOUS
 10
93.728217
 20
113.732594
 30
0.0
 11
93.642979
 21
113.714227
 31
0.0
  0
LINE
  8
0
  6
CONTINUOUS
 10
94.170637
 20
114.692036
 30
0.0
 11
94.435802
 21
114.763087
 31
0.0
  0
LINE
  8
0
  6
CONTINUOUS
 10
94.435802
 20
114.763087
 30
0.0
 11
94.629917
 21
114.651015
 31
0.0
  0
LINE
  8
0
  6
CONTINUOUS
 10
94.629917
 20
114.651015
 30
0.0
 11
94.700968
 21
114.38585
 31
0.0
  0
LINE
  8
0
  6
CONTINUOUS
 10
94.700968
 20
114.38585
 30
0.0
 11
94.629917
 21
114.038643
 31
0.0
  0
LINE
  8
0
  6
CONTINUOUS
 10
94.629917
 20
114.038643
 30
0.0
 11
94.435802
 21
113.702427
 31
0.0
  0
LINE
  8
0
  6
CONTINUOUS
 10
94.435802
 20
113.702427
 30
0.0
 11
94.170637
 21
113.467291
 31
0.0
  0
LINE
  8
0
  6
CONTINUOUS
 10
95.054507
 20
112.487488
 30
0.0
 11
94.804515
 21
112.462721
 31
0.0
  0
LINE
  8
0
  6
CONTINUOUS
 10
94.804515
 20
112.462721
 30
0.0
 11
94.700968
 21
112.691604
 31
0.0
  0
LINE
  8
0
  6
CONTINUOUS
 10
94.347428
 20
113.161113
 30
0.0
 11
94.59742
 21
113.185879
 31
0.0
  0
LINE
  8
0
  6
CONTINUOUS
 10
94.59742
 20
113.185879
 30
0.0
 11
94.700968
 21
112.956997
 31
0.0
  0
LINE
  8
0
  6
CONTINUOUS
 10
95.584838
 20
113.406046
 30
0.0
 11
95.334845
 21
113.38128
 31
0.0
  0
LINE
  8
0
  6
CONTINUOUS
 10
95.334845
 20
113.38128
 30
0.0
 11
95.231298
 21
113.610163
 31
0.0
  0
LINE
  8
0
  6
CONTINUOUS
 10
94.524218
 20
115.222775
 30
0.0
 11
95.024202
 21
115.272307
 31
0.0
  0
LINE
  8
0
  6
CONTINUOUS
 10
95.024202
 20
115.272307
 30
0.0
 11
95.231298
 21
114.814542
 31
0.0
  0
LINE
  8
0
  6
CONTINUOUS
 10
95.177927
 20
118.812949
 30
0.0
 11
94.928048
 21
119.164817
 31
0.0
  0
LINE
  8
0
  6
CONTINUOUS
 10
94.928048
 20
119.164817
 30
0.0
 11
94.524191
 21
119.465649
 31
0.0
  0
LINE
  8
0
  6
CONTINUOUS
 10
101.772035
 20
117.182343
 30
0.0
 11
101.720261
 21
117.008118
 31
0.0
  0
LINE
  8
0
  6
CONTINUOUS
 10
101.720261
 20
117.008118
 30
0.0
 11
101.595265
 21
116.876169
 31
0.0
  0
LINE
  8
0
  6
CONTINUOUS
 10
91.802157
 20
132.858889
 30
0.0
 11
91.750383
 21
132.684664
 31
0.0
  0
LINE
  8
0
  6
CONTINUOUS
 10
91.750383
 20
132.684664
 30
0.0
 11
91.625387
 21
132.552714
 31
0.0
  0
LINE
  8
0
  6
CONTINUOUS
 10
94.700968
 20
140.574993
 30
0.0
 11
94.804515
 21
140.923443
 31
0.0
  0
LINE
  8
0
  6
CONTINUOUS
 10
94.804515
 20
140.923443
 30
0.0
 11
95.054507
 21
141.187343
 31
0.0
  0
LINE
  8
0
  6
CONTINUOUS
 10
93.993847
 20
139.493112
 30
0.0
 11
93.743855
 21
139.468346
 31
0.0
  0
LINE
  8
0
  6
CONTINUOUS
 10
93.743855
 20
139.468346
 30
0.0
 11
93.640307
 21
139.697229
 31
0.0
  0
LINE
  8
0
  6
CONTINUOUS
 10
94.170637
 20
137.962189
 30
0.0
 11
93.858917
 21
137.89917
 31
0.0
  0
LINE
  8
0
  6
CONTINUOUS
 10
93.858917
 20
137.89917
 30
0.0
 11
93.666264
 21
138.094127
 31
0.0
  0
LINE
  8
0
  6
CONTINUOUS
 10
93.666264
 20
138.094127
 30
0.0
 11
93.666264
 21
138.472594
 31
0.0
  0
LINE
  8
0
  6
CONTINUOUS
 10
93.666264
 20
138.472594
 30
0.0
 11
93.858917
 21
138.890009
 31
0.0
  0
LINE
  8
0
  6
CONTINUOUS
 10
93.858917
 20
138.890009
 30
0.0
 11
94.170637
 21
139.186934
 31
0.0
  0
LINE
  8
0
  6
CONTINUOUS
 10
94.324615
 20
139.24933
 30
0.0
 11
94.319242
 21
138.871673
 31
0.0
  0
LINE
  8
0
  6
CONTINUOUS
 10
94.319242
 20
138.871673
 30
0.0
 11
94.125955
 21
138.459219
 31
0.0
  0
LINE
  8
0
  6
CONTINUOUS
 10
94.125955
 20
138.459219
 30
0.0
 11
93.817084
 21
138.166313
 31
0.0
  0
LINE
  8
0
  6
CONTINUOUS
 10
94.223289
 20
139.214239
 30
0.0
 11
94.244884
 21
138.897616
 31
0.0
  0
LINE
  8
0
  6
CONTINUOUS
 10
94.244884
 20
138.897616
 30
0.0
 11
94.087546
 21
138.531249
 31
0.0
  0
LINE
  8
0
  6
CONTINUOUS
 10
94.087546
 20
138.531249
 30
0.0
 11
93.817084
 21
138.268375
 31
0.0
  0
LINE
  8
0
  6
CONTINUOUS
 10
93.817057
 20
137.431451
 30
0.0
 11
93.317073
 21
137.381918
 31
0.0
  0
LINE
  8
0
  6
CONTINUOUS
 10
93.317073
 20
137.381918
 30
0.0
 11
93.109977
 21
137.839683
 31
0.0
  0
LINE
  8
0
  6
CONTINUOUS
 10
93.817084
 20
138.166313
 30
0.0
 11
93.739319
 21
138.128035
 31
0.0
  0
LINE
  8
0
  6
CONTINUOUS
 10
93.739319
 20
138.128035
 30
0.0
 11
93.663235
 21
138.103823
 31
0.0
  0
LINE
  8
0
  6
CONTINUOUS
 10
93.817084
 20
138.268375
 30
0.0
 11
93.728217
 21
138.227491
 31
0.0
  0
LINE
  8
0
  6
CONTINUOUS
 10
93.728217
 20
138.227491
 30
0.0
 11
93.642979
 21
138.209124
 31
0.0
  0
LINE
  8
0
  6
CONTINUOUS
 10
92.756437
 20
139.248179
 30
0.0
 11
93.006429
 21
139.272945
 31
0.0
  0
LINE
  8
0
  6
CONTINUOUS
 10
93.006429
 20
139.272945
 30
0.0
 11
93.109977
 21
139.044062
 31
0.0
  0
LINE
  8
0
  6
CONTINUOUS
 10
93.286767
 20
140.166737
 30
0.0
 11
93.53676
 21
140.191504
 31
0.0
  0
LINE
  8
0
  6
CONTINUOUS
 10
93.53676
 20
140.191504
 30
0.0
 11
93.640307
 21
139.962621
 31
0.0
  0
LINE
  8
0
  6
CONTINUOUS
 10
95.231298
 20
139.064428
 30
0.0
 11
95.024202
 21
138.367529
 31
0.0
  0
LINE
  8
0
  6
CONTINUOUS
 10
95.024202
 20
138.367529
 30
0.0
 11
94.524218
 21
137.83973
 31
0.0
  0
LINE
  8
0
  6
CONTINUOUS
 10
94.170637
 20
139.186934
 30
0.0
 11
94.435802
 21
139.257984
 31
0.0
  0
LINE
  8
0
  6
CONTINUOUS
 10
94.435802
 20
139.257984
 30
0.0
 11
94.629917
 21
139.145913
 31
0.0
  0
LINE
  8
0
  6
CONTINUOUS
 10
94.629917
 20
139.145913
 30
0.0
 11
94.700968
 21
138.880747
 31
0.0
  0
LINE
  8
0
  6
CONTINUOUS
 10
94.700968
 20
138.880747
 30
0.0
 11
94.629917
 21
138.53354
 31
0.0
  0
LINE
  8
0
  6
CONTINUOUS
 10
94.629917
 20
138.53354
 30
0.0
 11
94.435802
 21
138.197324
 31
0.0
  0
LINE
  8
0
  6
CONTINUOUS
 10
94.435802
 20
138.197324
 30
0.0
 11
94.170637
 21
137.962189
 31
0.0
  0
LINE
  8
0
  6
CONTINUOUS
 10
94.700968
 20
140.309601
 30
0.0
 11
94.59742
 21
139.961152
 31
0.0
  0
LINE
  8
0
  6
CONTINUOUS
 10
94.59742
 20
139.961152
 30
0.0
 11
94.347428
 21
139.697252
 31
0.0
  0
LINE
  8
0
  6
CONTINUOUS
 10
95.231298
 20
140.268807
 30
0.0
 11
95.334845
 21
140.617257
 31
0.0
  0
LINE
  8
0
  6
CONTINUOUS
 10
95.334845
 20
140.617257
 30
0.0
 11
95.584838
 21
140.881156
 31
0.0
  0
LINE
  8
0
  6
CONTINUOUS
 10
101.595265
 20
144.351278
 30
0.0
 11
101.720261
 21
144.363662
 31
0.0
  0
LINE
  8
0
  6
CONTINUOUS
 10
101.720261
 20
144.363662
 30
0.0
 11
101.772035
 21
144.24922
 31
0.0
  0
LINE
  8
0
  6
CONTINUOUS
 10
95.891556
 20
165.233287
 30
0.0
 11
96.02506
 21
165.276552
 31
0.0
  0
LINE
  8
0
  6
CONTINUOUS
 10
96.02506
 20
165.276552
 30
0.0
 11
96.137682
 21
165.251503
 31
0.0
  0
LINE
  8
0
  6
CONTINUOUS
 10
96.137682
 20
165.251503
 30
0.0
 11
96.140127
 21
165.250067
 31
0.0
  0
LINE
  8
0
  6
CONTINUOUS
 10
104.158848
 20
146.484561
 30
0.0
 11
105.908848
 21
146.657912
 31
0.0
  0
LINE
  8
0
  6
CONTINUOUS
 10
105.908848
 20
146.657912
 30
0.0
 11
106.633722
 21
145.055692
 31
0.0
  0
LINE
  8
0
  6
CONTINUOUS
 10
110.614269
 20
117.227815
 30
0.0
 11
110.614269
 21
135.820848
 31
0.0
  0
LINE
  8
0
  6
CONTINUOUS
 10
110.614269
 20
135.820848
 30
0.0
 11
110.614269
 21
154.413881
 31
0.0
  0
LINE
  8
0
  6
CONTINUOUS
 10
104.12326
 20
146.423189
 30
0.0
 11
105.873204
 21
146.596553
 31
0.0
  0
LINE
  8
0
  6
CONTINUOUS
 10
105.873204
 20
146.596553
 30
0.0
 11
106.598039
 21
144.994374
 31
0.0
  0
LINE
  8
0
  6
CONTINUOUS
 10
110.753274
 20
154.618153
 30
0.0
 11
110.753274
 21
136.02512
 31
0.0
  0
LINE
  8
0
  6
CONTINUOUS
 10
110.753274
 20
136.02512
 30
0.0
 11
110.753274
 21
117.432087
 31
0.0
  0
LINE
  8
0
  6
CONTINUOUS
 10
110.614269
 20
117.227815
 30
0.0
 11
110.753269
 21
117.430698
 31
0.0
  0
LINE
  8
0
  6
CONTINUOUS
 10
110.08945
 20
116.122296
 30
0.0
 11
110.188053
 21
116.189106
 31
0.0
  0
LINE
  8
0
  6
CONTINUOUS
 10
110.188053
 20
116.189106
 30
0.0
 11
110.267972
 21
116.2579
 31
0.0
  0
LINE
  8
0
  6
CONTINUOUS
 10
110.267972
 20
116.2579
 30
0.0
 11
110.336966
 21
116.328675
 31
0.0
  0
LINE
  8
0
  6
CONTINUOUS
 10
110.336966
 20
116.328675
 30
0.0
 11
110.454447
 21
116.472994
 31
0.0
  0
LINE
  8
0
  6
CONTINUOUS
 10
110.454447
 20
116.472994
 30
0.0
 11
110.558536
 21
116.639119
 31
0.0
  0
LINE
  8
0
  6
CONTINUOUS
 10
110.558536
 20
116.639119
 30
0.0
 11
110.693801
 21
117.008906
 31
0.0
  0
LINE
  8
0
  6
CONTINUOUS
 10
110.693801
 20
117.008906
 30
0.0
 11
110.743084
 21
117.291448
 31
0.0
  0
LINE
  8
0
  6
CONTINUOUS
 10
110.743084
 20
117.291448
 30
0.0
 11
110.751894
 21
117.391826
 31
0.0
  0
LINE
  8
0
  6
CONTINUOUS
 10
110.751894
 20
117.391826
 30
0.0
 11
110.753016
 21
117.416659
 31
0.0
  0
LINE
  8
0
  6
CONTINUOUS
 10
110.753016
 20
117.416659
 30
0.0
 11
110.753262
 21
117.429059
 31
0.0
  0
LINE
  8
0
  6
CONTINUOUS
 10
106.633722
 20
121.989663
 30
0.0
 11
106.302151
 21
120.369362
 31
0.0
  0
LINE
  8
0
  6
CONTINUOUS
 10
106.302151
 20
120.369362
 30
0.0
 11
105.396285
 21
118.800355
 31
0.0
  0
LINE
  8
0
  6
CONTINUOUS
 10
105.396285
 20
118.800355
 30
0.0
 11
104.158848
 21
117.703056
 31
0.0
  0
LINE
  8
0
  6
CONTINUOUS
 10
106.598039
 20
122.009778
 30
0.0
 11
105.873204
 21
119.570632
 31
0.0
  0
LINE
  8
0
  6
CONTINUOUS
 10
105.873204
 20
119.570632
 30
0.0
 11
104.12326
 21
117.723334
 31
0.0
  0
LINE
  8
0
  6
CONTINUOUS
 10
110.083431
 20
116.11879
 30
0.0
 11
110.089375
 21
116.122252
 31
0.0
  0
LINE
  8
0
  6
CONTINUOUS
 10
110.614269
 20
117.227815
 30
0.0
 11
110.472716
 21
116.546772
 31
0.0
  0
LINE
  8
0
  6
CONTINUOUS
 10
110.472716
 20
116.546772
 30
0.0
 11
110.089375
 21
116.122252
 31
0.0
  0
LINE
  8
0
  6
CONTINUOUS
 10
110.089375
 20
116.122252
 30
0.0
 11
110.08945
 21
116.122296
 31
0.0
  0
LINE
  8
0
  6
CONTINUOUS
 10
110.08945
 20
116.122296
 30
0.0
 11
110.083427
 21
116.118788
 31
0.0
  0
LINE
  8
0
  6
CONTINUOUS
 10
106.067709
 20
124.622668
 30
0.0
 11
106.015935
 21
124.448443
 31
0.0
  0
LINE
  8
0
  6
CONTINUOUS
 10
106.015935
 20
124.448443
 30
0.0
 11
105.890939
 21
124.316494
 31
0.0
  0
LINE
  8
0
  6
CONTINUOUS
 10
110.753269
 20
117.430698
 30
0.0
 11
110.753274
 21
117.432083
 31
0.0
  0
LINE
  8
0
  6
CONTINUOUS
 10
110.753269
 20
117.430698
 30
0.0
 11
110.753262
 21
117.429059
 31
0.0
  0
LINE
  8
0
  6
CONTINUOUS
 10
110.753274
 20
117.432087
 30
0.0
 11
110.753262
 21
117.429059
 31
0.0
  0
LINE
  8
0
  6
CONTINUOUS
 10
103.964066
 20
132.389631
 30
0.0
 11
104.171162
 21
133.08653
 31
0.0
  0
LINE
  8
0
  6
CONTINUOUS
 10
104.171162
 20
133.08653
 30
0.0
 11
104.671146
 21
133.614329
 31
0.0
  0
LINE
  8
0
  6
CONTINUOUS
 10
106.244499
 20
132.685587
 30
0.0
 11
106.494491
 21
132.710354
 31
0.0
  0
LINE
  8
0
  6
CONTINUOUS
 10
106.494491
 20
132.710354
 30
0.0
 11
106.598039
 21
132.481471
 31
0.0
  0
LINE
  8
0
  6
CONTINUOUS
 10
106.014663
 20
132.552891
 30
0.0
 11
105.76467
 21
132.528125
 31
0.0
  0
LINE
  8
0
  6
CONTINUOUS
 10
105.76467
 20
132.528125
 30
0.0
 11
105.661123
 21
132.757008
 31
0.0
  0
LINE
  8
0
  6
CONTINUOUS
 10
104.246909
 20
132.144651
 30
0.0
 11
104.31796
 21
132.491858
 31
0.0
  0
LINE
  8
0
  6
CONTINUOUS
 10
104.31796
 20
132.491858
 30
0.0
 11
104.512074
 21
132.828074
 31
0.0
  0
LINE
  8
0
  6
CONTINUOUS
 10
104.512074
 20
132.828074
 30
0.0
 11
104.777239
 21
133.063209
 31
0.0
  0
LINE
  8
0
  6
CONTINUOUS
 10
104.777239
 20
133.063209
 30
0.0
 11
105.042404
 21
133.13426
 31
0.0
  0
LINE
  8
0
  6
CONTINUOUS
 10
105.042404
 20
133.13426
 30
0.0
 11
105.236518
 21
133.022188
 31
0.0
  0
LINE
  8
0
  6
CONTINUOUS
 10
105.236518
 20
133.022188
 30
0.0
 11
105.307569
 21
132.757023
 31
0.0
  0
LINE
  8
0
  6
CONTINUOUS
 10
105.307569
 20
132.757023
 30
0.0
 11
105.206285
 21
132.338603
 31
0.0
  0
LINE
  8
0
  6
CONTINUOUS
 10
105.206285
 20
132.338603
 30
0.0
 11
104.94112
 21
131.963053
 31
0.0
  0
LINE
  8
0
  6
CONTINUOUS
 10
104.94112
 20
131.963053
 30
0.0
 11
104.613358
 21
131.773819
 31
0.0
  0
LINE
  8
0
  6
CONTINUOUS
 10
104.613358
 20
131.773819
 30
0.0
 11
104.348193
 21
131.843184
 31
0.0
  0
LINE
  8
0
  6
CONTINUOUS
 10
104.348193
 20
131.843184
 30
0.0
 11
104.246909
 21
132.144651
 31
0.0
  0
LINE
  8
0
  6
CONTINUOUS
 10
104.954016
 20
132.961147
 30
0.0
 11
104.854783
 21
132.547194
 31
0.0
  0
LINE
  8
0
  6
CONTINUOUS
 10
104.854783
 20
132.547194
 30
0.0
 11
104.594219
 21
132.17357
 31
0.0
  0
LINE
  8
0
  6
CONTINUOUS
 10
104.594219
 20
132.17357
 30
0.0
 11
104.269837
 21
131.980098
 31
0.0
  0
LINE
  8
0
  6
CONTINUOUS
 10
104.865627
 20
132.910116
 30
0.0
 11
104.773202
 21
132.544449
 31
0.0
  0
LINE
  8
0
  6
CONTINUOUS
 10
104.773202
 20
132.544449
 30
0.0
 11
104.534584
 21
132.225006
 31
0.0
  0
LINE
  8
0
  6
CONTINUOUS
 10
104.534584
 20
132.225006
 30
0.0
 11
104.249581
 21
132.0854
 31
0.0
  0
LINE
  8
0
  6
CONTINUOUS
 10
104.671146
 20
131.164839
 30
0.0
 11
104.171162
 21
131.115307
 31
0.0
  0
LINE
  8
0
  6
CONTINUOUS
 10
104.171162
 20
131.115307
 30
0.0
 11
103.964066
 21
131.573072
 31
0.0
  0
LINE
  8
0
  6
CONTINUOUS
 10
105.714169
 20
131.767029
 30
0.0
 11
105.964161
 21
131.791795
 31
0.0
  0
LINE
  8
0
  6
CONTINUOUS
 10
105.964161
 20
131.791795
 30
0.0
 11
106.067709
 21
131.562912
 31
0.0
  0
LINE
  8
0
  6
CONTINUOUS
 10
104.931217
 20
133.125606
 30
0.0
 11
104.948285
 21
133.04762
 31
0.0
  0
LINE
  8
0
  6
CONTINUOUS
 10
104.948285
 20
133.04762
 30
0.0
 11
104.954016
 21
132.961147
 31
0.0
  0
LINE
  8
0
  6
CONTINUOUS
 10
104.82989
 20
133.090515
 30
0.0
 11
104.856601
 21
133.007516
 31
0.0
  0
LINE
  8
0
  6
CONTINUOUS
 10
104.856601
 20
133.007516
 30
0.0
 11
104.865627
 21
132.910116
 31
0.0
  0
LINE
  8
0
  6
CONTINUOUS
 10
106.067709
 20
134.828868
 30
0.0
 11
105.964161
 21
134.480418
 31
0.0
  0
LINE
  8
0
  6
CONTINUOUS
 10
105.964161
 20
134.480418
 30
0.0
 11
105.714169
 21
134.216519
 31
0.0
  0
LINE
  8
0
  6
CONTINUOUS
 10
105.970137
 20
133.748659
 30
0.0
 11
106.002661
 21
133.729882
 31
0.0
  0
LINE
  8
0
  6
CONTINUOUS
 10
105.742122
 20
133.472056
 30
0.0
 11
105.825884
 21
133.423696
 31
0.0
  0
LINE
  8
0
  6
CONTINUOUS
 10
106.002661
 20
133.729882
 30
0.0
 11
105.935906
 21
133.674433
 31
0.0
  0
LINE
  8
0
  6
CONTINUOUS
 10
105.935906
 20
133.674433
 30
0.0
 11
105.879594
 21
133.596883
 31
0.0
  0
LINE
  8
0
  6
CONTINUOUS
 10
105.879594
 20
133.596883
 30
0.0
 11
105.840539
 21
133.50927
 31
0.0
  0
LINE
  8
0
  6
CONTINUOUS
 10
105.840539
 20
133.50927
 30
0.0
 11
105.825884
 21
133.423696
 31
0.0
  0
LINE
  8
0
  6
CONTINUOUS
 10
106.002661
 20
132.586787
 30
0.0
 11
105.935879
 21
132.565152
 31
0.0
  0
LINE
  8
0
  6
CONTINUOUS
 10
105.935879
 20
132.565152
 30
0.0
 11
105.879531
 21
132.577716
 31
0.0
  0
LINE
  8
0
  6
CONTINUOUS
 10
105.879531
 20
132.577716
 30
0.0
 11
105.840527
 21
132.620222
 31
0.0
  0
LINE
  8
0
  6
CONTINUOUS
 10
105.840527
 20
132.620222
 30
0.0
 11
105.825884
 21
132.688849
 31
0.0
  0
LINE
  8
0
  6
CONTINUOUS
 10
105.661048
 20
132.784017
 30
0.0
 11
105.825884
 21
132.688849
 31
0.0
  0
LINE
  8
0
  6
CONTINUOUS
 10
105.661123
 20
133.165287
 30
0.0
 11
105.76467
 21
133.513736
 31
0.0
  0
LINE
  8
0
  6
CONTINUOUS
 10
105.76467
 20
133.513736
 30
0.0
 11
106.014663
 21
133.777636
 31
0.0
  0
LINE
  8
0
  6
CONTINUOUS
 10
105.664945
 20
132.701607
 30
0.0
 11
105.879562
 21
132.577698
 31
0.0
  0
LINE
  8
0
  6
CONTINUOUS
 10
106.598039
 20
134.522681
 30
0.0
 11
106.494491
 21
134.174232
 31
0.0
  0
LINE
  8
0
  6
CONTINUOUS
 10
106.494491
 20
134.174232
 30
0.0
 11
106.244499
 21
133.910332
 31
0.0
  0
LINE
  8
0
  6
CONTINUOUS
 10
105.890939
 20
141.87117
 30
0.0
 11
106.015935
 21
141.883553
 31
0.0
  0
LINE
  8
0
  6
CONTINUOUS
 10
106.015935
 20
141.883553
 30
0.0
 11
106.067709
 21
141.769112
 31
0.0
  0
LINE
  8
0
  6
CONTINUOUS
 10
114.179293
 20
132.855162
 30
0.0
 11
114.235242
 21
132.865731
 31
0.0
  0
LINE
  8
0
  6
CONTINUOUS
 10
114.235242
 20
132.865731
 30
0.0
 11
114.301116
 21
132.842727
 31
0.0
  0
LINE
  8
0
  6
CONTINUOUS
 10
119.207294
 20
130.010144
 30
0.0
 11
119.306877
 21
129.916696
 31
0.0
  0
LINE
  8
0
  6
CONTINUOUS
 10
119.306877
 20
129.916696
 30
0.0
 11
119.371921
 21
129.783949
 31
0.0
  0
LINE
  8
0
  6
CONTINUOUS
 10
119.435913
 20
129.820251
 30
0.0
 11
119.491861
 21
129.830821
 31
0.0
  0
LINE
  8
0
  6
CONTINUOUS
 10
119.491861
 20
129.830821
 30
0.0
 11
119.557735
 21
129.807816
 31
0.0
  0
LINE
  8
0
  6
CONTINUOUS
 10
120.9595
 20
128.998507
 30
0.0
 11
121.047317
 21
128.920459
 31
0.0
  0
LINE
  8
0
  6
CONTINUOUS
 10
121.047317
 20
128.920459
 30
0.0
 11
121.112014
 21
128.808391
 31
0.0
  0
LINE
  8
0
  6
CONTINUOUS
 10
121.112014
 20
128.808391
 30
0.0
 11
121.136257
 21
128.692332
 31
0.0
  0
LINE
  8
0
  6
CONTINUOUS
 10
110.753269
 20
154.616764
 30
0.0
 11
110.614269
 21
154.413881
 31
0.0
  0
LINE
  8
0
  6
CONTINUOUS
 10
110.753269
 20
154.616764
 30
0.0
 11
110.633926
 21
155.344076
 31
0.0
  0
LINE
  8
0
  6
CONTINUOUS
 10
110.633926
 20
155.344076
 30
0.0
 11
110.25377
 21
156.227492
 31
0.0
  0
LINE
  8
0
  6
CONTINUOUS
 10
110.753274
 20
154.618153
 30
0.0
 11
110.75316
 21
154.628191
 31
0.0
  0
LINE
  8
0
  6
CONTINUOUS
 10
110.75316
 20
154.628191
 30
0.0
 11
110.75278
 21
154.640822
 31
0.0
  0
LINE
  8
0
  6
CONTINUOUS
 10
110.75278
 20
154.640822
 30
0.0
 11
110.751098
 21
154.673774
 31
0.0
  0
LINE
  8
0
  6
CONTINUOUS
 10
110.751098
 20
154.673774
 30
0.0
 11
110.743471
 21
154.767083
 31
0.0
  0
LINE
  8
0
  6
CONTINUOUS
 10
110.743471
 20
154.767083
 30
0.0
 11
110.706789
 21
155.034524
 31
0.0
  0
LINE
  8
0
  6
CONTINUOUS
 10
110.706789
 20
155.034524
 30
0.0
 11
110.531984
 21
155.67405
 31
0.0
  0
LINE
  8
0
  6
CONTINUOUS
 10
110.531984
 20
155.67405
 30
0.0
 11
110.259518
 21
156.229857
 31
0.0
  0
LINE
  8
0
  6
CONTINUOUS
 10
110.089375
 20
156.139666
 30
0.0
 11
110.472716
 21
155.264877
 31
0.0
  0
LINE
  8
0
  6
CONTINUOUS
 10
110.472716
 20
155.264877
 30
0.0
 11
110.614269
 21
154.413881
 31
0.0
  0
LINE
  8
0
  6
CONTINUOUS
 10
108.874163
 20
157.473822
 30
0.0
 11
109.533454
 21
156.916548
 31
0.0
  0
LINE
  8
0
  6
CONTINUOUS
 10
109.533454
 20
156.916548
 30
0.0
 11
110.089375
 21
156.139666
 31
0.0
  0
LINE
  8
0
  6
CONTINUOUS
 10
110.25377
 20
156.227492
 30
0.0
 11
109.689829
 21
157.010216
 31
0.0
  0
LINE
  8
0
  6
CONTINUOUS
 10
109.689829
 20
157.010216
 30
0.0
 11
109.121553
 21
157.491284
 31
0.0
  0
LINE
  8
0
  6
CONTINUOUS
 10
110.259518
 20
156.229857
 30
0.0
 11
110.049275
 21
156.575988
 31
0.0
  0
LINE
  8
0
  6
CONTINUOUS
 10
110.049275
 20
156.575988
 30
0.0
 11
109.789669
 21
156.909972
 31
0.0
  0
LINE
  8
0
  6
CONTINUOUS
 10
109.789669
 20
156.909972
 30
0.0
 11
109.227886
 21
157.418806
 31
0.0
  0
LINE
  8
0
  6
CONTINUOUS
 10
109.227886
 20
157.418806
 30
0.0
 11
109.15081
 21
157.47279
 31
0.0
  0
LINE
  8
0
  6
CONTINUOUS
 10
109.15081
 20
157.47279
 30
0.0
 11
109.13361
 21
157.483935
 31
0.0
  0
LINE
  8
0
  6
CONTINUOUS
 10
109.13361
 20
157.483935
 30
0.0
 11
109.123951
 21
157.489875
 31
0.0
  0
LINE
  8
0
  6
CONTINUOUS
 10
108.874163
 20
157.473822
 30
0.0
 11
109.121553
 21
157.491284
 31
0.0
  0
LINE
  8
0
  6
CONTINUOUS
 10
109.121553
 20
157.491284
 30
0.0
 11
109.123943
 21
157.48988
 31
0.0
  0
LINE
  8
0
  6
CONTINUOUS
 10
110.089375
 20
156.139666
 30
0.0
 11
110.25377
 21
156.227492
 31
0.0
  0
LINE
  8
0
  6
CONTINUOUS
 10
110.259518
 20
156.229857
 30
0.0
 11
110.25377
 21
156.227492
 31
0.0
  0
LINE
  8
0
  6
CONTINUOUS
 10
110.753274
 20
154.61815
 30
0.0
 11
110.753269
 21
154.616764
 31
0.0
  0
ENDSEC
  0
EOF
