  0
SECTION
  2
HEADER
  9
$ACADVER
  1
AC1009
  9
$INSBASE
 10
0.0
 20
0.0
 30
0.0
  9
$EXTMIN
 10
25.0
 20
65.359173
 30
0.0
  9
$EXTMAX
 10
72.123234
 20
172.445907
 30
0.0
  9
$LIMMIN
 10
25.0
 20
65.359173
  9
$LIMMAX
 10
72.123234
 20
172.445907
  9
$ORTHOMODE
 70
     0
  9
$REGENMODE
 70
     1
  9
$FILLMODE
 70
     1
  9
$QTEXTMODE
 70
     0
  9
$MIRRTEXT
 70
     1
  9
$DRAGMODE
 70
     2
  9
$LTSCALE
 40
1.0
  9
$OSMODE
 70
     0
  9
$ATTMODE
 70
     1
  9
$TEXTSIZE
 40
3.5
  9
$TRACEWID
 40
0.5
  9
$TEXTSTYLE
  7
STANDARD
  9
$CLAYER
  8
0
  9
$CELTYPE
  6
BYLAYER
  9
$CECOLOR
 62
   256
  9
$DIMSCALE
 40
1.0
  9
$DIMASZ
 40
0.18
  9
$DIMEXO
 40
0.0625
  9
$DIMDLI
 40
0.38
  9
$DIMRND
 40
0.0
  9
$DIMDLE
 40
0.0
  9
$DIMEXE
 40
0.18
  9
$DIMTP
 40
0.0
  9
$DIMTM
 40
0.0
  9
$DIMTXT
 40
0.18
  9
$DIMCEN
 40
0.09
  9
$DIMTSZ
 40
0.0
  9
$DIMTOL
 70
     0
  9
$DIMLIM
 70
     0
  9
$DIMTIH
 70
     1
  9
$DIMTOH
 70
     1
  9
$DIMSE1
 70
     0
  9
$DIMSE2
 70
     0
  9
$DIMTAD
 70
     0
  9
$DIMZIN
 70
     0
  9
$DIMBLK
  1

  9
$DIMASO
 70
     1
  9
$DIMSHO
 70
     1
  9
$DIMPOST
  1

  9
$DIMAPOST
  1

  9
$DIMALT
 70
     0
  9
$DIMALTD
 70
     2
  9
$DIMALTF
 40
25.4
  9
$DIMLFAC
 40
1.0
  9
$DIMTOFL
 70
     0
  9
$DIMTVP
 40
0.0
  9
$DIMTIX
 70
     0
  9
$DIMSOXD
 70
     0
  9
$DIMSAH
 70
     0
  9
$DIMBLK1
  1

  9
$DIMBLK2
  1

  9
$DIMSTYLE
  2
*UNNAMED
  9
$DIMCLRD
 70
     0
  9
$DIMCLRE
 70
     0
  9
$DIMCLRT
 70
     0
  9
$DIMTFAC
 40
1.0
  9
$DIMGAP
 40
0.09
  9
$LUNITS
 70
     2
  9
$LUPREC
 70
     4
  9
$SKETCHINC
 40
0.1
  9
$FILLETRAD
 40
2.0
  9
$AUNITS
 70
     0
  9
$AUPREC
 70
     0
  9
$MENU
  1
ACAD
  9
$ELEVATION
 40
0.0
  9
$PELEVATION
 40
0.0
  9
$THICKNESS
 40
0.0
  9
$LIMCHECK
 70
     0
  9
$BLIPMODE
 70
     1
  9
$CHAMFERA
 40
0.0
  9
$CHAMFERB
 40
0.0
  9
$SKPOLY
 70
     0
  9
$TDCREATE
 40
2450954.714005903
  9
$TDUPDATE
 40
2450954.714342245
  9
$TDINDWG
 40
0.0002040509
  9
$TDUSRTIMER
 40
0.0002040509
  9
$USRTIMER
 70
     1
  9
$ANGBASE
 50
0.0
  9
$ANGDIR
 70
     0
  9
$PDMODE
 70
     0
  9
$PDSIZE
 40
0.0
  9
$PLINEWID
 40
0.0
  9
$COORDS
 70
     2
  9
$SPLFRAME
 70
     0
  9
$SPLINETYPE
 70
     6
  9
$SPLINESEGS
 70
     8
  9
$ATTDIA
 70
     0
  9
$ATTREQ
 70
     1
  9
$HANDLING
 70
     0
  9
$HANDSEED
  5
0
  9
$SURFTAB1
 70
     6
  9
$SURFTAB2
 70
     6
  9
$SURFTYPE
 70
     6
  9
$SURFU
 70
     6
  9
$SURFV
 70
     6
  9
$UCSNAME
  2

  9
$UCSORG
 10
0.0
 20
0.0
 30
0.0
  9
$UCSXDIR
 10
1.0
 20
0.0
 30
0.0
  9
$UCSYDIR
 10
0.0
 20
1.0
 30
0.0
  9
$PUCSNAME
  2

  9
$PUCSORG
 10
0.0
 20
0.0
 30
0.0
  9
$PUCSXDIR
 10
1.0
 20
0.0
 30
0.0
  9
$PUCSYDIR
 10
0.0
 20
1.0
 30
0.0
  9
$USERI1
 70
     0
  9
$USERI2
 70
     0
  9
$USERI3
 70
     0
  9
$USERI4
 70
     0
  9
$USERI5
 70
     0
  9
$USERR1
 40
0.0
  9
$USERR2
 40
0.0
  9
$USERR3
 40
0.0
  9
$USERR4
 40
0.0
  9
$USERR5
 40
0.0
  9
$WORLDVIEW
 70
     1
  9
$SHADEDGE
 70
     3
  9
$SHADEDIF
 70
    70
  9
$TILEMODE
 70
     1
  9
$MAXACTVP
 70
    16
  9
$PINSBASE
 10
0.0
 20
0.0
 30
0.0
  9
$PLIMCHECK
 70
     0
  9
$PEXTMIN
 10
1.000000E+20
 20
1.000000E+20
 30
1.000000E+20
  9
$PEXTMAX
 10
-1.000000E+20
 20
-1.000000E+20
 30
-1.000000E+20
  9
$PLIMMIN
 10
0.0
 20
0.0
  9
$PLIMMAX
 10
420.0
 20
297.0
  9
$UNITMODE
 70
     0
  9
$VISRETAIN
 70
     0
  9
$PLINEGEN
 70
     0
  9
$PSLTSCALE
 70
     1
  9
$TREEDEPTH
 70
  3020
  9
$DWGCODEPAGE
  3
iso8859-1
  0
ENDSEC
  0
SECTION
  2
TABLES
  0
TABLE
  2
VPORT
 70
     2
  0
VPORT
  2
*ACTIVE
 70
     0
 10
0.0
 20
0.0
 11
1.0
 21
1.0
 12
108.507321
 22
118.100728
 13
0.0
 23
0.0
 14
1.0
 24
1.0
 15
0.0
 25
0.0
 16
0.0
 26
0.0
 36
1.0
 17
0.0
 27
0.0
 37
0.0
 40
137.202313
 41
1.748359
 42
50.0
 43
0.0
 44
0.0
 50
0.0
 51
0.0
 71
     0
 72
   100
 73
     1
 74
     0
 75
     0
 76
     0
 77
     0
 78
     0
  0
ENDTAB
  0
TABLE
  2
LTYPE
 70
     1
  0
LTYPE
  2
CONTINUOUS
 70
    64
  3
Solid line
 72
    65
 73
     0
 40
0.0
  0
ENDTAB
  0
TABLE
  2
LAYER
 70
     1
  0
LAYER
  2
0
 70
    64
 62
     7
  6
CONTINUOUS
  0
ENDTAB
  0
TABLE
  2
STYLE
 70
     1
  0
STYLE
  2
STANDARD
 70
     0
 40
0.0
 41
1.0
 50
0.0
 71
     0
 42
3.5
  3
txt
  4

  0
ENDTAB
  0
TABLE
  2
VIEW
 70
     0
  0
ENDTAB
  0
TABLE
  2
UCS
 70
     0
  0
ENDTAB
  0
TABLE
  2
APPID
 70
     1
  0
APPID
  2
ACAD
 70
    64
  0
ENDTAB
  0
TABLE
  2
DIMSTYLE
 70
     0
  0
ENDTAB
  0
ENDSEC
  0
SECTION
  2
BLOCKS
  0
ENDSEC
  0
SECTION
  2
ENTITIES
  0
LINE
  8
0
  6
CONTINUOUS
 10
25.353526
 20
114.568888
 30
0.0
 11
34.422958
 21
120.140212
 31
0.0
  0
LINE
  8
0
  6
CONTINUOUS
 10
53.410983
 20
130.664158
 30
0.0
 11
57.508192
 21
133.014538
 31
0.0
  0
LINE
  8
0
  6
CONTINUOUS
 10
39.792726
 20
65.518863
 30
0.0
 11
71.446763
 21
83.802793
 31
0.0
  0
LINE
  8
0
  6
CONTINUOUS
 10
40.329875
 20
66.638029
 30
0.0
 11
71.984243
 21
84.922284
 31
0.0
  0
LINE
  8
0
  6
CONTINUOUS
 10
40.329875
 20
103.943999
 30
0.0
 11
71.984243
 21
122.228253
 31
0.0
  0
LINE
  8
0
  6
CONTINUOUS
 10
38.565233
 20
106.989845
 30
0.0
 11
70.23061
 21
125.280415
 31
0.0
  0
LINE
  8
0
  6
CONTINUOUS
 10
44.310258
 20
88.471228
 30
0.0
 11
44.448521
 21
88.389119
 31
0.0
  0
LINE
  8
0
  6
CONTINUOUS
 10
69.092797
 20
101.060603
 30
0.0
 11
68.262847
 21
101.520079
 31
0.0
  0
LINE
  8
0
  6
CONTINUOUS
 10
57.628333
 20
83.62724
 30
0.0
 11
53.072067
 21
86.333028
 31
0.0
  0
LINE
  8
0
  6
CONTINUOUS
 10
56.139979
 20
108.635659
 30
0.0
 11
56.001202
 21
108.718073
 31
0.0
  0
LINE
  8
0
  6
CONTINUOUS
 10
56.553047
 20
81.283517
 30
0.0
 11
57.410149
 21
80.80901
 31
0.0
  0
LINE
  8
0
  6
CONTINUOUS
 10
53.970443
 20
106.897645
 30
0.0
 11
55.9262
 21
105.814902
 31
0.0
  0
LINE
  8
0
  6
CONTINUOUS
 10
53.671003
 20
106.724816
 30
0.0
 11
66.779863
 21
99.467514
 31
0.0
  0
LINE
  8
0
  6
CONTINUOUS
 10
46.77467
 20
89.974629
 30
0.0
 11
44.876136
 21
91.102094
 31
0.0
  0
LINE
  8
0
  6
CONTINUOUS
 10
44.740863
 20
74.636367
 30
0.0
 11
45.094797
 21
74.440423
 31
0.0
  0
LINE
  8
0
  6
CONTINUOUS
 10
61.429229
 20
111.176243
 30
0.0
 11
65.12281
 21
109.131409
 31
0.0
  0
LINE
  8
0
  6
CONTINUOUS
 10
48.453747
 20
80.298101
 30
0.0
 11
44.876029
 21
82.422768
 31
0.0
  0
LINE
  8
0
  6
CONTINUOUS
 10
48.826399
 20
167.123702
 30
0.0
 11
48.826399
 21
167.241488
 31
0.0
  0
LINE
  8
0
  6
CONTINUOUS
 10
49.903244
 20
169.610188
 30
0.0
 11
49.903244
 21
167.741293
 31
0.0
  0
LINE
  8
0
  6
CONTINUOUS
 10
52.173533
 20
169.043773
 30
0.0
 11
52.173533
 21
169.468261
 31
0.0
  0
LINE
  8
0
  6
CONTINUOUS
 10
51.678503
 20
170.207052
 30
0.0
 11
51.678503
 21
170.279456
 31
0.0
  0
LINE
  8
0
  6
CONTINUOUS
 10
37.390184
 20
166.425919
 30
0.0
 11
37.390184
 21
125.469454
 31
0.0
  0
LINE
  8
0
  6
CONTINUOUS
 10
42.34009
 20
164.114095
 30
0.0
 11
42.34009
 21
164.054684
 31
0.0
  0
LINE
  8
0
  6
CONTINUOUS
 10
43.79658
 20
164.238322
 30
0.0
 11
43.79658
 21
164.415173
 31
0.0
  0
LINE
  8
0
  6
CONTINUOUS
 10
46.153397
 20
166.080986
 30
0.0
 11
46.153397
 21
165.590293
 31
0.0
  0
LINE
  8
0
  6
CONTINUOUS
 10
47.229019
 20
166.207351
 30
0.0
 11
47.229019
 21
166.426118
 31
0.0
  0
LINE
  8
0
  6
CONTINUOUS
 10
53.410983
 20
128.329303
 30
0.0
 11
53.410983
 21
169.285768
 31
0.0
  0
LINE
  8
0
  6
CONTINUOUS
 10
50.873734
 20
169.681187
 30
0.0
 11
50.873734
 21
169.461976
 31
0.0
  0
LINE
  8
0
  6
CONTINUOUS
 10
42.667569
 20
164.361331
 30
0.0
 11
42.667569
 21
164.600813
 31
0.0
  0
LINE
  8
0
  6
CONTINUOUS
 10
41.279424
 20
164.195192
 30
0.0
 11
41.279424
 21
123.179324
 31
0.0
  0
LINE
  8
0
  6
CONTINUOUS
 10
61.098981
 20
123.582213
 30
0.0
 11
54.541187
 21
127.343527
 31
0.0
  0
LINE
  8
0
  6
CONTINUOUS
 10
61.297827
 20
122.895339
 30
0.0
 11
61.297827
 21
123.263947
 31
0.0
  0
LINE
  8
0
  6
CONTINUOUS
 10
66.796454
 20
114.397676
 30
0.0
 11
68.793205
 21
113.291708
 31
0.0
  0
LINE
  8
0
  6
CONTINUOUS
 10
44.345948
 20
86.570954
 30
0.0
 11
44.310264
 21
86.591417
 31
0.0
  0
LINE
  8
0
  6
CONTINUOUS
 10
44.310264
 20
84.543578
 30
0.0
 11
44.345948
 21
84.523115
 31
0.0
  0
LINE
  8
0
  6
CONTINUOUS
 10
51.782812
 20
85.835603
 30
0.0
 11
52.570162
 21
86.28727
 31
0.0
  0
LINE
  8
0
  6
CONTINUOUS
 10
56.419295
 20
83.175832
 30
0.0
 11
51.782812
 21
85.835603
 31
0.0
  0
LINE
  8
0
  6
CONTINUOUS
 10
57.126428
 20
83.581482
 30
0.0
 11
52.570162
 21
86.28727
 31
0.0
  0
LINE
  8
0
  6
CONTINUOUS
 10
55.712243
 20
107.487471
 30
0.0
 11
55.348964
 21
107.68859
 31
0.0
  0
LINE
  8
0
  6
CONTINUOUS
 10
48.286858
 20
90.73706
 30
0.0
 11
48.286858
 21
91.623048
 31
0.0
  0
LINE
  8
0
  6
CONTINUOUS
 10
51.822392
 20
90.755011
 30
0.0
 11
51.822392
 21
91.605256
 31
0.0
  0
LINE
  8
0
  6
CONTINUOUS
 10
57.125901
 20
87.766723
 30
0.0
 11
57.125901
 21
88.509742
 31
0.0
  0
LINE
  8
0
  6
CONTINUOUS
 10
54.277207
 20
107.073671
 30
0.0
 11
55.712243
 21
106.279209
 31
0.0
  0
LINE
  8
0
  6
CONTINUOUS
 10
44.345948
 20
88.618746
 30
0.0
 11
44.310264
 21
88.639937
 31
0.0
  0
LINE
  8
0
  6
CONTINUOUS
 10
67.555789
 20
101.314885
 30
0.0
 11
67.909356
 21
101.112092
 31
0.0
  0
LINE
  8
0
  6
CONTINUOUS
 10
56.249213
 20
82.226768
 30
0.0
 11
56.419294
 21
82.127496
 31
0.0
  0
LINE
  8
0
  6
CONTINUOUS
 10
56.419294
 20
82.025105
 30
0.0
 11
56.772862
 21
81.822311
 31
0.0
  0
LINE
  8
0
  6
CONTINUOUS
 10
56.249213
 20
106.800647
 30
0.0
 11
56.419294
 21
106.701375
 31
0.0
  0
LINE
  8
0
  6
CONTINUOUS
 10
56.419294
 20
106.598984
 30
0.0
 11
56.772862
 21
106.396191
 31
0.0
  0
LINE
  8
0
  6
CONTINUOUS
 10
46.079728
 20
89.194432
 30
0.0
 11
46.255033
 21
89.095623
 31
0.0
  0
LINE
  8
0
  6
CONTINUOUS
 10
46.343418
 20
89.146325
 30
0.0
 11
46.696985
 21
88.943532
 31
0.0
  0
LINE
  8
0
  6
CONTINUOUS
 10
44.929301
 20
87.315146
 30
0.0
 11
44.893601
 21
87.335619
 31
0.0
  0
LINE
  8
0
  6
CONTINUOUS
 10
44.699474
 20
87.183304
 30
0.0
 11
44.663773
 21
87.203778
 31
0.0
  0
LINE
  8
0
  6
CONTINUOUS
 10
67.272958
 20
101.975714
 30
0.0
 11
57.827794
 21
107.394038
 31
0.0
  0
LINE
  8
0
  6
CONTINUOUS
 10
68.31594
 20
102.574024
 30
0.0
 11
57.832822
 21
108.587782
 31
0.0
  0
LINE
  8
0
  6
CONTINUOUS
 10
66.565906
 20
99.931821
 30
0.0
 11
55.992855
 21
105.785253
 31
0.0
  0
LINE
  8
0
  6
CONTINUOUS
 10
66.565906
 20
100.751012
 30
0.0
 11
57.035443
 21
106.218269
 31
0.0
  0
LINE
  8
0
  6
CONTINUOUS
 10
57.303171
 20
81.307412
 30
0.0
 11
56.939891
 21
81.50853
 31
0.0
  0
LINE
  8
0
  6
CONTINUOUS
 10
56.703723
 20
81.373029
 30
0.0
 11
57.303171
 21
81.041163
 31
0.0
  0
LINE
  8
0
  6
CONTINUOUS
 10
68.846249
 20
102.263891
 30
0.0
 11
68.616422
 21
102.13205
 31
0.0
  0
LINE
  8
0
  6
CONTINUOUS
 10
68.262896
 20
101.519699
 30
0.0
 11
68.262896
 21
101.110103
 31
0.0
  0
LINE
  8
0
  6
CONTINUOUS
 10
69.199775
 20
100.82845
 30
0.0
 11
69.199775
 21
98.780611
 31
0.0
  0
LINE
  8
0
  6
CONTINUOUS
 10
57.303171
 20
81.041163
 30
0.0
 11
57.303171
 21
81.307412
 31
0.0
  0
LINE
  8
0
  6
CONTINUOUS
 10
56.949645
 20
81.514159
 30
0.0
 11
56.596078
 21
81.311334
 31
0.0
  0
LINE
  8
0
  6
CONTINUOUS
 10
56.242552
 20
80.698984
 30
0.0
 11
56.242552
 21
80.432735
 31
0.0
  0
LINE
  8
0
  6
CONTINUOUS
 10
44.345948
 20
84.523115
 30
0.0
 11
44.345948
 21
86.570954
 31
0.0
  0
LINE
  8
0
  6
CONTINUOUS
 10
44.699474
 20
87.183304
 30
0.0
 11
44.929301
 21
87.315146
 31
0.0
  0
LINE
  8
0
  6
CONTINUOUS
 10
44.929301
 20
88.54384
 30
0.0
 11
44.699474
 21
88.411998
 31
0.0
  0
LINE
  8
0
  6
CONTINUOUS
 10
44.345948
 20
88.618746
 30
0.0
 11
44.345948
 21
90.666585
 31
0.0
  0
LINE
  8
0
  6
CONTINUOUS
 10
56.419295
 20
83.175832
 30
0.0
 11
57.126428
 21
83.581482
 31
0.0
  0
LINE
  8
0
  6
CONTINUOUS
 10
57.83348
 20
83.167987
 30
0.0
 11
57.83348
 21
81.959724
 31
0.0
  0
LINE
  8
0
  6
CONTINUOUS
 10
68.31594
 20
100.116637
 30
0.0
 11
67.272958
 21
99.518326
 31
0.0
  0
LINE
  8
0
  6
CONTINUOUS
 10
66.565906
 20
99.931821
 30
0.0
 11
66.565906
 21
100.751012
 31
0.0
  0
LINE
  8
0
  6
CONTINUOUS
 10
67.272958
 20
101.975714
 30
0.0
 11
68.31594
 21
102.574024
 31
0.0
  0
LINE
  8
0
  6
CONTINUOUS
 10
57.83348
 20
108.704327
 30
0.0
 11
57.83348
 21
107.496065
 31
0.0
  0
LINE
  8
0
  6
CONTINUOUS
 10
57.126428
 20
106.271364
 30
0.0
 11
56.419295
 21
105.865714
 31
0.0
  0
LINE
  8
0
  6
CONTINUOUS
 10
55.712243
 20
106.279209
 30
0.0
 11
55.712243
 21
107.487471
 31
0.0
  0
LINE
  8
0
  6
CONTINUOUS
 10
45.282827
 20
87.927497
 30
0.0
 11
45.282827
 21
88.337092
 31
0.0
  0
LINE
  8
0
  6
CONTINUOUS
 10
45.282827
 20
87.927497
 30
0.0
 11
45.118062
 21
88.021984
 31
0.0
  0
LINE
  8
0
  6
CONTINUOUS
 10
45.115657
 20
88.436368
 30
0.0
 11
45.282827
 21
88.337092
 31
0.0
  0
LINE
  8
0
  6
CONTINUOUS
 10
68.846249
 20
101.035198
 30
0.0
 11
68.262859
 21
101.358173
 31
0.0
  0
LINE
  8
0
  6
CONTINUOUS
 10
68.616422
 20
100.903356
 30
0.0
 11
68.846249
 21
101.035198
 31
0.0
  0
LINE
  8
0
  6
CONTINUOUS
 10
68.616422
 20
100.903356
 30
0.0
 11
68.26293
 21
101.099055
 31
0.0
  0
LINE
  8
0
  6
CONTINUOUS
 10
69.199775
 20
113.3817
 30
0.0
 11
69.199775
 21
104.924081
 31
0.0
  0
LINE
  8
0
  6
CONTINUOUS
 10
46.979817
 20
89.515375
 30
0.0
 11
46.979817
 21
88.696183
 31
0.0
  0
LINE
  8
0
  6
CONTINUOUS
 10
46.272765
 20
87.471482
 30
0.0
 11
45.229783
 21
86.873171
 31
0.0
  0
LINE
  8
0
  6
CONTINUOUS
 10
51.07576
 20
83.402639
 30
0.0
 11
55.712243
 21
80.742868
 31
0.0
  0
LINE
  8
0
  6
CONTINUOUS
 10
51.07576
 20
83.402639
 30
0.0
 11
51.07576
 21
84.610902
 31
0.0
  0
LINE
  8
0
  6
CONTINUOUS
 10
55.712243
 20
81.951131
 30
0.0
 11
51.07576
 21
84.610902
 31
0.0
  0
LINE
  8
0
  6
CONTINUOUS
 10
55.712243
 20
80.742868
 30
0.0
 11
55.712243
 21
81.951131
 31
0.0
  0
LINE
  8
0
  6
CONTINUOUS
 10
45.229783
 20
89.330559
 30
0.0
 11
46.272765
 21
89.92887
 31
0.0
  0
LINE
  8
0
  6
CONTINUOUS
 10
44.876234
 20
89.540518
 30
0.0
 11
45.229783
 21
89.330559
 31
0.0
  0
LINE
  8
0
  6
CONTINUOUS
 10
44.876168
 20
90.758254
 30
0.0
 11
46.272765
 21
89.92887
 31
0.0
  0
LINE
  8
0
  6
CONTINUOUS
 10
56.596078
 20
107.933037
 30
0.0
 11
56.24253
 21
108.142995
 31
0.0
  0
LINE
  8
0
  6
CONTINUOUS
 10
56.208874
 20
108.560813
 30
0.0
 11
56.949645
 21
108.135862
 31
0.0
  0
LINE
  8
0
  6
CONTINUOUS
 10
56.596078
 20
107.933037
 30
0.0
 11
56.949645
 21
108.135862
 31
0.0
  0
LINE
  8
0
  6
CONTINUOUS
 10
56.242552
 20
108.406032
 30
0.0
 11
56.242552
 21
108.139784
 31
0.0
  0
LINE
  8
0
  6
CONTINUOUS
 10
57.303171
 20
108.748212
 30
0.0
 11
57.303171
 21
109.01446
 31
0.0
  0
LINE
  8
0
  6
CONTINUOUS
 10
56.6785
 20
109.106562
 30
0.0
 11
57.303171
 21
108.748212
 31
0.0
  0
LINE
  8
0
  6
CONTINUOUS
 10
56.910542
 20
109.239696
 30
0.0
 11
57.303171
 21
109.01446
 31
0.0
  0
LINE
  8
0
  6
CONTINUOUS
 10
68.669466
 20
110.148998
 30
0.0
 11
68.669466
 21
103.186375
 31
0.0
  0
LINE
  8
0
  6
CONTINUOUS
 10
68.669466
 20
103.186375
 30
0.0
 11
58.097423
 21
109.251146
 31
0.0
  0
LINE
  8
0
  6
CONTINUOUS
 10
68.487826
 20
110.249557
 30
0.0
 11
68.669466
 21
110.148998
 31
0.0
  0
LINE
  8
0
  6
CONTINUOUS
 10
55.889026
 20
79.820385
 30
0.0
 11
46.82063
 21
74.618263
 31
0.0
  0
LINE
  8
0
  6
CONTINUOUS
 10
64.197198
 20
85.200747
 30
0.0
 11
58.187006
 21
81.752977
 31
0.0
  0
LINE
  8
0
  6
CONTINUOUS
 10
58.187006
 20
81.752977
 30
0.0
 11
57.833457
 21
81.962936
 31
0.0
  0
LINE
  8
0
  6
CONTINUOUS
 10
54.951639
 20
85.216503
 30
0.0
 11
57.12604
 21
86.463857
 31
0.0
  0
LINE
  8
0
  6
CONTINUOUS
 10
57.125901
 20
88.509742
 30
0.0
 11
51.822392
 21
91.605256
 31
0.0
  0
LINE
  8
0
  6
CONTINUOUS
 10
48.286858
 20
91.623048
 30
0.0
 11
46.103924
 21
90.370799
 31
0.0
  0
LINE
  8
0
  6
CONTINUOUS
 10
49.931095
 20
93.384657
 30
0.0
 11
64.197198
 21
85.200747
 31
0.0
  0
LINE
  8
0
  6
CONTINUOUS
 10
49.348525
 20
104.246449
 30
0.0
 11
55.358717
 21
107.694219
 31
0.0
  0
LINE
  8
0
  6
CONTINUOUS
 10
44.876257
 20
79.298198
 30
0.0
 11
44.876257
 21
86.260821
 31
0.0
  0
LINE
  8
0
  6
CONTINUOUS
 10
57.656697
 20
109.626811
 30
0.0
 11
66.725093
 21
114.828932
 31
0.0
  0
LINE
  8
0
  6
CONTINUOUS
 10
57.621002
 20
109.647288
 30
0.0
 11
57.656697
 21
109.626811
 31
0.0
  0
LINE
  8
0
  6
CONTINUOUS
 10
66.690016
 20
114.849763
 30
0.0
 11
66.725093
 21
114.828932
 31
0.0
  0
LINE
  8
0
  6
CONTINUOUS
 10
44.345948
 20
90.666585
 30
0.0
 11
44.345948
 21
99.124204
 31
0.0
  0
LINE
  8
0
  6
CONTINUOUS
 10
44.345948
 20
90.666585
 30
0.0
 11
44.310264
 21
90.687055
 31
0.0
  0
LINE
  8
0
  6
CONTINUOUS
 10
66.796454
 20
91.052491
 30
0.0
 11
68.793205
 21
89.946523
 31
0.0
  0
LINE
  8
0
  6
CONTINUOUS
 10
49.171762
 20
102.035681
 30
0.0
 11
49.171762
 21
103.940273
 31
0.0
  0
LINE
  8
0
  6
CONTINUOUS
 10
68.492703
 20
92.641091
 30
0.0
 11
66.848643
 21
91.69797
 31
0.0
  0
LINE
  8
0
  6
CONTINUOUS
 10
54.2266
 20
100.825001
 30
0.0
 11
68.492703
 21
92.641091
 31
0.0
  0
LINE
  8
0
  6
CONTINUOUS
 10
64.373961
 20
85.506923
 30
0.0
 11
64.373961
 21
87.411515
 31
0.0
  0
LINE
  8
0
  6
CONTINUOUS
 10
50.107858
 20
93.690832
 30
0.0
 11
64.373961
 21
85.506923
 31
0.0
  0
LINE
  8
0
  6
CONTINUOUS
 10
49.171762
 20
76.786121
 30
0.0
 11
49.171762
 21
78.690714
 31
0.0
  0
LINE
  8
0
  6
CONTINUOUS
 10
46.69708
 20
97.749226
 30
0.0
 11
45.05302
 21
96.806105
 31
0.0
  0
LINE
  8
0
  6
CONTINUOUS
 10
64.373961
 20
87.411515
 30
0.0
 11
50.107858
 21
95.595425
 31
0.0
  0
LINE
  8
0
  6
CONTINUOUS
 10
66.848643
 20
91.69797
 30
0.0
 11
52.582541
 21
99.881879
 31
0.0
  0
LINE
  8
0
  6
CONTINUOUS
 10
46.69708
 20
80.137946
 30
0.0
 11
45.05302
 21
79.194825
 31
0.0
  0
LINE
  8
0
  6
CONTINUOUS
 10
44.876246
 20
79.299804
 30
0.0
 11
45.05302
 21
79.194825
 31
0.0
  0
LINE
  8
0
  6
CONTINUOUS
 10
68.492703
 20
110.252371
 30
0.0
 11
66.848643
 21
109.30925
 31
0.0
  0
LINE
  8
0
  6
CONTINUOUS
 10
64.373961
 20
110.756482
 30
0.0
 11
64.373961
 21
112.661075
 31
0.0
  0
LINE
  8
0
  6
CONTINUOUS
 10
64.192321
 20
112.761634
 30
0.0
 11
64.373961
 21
112.661075
 31
0.0
  0
LINE
  8
0
  6
CONTINUOUS
 10
46.849128
 20
89.912301
 30
0.0
 11
48.286858
 21
90.73706
 31
0.0
  0
LINE
  8
0
  6
CONTINUOUS
 10
51.822392
 20
90.755011
 30
0.0
 11
57.125901
 21
87.766723
 31
0.0
  0
LINE
  8
0
  6
CONTINUOUS
 10
66.725093
 20
86.036537
 30
0.0
 11
57.656697
 21
80.834416
 31
0.0
  0
LINE
  8
0
  6
CONTINUOUS
 10
69.199775
 20
98.780611
 30
0.0
 11
69.199775
 21
90.322992
 31
0.0
  0
LINE
  8
0
  6
CONTINUOUS
 10
55.853949
 20
108.633611
 30
0.0
 11
55.889026
 21
108.61278
 31
0.0
  0
LINE
  8
0
  6
CONTINUOUS
 10
46.82063
 20
103.410659
 30
0.0
 11
55.889026
 21
108.61278
 31
0.0
  0
LINE
  8
0
  6
CONTINUOUS
 10
44.310264
 20
84.54287
 30
0.0
 11
44.345948
 21
84.523115
 31
0.0
  0
LINE
  8
0
  6
CONTINUOUS
 10
44.345948
 20
76.065496
 30
0.0
 11
44.345948
 21
84.523115
 31
0.0
  0
LINE
  8
0
  6
CONTINUOUS
 10
44.345948
 20
76.065496
 30
0.0
 11
44.310264
 21
76.085251
 31
0.0
  0
LINE
  8
0
  6
CONTINUOUS
 10
64.373961
 20
110.756482
 30
0.0
 11
62.502904
 21
111.792333
 31
0.0
  0
LINE
  8
0
  6
CONTINUOUS
 10
55.358717
 20
80.130518
 30
0.0
 11
49.348525
 21
76.682747
 31
0.0
  0
LINE
  8
0
  6
CONTINUOUS
 10
49.348525
 20
76.682747
 30
0.0
 11
49.171751
 21
76.787727
 31
0.0
  0
LINE
  8
0
  6
CONTINUOUS
 10
47.433234
 20
80.903541
 30
0.0
 11
50.722234
 21
82.790288
 31
0.0
  0
LINE
  8
0
  6
CONTINUOUS
 10
50.722234
 20
82.790288
 30
0.0
 11
55.358717
 21
80.130518
 31
0.0
  0
LINE
  8
0
  6
CONTINUOUS
 10
44.876257
 20
89.537307
 30
0.0
 11
44.876257
 21
96.499929
 31
0.0
  0
LINE
  8
0
  6
CONTINUOUS
 10
54.2266
 20
100.825001
 30
0.0
 11
52.582541
 21
99.881879
 31
0.0
  0
LINE
  8
0
  6
CONTINUOUS
 10
50.107858
 20
95.595425
 30
0.0
 11
50.107858
 21
93.690832
 31
0.0
  0
LINE
  8
0
  6
CONTINUOUS
 10
49.931095
 20
93.384657
 30
0.0
 11
45.40296
 21
90.787074
 31
0.0
  0
LINE
  8
0
  6
CONTINUOUS
 10
68.669466
 20
99.909889
 30
0.0
 11
68.669466
 21
92.947267
 31
0.0
  0
LINE
  8
0
  6
CONTINUOUS
 10
54.403363
 20
101.131176
 30
0.0
 11
68.669466
 21
92.947267
 31
0.0
  0
LINE
  8
0
  6
CONTINUOUS
 10
54.403363
 20
106.319056
 30
0.0
 11
54.403363
 21
101.131176
 31
0.0
  0
LINE
  8
0
  6
CONTINUOUS
 10
68.306187
 20
100.111007
 30
0.0
 11
68.669466
 21
99.909889
 31
0.0
  0
LINE
  8
0
  6
CONTINUOUS
 10
58.187006
 20
109.316678
 30
0.0
 11
64.197198
 21
112.764448
 31
0.0
  0
LINE
  8
0
  6
CONTINUOUS
 10
67.292098
 20
101.362992
 30
0.0
 11
67.467404
 21
101.264183
 31
0.0
  0
LINE
  8
0
  6
CONTINUOUS
 10
46.69708
 20
80.137946
 30
0.0
 11
44.876141
 21
81.21933
 31
0.0
  0
LINE
  8
0
  6
CONTINUOUS
 10
46.644702
 20
79.492359
 30
0.0
 11
48.641453
 21
78.386391
 31
0.0
  0
LINE
  8
0
  6
CONTINUOUS
 10
35.309779
 20
119.262836
 30
0.0
 11
35.309779
 21
119.262751
 31
0.0
  0
LINE
  8
0
  6
CONTINUOUS
 10
44.345948
 20
99.124204
 30
0.0
 11
44.310265
 21
99.144674
 31
0.0
  0
LINE
  8
0
  6
CONTINUOUS
 10
46.82063
 20
103.410659
 30
0.0
 11
46.784936
 21
103.431135
 31
0.0
  0
LINE
  8
0
  6
CONTINUOUS
 10
46.644702
 20
102.837544
 30
0.0
 11
48.641453
 21
101.731576
 31
0.0
  0
LINE
  8
0
  6
CONTINUOUS
 10
69.199775
 20
104.924081
 30
0.0
 11
69.199775
 21
102.876242
 31
0.0
  0
LINE
  8
0
  6
CONTINUOUS
 10
47.33856
 20
166.947754
 30
0.0
 11
43.772673
 21
169.194694
 31
0.0
  0
LINE
  8
0
  6
CONTINUOUS
 10
47.33856
 20
166.270151
 30
0.0
 11
47.33856
 21
166.947754
 31
0.0
  0
LINE
  8
0
  6
CONTINUOUS
 10
48.423528
 20
166.8926
 30
0.0
 11
48.423528
 21
166.933165
 31
0.0
  0
LINE
  8
0
  6
CONTINUOUS
 10
48.731218
 20
167.109673
 30
0.0
 11
48.423528
 21
166.933165
 31
0.0
  0
LINE
  8
0
  6
CONTINUOUS
 10
48.731218
 20
167.069108
 30
0.0
 11
48.731218
 21
167.109673
 31
0.0
  0
LINE
  8
0
  6
CONTINUOUS
 10
48.075053
 20
167.260566
 30
0.0
 11
48.27158
 21
167.373304
 31
0.0
  0
LINE
  8
0
  6
CONTINUOUS
 10
44.040581
 20
169.579747
 30
0.0
 11
47.713397
 21
167.265428
 31
0.0
  0
LINE
  8
0
  6
CONTINUOUS
 10
44.04867
 20
169.574619
 30
0.0
 11
44.04867
 21
169.777677
 31
0.0
  0
LINE
  8
0
  6
CONTINUOUS
 10
47.539313
 20
171.780098
 30
0.0
 11
44.04867
 21
169.777677
 31
0.0
  0
LINE
  8
0
  6
CONTINUOUS
 10
47.539313
 20
167.374464
 30
0.0
 11
47.539313
 21
171.780098
 31
0.0
  0
LINE
  8
0
  6
CONTINUOUS
 10
48.24642
 20
167.358503
 30
0.0
 11
48.24642
 21
171.780114
 31
0.0
  0
LINE
  8
0
  6
CONTINUOUS
 10
50.50925
 20
170.482236
 30
0.0
 11
48.24642
 21
171.780114
 31
0.0
  0
LINE
  8
0
  6
CONTINUOUS
 10
50.50925
 20
170.076584
 30
0.0
 11
50.50925
 21
170.482236
 31
0.0
  0
LINE
  8
0
  6
CONTINUOUS
 10
50.049677
 20
169.812982
 30
0.0
 11
50.509278
 21
170.076634
 31
0.0
  0
LINE
  8
0
  6
CONTINUOUS
 10
50.049704
 20
167.825335
 30
0.0
 11
50.049704
 21
169.407379
 31
0.0
  0
LINE
  8
0
  6
CONTINUOUS
 10
50.974449
 20
168.876979
 30
0.0
 11
50.049704
 21
169.407379
 31
0.0
  0
LINE
  8
0
  6
CONTINUOUS
 10
50.974449
 20
168.355906
 30
0.0
 11
50.974449
 21
168.876979
 31
0.0
  0
LINE
  8
0
  6
CONTINUOUS
 10
51.978258
 20
168.93178
 30
0.0
 11
51.978258
 21
169.031286
 31
0.0
  0
LINE
  8
0
  6
CONTINUOUS
 10
52.165017
 20
169.431152
 30
0.0
 11
51.978258
 21
169.031286
 31
0.0
  0
LINE
  8
0
  6
CONTINUOUS
 10
52.165017
 20
169.038891
 30
0.0
 11
52.165017
 21
169.431152
 31
0.0
  0
LINE
  8
0
  6
CONTINUOUS
 10
51.287148
 20
169.306006
 30
0.0
 11
51.74675
 21
169.569658
 31
0.0
  0
LINE
  8
0
  6
CONTINUOUS
 10
50.686089
 20
169.569634
 30
0.0
 11
51.145727
 21
169.306003
 31
0.0
  0
LINE
  8
0
  6
CONTINUOUS
 10
50.686084
 20
169.569626
 30
0.0
 11
50.686084
 21
169.650755
 31
0.0
  0
LINE
  8
0
  6
CONTINUOUS
 10
50.968915
 20
169.813002
 30
0.0
 11
50.686084
 21
169.650755
 31
0.0
  0
LINE
  8
0
  6
CONTINUOUS
 10
48.0696
 20
172.408795
 30
0.0
 11
51.605273
 21
170.38086
 31
0.0
  0
LINE
  8
0
  6
CONTINUOUS
 10
37.463401
 20
166.527316
 30
0.0
 11
47.716047
 21
172.408787
 31
0.0
  0
LINE
  8
0
  6
CONTINUOUS
 10
37.463415
 20
125.368049
 30
0.0
 11
40.999087
 21
123.340115
 31
0.0
  0
LINE
  8
0
  6
CONTINUOUS
 10
37.463415
 20
125.368049
 30
0.0
 11
37.463415
 21
166.324514
 31
0.0
  0
LINE
  8
0
  6
CONTINUOUS
 10
40.999087
 20
164.29658
 30
0.0
 11
37.463415
 21
166.324514
 31
0.0
  0
LINE
  8
0
  6
CONTINUOUS
 10
40.999087
 20
123.340115
 30
0.0
 11
40.999087
 21
164.29658
 31
0.0
  0
LINE
  8
0
  6
CONTINUOUS
 10
42.271843
 20
164.823893
 30
0.0
 11
42.112751
 21
164.732628
 31
0.0
  0
LINE
  8
0
  6
CONTINUOUS
 10
42.271843
 20
164.782747
 30
0.0
 11
42.271843
 21
164.823893
 31
0.0
  0
LINE
  8
0
  6
CONTINUOUS
 10
42.413265
 20
164.782751
 30
0.0
 11
42.413265
 21
164.823896
 31
0.0
  0
LINE
  8
0
  6
CONTINUOUS
 10
42.872902
 20
164.560264
 30
0.0
 11
42.413265
 21
164.823896
 31
0.0
  0
LINE
  8
0
  6
CONTINUOUS
 10
42.872902
 20
164.479134
 30
0.0
 11
42.872902
 21
164.560264
 31
0.0
  0
LINE
  8
0
  6
CONTINUOUS
 10
42.413306
 20
164.215492
 30
0.0
 11
42.872908
 21
164.479144
 31
0.0
  0
LINE
  8
0
  6
CONTINUOUS
 10
42.654804
 20
163.874169
 30
0.0
 11
42.654804
 21
163.97558
 31
0.0
  0
LINE
  8
0
  6
CONTINUOUS
 10
43.351894
 20
164.082739
 30
0.0
 11
42.654804
 21
163.97558
 31
0.0
  0
LINE
  8
0
  6
CONTINUOUS
 10
43.351894
 20
163.983232
 30
0.0
 11
43.351894
 21
164.082739
 31
0.0
  0
LINE
  8
0
  6
CONTINUOUS
 10
42.696083
 20
165.188945
 30
0.0
 11
43.620827
 21
164.658545
 31
0.0
  0
LINE
  8
0
  6
CONTINUOUS
 10
41.529374
 20
164.925277
 30
0.0
 11
41.988976
 21
165.188929
 31
0.0
  0
LINE
  8
0
  6
CONTINUOUS
 10
38.559437
 20
166.223138
 30
0.0
 11
40.822268
 21
164.925261
 31
0.0
  0
LINE
  8
0
  6
CONTINUOUS
 10
38.559409
 20
166.223095
 30
0.0
 11
38.559409
 21
166.628741
 31
0.0
  0
LINE
  8
0
  6
CONTINUOUS
 10
42.050053
 20
168.631162
 30
0.0
 11
38.559409
 21
166.628741
 31
0.0
  0
LINE
  8
0
  6
CONTINUOUS
 10
42.050053
 20
165.218471
 30
0.0
 11
42.050053
 21
168.631162
 31
0.0
  0
LINE
  8
0
  6
CONTINUOUS
 10
42.395114
 20
165.270958
 30
0.0
 11
42.395114
 21
168.635818
 31
0.0
  0
LINE
  8
0
  6
CONTINUOUS
 10
46.430064
 20
166.529239
 30
0.0
 11
42.395114
 21
168.635818
 31
0.0
  0
LINE
  8
0
  6
CONTINUOUS
 10
46.430064
 20
166.316894
 30
0.0
 11
46.430064
 21
166.529239
 31
0.0
  0
LINE
  8
0
  6
CONTINUOUS
 10
46.248579
 20
166.212801
 30
0.0
 11
46.43857
 21
166.321791
 31
0.0
  0
LINE
  8
0
  6
CONTINUOUS
 10
46.708216
 20
165.908605
 30
0.0
 11
46.708216
 21
165.94917
 31
0.0
  0
LINE
  8
0
  6
CONTINUOUS
 10
47.00937
 20
166.121928
 30
0.0
 11
46.708216
 21
165.94917
 31
0.0
  0
LINE
  8
0
  6
CONTINUOUS
 10
47.00937
 20
166.081363
 30
0.0
 11
47.00937
 21
166.121928
 31
0.0
  0
LINE
  8
0
  6
CONTINUOUS
 10
43.066373
 20
168.789522
 30
0.0
 11
46.983852
 21
166.744274
 31
0.0
  0
LINE
  8
0
  6
CONTINUOUS
 10
43.772673
 20
168.420664
 30
0.0
 11
43.772673
 21
169.194694
 31
0.0
  0
LINE
  8
0
  6
CONTINUOUS
 10
51.95884
 20
170.178067
 30
0.0
 11
53.337752
 21
169.387173
 31
0.0
  0
LINE
  8
0
  6
CONTINUOUS
 10
50.968915
 20
169.813002
 30
0.0
 11
51.605287
 21
170.178059
 31
0.0
  0
LINE
  8
0
  6
CONTINUOUS
 10
51.428553
 20
169.38711
 30
0.0
 11
51.428553
 21
169.549371
 31
0.0
  0
LINE
  8
0
  6
CONTINUOUS
 10
51.605323
 20
169.650775
 30
0.0
 11
51.428553
 21
169.549371
 31
0.0
  0
LINE
  8
0
  6
CONTINUOUS
 10
51.605323
 20
169.488515
 30
0.0
 11
51.605323
 21
169.650775
 31
0.0
  0
LINE
  8
0
  6
CONTINUOUS
 10
51.958876
 20
169.610207
 30
0.0
 11
51.958876
 21
169.650783
 31
0.0
  0
LINE
  8
0
  6
CONTINUOUS
 10
52.418513
 20
169.387152
 30
0.0
 11
51.958876
 21
169.650783
 31
0.0
  0
LINE
  8
0
  6
CONTINUOUS
 10
52.418513
 20
169.184326
 30
0.0
 11
52.418513
 21
169.387152
 31
0.0
  0
LINE
  8
0
  6
CONTINUOUS
 10
43.085084
 20
163.830184
 30
0.0
 11
52.418527
 21
169.184351
 31
0.0
  0
LINE
  8
0
  6
CONTINUOUS
 10
42.183502
 20
164.144506
 30
0.0
 11
42.731531
 21
163.830176
 31
0.0
  0
LINE
  8
0
  6
CONTINUOUS
 10
42.183495
 20
164.144495
 30
0.0
 11
42.183495
 21
164.245907
 31
0.0
  0
LINE
  8
0
  6
CONTINUOUS
 10
42.572388
 20
164.468997
 30
0.0
 11
42.183495
 21
164.245907
 31
0.0
  0
LINE
  8
0
  6
CONTINUOUS
 10
42.572388
 20
164.306736
 30
0.0
 11
42.572388
 21
164.468997
 31
0.0
  0
LINE
  8
0
  6
CONTINUOUS
 10
41.352641
 20
164.296588
 30
0.0
 11
42.112751
 21
164.732628
 31
0.0
  0
LINE
  8
0
  6
CONTINUOUS
 10
41.352655
 20
123.137322
 30
0.0
 11
42.731567
 21
122.346427
 31
0.0
  0
LINE
  8
0
  6
CONTINUOUS
 10
41.352655
 20
123.137322
 30
0.0
 11
41.352655
 21
164.093787
 31
0.0
  0
LINE
  8
0
  6
CONTINUOUS
 10
42.731567
 20
163.302893
 30
0.0
 11
41.352655
 21
164.093787
 31
0.0
  0
LINE
  8
0
  6
CONTINUOUS
 10
42.731567
 20
122.346427
 30
0.0
 11
42.731567
 21
163.302893
 31
0.0
  0
LINE
  8
0
  6
CONTINUOUS
 10
53.337766
 20
128.227906
 30
0.0
 11
53.337766
 21
169.184371
 31
0.0
  0
LINE
  8
0
  6
CONTINUOUS
 10
43.08512
 20
122.346435
 30
0.0
 11
43.08512
 21
163.302901
 31
0.0
  0
LINE
  8
0
  6
CONTINUOUS
 10
53.337766
 20
169.184371
 30
0.0
 11
43.08512
 21
163.302901
 31
0.0
  0
LINE
  8
0
  6
CONTINUOUS
 10
36.713547
 20
124.828692
 30
0.0
 11
36.350399
 21
121.626961
 31
0.0
  0
LINE
  8
0
  6
CONTINUOUS
 10
36.175349
 20
121.350261
 30
0.0
 11
34.599728
 21
120.446399
 31
0.0
  0
LINE
  8
0
  6
CONTINUOUS
 10
37.251274
 20
125.489725
 30
0.0
 11
37.063646
 21
125.382092
 31
0.0
  0
LINE
  8
0
  6
CONTINUOUS
 10
42.908351
 20
122.245031
 30
0.0
 11
42.731567
 21
122.346427
 31
0.0
  0
LINE
  8
0
  6
CONTINUOUS
 10
41.352655
 20
123.137322
 30
0.0
 11
37.251274
 21
125.489725
 31
0.0
  0
LINE
  8
0
  6
CONTINUOUS
 10
42.908351
 20
122.245031
 30
0.0
 11
53.514536
 21
128.329311
 31
0.0
  0
LINE
  8
0
  6
CONTINUOUS
 10
54.564716
 20
127.24661
 30
0.0
 11
60.974597
 21
123.570134
 31
0.0
  0
LINE
  8
0
  6
CONTINUOUS
 10
34.599728
 20
120.446399
 30
0.0
 11
45.065319
 21
114.443714
 31
0.0
  0
LINE
  8
0
  6
CONTINUOUS
 10
34.422958
 20
120.140212
 30
0.0
 11
44.888549
 21
114.137527
 31
0.0
  0
LINE
  8
0
  6
CONTINUOUS
 10
34.422958
 20
119.771604
 30
0.0
 11
34.422958
 21
120.140212
 31
0.0
  0
LINE
  8
0
  6
CONTINUOUS
 10
45.595656
 20
113.768935
 30
0.0
 11
45.595656
 21
114.137543
 31
0.0
  0
LINE
  8
0
  6
CONTINUOUS
 10
44.888549
 20
113.768919
 30
0.0
 11
44.888549
 21
114.137527
 31
0.0
  0
LINE
  8
0
  6
CONTINUOUS
 10
61.151395
 20
123.061154
 30
0.0
 11
45.595656
 21
114.137543
 31
0.0
  0
LINE
  8
0
  6
CONTINUOUS
 10
60.974611
 20
123.367333
 30
0.0
 11
45.418873
 21
114.443722
 31
0.0
  0
LINE
  8
0
  6
CONTINUOUS
 10
53.514536
 20
128.329311
 30
0.0
 11
53.410979
 21
128.388707
 31
0.0
  0
LINE
  8
0
  6
CONTINUOUS
 10
61.151395
 20
122.692546
 30
0.0
 11
61.151395
 21
123.061154
 31
0.0
  0
LINE
  8
0
  6
CONTINUOUS
 10
41.494276
 20
115.715014
 30
0.0
 11
41.494276
 21
115.715692
 31
0.0
  0
LINE
  8
0
  6
CONTINUOUS
 10
40.080007
 20
116.526866
 30
0.0
 11
40.080007
 21
116.526324
 31
0.0
  0
LINE
  8
0
  6
CONTINUOUS
 10
37.074685
 20
118.250356
 30
0.0
 11
37.074685
 21
118.25061
 31
0.0
  0
LINE
  8
0
  6
CONTINUOUS
 10
35.660416
 20
119.061784
 30
0.0
 11
35.660416
 21
119.061665
 31
0.0
  0
LINE
  8
0
  6
CONTINUOUS
 10
39.72644
 20
116.729151
 30
0.0
 11
39.72644
 21
116.729659
 31
0.0
  0
LINE
  8
0
  6
CONTINUOUS
 10
37.428252
 20
118.047816
 30
0.0
 11
37.428252
 21
118.047528
 31
0.0
  0
LINE
  8
0
  6
CONTINUOUS
 10
34.422958
 20
119.771604
 30
0.0
 11
44.888549
 21
113.768919
 31
0.0
  0
LINE
  8
0
  6
CONTINUOUS
 10
61.151395
 20
122.692546
 30
0.0
 11
45.595656
 21
113.768935
 31
0.0
  0
LINE
  8
0
  6
CONTINUOUS
 10
41.847843
 20
115.512899
 30
0.0
 11
41.847843
 21
115.512187
 31
0.0
  0
LINE
  8
0
  6
CONTINUOUS
 10
56.829743
 20
81.130312
 30
0.0
 11
56.252003
 21
80.798889
 31
0.0
  0
LINE
  8
0
  6
CONTINUOUS
 10
44.941303
 20
88.509768
 30
0.0
 11
44.310267
 21
88.147772
 31
0.0
  0
LINE
  8
0
  6
CONTINUOUS
 10
45.118073
 20
87.669174
 30
0.0
 11
45.118073
 21
88.40639
 31
0.0
  0
LINE
  8
0
  6
CONTINUOUS
 10
44.310267
 20
87.000991
 30
0.0
 11
44.310267
 21
76.00418
 31
0.0
  0
LINE
  8
0
  6
CONTINUOUS
 10
34.422958
 20
119.771604
 30
0.0
 11
44.590669
 21
113.938783
 31
0.0
  0
LINE
  8
0
  6
CONTINUOUS
 10
46.785043
 20
74.556892
 30
0.0
 11
46.748221
 21
74.578012
 31
0.0
  0
LINE
  8
0
  6
CONTINUOUS
 10
25.0
 20
73.109372
 30
0.0
 11
25.0
 21
113.956538
 31
0.0
  0
LINE
  8
0
  6
CONTINUOUS
 10
44.310267
 20
99.144583
 30
0.0
 11
44.310267
 21
88.147772
 31
0.0
  0
LINE
  8
0
  6
CONTINUOUS
 10
44.941303
 20
87.362987
 30
0.0
 11
44.310267
 21
87.000991
 31
0.0
  0
LINE
  8
0
  6
CONTINUOUS
 10
53.894671
 20
128.326529
 30
0.0
 11
48.403951
 21
125.176755
 31
0.0
  0
LINE
  8
0
  6
CONTINUOUS
 10
48.403951
 20
125.176755
 30
0.0
 11
42.91323
 21
122.026982
 31
0.0
  0
LINE
  8
0
  6
CONTINUOUS
 10
55.146186
 20
124.50306
 30
0.0
 11
49.292317
 21
121.144964
 31
0.0
  0
LINE
  8
0
  6
CONTINUOUS
 10
49.292317
 20
121.144964
 30
0.0
 11
43.438448
 21
117.786869
 31
0.0
  0
LINE
  8
0
  6
CONTINUOUS
 10
54.971123
 20
124.779752
 30
0.0
 11
49.117254
 21
121.421656
 31
0.0
  0
LINE
  8
0
  6
CONTINUOUS
 10
49.117254
 20
121.421656
 30
0.0
 11
43.263385
 21
118.063561
 31
0.0
  0
LINE
  8
0
  6
CONTINUOUS
 10
54.244798
 20
127.773145
 30
0.0
 11
48.754077
 21
124.623371
 31
0.0
  0
LINE
  8
0
  6
CONTINUOUS
 10
48.754077
 20
124.623371
 30
0.0
 11
43.263356
 21
121.473598
 31
0.0
  0
LINE
  8
0
  6
CONTINUOUS
 10
48.27158
 20
167.373304
 30
0.0
 11
48.450545
 21
167.425615
 31
0.0
  0
LINE
  8
0
  6
CONTINUOUS
 10
48.450545
 20
167.425615
 30
0.0
 11
48.648935
 21
167.407596
 31
0.0
  0
LINE
  8
0
  6
CONTINUOUS
 10
48.648935
 20
167.407596
 30
0.0
 11
48.79097
 21
167.326129
 31
0.0
  0
LINE
  8
0
  6
CONTINUOUS
 10
48.79097
 20
167.326129
 30
0.0
 11
48.8224
 21
167.212333
 31
0.0
  0
LINE
  8
0
  6
CONTINUOUS
 10
48.8224
 20
167.212333
 30
0.0
 11
48.731218
 21
167.109673
 31
0.0
  0
LINE
  8
0
  6
CONTINUOUS
 10
44.752518
 20
99.500673
 30
0.0
 11
45.013027
 21
100.776418
 31
0.0
  0
LINE
  8
0
  6
CONTINUOUS
 10
45.013027
 20
100.776418
 30
0.0
 11
45.724752
 21
102.009212
 31
0.0
  0
LINE
  8
0
  6
CONTINUOUS
 10
45.724752
 20
102.009212
 30
0.0
 11
46.696985
 21
102.86873
 31
0.0
  0
LINE
  8
0
  6
CONTINUOUS
 10
46.696985
 20
102.86873
 30
0.0
 11
47.669219
 21
103.124664
 31
0.0
  0
LINE
  8
0
  6
CONTINUOUS
 10
47.669219
 20
103.124664
 30
0.0
 11
48.380944
 21
102.708436
 31
0.0
  0
LINE
  8
0
  6
CONTINUOUS
 10
48.380944
 20
102.708436
 30
0.0
 11
48.641453
 21
101.731576
 31
0.0
  0
LINE
  8
0
  6
CONTINUOUS
 10
44.752518
 20
76.155488
 30
0.0
 11
45.013027
 21
77.431233
 31
0.0
  0
LINE
  8
0
  6
CONTINUOUS
 10
45.013027
 20
77.431233
 30
0.0
 11
45.724752
 21
78.664027
 31
0.0
  0
LINE
  8
0
  6
CONTINUOUS
 10
45.724752
 20
78.664027
 30
0.0
 11
46.696985
 21
79.523545
 31
0.0
  0
LINE
  8
0
  6
CONTINUOUS
 10
46.696985
 20
79.523545
 30
0.0
 11
47.669219
 21
79.779479
 31
0.0
  0
LINE
  8
0
  6
CONTINUOUS
 10
47.669219
 20
79.779479
 30
0.0
 11
48.380944
 21
79.363251
 31
0.0
  0
LINE
  8
0
  6
CONTINUOUS
 10
48.380944
 20
79.363251
 30
0.0
 11
48.641453
 21
78.386391
 31
0.0
  0
LINE
  8
0
  6
CONTINUOUS
 10
46.69708
 20
80.137946
 30
0.0
 11
48.446956
 21
80.302103
 31
0.0
  0
LINE
  8
0
  6
CONTINUOUS
 10
48.446956
 20
80.302103
 30
0.0
 11
49.171762
 21
78.690714
 31
0.0
  0
LINE
  8
0
  6
CONTINUOUS
 10
49.171762
 20
102.035681
 30
0.0
 11
48.446956
 21
99.592715
 31
0.0
  0
LINE
  8
0
  6
CONTINUOUS
 10
48.446956
 20
99.592715
 30
0.0
 11
46.69708
 21
97.749226
 31
0.0
  0
LINE
  8
0
  6
CONTINUOUS
 10
51.822392
 20
90.755011
 30
0.0
 11
50.701647
 21
91.117203
 31
0.0
  0
LINE
  8
0
  6
CONTINUOUS
 10
50.701647
 20
91.117203
 30
0.0
 11
49.407552
 21
91.110632
 31
0.0
  0
LINE
  8
0
  6
CONTINUOUS
 10
49.407552
 20
91.110632
 30
0.0
 11
48.286858
 21
90.73706
 31
0.0
  0
LINE
  8
0
  6
CONTINUOUS
 10
48.286858
 20
91.623048
 30
0.0
 11
49.407552
 21
91.991831
 31
0.0
  0
LINE
  8
0
  6
CONTINUOUS
 10
49.407552
 20
91.991831
 30
0.0
 11
50.701647
 21
91.985319
 31
0.0
  0
LINE
  8
0
  6
CONTINUOUS
 10
50.701647
 20
91.985319
 30
0.0
 11
51.822392
 21
91.605256
 31
0.0
  0
LINE
  8
0
  6
CONTINUOUS
 10
48.641453
 20
101.731576
 30
0.0
 11
48.270093
 21
100.194495
 31
0.0
  0
LINE
  8
0
  6
CONTINUOUS
 10
48.270093
 20
100.194495
 30
0.0
 11
47.297859
 21
98.818463
 31
0.0
  0
LINE
  8
0
  6
CONTINUOUS
 10
47.297859
 20
98.818463
 30
0.0
 11
46.096112
 21
98.129076
 31
0.0
  0
LINE
  8
0
  6
CONTINUOUS
 10
46.096112
 20
98.129076
 30
0.0
 11
45.123878
 21
98.389657
 31
0.0
  0
LINE
  8
0
  6
CONTINUOUS
 10
45.123878
 20
98.389657
 30
0.0
 11
44.752518
 21
99.500673
 31
0.0
  0
LINE
  8
0
  6
CONTINUOUS
 10
48.641453
 20
78.386391
 30
0.0
 11
48.380944
 21
77.110646
 31
0.0
  0
LINE
  8
0
  6
CONTINUOUS
 10
48.380944
 20
77.110646
 30
0.0
 11
47.669219
 21
75.877851
 31
0.0
  0
LINE
  8
0
  6
CONTINUOUS
 10
47.669219
 20
75.877851
 30
0.0
 11
46.696985
 21
75.018334
 31
0.0
  0
LINE
  8
0
  6
CONTINUOUS
 10
46.696985
 20
75.018334
 30
0.0
 11
45.724752
 21
74.7624
 31
0.0
  0
LINE
  8
0
  6
CONTINUOUS
 10
45.724752
 20
74.7624
 30
0.0
 11
45.013027
 21
75.178627
 31
0.0
  0
LINE
  8
0
  6
CONTINUOUS
 10
45.013027
 20
75.178627
 30
0.0
 11
44.752518
 21
76.155488
 31
0.0
  0
LINE
  8
0
  6
CONTINUOUS
 10
36.175349
 20
121.350261
 30
0.0
 11
39.467487
 21
119.46201
 31
0.0
  0
LINE
  8
0
  6
CONTINUOUS
 10
39.467487
 20
119.46201
 30
0.0
 11
42.38811
 21
117.786846
 31
0.0
  0
LINE
  8
0
  6
CONTINUOUS
 10
43.263356
 20
121.473598
 30
0.0
 11
43.26337
 21
119.806522
 31
0.0
  0
LINE
  8
0
  6
CONTINUOUS
 10
43.26337
 20
119.806522
 30
0.0
 11
43.263385
 21
118.063561
 31
0.0
  0
LINE
  8
0
  6
CONTINUOUS
 10
36.350399
 20
121.626961
 30
0.0
 11
39.642536
 21
119.73871
 31
0.0
  0
LINE
  8
0
  6
CONTINUOUS
 10
39.642536
 20
119.73871
 30
0.0
 11
42.56316
 21
118.063545
 31
0.0
  0
LINE
  8
0
  6
CONTINUOUS
 10
42.563131
 20
121.473582
 30
0.0
 11
42.563145
 21
119.806506
 31
0.0
  0
LINE
  8
0
  6
CONTINUOUS
 10
42.563145
 20
119.806506
 30
0.0
 11
42.56316
 21
118.063545
 31
0.0
  0
LINE
  8
0
  6
CONTINUOUS
 10
39.625867
 20
103.942221
 30
0.0
 11
39.625867
 21
85.289236
 31
0.0
  0
LINE
  8
0
  6
CONTINUOUS
 10
39.625867
 20
85.289236
 30
0.0
 11
39.625867
 21
66.636251
 31
0.0
  0
LINE
  8
0
  6
CONTINUOUS
 10
40.329875
 20
103.943999
 30
0.0
 11
40.329875
 21
85.291014
 31
0.0
  0
LINE
  8
0
  6
CONTINUOUS
 10
40.329875
 20
85.291014
 30
0.0
 11
40.329875
 21
66.638029
 31
0.0
  0
LINE
  8
0
  6
CONTINUOUS
 10
39.625867
 20
66.636251
 30
0.0
 11
39.509358
 21
66.087123
 31
0.0
  0
LINE
  8
0
  6
CONTINUOUS
 10
39.509358
 20
66.087123
 30
0.0
 11
39.197329
 21
65.741595
 31
0.0
  0
LINE
  8
0
  6
CONTINUOUS
 10
39.467629
 20
65.524751
 30
0.0
 11
38.898987
 21
65.392324
 31
0.0
  0
LINE
  8
0
  6
CONTINUOUS
 10
38.898987
 20
65.392324
 30
0.0
 11
38.320275
 21
65.570844
 31
0.0
  0
LINE
  8
0
  6
CONTINUOUS
 10
39.197329
 20
65.741595
 30
0.0
 11
39.467629
 21
65.524751
 31
0.0
  0
LINE
  8
0
  6
CONTINUOUS
 10
38.324064
 20
65.568688
 30
0.0
 11
38.330626
 21
65.565131
 31
0.0
  0
LINE
  8
0
  6
CONTINUOUS
 10
38.330626
 20
65.565131
 30
0.0
 11
38.338452
 21
65.561047
 31
0.0
  0
LINE
  8
0
  6
CONTINUOUS
 10
38.338452
 20
65.561047
 30
0.0
 11
38.358028
 21
65.551322
 31
0.0
  0
LINE
  8
0
  6
CONTINUOUS
 10
38.358028
 20
65.551322
 30
0.0
 11
38.411518
 21
65.526794
 31
0.0
  0
LINE
  8
0
  6
CONTINUOUS
 10
38.411518
 20
65.526794
 30
0.0
 11
38.561573
 21
65.467443
 31
0.0
  0
LINE
  8
0
  6
CONTINUOUS
 10
38.561573
 20
65.467443
 30
0.0
 11
38.929078
 21
65.372819
 31
0.0
  0
LINE
  8
0
  6
CONTINUOUS
 10
38.929078
 20
65.372819
 30
0.0
 11
39.205487
 21
65.359173
 31
0.0
  0
LINE
  8
0
  6
CONTINUOUS
 10
39.205487
 20
65.359173
 30
0.0
 11
39.35554
 21
65.374517
 31
0.0
  0
LINE
  8
0
  6
CONTINUOUS
 10
39.35554
 20
65.374517
 30
0.0
 11
39.530819
 21
65.410519
 31
0.0
  0
LINE
  8
0
  6
CONTINUOUS
 10
39.530819
 20
65.410519
 30
0.0
 11
39.628045
 21
65.441023
 31
0.0
  0
LINE
  8
0
  6
CONTINUOUS
 10
39.628045
 20
65.441023
 30
0.0
 11
39.779896
 21
65.511368
 31
0.0
  0
LINE
  8
0
  6
CONTINUOUS
 10
39.197329
 20
65.741595
 30
0.0
 11
38.746029
 21
65.633116
 31
0.0
  0
LINE
  8
0
  6
CONTINUOUS
 10
38.746029
 20
65.633116
 30
0.0
 11
38.211707
 21
65.795132
 31
0.0
  0
LINE
  8
0
  6
CONTINUOUS
 10
38.324053
 20
65.568694
 30
0.0
 11
38.320275
 21
65.570844
 31
0.0
  0
LINE
  8
0
  6
CONTINUOUS
 10
38.320275
 20
65.570844
 30
0.0
 11
38.211707
 21
65.795132
 31
0.0
  0
LINE
  8
0
  6
CONTINUOUS
 10
39.792726
 20
65.518863
 30
0.0
 11
40.182686
 21
65.950733
 31
0.0
  0
LINE
  8
0
  6
CONTINUOUS
 10
40.182686
 20
65.950733
 30
0.0
 11
40.329875
 21
66.638029
 31
0.0
  0
LINE
  8
0
  6
CONTINUOUS
 10
39.978477
 20
66.55829
 30
0.0
 11
40.329875
 21
66.638029
 31
0.0
  0
LINE
  8
0
  6
CONTINUOUS
 10
39.625867
 20
66.636251
 30
0.0
 11
39.978477
 21
66.55829
 31
0.0
  0
LINE
  8
0
  6
CONTINUOUS
 10
39.978477
 20
66.55829
 30
0.0
 11
39.858206
 21
65.966746
 31
0.0
  0
LINE
  8
0
  6
CONTINUOUS
 10
39.858206
 20
65.966746
 30
0.0
 11
39.467629
 21
65.524751
 31
0.0
  0
LINE
  8
0
  6
CONTINUOUS
 10
39.792726
 20
65.518863
 30
0.0
 11
39.779987
 21
65.51142
 31
0.0
  0
LINE
  8
0
  6
CONTINUOUS
 10
39.792726
 20
65.518863
 30
0.0
 11
39.467629
 21
65.524751
 31
0.0
  0
LINE
  8
0
  6
CONTINUOUS
 10
46.785043
 20
74.556892
 30
0.0
 11
45.547655
 21
74.231159
 31
0.0
  0
LINE
  8
0
  6
CONTINUOUS
 10
45.547655
 20
74.231159
 30
0.0
 11
44.641824
 21
74.760903
 31
0.0
  0
LINE
  8
0
  6
CONTINUOUS
 10
44.641824
 20
74.760903
 30
0.0
 11
44.310267
 21
76.00418
 31
0.0
  0
LINE
  8
0
  6
CONTINUOUS
 10
45.05302
 20
79.194825
 30
0.0
 11
44.928029
 21
79.183099
 31
0.0
  0
LINE
  8
0
  6
CONTINUOUS
 10
44.928029
 20
79.183099
 30
0.0
 11
44.876257
 21
79.298198
 31
0.0
  0
LINE
  8
0
  6
CONTINUOUS
 10
46.82063
 20
74.618263
 30
0.0
 11
45.070754
 21
74.454106
 31
0.0
  0
LINE
  8
0
  6
CONTINUOUS
 10
45.070754
 20
74.454106
 30
0.0
 11
44.345948
 21
76.065496
 31
0.0
  0
LINE
  8
0
  6
CONTINUOUS
 10
39.197329
 20
105.319959
 30
0.0
 11
39.509358
 21
104.622688
 31
0.0
  0
LINE
  8
0
  6
CONTINUOUS
 10
39.509358
 20
104.622688
 30
0.0
 11
39.625867
 21
103.942221
 31
0.0
  0
LINE
  8
0
  6
CONTINUOUS
 10
39.792726
 20
105.665309
 30
0.0
 11
39.23018
 21
106.437744
 31
0.0
  0
LINE
  8
0
  6
CONTINUOUS
 10
39.23018
 20
106.437744
 30
0.0
 11
38.565233
 21
106.989845
 31
0.0
  0
LINE
  8
0
  6
CONTINUOUS
 10
39.197329
 20
105.319959
 30
0.0
 11
39.462521
 21
105.479617
 31
0.0
  0
LINE
  8
0
  6
CONTINUOUS
 10
38.320275
 20
106.723564
 30
0.0
 11
38.893917
 21
106.255469
 31
0.0
  0
LINE
  8
0
  6
CONTINUOUS
 10
38.893917
 20
106.255469
 30
0.0
 11
39.462521
 21
105.479617
 31
0.0
  0
LINE
  8
0
  6
CONTINUOUS
 10
38.211707
 20
106.377494
 30
0.0
 11
38.746029
 21
105.937179
 31
0.0
  0
LINE
  8
0
  6
CONTINUOUS
 10
38.746029
 20
105.937179
 30
0.0
 11
39.197329
 21
105.319959
 31
0.0
  0
LINE
  8
0
  6
CONTINUOUS
 10
38.320275
 20
106.723564
 30
0.0
 11
38.565233
 21
106.989845
 31
0.0
  0
LINE
  8
0
  6
CONTINUOUS
 10
38.211707
 20
106.377494
 30
0.0
 11
38.320275
 21
106.723564
 31
0.0
  0
LINE
  8
0
  6
CONTINUOUS
 10
40.329875
 20
103.943999
 30
0.0
 11
40.182686
 21
104.793681
 31
0.0
  0
LINE
  8
0
  6
CONTINUOUS
 10
40.182686
 20
104.793681
 30
0.0
 11
39.792726
 21
105.665309
 31
0.0
  0
LINE
  8
0
  6
CONTINUOUS
 10
40.329875
 20
103.943999
 30
0.0
 11
39.978477
 21
103.864259
 31
0.0
  0
LINE
  8
0
  6
CONTINUOUS
 10
39.462521
 20
105.479617
 30
0.0
 11
39.85613
 21
104.599738
 31
0.0
  0
LINE
  8
0
  6
CONTINUOUS
 10
39.85613
 20
104.599738
 30
0.0
 11
39.978477
 21
103.864259
 31
0.0
  0
LINE
  8
0
  6
CONTINUOUS
 10
39.978477
 20
103.864259
 30
0.0
 11
39.625867
 21
103.942221
 31
0.0
  0
LINE
  8
0
  6
CONTINUOUS
 10
39.792726
 20
105.665309
 30
0.0
 11
39.462521
 21
105.479617
 31
0.0
  0
LINE
  8
0
  6
CONTINUOUS
 10
44.310267
 20
99.144583
 30
0.0
 11
45.035112
 21
101.587635
 31
0.0
  0
LINE
  8
0
  6
CONTINUOUS
 10
45.035112
 20
101.587635
 30
0.0
 11
46.785043
 21
103.431201
 31
0.0
  0
LINE
  8
0
  6
CONTINUOUS
 10
44.345948
 20
99.124204
 30
0.0
 11
45.070754
 21
101.56717
 31
0.0
  0
LINE
  8
0
  6
CONTINUOUS
 10
45.070754
 20
101.56717
 30
0.0
 11
46.82063
 21
103.410659
 31
0.0
  0
LINE
  8
0
  6
CONTINUOUS
 10
44.876257
 20
86.260821
 30
0.0
 11
44.979801
 21
86.609816
 31
0.0
  0
LINE
  8
0
  6
CONTINUOUS
 10
44.979801
 20
86.609816
 30
0.0
 11
45.229783
 21
86.873171
 31
0.0
  0
LINE
  8
0
  6
CONTINUOUS
 10
45.229783
 20
89.330559
 30
0.0
 11
44.979801
 21
89.307108
 31
0.0
  0
LINE
  8
0
  6
CONTINUOUS
 10
44.979801
 20
89.307108
 30
0.0
 11
44.876257
 21
89.537307
 31
0.0
  0
LINE
  8
0
  6
CONTINUOUS
 10
44.876257
 20
96.499929
 30
0.0
 11
44.928029
 21
96.674427
 31
0.0
  0
LINE
  8
0
  6
CONTINUOUS
 10
44.928029
 20
96.674427
 30
0.0
 11
45.05302
 21
96.806105
 31
0.0
  0
LINE
  8
0
  6
CONTINUOUS
 10
44.345948
 20
86.570954
 30
0.0
 11
44.449491
 21
86.919949
 31
0.0
  0
LINE
  8
0
  6
CONTINUOUS
 10
44.449491
 20
86.919949
 30
0.0
 11
44.699474
 21
87.183304
 31
0.0
  0
LINE
  8
0
  6
CONTINUOUS
 10
44.699474
 20
88.411998
 30
0.0
 11
44.449491
 21
88.388547
 31
0.0
  0
LINE
  8
0
  6
CONTINUOUS
 10
44.449491
 20
88.388547
 30
0.0
 11
44.345948
 21
88.618746
 31
0.0
  0
LINE
  8
0
  6
CONTINUOUS
 10
46.979817
 20
88.696183
 30
0.0
 11
46.77273
 21
87.998193
 31
0.0
  0
LINE
  8
0
  6
CONTINUOUS
 10
46.77273
 20
87.998193
 30
0.0
 11
46.272765
 21
87.471482
 31
0.0
  0
LINE
  8
0
  6
CONTINUOUS
 10
46.272765
 20
89.92887
 30
0.0
 11
46.77273
 21
89.975772
 31
0.0
  0
LINE
  8
0
  6
CONTINUOUS
 10
46.77273
 20
89.975772
 30
0.0
 11
46.979817
 21
89.515375
 31
0.0
  0
LINE
  8
0
  6
CONTINUOUS
 10
46.696985
 20
88.943532
 30
0.0
 11
46.595705
 21
88.524328
 31
0.0
  0
LINE
  8
0
  6
CONTINUOUS
 10
46.595705
 20
88.524328
 30
0.0
 11
46.330551
 21
88.149046
 31
0.0
  0
LINE
  8
0
  6
CONTINUOUS
 10
46.330551
 20
88.149046
 30
0.0
 11
46.002802
 21
87.961032
 31
0.0
  0
LINE
  8
0
  6
CONTINUOUS
 10
46.002802
 20
87.961032
 30
0.0
 11
45.737647
 21
88.032099
 31
0.0
  0
LINE
  8
0
  6
CONTINUOUS
 10
45.737647
 20
88.032099
 30
0.0
 11
45.636367
 21
88.335104
 31
0.0
  0
LINE
  8
0
  6
CONTINUOUS
 10
45.636367
 20
88.335104
 30
0.0
 11
45.707415
 21
88.683034
 31
0.0
  0
LINE
  8
0
  6
CONTINUOUS
 10
45.707415
 20
88.683034
 30
0.0
 11
45.901522
 21
89.019251
 31
0.0
  0
LINE
  8
0
  6
CONTINUOUS
 10
45.901522
 20
89.019251
 30
0.0
 11
46.166676
 21
89.253665
 31
0.0
  0
LINE
  8
0
  6
CONTINUOUS
 10
46.166676
 20
89.253665
 30
0.0
 11
46.431831
 21
89.323465
 31
0.0
  0
LINE
  8
0
  6
CONTINUOUS
 10
46.431831
 20
89.323465
 30
0.0
 11
46.625938
 21
89.209948
 31
0.0
  0
LINE
  8
0
  6
CONTINUOUS
 10
46.625938
 20
89.209948
 30
0.0
 11
46.696985
 21
88.943532
 31
0.0
  0
LINE
  8
0
  6
CONTINUOUS
 10
46.343418
 20
89.146325
 30
0.0
 11
46.244435
 21
88.73213
 31
0.0
  0
LINE
  8
0
  6
CONTINUOUS
 10
46.244435
 20
88.73213
 30
0.0
 11
45.984437
 21
88.358992
 31
0.0
  0
LINE
  8
0
  6
CONTINUOUS
 10
45.984437
 20
88.358992
 30
0.0
 11
45.660481
 21
88.166203
 31
0.0
  0
LINE
  8
0
  6
CONTINUOUS
 10
46.255033
 20
89.095623
 30
0.0
 11
46.162706
 21
88.729488
 31
0.0
  0
LINE
  8
0
  6
CONTINUOUS
 10
46.162706
 20
88.729488
 30
0.0
 11
45.924301
 21
88.410411
 31
0.0
  0
LINE
  8
0
  6
CONTINUOUS
 10
45.924301
 20
88.410411
 30
0.0
 11
45.639436
 21
88.271718
 31
0.0
  0
LINE
  8
0
  6
CONTINUOUS
 10
44.941303
 20
87.362987
 30
0.0
 11
45.008055
 21
87.418242
 31
0.0
  0
LINE
  8
0
  6
CONTINUOUS
 10
45.008055
 20
87.418242
 30
0.0
 11
45.064365
 21
87.495728
 31
0.0
  0
LINE
  8
0
  6
CONTINUOUS
 10
45.064365
 20
87.495728
 30
0.0
 11
45.103418
 21
87.583406
 31
0.0
  0
LINE
  8
0
  6
CONTINUOUS
 10
45.103418
 20
87.583406
 30
0.0
 11
45.118073
 21
87.669174
 31
0.0
  0
LINE
  8
0
  6
CONTINUOUS
 10
45.282827
 20
87.927497
 30
0.0
 11
45.179284
 21
87.578501
 31
0.0
  0
LINE
  8
0
  6
CONTINUOUS
 10
45.179284
 20
87.578501
 30
0.0
 11
44.929301
 21
87.315146
 31
0.0
  0
LINE
  8
0
  6
CONTINUOUS
 10
44.941303
 20
88.509768
 30
0.0
 11
45.008082
 21
88.5311
 31
0.0
  0
LINE
  8
0
  6
CONTINUOUS
 10
45.008082
 20
88.5311
 30
0.0
 11
45.064428
 21
88.51818
 31
0.0
  0
LINE
  8
0
  6
CONTINUOUS
 10
45.064428
 20
88.51818
 30
0.0
 11
45.103431
 21
88.475321
 31
0.0
  0
LINE
  8
0
  6
CONTINUOUS
 10
45.103431
 20
88.475321
 30
0.0
 11
45.118073
 21
88.40639
 31
0.0
  0
LINE
  8
0
  6
CONTINUOUS
 10
44.905605
 20
88.530243
 30
0.0
 11
44.941303
 21
88.509768
 31
0.0
  0
LINE
  8
0
  6
CONTINUOUS
 10
44.929301
 20
88.54384
 30
0.0
 11
45.179284
 21
88.567291
 31
0.0
  0
LINE
  8
0
  6
CONTINUOUS
 10
45.179284
 20
88.567291
 30
0.0
 11
45.282827
 21
88.337092
 31
0.0
  0
LINE
  8
0
  6
CONTINUOUS
 10
45.063722
 20
88.51859
 30
0.0
 11
44.978019
 21
88.567746
 31
0.0
  0
LINE
  8
0
  6
CONTINUOUS
 10
46.217762
 20
89.280023
 30
0.0
 11
46.245615
 21
89.195351
 31
0.0
  0
LINE
  8
0
  6
CONTINUOUS
 10
46.245615
 20
89.195351
 30
0.0
 11
46.255033
 21
89.095623
 31
0.0
  0
LINE
  8
0
  6
CONTINUOUS
 10
46.319465
 20
89.315137
 30
0.0
 11
46.337396
 21
89.235195
 31
0.0
  0
LINE
  8
0
  6
CONTINUOUS
 10
46.337396
 20
89.235195
 30
0.0
 11
46.343418
 21
89.146325
 31
0.0
  0
LINE
  8
0
  6
CONTINUOUS
 10
43.438448
 20
117.786869
 30
0.0
 11
42.913287
 21
117.66856
 31
0.0
  0
LINE
  8
0
  6
CONTINUOUS
 10
42.913277
 20
118.008839
 30
0.0
 11
43.263385
 21
118.063561
 31
0.0
  0
LINE
  8
0
  6
CONTINUOUS
 10
42.912444
 20
117.819065
 30
0.0
 11
43.323692
 21
117.904552
 31
0.0
  0
LINE
  8
0
  6
CONTINUOUS
 10
42.913287
 20
117.66856
 30
0.0
 11
42.38811
 21
117.786846
 31
0.0
  0
LINE
  8
0
  6
CONTINUOUS
 10
42.56316
 20
118.063545
 30
0.0
 11
42.913277
 21
118.008839
 31
0.0
  0
LINE
  8
0
  6
CONTINUOUS
 10
42.502857
 20
117.904533
 30
0.0
 11
42.912444
 21
117.819065
 31
0.0
  0
LINE
  8
0
  6
CONTINUOUS
 10
42.38811
 20
117.786846
 30
0.0
 11
42.502857
 21
117.904533
 31
0.0
  0
LINE
  8
0
  6
CONTINUOUS
 10
42.502857
 20
117.904533
 30
0.0
 11
42.56316
 21
118.063545
 31
0.0
  0
LINE
  8
0
  6
CONTINUOUS
 10
42.913277
 20
118.008839
 30
0.0
 11
42.912444
 21
117.819065
 31
0.0
  0
LINE
  8
0
  6
CONTINUOUS
 10
42.913287
 20
117.66856
 30
0.0
 11
42.912444
 21
117.819065
 31
0.0
  0
LINE
  8
0
  6
CONTINUOUS
 10
44.615346
 20
113.925538
 30
0.0
 11
44.602817
 21
113.932042
 31
0.0
  0
LINE
  8
0
  6
CONTINUOUS
 10
44.602817
 20
113.932042
 30
0.0
 11
44.590669
 21
113.938783
 31
0.0
  0
LINE
  8
0
  6
CONTINUOUS
 10
43.263385
 20
118.063561
 30
0.0
 11
43.323692
 21
117.904552
 31
0.0
  0
LINE
  8
0
  6
CONTINUOUS
 10
43.323692
 20
117.904552
 30
0.0
 11
43.438448
 21
117.786869
 31
0.0
  0
LINE
  8
0
  6
CONTINUOUS
 10
45.595656
 20
113.768935
 30
0.0
 11
45.242109
 21
113.684924
 31
0.0
  0
LINE
  8
0
  6
CONTINUOUS
 10
45.242109
 20
113.684924
 30
0.0
 11
44.888549
 21
113.768919
 31
0.0
  0
LINE
  8
0
  6
CONTINUOUS
 10
45.595656
 20
114.137543
 30
0.0
 11
45.371517
 21
114.063308
 31
0.0
  0
LINE
  8
0
  6
CONTINUOUS
 10
45.371517
 20
114.063308
 30
0.0
 11
45.112698
 21
114.063302
 31
0.0
  0
LINE
  8
0
  6
CONTINUOUS
 10
45.112698
 20
114.063302
 30
0.0
 11
44.888549
 21
114.137527
 31
0.0
  0
LINE
  8
0
  6
CONTINUOUS
 10
45.418873
 20
114.443722
 30
0.0
 11
45.306803
 21
114.406604
 31
0.0
  0
LINE
  8
0
  6
CONTINUOUS
 10
45.306803
 20
114.406604
 30
0.0
 11
45.177394
 21
114.406601
 31
0.0
  0
LINE
  8
0
  6
CONTINUOUS
 10
45.177394
 20
114.406601
 30
0.0
 11
45.065319
 21
114.443714
 31
0.0
  0
LINE
  8
0
  6
CONTINUOUS
 10
44.888549
 20
114.137527
 30
0.0
 11
44.912232
 21
114.253504
 31
0.0
  0
LINE
  8
0
  6
CONTINUOUS
 10
44.912232
 20
114.253504
 30
0.0
 11
44.976934
 21
114.365576
 31
0.0
  0
LINE
  8
0
  6
CONTINUOUS
 10
44.976934
 20
114.365576
 30
0.0
 11
45.065319
 21
114.443714
 31
0.0
  0
LINE
  8
0
  6
CONTINUOUS
 10
45.418873
 20
114.443722
 30
0.0
 11
45.507264
 21
114.365588
 31
0.0
  0
LINE
  8
0
  6
CONTINUOUS
 10
45.507264
 20
114.365588
 30
0.0
 11
45.571972
 21
114.253519
 31
0.0
  0
LINE
  8
0
  6
CONTINUOUS
 10
45.571972
 20
114.253519
 30
0.0
 11
45.595656
 21
114.137543
 31
0.0
  0
LINE
  8
0
  6
CONTINUOUS
 10
37.063646
 20
125.382092
 30
0.0
 11
40.142114
 21
123.616394
 31
0.0
  0
LINE
  8
0
  6
CONTINUOUS
 10
40.142114
 20
123.616394
 30
0.0
 11
42.91323
 21
122.026982
 31
0.0
  0
LINE
  8
0
  6
CONTINUOUS
 10
36.713547
 20
124.828692
 30
0.0
 11
39.792015
 21
123.062994
 31
0.0
  0
LINE
  8
0
  6
CONTINUOUS
 10
39.792015
 20
123.062994
 30
0.0
 11
42.563131
 21
121.473582
 31
0.0
  0
LINE
  8
0
  6
CONTINUOUS
 10
34.422958
 20
120.140212
 30
0.0
 11
34.446641
 21
120.256189
 31
0.0
  0
LINE
  8
0
  6
CONTINUOUS
 10
34.446641
 20
120.256189
 30
0.0
 11
34.511343
 21
120.368261
 31
0.0
  0
LINE
  8
0
  6
CONTINUOUS
 10
34.511343
 20
120.368261
 30
0.0
 11
34.599728
 21
120.446399
 31
0.0
  0
LINE
  8
0
  6
CONTINUOUS
 10
36.175349
 20
121.350261
 30
0.0
 11
36.23672
 21
121.399449
 31
0.0
  0
LINE
  8
0
  6
CONTINUOUS
 10
36.23672
 20
121.399449
 30
0.0
 11
36.290157
 21
121.468043
 31
0.0
  0
LINE
  8
0
  6
CONTINUOUS
 10
36.290157
 20
121.468043
 30
0.0
 11
36.329984
 21
121.546951
 31
0.0
  0
LINE
  8
0
  6
CONTINUOUS
 10
36.329984
 20
121.546951
 30
0.0
 11
36.350399
 21
121.626961
 31
0.0
  0
LINE
  8
0
  6
CONTINUOUS
 10
36.713547
 20
124.828692
 30
0.0
 11
36.754535
 21
124.989121
 31
0.0
  0
LINE
  8
0
  6
CONTINUOUS
 10
36.754535
 20
124.989121
 30
0.0
 11
36.834272
 21
125.146906
 31
0.0
  0
LINE
  8
0
  6
CONTINUOUS
 10
36.834272
 20
125.146906
 30
0.0
 11
36.9412
 21
125.284021
 31
0.0
  0
LINE
  8
0
  6
CONTINUOUS
 10
36.9412
 20
125.284021
 30
0.0
 11
37.063646
 21
125.382092
 31
0.0
  0
LINE
  8
0
  6
CONTINUOUS
 10
37.463415
 20
125.368049
 30
0.0
 11
37.409218
 21
125.414571
 31
0.0
  0
LINE
  8
0
  6
CONTINUOUS
 10
37.409218
 20
125.414571
 30
0.0
 11
37.390184
 21
125.469448
 31
0.0
  0
LINE
  8
0
  6
CONTINUOUS
 10
42.91323
 20
122.026982
 30
0.0
 11
43.142742
 21
121.791616
 31
0.0
  0
LINE
  8
0
  6
CONTINUOUS
 10
43.263356
 20
121.473598
 30
0.0
 11
42.913249
 21
121.418876
 31
0.0
  0
LINE
  8
0
  6
CONTINUOUS
 10
43.142742
 20
121.791616
 30
0.0
 11
42.913625
 21
121.675619
 31
0.0
  0
LINE
  8
0
  6
CONTINUOUS
 10
42.563131
 20
121.473582
 30
0.0
 11
42.683736
 21
121.791606
 31
0.0
  0
LINE
  8
0
  6
CONTINUOUS
 10
42.913249
 20
121.418876
 30
0.0
 11
42.563131
 21
121.473582
 31
0.0
  0
LINE
  8
0
  6
CONTINUOUS
 10
42.683736
 20
121.791606
 30
0.0
 11
42.91323
 21
122.026982
 31
0.0
  0
LINE
  8
0
  6
CONTINUOUS
 10
42.683736
 20
121.791606
 30
0.0
 11
42.913625
 21
121.675619
 31
0.0
  0
LINE
  8
0
  6
CONTINUOUS
 10
42.913625
 20
121.675619
 30
0.0
 11
42.913249
 21
121.418876
 31
0.0
  0
LINE
  8
0
  6
CONTINUOUS
 10
43.142742
 20
121.791616
 30
0.0
 11
43.263356
 21
121.473598
 31
0.0
  0
LINE
  8
0
  6
CONTINUOUS
 10
41.529374
 20
164.925277
 30
0.0
 11
41.175827
 21
164.841265
 31
0.0
  0
LINE
  8
0
  6
CONTINUOUS
 10
41.175827
 20
164.841265
 30
0.0
 11
40.822268
 21
164.925261
 31
0.0
  0
LINE
  8
0
  6
CONTINUOUS
 10
41.352641
 20
164.296588
 30
0.0
 11
41.240571
 21
164.259471
 31
0.0
  0
LINE
  8
0
  6
CONTINUOUS
 10
41.240571
 20
164.259471
 30
0.0
 11
41.111162
 21
164.259468
 31
0.0
  0
LINE
  8
0
  6
CONTINUOUS
 10
41.111162
 20
164.259468
 30
0.0
 11
40.999087
 21
164.29658
 31
0.0
  0
LINE
  8
0
  6
CONTINUOUS
 10
37.463415
 20
166.324514
 30
0.0
 11
37.390184
 21
166.425913
 31
0.0
  0
LINE
  8
0
  6
CONTINUOUS
 10
37.390184
 20
166.425913
 30
0.0
 11
37.463401
 21
166.527316
 31
0.0
  0
LINE
  8
0
  6
CONTINUOUS
 10
38.559437
 20
166.223138
 30
0.0
 11
38.412977
 21
166.425937
 31
0.0
  0
LINE
  8
0
  6
CONTINUOUS
 10
38.412977
 20
166.425937
 30
0.0
 11
38.559409
 21
166.628741
 31
0.0
  0
LINE
  8
0
  6
CONTINUOUS
 10
43.066373
 20
168.789522
 30
0.0
 11
42.924258
 21
168.918751
 31
0.0
  0
LINE
  8
0
  6
CONTINUOUS
 10
42.924258
 20
168.918751
 30
0.0
 11
42.917995
 21
169.071501
 31
0.0
  0
LINE
  8
0
  6
CONTINUOUS
 10
42.917995
 20
169.071501
 30
0.0
 11
43.049361
 21
169.20442
 31
0.0
  0
LINE
  8
0
  6
CONTINUOUS
 10
43.049361
 20
169.20442
 30
0.0
 11
43.281074
 21
169.279783
 31
0.0
  0
LINE
  8
0
  6
CONTINUOUS
 10
43.281074
 20
169.279783
 30
0.0
 11
43.547371
 21
169.276203
 31
0.0
  0
LINE
  8
0
  6
CONTINUOUS
 10
43.547371
 20
169.276203
 30
0.0
 11
43.772673
 21
169.194694
 31
0.0
  0
LINE
  8
0
  6
CONTINUOUS
 10
43.08512
 20
163.302901
 30
0.0
 11
42.908347
 21
163.260895
 31
0.0
  0
LINE
  8
0
  6
CONTINUOUS
 10
42.908347
 20
163.260895
 30
0.0
 11
42.731567
 21
163.302893
 31
0.0
  0
LINE
  8
0
  6
CONTINUOUS
 10
43.085084
 20
163.830184
 30
0.0
 11
42.973015
 21
163.793066
 31
0.0
  0
LINE
  8
0
  6
CONTINUOUS
 10
42.973015
 20
163.793066
 30
0.0
 11
42.843605
 21
163.793063
 31
0.0
  0
LINE
  8
0
  6
CONTINUOUS
 10
42.843605
 20
163.793063
 30
0.0
 11
42.731531
 21
163.830176
 31
0.0
  0
LINE
  8
0
  6
CONTINUOUS
 10
42.112751
 20
164.732628
 30
0.0
 11
42.291716
 21
164.784939
 31
0.0
  0
LINE
  8
0
  6
CONTINUOUS
 10
42.291716
 20
164.784939
 30
0.0
 11
42.490105
 21
164.76692
 31
0.0
  0
LINE
  8
0
  6
CONTINUOUS
 10
42.490105
 20
164.76692
 30
0.0
 11
42.632141
 21
164.685453
 31
0.0
  0
LINE
  8
0
  6
CONTINUOUS
 10
42.632141
 20
164.685453
 30
0.0
 11
42.66357
 21
164.571657
 31
0.0
  0
LINE
  8
0
  6
CONTINUOUS
 10
42.66357
 20
164.571657
 30
0.0
 11
42.572388
 21
164.468997
 31
0.0
  0
LINE
  8
0
  6
CONTINUOUS
 10
41.352655
 20
164.093787
 30
0.0
 11
41.287945
 21
164.158071
 31
0.0
  0
LINE
  8
0
  6
CONTINUOUS
 10
41.287945
 20
164.158071
 30
0.0
 11
41.28794
 21
164.232301
 31
0.0
  0
LINE
  8
0
  6
CONTINUOUS
 10
41.28794
 20
164.232301
 30
0.0
 11
41.352641
 21
164.296588
 31
0.0
  0
LINE
  8
0
  6
CONTINUOUS
 10
42.654804
 20
163.97558
 30
0.0
 11
42.525395
 21
163.975578
 31
0.0
  0
LINE
  8
0
  6
CONTINUOUS
 10
42.525395
 20
163.975578
 30
0.0
 11
42.41332
 21
164.01269
 31
0.0
  0
LINE
  8
0
  6
CONTINUOUS
 10
42.41332
 20
164.01269
 30
0.0
 11
42.348611
 21
164.076974
 31
0.0
  0
LINE
  8
0
  6
CONTINUOUS
 10
42.348611
 20
164.076974
 30
0.0
 11
42.348606
 21
164.151205
 31
0.0
  0
LINE
  8
0
  6
CONTINUOUS
 10
42.348606
 20
164.151205
 30
0.0
 11
42.413306
 21
164.215492
 31
0.0
  0
LINE
  8
0
  6
CONTINUOUS
 10
42.183502
 20
164.144506
 30
0.0
 11
42.151147
 21
164.176648
 31
0.0
  0
LINE
  8
0
  6
CONTINUOUS
 10
42.151147
 20
164.176648
 30
0.0
 11
42.151145
 21
164.213763
 31
0.0
  0
LINE
  8
0
  6
CONTINUOUS
 10
42.151145
 20
164.213763
 30
0.0
 11
42.183495
 21
164.245907
 31
0.0
  0
LINE
  8
0
  6
CONTINUOUS
 10
42.271843
 20
164.823893
 30
0.0
 11
42.342553
 21
164.840695
 31
0.0
  0
LINE
  8
0
  6
CONTINUOUS
 10
42.342553
 20
164.840695
 30
0.0
 11
42.413265
 21
164.823896
 31
0.0
  0
LINE
  8
0
  6
CONTINUOUS
 10
42.872902
 20
164.560264
 30
0.0
 11
42.898786
 21
164.534551
 31
0.0
  0
LINE
  8
0
  6
CONTINUOUS
 10
42.898786
 20
164.534551
 30
0.0
 11
42.898788
 21
164.504859
 31
0.0
  0
LINE
  8
0
  6
CONTINUOUS
 10
42.898788
 20
164.504859
 30
0.0
 11
42.872908
 21
164.479144
 31
0.0
  0
LINE
  8
0
  6
CONTINUOUS
 10
42.050053
 20
168.631162
 30
0.0
 11
42.220958
 21
168.673128
 31
0.0
  0
LINE
  8
0
  6
CONTINUOUS
 10
42.220958
 20
168.673128
 30
0.0
 11
42.395114
 21
168.635818
 31
0.0
  0
LINE
  8
0
  6
CONTINUOUS
 10
41.988976
 20
165.188929
 30
0.0
 11
42.342523
 21
165.27294
 31
0.0
  0
LINE
  8
0
  6
CONTINUOUS
 10
42.342523
 20
165.27294
 30
0.0
 11
42.696083
 21
165.188945
 31
0.0
  0
LINE
  8
0
  6
CONTINUOUS
 10
43.620827
 20
164.658545
 30
0.0
 11
43.776129
 21
164.504263
 31
0.0
  0
LINE
  8
0
  6
CONTINUOUS
 10
43.776129
 20
164.504263
 30
0.0
 11
43.776141
 21
164.32611
 31
0.0
  0
LINE
  8
0
  6
CONTINUOUS
 10
43.776141
 20
164.32611
 30
0.0
 11
43.62086
 21
164.171821
 31
0.0
  0
LINE
  8
0
  6
CONTINUOUS
 10
43.62086
 20
164.171821
 30
0.0
 11
43.351894
 21
164.082739
 31
0.0
  0
LINE
  8
0
  6
CONTINUOUS
 10
46.708216
 20
165.94917
 30
0.0
 11
46.562526
 21
165.900917
 31
0.0
  0
LINE
  8
0
  6
CONTINUOUS
 10
46.562526
 20
165.900917
 30
0.0
 11
46.394294
 21
165.900913
 31
0.0
  0
LINE
  8
0
  6
CONTINUOUS
 10
46.394294
 20
165.900913
 30
0.0
 11
46.248597
 21
165.94916
 31
0.0
  0
LINE
  8
0
  6
CONTINUOUS
 10
46.248597
 20
165.94916
 30
0.0
 11
46.164475
 21
166.032729
 31
0.0
  0
LINE
  8
0
  6
CONTINUOUS
 10
46.164475
 20
166.032729
 30
0.0
 11
46.164468
 21
166.129228
 31
0.0
  0
LINE
  8
0
  6
CONTINUOUS
 10
46.164468
 20
166.129228
 30
0.0
 11
46.248579
 21
166.212801
 31
0.0
  0
LINE
  8
0
  6
CONTINUOUS
 10
46.430064
 20
166.529239
 30
0.0
 11
46.501122
 21
166.464625
 31
0.0
  0
LINE
  8
0
  6
CONTINUOUS
 10
46.501122
 20
166.464625
 30
0.0
 11
46.504254
 21
166.38825
 31
0.0
  0
LINE
  8
0
  6
CONTINUOUS
 10
46.504254
 20
166.38825
 30
0.0
 11
46.43857
 21
166.321791
 31
0.0
  0
LINE
  8
0
  6
CONTINUOUS
 10
48.423528
 20
166.933165
 30
0.0
 11
48.075959
 21
166.82012
 31
0.0
  0
LINE
  8
0
  6
CONTINUOUS
 10
48.075959
 20
166.82012
 30
0.0
 11
47.676514
 21
166.825491
 31
0.0
  0
LINE
  8
0
  6
CONTINUOUS
 10
47.676514
 20
166.825491
 30
0.0
 11
47.33856
 21
166.947754
 31
0.0
  0
LINE
  8
0
  6
CONTINUOUS
 10
46.983852
 20
166.744274
 30
0.0
 11
47.197025
 21
166.550431
 31
0.0
  0
LINE
  8
0
  6
CONTINUOUS
 10
47.197025
 20
166.550431
 30
0.0
 11
47.20642
 21
166.321306
 31
0.0
  0
LINE
  8
0
  6
CONTINUOUS
 10
47.20642
 20
166.321306
 30
0.0
 11
47.00937
 21
166.121928
 31
0.0
  0
LINE
  8
0
  6
CONTINUOUS
 10
48.075053
 20
167.260566
 30
0.0
 11
47.959197
 21
167.222884
 31
0.0
  0
LINE
  8
0
  6
CONTINUOUS
 10
47.959197
 20
167.222884
 30
0.0
 11
47.826048
 21
167.224674
 31
0.0
  0
LINE
  8
0
  6
CONTINUOUS
 10
47.826048
 20
167.224674
 30
0.0
 11
47.713397
 21
167.265428
 31
0.0
  0
LINE
  8
0
  6
CONTINUOUS
 10
44.040581
 20
169.579747
 30
0.0
 11
43.975522
 21
169.679641
 31
0.0
  0
LINE
  8
0
  6
CONTINUOUS
 10
43.975522
 20
169.679641
 30
0.0
 11
44.04867
 21
169.777677
 31
0.0
  0
LINE
  8
0
  6
CONTINUOUS
 10
47.539313
 20
171.780098
 30
0.0
 11
47.892861
 21
171.864109
 31
0.0
  0
LINE
  8
0
  6
CONTINUOUS
 10
47.892861
 20
171.864109
 30
0.0
 11
48.24642
 21
171.780114
 31
0.0
  0
LINE
  8
0
  6
CONTINUOUS
 10
47.716047
 20
172.408787
 30
0.0
 11
47.828116
 21
172.445904
 31
0.0
  0
LINE
  8
0
  6
CONTINUOUS
 10
47.828116
 20
172.445904
 30
0.0
 11
47.957525
 21
172.445907
 31
0.0
  0
LINE
  8
0
  6
CONTINUOUS
 10
47.957525
 20
172.445907
 30
0.0
 11
48.0696
 21
172.408795
 31
0.0
  0
LINE
  8
0
  6
CONTINUOUS
 10
71.984243
 20
84.922284
 30
0.0
 11
71.984243
 21
103.575268
 31
0.0
  0
LINE
  8
0
  6
CONTINUOUS
 10
71.984243
 20
103.575268
 30
0.0
 11
71.984243
 21
122.228253
 31
0.0
  0
LINE
  8
0
  6
CONTINUOUS
 10
72.123234
 20
85.125223
 30
0.0
 11
72.123234
 21
103.778208
 31
0.0
  0
LINE
  8
0
  6
CONTINUOUS
 10
72.123234
 20
103.778208
 30
0.0
 11
72.123234
 21
122.431193
 31
0.0
  0
LINE
  8
0
  6
CONTINUOUS
 10
51.07576
 20
84.610902
 30
0.0
 11
51.282847
 21
85.308892
 31
0.0
  0
LINE
  8
0
  6
CONTINUOUS
 10
51.282847
 20
85.308892
 30
0.0
 11
51.782812
 21
85.835603
 31
0.0
  0
LINE
  8
0
  6
CONTINUOUS
 10
55.712243
 20
81.951131
 30
0.0
 11
55.91933
 21
82.649121
 31
0.0
  0
LINE
  8
0
  6
CONTINUOUS
 10
55.91933
 20
82.649121
 30
0.0
 11
56.419295
 21
83.175832
 31
0.0
  0
LINE
  8
0
  6
CONTINUOUS
 10
56.242552
 20
80.432735
 30
0.0
 11
56.139008
 21
80.08374
 31
0.0
  0
LINE
  8
0
  6
CONTINUOUS
 10
56.139008
 20
80.08374
 30
0.0
 11
55.889026
 21
79.820385
 31
0.0
  0
LINE
  8
0
  6
CONTINUOUS
 10
49.348525
 20
76.682747
 30
0.0
 11
49.223534
 21
76.671022
 31
0.0
  0
LINE
  8
0
  6
CONTINUOUS
 10
49.223534
 20
76.671022
 30
0.0
 11
49.171762
 21
76.786121
 31
0.0
  0
LINE
  8
0
  6
CONTINUOUS
 10
51.07576
 20
83.402639
 30
0.0
 11
50.972216
 21
83.053644
 31
0.0
  0
LINE
  8
0
  6
CONTINUOUS
 10
50.972216
 20
83.053644
 30
0.0
 11
50.722234
 21
82.790288
 31
0.0
  0
LINE
  8
0
  6
CONTINUOUS
 10
55.712243
 20
80.742868
 30
0.0
 11
55.608699
 21
80.393873
 31
0.0
  0
LINE
  8
0
  6
CONTINUOUS
 10
55.608699
 20
80.393873
 30
0.0
 11
55.358717
 21
80.130518
 31
0.0
  0
LINE
  8
0
  6
CONTINUOUS
 10
57.126428
 20
83.581482
 30
0.0
 11
57.626393
 21
83.628384
 31
0.0
  0
LINE
  8
0
  6
CONTINUOUS
 10
57.626393
 20
83.628384
 30
0.0
 11
57.83348
 21
83.167987
 31
0.0
  0
LINE
  8
0
  6
CONTINUOUS
 10
56.242552
 20
80.698984
 30
0.0
 11
56.346096
 21
81.047979
 31
0.0
  0
LINE
  8
0
  6
CONTINUOUS
 10
56.346096
 20
81.047979
 30
0.0
 11
56.596078
 21
81.311334
 31
0.0
  0
LINE
  8
0
  6
CONTINUOUS
 10
57.656697
 20
80.834416
 30
0.0
 11
57.406715
 21
80.810965
 31
0.0
  0
LINE
  8
0
  6
CONTINUOUS
 10
57.406715
 20
80.810965
 30
0.0
 11
57.303171
 21
81.041163
 31
0.0
  0
LINE
  8
0
  6
CONTINUOUS
 10
56.772862
 20
83.051005
 30
0.0
 11
57.038016
 21
83.120805
 31
0.0
  0
LINE
  8
0
  6
CONTINUOUS
 10
57.038016
 20
83.120805
 30
0.0
 11
57.232123
 21
83.007289
 31
0.0
  0
LINE
  8
0
  6
CONTINUOUS
 10
57.232123
 20
83.007289
 30
0.0
 11
57.303171
 21
82.740872
 31
0.0
  0
LINE
  8
0
  6
CONTINUOUS
 10
57.303171
 20
82.740872
 30
0.0
 11
57.232123
 21
82.392942
 31
0.0
  0
LINE
  8
0
  6
CONTINUOUS
 10
57.232123
 20
82.392942
 30
0.0
 11
57.038016
 21
82.056725
 31
0.0
  0
LINE
  8
0
  6
CONTINUOUS
 10
57.038016
 20
82.056725
 30
0.0
 11
56.772862
 21
81.822311
 31
0.0
  0
LINE
  8
0
  6
CONTINUOUS
 10
56.925648
 20
83.112484
 30
0.0
 11
56.922272
 21
82.733304
 31
0.0
  0
LINE
  8
0
  6
CONTINUOUS
 10
56.922272
 20
82.733304
 30
0.0
 11
56.72922
 21
82.318732
 31
0.0
  0
LINE
  8
0
  6
CONTINUOUS
 10
56.72922
 20
82.318732
 30
0.0
 11
56.419294
 21
82.025105
 31
0.0
  0
LINE
  8
0
  6
CONTINUOUS
 10
56.823947
 20
83.077365
 30
0.0
 11
56.847716
 21
82.759633
 31
0.0
  0
LINE
  8
0
  6
CONTINUOUS
 10
56.847716
 20
82.759633
 30
0.0
 11
56.690763
 21
82.391205
 31
0.0
  0
LINE
  8
0
  6
CONTINUOUS
 10
56.690763
 20
82.391205
 30
0.0
 11
56.419294
 21
82.127496
 31
0.0
  0
LINE
  8
0
  6
CONTINUOUS
 10
56.772862
 20
81.822311
 30
0.0
 11
56.461154
 21
81.760829
 31
0.0
  0
LINE
  8
0
  6
CONTINUOUS
 10
56.461154
 20
81.760829
 30
0.0
 11
56.268507
 21
81.95749
 31
0.0
  0
LINE
  8
0
  6
CONTINUOUS
 10
56.268507
 20
81.95749
 30
0.0
 11
56.268507
 21
82.337177
 31
0.0
  0
LINE
  8
0
  6
CONTINUOUS
 10
56.268507
 20
82.337177
 30
0.0
 11
56.461154
 21
82.754863
 31
0.0
  0
LINE
  8
0
  6
CONTINUOUS
 10
56.461154
 20
82.754863
 30
0.0
 11
56.772862
 21
83.051005
 31
0.0
  0
LINE
  8
0
  6
CONTINUOUS
 10
56.419294
 20
82.025105
 30
0.0
 11
56.342156
 21
81.987388
 31
0.0
  0
LINE
  8
0
  6
CONTINUOUS
 10
56.342156
 20
81.987388
 30
0.0
 11
56.266659
 21
81.963542
 31
0.0
  0
LINE
  8
0
  6
CONTINUOUS
 10
56.419294
 20
82.127496
 30
0.0
 11
56.330656
 21
82.087052
 31
0.0
  0
LINE
  8
0
  6
CONTINUOUS
 10
56.330656
 20
82.087052
 30
0.0
 11
56.245619
 21
82.069059
 31
0.0
  0
LINE
  8
0
  6
CONTINUOUS
 10
56.949645
 20
81.514159
 30
0.0
 11
57.199627
 21
81.53761
 31
0.0
  0
LINE
  8
0
  6
CONTINUOUS
 10
57.199627
 20
81.53761
 30
0.0
 11
57.303171
 21
81.307412
 31
0.0
  0
LINE
  8
0
  6
CONTINUOUS
 10
58.187006
 20
81.752977
 30
0.0
 11
57.937024
 21
81.729526
 31
0.0
  0
LINE
  8
0
  6
CONTINUOUS
 10
57.937024
 20
81.729526
 30
0.0
 11
57.83348
 21
81.959724
 31
0.0
  0
LINE
  8
0
  6
CONTINUOUS
 10
56.419295
 20
105.865714
 30
0.0
 11
55.91933
 21
105.818812
 31
0.0
  0
LINE
  8
0
  6
CONTINUOUS
 10
55.91933
 20
105.818812
 30
0.0
 11
55.712243
 21
106.279209
 31
0.0
  0
LINE
  8
0
  6
CONTINUOUS
 10
55.889026
 20
108.61278
 30
0.0
 11
56.139008
 21
108.636231
 31
0.0
  0
LINE
  8
0
  6
CONTINUOUS
 10
56.139008
 20
108.636231
 30
0.0
 11
56.242552
 21
108.406032
 31
0.0
  0
LINE
  8
0
  6
CONTINUOUS
 10
50.107858
 20
95.595425
 30
0.0
 11
50.832665
 21
98.03839
 31
0.0
  0
LINE
  8
0
  6
CONTINUOUS
 10
50.832665
 20
98.03839
 30
0.0
 11
52.582541
 21
99.881879
 31
0.0
  0
LINE
  8
0
  6
CONTINUOUS
 10
50.107858
 20
93.690832
 30
0.0
 11
50.056087
 21
93.516335
 31
0.0
  0
LINE
  8
0
  6
CONTINUOUS
 10
50.056087
 20
93.516335
 30
0.0
 11
49.931095
 21
93.384657
 31
0.0
  0
LINE
  8
0
  6
CONTINUOUS
 10
52.570162
 20
86.28727
 30
0.0
 11
52.842027
 21
86.380259
 31
0.0
  0
LINE
  8
0
  6
CONTINUOUS
 10
52.842027
 20
86.380259
 30
0.0
 11
53.072089
 21
86.333016
 31
0.0
  0
LINE
  8
0
  6
CONTINUOUS
 10
54.403363
 20
101.131176
 30
0.0
 11
54.351592
 21
100.956679
 31
0.0
  0
LINE
  8
0
  6
CONTINUOUS
 10
54.351592
 20
100.956679
 30
0.0
 11
54.2266
 21
100.825001
 31
0.0
  0
LINE
  8
0
  6
CONTINUOUS
 10
49.171762
 20
103.940273
 30
0.0
 11
49.223534
 21
104.114771
 31
0.0
  0
LINE
  8
0
  6
CONTINUOUS
 10
49.223534
 20
104.114771
 30
0.0
 11
49.348525
 21
104.246449
 31
0.0
  0
LINE
  8
0
  6
CONTINUOUS
 10
55.358717
 20
107.694219
 30
0.0
 11
55.608699
 21
107.71767
 31
0.0
  0
LINE
  8
0
  6
CONTINUOUS
 10
55.608699
 20
107.71767
 30
0.0
 11
55.712243
 21
107.487471
 31
0.0
  0
LINE
  8
0
  6
CONTINUOUS
 10
57.778706
 20
87.120506
 30
0.0
 11
57.528808
 21
87.468857
 31
0.0
  0
LINE
  8
0
  6
CONTINUOUS
 10
57.528808
 20
87.468857
 30
0.0
 11
57.125901
 21
87.766723
 31
0.0
  0
LINE
  8
0
  6
CONTINUOUS
 10
57.125901
 20
88.509742
 30
0.0
 11
57.858204
 21
87.483115
 31
0.0
  0
LINE
  8
0
  6
CONTINUOUS
 10
57.858204
 20
87.483115
 30
0.0
 11
57.12604
 21
86.463857
 31
0.0
  0
LINE
  8
0
  6
CONTINUOUS
 10
57.83348
 20
107.496065
 30
0.0
 11
57.626393
 21
106.798075
 31
0.0
  0
LINE
  8
0
  6
CONTINUOUS
 10
57.626393
 20
106.798075
 30
0.0
 11
57.126428
 21
106.271364
 31
0.0
  0
LINE
  8
0
  6
CONTINUOUS
 10
56.772862
 20
106.396191
 30
0.0
 11
56.461154
 21
106.334708
 31
0.0
  0
LINE
  8
0
  6
CONTINUOUS
 10
56.461154
 20
106.334708
 30
0.0
 11
56.268507
 21
106.531369
 31
0.0
  0
LINE
  8
0
  6
CONTINUOUS
 10
56.268507
 20
106.531369
 30
0.0
 11
56.268507
 21
106.911056
 31
0.0
  0
LINE
  8
0
  6
CONTINUOUS
 10
56.268507
 20
106.911056
 30
0.0
 11
56.461154
 21
107.328742
 31
0.0
  0
LINE
  8
0
  6
CONTINUOUS
 10
56.461154
 20
107.328742
 30
0.0
 11
56.772862
 21
107.624885
 31
0.0
  0
LINE
  8
0
  6
CONTINUOUS
 10
56.772862
 20
107.624885
 30
0.0
 11
57.038016
 21
107.694685
 31
0.0
  0
LINE
  8
0
  6
CONTINUOUS
 10
57.038016
 20
107.694685
 30
0.0
 11
57.232123
 21
107.581168
 31
0.0
  0
LINE
  8
0
  6
CONTINUOUS
 10
57.232123
 20
107.581168
 30
0.0
 11
57.303171
 21
107.314752
 31
0.0
  0
LINE
  8
0
  6
CONTINUOUS
 10
57.303171
 20
107.314752
 30
0.0
 11
57.232123
 21
106.966821
 31
0.0
  0
LINE
  8
0
  6
CONTINUOUS
 10
57.232123
 20
106.966821
 30
0.0
 11
57.038016
 21
106.630604
 31
0.0
  0
LINE
  8
0
  6
CONTINUOUS
 10
57.038016
 20
106.630604
 30
0.0
 11
56.772862
 21
106.396191
 31
0.0
  0
LINE
  8
0
  6
CONTINUOUS
 10
56.925648
 20
107.686363
 30
0.0
 11
56.922272
 21
107.307183
 31
0.0
  0
LINE
  8
0
  6
CONTINUOUS
 10
56.922272
 20
107.307183
 30
0.0
 11
56.72922
 21
106.892611
 31
0.0
  0
LINE
  8
0
  6
CONTINUOUS
 10
56.72922
 20
106.892611
 30
0.0
 11
56.419294
 21
106.598984
 31
0.0
  0
LINE
  8
0
  6
CONTINUOUS
 10
56.823947
 20
107.651244
 30
0.0
 11
56.847716
 21
107.333513
 31
0.0
  0
LINE
  8
0
  6
CONTINUOUS
 10
56.847716
 20
107.333513
 30
0.0
 11
56.690763
 21
106.965084
 31
0.0
  0
LINE
  8
0
  6
CONTINUOUS
 10
56.690763
 20
106.965084
 30
0.0
 11
56.419294
 21
106.701375
 31
0.0
  0
LINE
  8
0
  6
CONTINUOUS
 10
56.596078
 20
107.933037
 30
0.0
 11
56.346096
 21
107.909586
 31
0.0
  0
LINE
  8
0
  6
CONTINUOUS
 10
56.346096
 20
107.909586
 30
0.0
 11
56.242552
 21
108.139784
 31
0.0
  0
LINE
  8
0
  6
CONTINUOUS
 10
56.419294
 20
106.598984
 30
0.0
 11
56.342156
 21
106.561267
 31
0.0
  0
LINE
  8
0
  6
CONTINUOUS
 10
56.342156
 20
106.561267
 30
0.0
 11
56.266659
 21
106.537421
 31
0.0
  0
LINE
  8
0
  6
CONTINUOUS
 10
56.419294
 20
106.701375
 30
0.0
 11
56.330656
 21
106.660931
 31
0.0
  0
LINE
  8
0
  6
CONTINUOUS
 10
56.330656
 20
106.660931
 30
0.0
 11
56.245619
 21
106.642938
 31
0.0
  0
LINE
  8
0
  6
CONTINUOUS
 10
57.303171
 20
108.748212
 30
0.0
 11
57.199627
 21
108.399217
 31
0.0
  0
LINE
  8
0
  6
CONTINUOUS
 10
57.199627
 20
108.399217
 30
0.0
 11
56.949645
 21
108.135862
 31
0.0
  0
LINE
  8
0
  6
CONTINUOUS
 10
57.303171
 20
109.01446
 30
0.0
 11
57.406715
 21
109.363456
 31
0.0
  0
LINE
  8
0
  6
CONTINUOUS
 10
57.406715
 20
109.363456
 30
0.0
 11
57.656697
 21
109.626811
 31
0.0
  0
LINE
  8
0
  6
CONTINUOUS
 10
57.83348
 20
108.704327
 30
0.0
 11
57.937024
 21
109.053323
 31
0.0
  0
LINE
  8
0
  6
CONTINUOUS
 10
57.937024
 20
109.053323
 30
0.0
 11
58.187006
 21
109.316678
 31
0.0
  0
LINE
  8
0
  6
CONTINUOUS
 10
64.373961
 20
85.506923
 30
0.0
 11
64.322189
 21
85.332425
 31
0.0
  0
LINE
  8
0
  6
CONTINUOUS
 10
64.322189
 20
85.332425
 30
0.0
 11
64.197198
 21
85.200747
 31
0.0
  0
LINE
  8
0
  6
CONTINUOUS
 10
71.984243
 20
84.922284
 30
0.0
 11
71.842683
 21
84.238217
 31
0.0
  0
LINE
  8
0
  6
CONTINUOUS
 10
71.842683
 20
84.238217
 30
0.0
 11
71.459327
 21
83.810135
 31
0.0
  0
LINE
  8
0
  6
CONTINUOUS
 10
71.459489
 20
83.810229
 30
0.0
 11
71.558424
 21
83.878063
 31
0.0
  0
LINE
  8
0
  6
CONTINUOUS
 10
71.558424
 20
83.878063
 30
0.0
 11
71.636926
 21
83.946162
 31
0.0
  0
LINE
  8
0
  6
CONTINUOUS
 10
71.636926
 20
83.946162
 30
0.0
 11
71.706285
 21
84.017591
 31
0.0
  0
LINE
  8
0
  6
CONTINUOUS
 10
71.706285
 20
84.017591
 30
0.0
 11
71.824245
 21
84.162802
 31
0.0
  0
LINE
  8
0
  6
CONTINUOUS
 10
71.824245
 20
84.162802
 30
0.0
 11
71.927838
 21
84.328403
 31
0.0
  0
LINE
  8
0
  6
CONTINUOUS
 10
71.927838
 20
84.328403
 30
0.0
 11
72.063166
 21
84.698377
 31
0.0
  0
LINE
  8
0
  6
CONTINUOUS
 10
72.063166
 20
84.698377
 30
0.0
 11
72.112954
 21
84.983515
 31
0.0
  0
LINE
  8
0
  6
CONTINUOUS
 10
72.112954
 20
84.983515
 30
0.0
 11
72.121856
 21
85.08499
 31
0.0
  0
LINE
  8
0
  6
CONTINUOUS
 10
72.121856
 20
85.08499
 30
0.0
 11
72.122977
 21
85.109877
 31
0.0
  0
LINE
  8
0
  6
CONTINUOUS
 10
72.122977
 20
85.109877
 30
0.0
 11
72.123222
 21
85.12221
 31
0.0
  0
LINE
  8
0
  6
CONTINUOUS
 10
71.446763
 20
83.802793
 30
0.0
 11
71.459327
 21
83.810135
 31
0.0
  0
LINE
  8
0
  6
CONTINUOUS
 10
71.459327
 20
83.810135
 30
0.0
 11
71.45949
 21
83.81023
 31
0.0
  0
LINE
  8
0
  6
CONTINUOUS
 10
71.459489
 20
83.810229
 30
0.0
 11
71.446775
 21
83.8028
 31
0.0
  0
LINE
  8
0
  6
CONTINUOUS
 10
71.984243
 20
84.922284
 30
0.0
 11
72.123228
 21
85.123855
 31
0.0
  0
LINE
  8
0
  6
CONTINUOUS
 10
72.123228
 20
85.123855
 30
0.0
 11
72.123234
 21
85.125219
 31
0.0
  0
LINE
  8
0
  6
CONTINUOUS
 10
72.123222
 20
85.12221
 30
0.0
 11
72.123228
 21
85.123855
 31
0.0
  0
LINE
  8
0
  6
CONTINUOUS
 10
72.123234
 20
85.125223
 30
0.0
 11
72.123222
 21
85.12221
 31
0.0
  0
LINE
  8
0
  6
CONTINUOUS
 10
67.467404
 20
101.264183
 30
0.0
 11
67.375076
 21
100.898048
 31
0.0
  0
LINE
  8
0
  6
CONTINUOUS
 10
67.375076
 20
100.898048
 30
0.0
 11
67.136672
 21
100.578972
 31
0.0
  0
LINE
  8
0
  6
CONTINUOUS
 10
67.136672
 20
100.578972
 30
0.0
 11
66.851806
 21
100.440279
 31
0.0
  0
LINE
  8
0
  6
CONTINUOUS
 10
64.90427
 20
87.71562
 30
0.0
 11
65.164779
 21
88.991365
 31
0.0
  0
LINE
  8
0
  6
CONTINUOUS
 10
65.164779
 20
88.991365
 30
0.0
 11
65.876504
 21
90.224159
 31
0.0
  0
LINE
  8
0
  6
CONTINUOUS
 10
65.876504
 20
90.224159
 30
0.0
 11
66.848738
 21
91.083677
 31
0.0
  0
LINE
  8
0
  6
CONTINUOUS
 10
66.848738
 20
91.083677
 30
0.0
 11
67.820971
 21
91.339611
 31
0.0
  0
LINE
  8
0
  6
CONTINUOUS
 10
67.820971
 20
91.339611
 30
0.0
 11
68.532696
 21
90.923383
 31
0.0
  0
LINE
  8
0
  6
CONTINUOUS
 10
68.532696
 20
90.923383
 30
0.0
 11
68.793205
 21
89.946523
 31
0.0
  0
LINE
  8
0
  6
CONTINUOUS
 10
69.199775
 20
90.322992
 30
0.0
 11
68.474969
 21
87.880026
 31
0.0
  0
LINE
  8
0
  6
CONTINUOUS
 10
68.474969
 20
87.880026
 30
0.0
 11
66.725093
 21
86.036537
 31
0.0
  0
LINE
  8
0
  6
CONTINUOUS
 10
66.565906
 20
100.751012
 30
0.0
 11
66.772993
 21
101.449003
 31
0.0
  0
LINE
  8
0
  6
CONTINUOUS
 10
66.772993
 20
101.449003
 30
0.0
 11
67.272958
 21
101.975714
 31
0.0
  0
LINE
  8
0
  6
CONTINUOUS
 10
67.272958
 20
99.518326
 30
0.0
 11
66.772993
 21
99.471424
 31
0.0
  0
LINE
  8
0
  6
CONTINUOUS
 10
66.772993
 20
99.471424
 30
0.0
 11
66.565906
 21
99.931821
 31
0.0
  0
LINE
  8
0
  6
CONTINUOUS
 10
68.793205
 20
89.946523
 30
0.0
 11
68.421845
 21
88.409442
 31
0.0
  0
LINE
  8
0
  6
CONTINUOUS
 10
68.421845
 20
88.409442
 30
0.0
 11
67.449611
 21
87.03341
 31
0.0
  0
LINE
  8
0
  6
CONTINUOUS
 10
67.449611
 20
87.03341
 30
0.0
 11
66.247864
 21
86.344023
 31
0.0
  0
LINE
  8
0
  6
CONTINUOUS
 10
66.247864
 20
86.344023
 30
0.0
 11
65.27563
 21
86.604604
 31
0.0
  0
LINE
  8
0
  6
CONTINUOUS
 10
65.27563
 20
86.604604
 30
0.0
 11
64.90427
 21
87.71562
 31
0.0
  0
LINE
  8
0
  6
CONTINUOUS
 10
66.848738
 20
100.503664
 30
0.0
 11
66.919785
 21
100.851594
 31
0.0
  0
LINE
  8
0
  6
CONTINUOUS
 10
66.919785
 20
100.851594
 30
0.0
 11
67.113892
 21
101.187811
 31
0.0
  0
LINE
  8
0
  6
CONTINUOUS
 10
67.113892
 20
101.187811
 30
0.0
 11
67.379047
 21
101.422225
 31
0.0
  0
LINE
  8
0
  6
CONTINUOUS
 10
67.379047
 20
101.422225
 30
0.0
 11
67.644201
 21
101.492025
 31
0.0
  0
LINE
  8
0
  6
CONTINUOUS
 10
67.644201
 20
101.492025
 30
0.0
 11
67.838308
 21
101.378509
 31
0.0
  0
LINE
  8
0
  6
CONTINUOUS
 10
67.838308
 20
101.378509
 30
0.0
 11
67.909356
 21
101.112092
 31
0.0
  0
LINE
  8
0
  6
CONTINUOUS
 10
67.909356
 20
101.112092
 30
0.0
 11
67.808076
 21
100.692888
 31
0.0
  0
LINE
  8
0
  6
CONTINUOUS
 10
67.808076
 20
100.692888
 30
0.0
 11
67.542921
 21
100.317607
 31
0.0
  0
LINE
  8
0
  6
CONTINUOUS
 10
67.542921
 20
100.317607
 30
0.0
 11
67.215172
 21
100.129592
 31
0.0
  0
LINE
  8
0
  6
CONTINUOUS
 10
67.215172
 20
100.129592
 30
0.0
 11
66.950018
 21
100.20066
 31
0.0
  0
LINE
  8
0
  6
CONTINUOUS
 10
66.950018
 20
100.20066
 30
0.0
 11
66.848738
 21
100.503664
 31
0.0
  0
LINE
  8
0
  6
CONTINUOUS
 10
67.555789
 20
101.314885
 30
0.0
 11
67.456806
 21
100.900691
 31
0.0
  0
LINE
  8
0
  6
CONTINUOUS
 10
67.456806
 20
100.900691
 30
0.0
 11
67.196807
 21
100.527552
 31
0.0
  0
LINE
  8
0
  6
CONTINUOUS
 10
67.196807
 20
100.527552
 30
0.0
 11
66.872852
 21
100.334763
 31
0.0
  0
LINE
  8
0
  6
CONTINUOUS
 10
64.373961
 20
87.411515
 30
0.0
 11
65.098767
 21
89.854481
 31
0.0
  0
LINE
  8
0
  6
CONTINUOUS
 10
65.098767
 20
89.854481
 30
0.0
 11
66.848643
 21
91.69797
 31
0.0
  0
LINE
  8
0
  6
CONTINUOUS
 10
68.669466
 20
92.947267
 30
0.0
 11
68.617694
 21
92.772769
 31
0.0
  0
LINE
  8
0
  6
CONTINUOUS
 10
68.617694
 20
92.772769
 30
0.0
 11
68.492703
 21
92.641091
 31
0.0
  0
LINE
  8
0
  6
CONTINUOUS
 10
67.531835
 20
101.483697
 30
0.0
 11
67.549766
 21
101.403755
 31
0.0
  0
LINE
  8
0
  6
CONTINUOUS
 10
67.549766
 20
101.403755
 30
0.0
 11
67.555789
 21
101.314885
 31
0.0
  0
LINE
  8
0
  6
CONTINUOUS
 10
67.430133
 20
101.448583
 30
0.0
 11
67.457986
 21
101.363911
 31
0.0
  0
LINE
  8
0
  6
CONTINUOUS
 10
67.457986
 20
101.363911
 30
0.0
 11
67.467404
 21
101.264183
 31
0.0
  0
LINE
  8
0
  6
CONTINUOUS
 10
68.31594
 20
100.116637
 30
0.0
 11
68.565922
 21
100.140088
 31
0.0
  0
LINE
  8
0
  6
CONTINUOUS
 10
68.565922
 20
100.140088
 30
0.0
 11
68.669466
 21
99.909889
 31
0.0
  0
LINE
  8
0
  6
CONTINUOUS
 10
68.616422
 20
100.903356
 30
0.0
 11
68.366439
 21
100.879905
 31
0.0
  0
LINE
  8
0
  6
CONTINUOUS
 10
68.366439
 20
100.879905
 30
0.0
 11
68.262896
 21
101.110103
 31
0.0
  0
LINE
  8
0
  6
CONTINUOUS
 10
68.262896
 20
101.519699
 30
0.0
 11
68.366439
 21
101.868694
 31
0.0
  0
LINE
  8
0
  6
CONTINUOUS
 10
68.366439
 20
101.868694
 30
0.0
 11
68.616422
 21
102.13205
 31
0.0
  0
LINE
  8
0
  6
CONTINUOUS
 10
68.846249
 20
101.035198
 30
0.0
 11
69.096232
 21
101.058649
 31
0.0
  0
LINE
  8
0
  6
CONTINUOUS
 10
69.096232
 20
101.058649
 30
0.0
 11
69.199775
 21
100.82845
 31
0.0
  0
LINE
  8
0
  6
CONTINUOUS
 10
66.725093
 20
114.828932
 30
0.0
 11
68.474969
 21
114.99309
 31
0.0
  0
LINE
  8
0
  6
CONTINUOUS
 10
68.474969
 20
114.99309
 30
0.0
 11
69.199775
 21
113.3817
 31
0.0
  0
LINE
  8
0
  6
CONTINUOUS
 10
64.90427
 20
111.060805
 30
0.0
 11
65.164779
 21
112.33655
 31
0.0
  0
LINE
  8
0
  6
CONTINUOUS
 10
65.164779
 20
112.33655
 30
0.0
 11
65.876504
 21
113.569345
 31
0.0
  0
LINE
  8
0
  6
CONTINUOUS
 10
65.876504
 20
113.569345
 30
0.0
 11
66.848738
 21
114.428862
 31
0.0
  0
LINE
  8
0
  6
CONTINUOUS
 10
66.848738
 20
114.428862
 30
0.0
 11
67.820971
 21
114.684796
 31
0.0
  0
LINE
  8
0
  6
CONTINUOUS
 10
67.820971
 20
114.684796
 30
0.0
 11
68.532696
 21
114.268569
 31
0.0
  0
LINE
  8
0
  6
CONTINUOUS
 10
68.532696
 20
114.268569
 30
0.0
 11
68.793205
 21
113.291708
 31
0.0
  0
LINE
  8
0
  6
CONTINUOUS
 10
68.793205
 20
113.291708
 30
0.0
 11
68.532696
 21
112.015963
 31
0.0
  0
LINE
  8
0
  6
CONTINUOUS
 10
68.532696
 20
112.015963
 30
0.0
 11
67.820971
 21
110.783169
 31
0.0
  0
LINE
  8
0
  6
CONTINUOUS
 10
67.820971
 20
110.783169
 30
0.0
 11
66.848738
 21
109.923651
 31
0.0
  0
LINE
  8
0
  6
CONTINUOUS
 10
66.848738
 20
109.923651
 30
0.0
 11
65.876504
 21
109.667717
 31
0.0
  0
LINE
  8
0
  6
CONTINUOUS
 10
65.876504
 20
109.667717
 30
0.0
 11
65.164779
 21
110.083945
 31
0.0
  0
LINE
  8
0
  6
CONTINUOUS
 10
65.164779
 20
110.083945
 30
0.0
 11
64.90427
 21
111.060805
 31
0.0
  0
LINE
  8
0
  6
CONTINUOUS
 10
66.848643
 20
109.30925
 30
0.0
 11
65.098767
 21
109.145092
 31
0.0
  0
LINE
  8
0
  6
CONTINUOUS
 10
65.098767
 20
109.145092
 30
0.0
 11
64.373961
 21
110.756482
 31
0.0
  0
LINE
  8
0
  6
CONTINUOUS
 10
64.197198
 20
112.764448
 30
0.0
 11
64.322189
 21
112.776174
 31
0.0
  0
LINE
  8
0
  6
CONTINUOUS
 10
64.322189
 20
112.776174
 30
0.0
 11
64.373961
 21
112.661075
 31
0.0
  0
LINE
  8
0
  6
CONTINUOUS
 10
68.669466
 20
103.186375
 30
0.0
 11
68.565922
 21
102.83738
 31
0.0
  0
LINE
  8
0
  6
CONTINUOUS
 10
68.565922
 20
102.83738
 30
0.0
 11
68.31594
 21
102.574024
 31
0.0
  0
LINE
  8
0
  6
CONTINUOUS
 10
68.492703
 20
110.252371
 30
0.0
 11
68.617694
 21
110.264097
 31
0.0
  0
LINE
  8
0
  6
CONTINUOUS
 10
68.617694
 20
110.264097
 30
0.0
 11
68.669466
 21
110.148998
 31
0.0
  0
LINE
  8
0
  6
CONTINUOUS
 10
69.199775
 20
102.876242
 30
0.0
 11
69.096232
 21
102.527247
 31
0.0
  0
LINE
  8
0
  6
CONTINUOUS
 10
69.096232
 20
102.527247
 30
0.0
 11
68.846249
 21
102.263891
 31
0.0
  0
LINE
  8
0
  6
CONTINUOUS
 10
57.260941
 20
132.998305
 30
0.0
 11
64.618005
 21
128.629233
 31
0.0
  0
LINE
  8
0
  6
CONTINUOUS
 10
64.618005
 20
128.629233
 30
0.0
 11
70.23061
 21
125.280415
 31
0.0
  0
LINE
  8
0
  6
CONTINUOUS
 10
70.492518
 20
125.303655
 30
0.0
 11
64.000346
 21
129.159102
 31
0.0
  0
LINE
  8
0
  6
CONTINUOUS
 10
64.000346
 20
129.159102
 30
0.0
 11
57.508192
 21
133.014538
 31
0.0
  0
LINE
  8
0
  6
CONTINUOUS
 10
54.971123
 20
124.779752
 30
0.0
 11
54.599879
 21
126.309755
 31
0.0
  0
LINE
  8
0
  6
CONTINUOUS
 10
54.599879
 20
126.309755
 30
0.0
 11
54.244798
 21
127.773145
 31
0.0
  0
LINE
  8
0
  6
CONTINUOUS
 10
54.373045
 20
128.037362
 30
0.0
 11
54.736208
 21
126.540666
 31
0.0
  0
LINE
  8
0
  6
CONTINUOUS
 10
54.736208
 20
126.540666
 30
0.0
 11
55.09937
 21
125.043969
 31
0.0
  0
LINE
  8
0
  6
CONTINUOUS
 10
55.03143
 20
124.620742
 30
0.0
 11
54.971123
 21
124.779752
 31
0.0
  0
LINE
  8
0
  6
CONTINUOUS
 10
54.971123
 20
124.779752
 30
0.0
 11
55.104298
 21
125.002266
 31
0.0
  0
LINE
  8
0
  6
CONTINUOUS
 10
55.146145
 20
125.105543
 30
0.0
 11
55.352399
 21
124.804306
 31
0.0
  0
LINE
  8
0
  6
CONTINUOUS
 10
55.352399
 20
124.804306
 30
0.0
 11
55.146186
 21
124.50306
 31
0.0
  0
LINE
  8
0
  6
CONTINUOUS
 10
55.146145
 20
125.105543
 30
0.0
 11
55.074423
 21
125.14668
 31
0.0
  0
LINE
  8
0
  6
CONTINUOUS
 10
55.146186
 20
124.50306
 30
0.0
 11
55.03143
 21
124.620742
 31
0.0
  0
LINE
  8
0
  6
CONTINUOUS
 10
55.104298
 20
125.002266
 30
0.0
 11
55.099406
 21
125.043821
 31
0.0
  0
LINE
  8
0
  6
CONTINUOUS
 10
55.08947
 20
125.084933
 30
0.0
 11
55.146145
 21
125.105543
 31
0.0
  0
LINE
  8
0
  6
CONTINUOUS
 10
55.03143
 20
124.620742
 30
0.0
 11
55.19629
 21
124.864782
 31
0.0
  0
LINE
  8
0
  6
CONTINUOUS
 10
55.104298
 20
125.002266
 30
0.0
 11
55.19629
 21
124.864782
 31
0.0
  0
LINE
  8
0
  6
CONTINUOUS
 10
55.19629
 20
124.864782
 30
0.0
 11
55.098468
 21
125.046727
 31
0.0
  0
LINE
  8
0
  6
CONTINUOUS
 10
55.352399
 20
124.804306
 30
0.0
 11
55.19629
 21
124.864782
 31
0.0
  0
LINE
  8
0
  6
CONTINUOUS
 10
55.02266
 20
125.095934
 30
0.0
 11
55.040885
 21
125.08521
 31
0.0
  0
LINE
  8
0
  6
CONTINUOUS
 10
55.040885
 20
125.08521
 30
0.0
 11
55.064126
 21
125.070046
 31
0.0
  0
LINE
  8
0
  6
CONTINUOUS
 10
55.064126
 20
125.070046
 30
0.0
 11
55.076716
 21
125.060869
 31
0.0
  0
LINE
  8
0
  6
CONTINUOUS
 10
55.076716
 20
125.060869
 30
0.0
 11
55.098137
 21
125.041267
 31
0.0
  0
LINE
  8
0
  6
CONTINUOUS
 10
55.098137
 20
125.041267
 30
0.0
 11
55.100981
 21
125.035719
 31
0.0
  0
LINE
  8
0
  6
CONTINUOUS
 10
55.100981
 20
125.035719
 30
0.0
 11
55.101759
 21
125.032936
 31
0.0
  0
LINE
  8
0
  6
CONTINUOUS
 10
55.101759
 20
125.032936
 30
0.0
 11
55.101643
 21
125.033495
 31
0.0
  0
LINE
  8
0
  6
CONTINUOUS
 10
55.101643
 20
125.033495
 30
0.0
 11
55.101521
 21
125.034089
 31
0.0
  0
LINE
  8
0
  6
CONTINUOUS
 10
55.101521
 20
125.034089
 30
0.0
 11
55.10141
 21
125.034635
 31
0.0
  0
LINE
  8
0
  6
CONTINUOUS
 10
55.10141
 20
125.034635
 30
0.0
 11
55.101291
 21
125.035223
 31
0.0
  0
LINE
  8
0
  6
CONTINUOUS
 10
55.101291
 20
125.035223
 30
0.0
 11
55.101135
 21
125.035986
 31
0.0
  0
LINE
  8
0
  6
CONTINUOUS
 10
55.101135
 20
125.035986
 30
0.0
 11
55.100891
 21
125.037166
 31
0.0
  0
LINE
  8
0
  6
CONTINUOUS
 10
55.100891
 20
125.037166
 30
0.0
 11
55.100058
 21
125.041021
 31
0.0
  0
LINE
  8
0
  6
CONTINUOUS
 10
53.894671
 20
128.326529
 30
0.0
 11
54.124166
 21
128.354454
 31
0.0
  0
LINE
  8
0
  6
CONTINUOUS
 10
54.124184
 20
128.091164
 30
0.0
 11
53.894671
 21
128.326529
 31
0.0
  0
LINE
  8
0
  6
CONTINUOUS
 10
54.142419
 20
128.345302
 30
0.0
 11
53.410952
 21
128.764846
 31
0.0
  0
LINE
  8
0
  6
CONTINUOUS
 10
53.894671
 20
128.326529
 30
0.0
 11
53.410967
 21
128.603964
 31
0.0
  0
LINE
  8
0
  6
CONTINUOUS
 10
53.410983
 20
128.329308
 30
0.0
 11
53.391956
 21
128.27443
 31
0.0
  0
LINE
  8
0
  6
CONTINUOUS
 10
53.391956
 20
128.27443
 30
0.0
 11
53.337766
 21
128.227906
 31
0.0
  0
LINE
  8
0
  6
CONTINUOUS
 10
54.373081
 20
128.037214
 30
0.0
 11
54.377972
 21
127.995659
 31
0.0
  0
LINE
  8
0
  6
CONTINUOUS
 10
54.377972
 20
127.995659
 30
0.0
 11
54.244798
 21
127.773145
 31
0.0
  0
LINE
  8
0
  6
CONTINUOUS
 10
54.124166
 20
128.354454
 30
0.0
 11
54.142338
 21
128.345349
 31
0.0
  0
LINE
  8
0
  6
CONTINUOUS
 10
54.244798
 20
127.773145
 30
0.0
 11
54.124184
 21
128.091164
 31
0.0
  0
LINE
  8
0
  6
CONTINUOUS
 10
54.265105
 20
128.187876
 30
0.0
 11
54.124166
 21
128.354454
 31
0.0
  0
LINE
  8
0
  6
CONTINUOUS
 10
54.377972
 20
127.995659
 30
0.0
 11
54.265105
 21
128.187876
 31
0.0
  0
LINE
  8
0
  6
CONTINUOUS
 10
54.124184
 20
128.091164
 30
0.0
 11
54.265105
 21
128.187876
 31
0.0
  0
LINE
  8
0
  6
CONTINUOUS
 10
61.297827
 20
123.263959
 30
0.0
 11
61.259775
 21
123.154202
 31
0.0
  0
LINE
  8
0
  6
CONTINUOUS
 10
61.259775
 20
123.154202
 30
0.0
 11
61.151395
 21
123.061154
 31
0.0
  0
LINE
  8
0
  6
CONTINUOUS
 10
60.974611
 20
123.367333
 30
0.0
 11
61.063003
 21
123.289199
 31
0.0
  0
LINE
  8
0
  6
CONTINUOUS
 10
61.063003
 20
123.289199
 30
0.0
 11
61.12771
 21
123.17713
 31
0.0
  0
LINE
  8
0
  6
CONTINUOUS
 10
61.12771
 20
123.17713
 30
0.0
 11
61.151395
 21
123.061154
 31
0.0
  0
LINE
  8
0
  6
CONTINUOUS
 10
61.297827
 20
122.89535
 30
0.0
 11
61.259775
 21
122.785594
 31
0.0
  0
LINE
  8
0
  6
CONTINUOUS
 10
61.259775
 20
122.785594
 30
0.0
 11
61.151395
 21
122.692546
 31
0.0
  0
LINE
  8
0
  6
CONTINUOUS
 10
60.974597
 20
123.570134
 30
0.0
 11
61.041841
 21
123.593314
 31
0.0
  0
LINE
  8
0
  6
CONTINUOUS
 10
61.041841
 20
123.593314
 30
0.0
 11
61.098974
 21
123.582217
 31
0.0
  0
LINE
  8
0
  6
CONTINUOUS
 10
60.974597
 20
123.570134
 30
0.0
 11
61.047827
 21
123.468735
 31
0.0
  0
LINE
  8
0
  6
CONTINUOUS
 10
61.047827
 20
123.468735
 30
0.0
 11
60.974611
 21
123.367333
 31
0.0
  0
LINE
  8
0
  6
CONTINUOUS
 10
61.297828
 20
123.263946
 30
0.0
 11
61.293357
 21
123.3183
 31
0.0
  0
LINE
  8
0
  6
CONTINUOUS
 10
61.293357
 20
123.3183
 30
0.0
 11
61.239852
 21
123.453086
 31
0.0
  0
LINE
  8
0
  6
CONTINUOUS
 10
61.239852
 20
123.453086
 30
0.0
 11
61.117196
 21
123.571222
 31
0.0
  0
LINE
  8
0
  6
CONTINUOUS
 10
61.117196
 20
123.571222
 30
0.0
 11
61.098981
 21
123.582213
 31
0.0
  0
LINE
  8
0
  6
CONTINUOUS
 10
51.978258
 20
169.031286
 30
0.0
 11
51.822977
 21
168.876998
 31
0.0
  0
LINE
  8
0
  6
CONTINUOUS
 10
51.822977
 20
168.876998
 30
0.0
 11
51.554011
 21
168.787915
 31
0.0
  0
LINE
  8
0
  6
CONTINUOUS
 10
51.554011
 20
168.787915
 30
0.0
 11
51.243428
 21
168.787908
 31
0.0
  0
LINE
  8
0
  6
CONTINUOUS
 10
51.243428
 20
168.787908
 30
0.0
 11
50.974449
 21
168.876979
 31
0.0
  0
LINE
  8
0
  6
CONTINUOUS
 10
50.049704
 20
169.407379
 30
0.0
 11
49.920286
 21
169.535947
 31
0.0
  0
LINE
  8
0
  6
CONTINUOUS
 10
49.920286
 20
169.535947
 30
0.0
 11
49.920276
 21
169.684408
 31
0.0
  0
LINE
  8
0
  6
CONTINUOUS
 10
49.920276
 20
169.684408
 30
0.0
 11
50.049677
 21
169.812982
 31
0.0
  0
LINE
  8
0
  6
CONTINUOUS
 10
51.428553
 20
169.549371
 30
0.0
 11
51.282863
 21
169.501118
 31
0.0
  0
LINE
  8
0
  6
CONTINUOUS
 10
51.282863
 20
169.501118
 30
0.0
 11
51.11463
 21
169.501114
 31
0.0
  0
LINE
  8
0
  6
CONTINUOUS
 10
51.11463
 20
169.501114
 30
0.0
 11
50.968933
 21
169.54936
 31
0.0
  0
LINE
  8
0
  6
CONTINUOUS
 10
50.968933
 20
169.54936
 30
0.0
 11
50.884812
 21
169.63293
 31
0.0
  0
LINE
  8
0
  6
CONTINUOUS
 10
50.884812
 20
169.63293
 30
0.0
 11
50.884805
 21
169.729429
 31
0.0
  0
LINE
  8
0
  6
CONTINUOUS
 10
50.884805
 20
169.729429
 30
0.0
 11
50.968915
 21
169.813002
 31
0.0
  0
LINE
  8
0
  6
CONTINUOUS
 10
50.686089
 20
169.569634
 30
0.0
 11
50.660206
 21
169.595348
 31
0.0
  0
LINE
  8
0
  6
CONTINUOUS
 10
50.660206
 20
169.595348
 30
0.0
 11
50.660204
 21
169.62504
 31
0.0
  0
LINE
  8
0
  6
CONTINUOUS
 10
50.660204
 20
169.62504
 30
0.0
 11
50.686084
 21
169.650755
 31
0.0
  0
LINE
  8
0
  6
CONTINUOUS
 10
50.50925
 20
170.482236
 30
0.0
 11
50.638669
 21
170.353668
 31
0.0
  0
LINE
  8
0
  6
CONTINUOUS
 10
50.638669
 20
170.353668
 30
0.0
 11
50.638679
 21
170.205208
 31
0.0
  0
LINE
  8
0
  6
CONTINUOUS
 10
50.638679
 20
170.205208
 30
0.0
 11
50.509278
 21
170.076634
 31
0.0
  0
LINE
  8
0
  6
CONTINUOUS
 10
51.287148
 20
169.306006
 30
0.0
 11
51.24232
 21
169.291159
 31
0.0
  0
LINE
  8
0
  6
CONTINUOUS
 10
51.24232
 20
169.291159
 30
0.0
 11
51.190557
 21
169.291158
 31
0.0
  0
LINE
  8
0
  6
CONTINUOUS
 10
51.190557
 20
169.291158
 30
0.0
 11
51.145727
 21
169.306003
 31
0.0
  0
LINE
  8
0
  6
CONTINUOUS
 10
51.605323
 20
169.650775
 30
0.0
 11
51.717392
 21
169.687893
 31
0.0
  0
LINE
  8
0
  6
CONTINUOUS
 10
51.717392
 20
169.687893
 30
0.0
 11
51.846802
 21
169.687896
 31
0.0
  0
LINE
  8
0
  6
CONTINUOUS
 10
51.846802
 20
169.687896
 30
0.0
 11
51.958876
 21
169.650783
 31
0.0
  0
LINE
  8
0
  6
CONTINUOUS
 10
51.605287
 20
170.178059
 30
0.0
 11
51.717356
 21
170.215177
 31
0.0
  0
LINE
  8
0
  6
CONTINUOUS
 10
51.717356
 20
170.215177
 30
0.0
 11
51.846765
 21
170.21518
 31
0.0
  0
LINE
  8
0
  6
CONTINUOUS
 10
51.846765
 20
170.21518
 30
0.0
 11
51.95884
 21
170.178067
 31
0.0
  0
LINE
  8
0
  6
CONTINUOUS
 10
51.74675
 20
169.569658
 30
0.0
 11
51.858819
 21
169.606776
 31
0.0
  0
LINE
  8
0
  6
CONTINUOUS
 10
51.858819
 20
169.606776
 30
0.0
 11
51.988228
 21
169.606779
 31
0.0
  0
LINE
  8
0
  6
CONTINUOUS
 10
51.988228
 20
169.606779
 30
0.0
 11
52.100303
 21
169.569666
 31
0.0
  0
LINE
  8
0
  6
CONTINUOUS
 10
52.100303
 20
169.569666
 30
0.0
 11
52.165012
 21
169.505382
 31
0.0
  0
LINE
  8
0
  6
CONTINUOUS
 10
52.165012
 20
169.505382
 30
0.0
 11
52.165017
 21
169.431152
 31
0.0
  0
LINE
  8
0
  6
CONTINUOUS
 10
51.605273
 20
170.38086
 30
0.0
 11
51.678503
 21
170.279461
 31
0.0
  0
LINE
  8
0
  6
CONTINUOUS
 10
51.678503
 20
170.279461
 30
0.0
 11
51.605287
 21
170.178059
 31
0.0
  0
LINE
  8
0
  6
CONTINUOUS
 10
52.418513
 20
169.387152
 30
0.0
 11
52.491744
 21
169.285753
 31
0.0
  0
LINE
  8
0
  6
CONTINUOUS
 10
52.491744
 20
169.285753
 30
0.0
 11
52.418527
 21
169.184351
 31
0.0
  0
LINE
  8
0
  6
CONTINUOUS
 10
53.337752
 20
169.387173
 30
0.0
 11
53.410983
 21
169.285774
 31
0.0
  0
LINE
  8
0
  6
CONTINUOUS
 10
53.410983
 20
169.285774
 30
0.0
 11
53.337766
 21
169.184371
 31
0.0
  0
LINE
  8
0
  6
CONTINUOUS
 10
70.23061
 20
125.280415
 30
0.0
 11
70.903384
 21
124.732805
 31
0.0
  0
LINE
  8
0
  6
CONTINUOUS
 10
70.903384
 20
124.732805
 30
0.0
 11
71.459327
 21
123.956582
 31
0.0
  0
LINE
  8
0
  6
CONTINUOUS
 10
70.491447
 20
125.304286
 30
0.0
 11
71.059746
 21
124.824922
 31
0.0
  0
LINE
  8
0
  6
CONTINUOUS
 10
71.059746
 20
124.824922
 30
0.0
 11
71.62371
 21
124.042873
 31
0.0
  0
LINE
  8
0
  6
CONTINUOUS
 10
71.629449
 20
124.044883
 30
0.0
 11
71.327274
 21
124.519971
 31
0.0
  0
LINE
  8
0
  6
CONTINUOUS
 10
71.327274
 20
124.519971
 30
0.0
 11
70.932905
 21
124.955403
 31
0.0
  0
LINE
  8
0
  6
CONTINUOUS
 10
70.932905
 20
124.955403
 30
0.0
 11
70.596449
 21
125.23296
 31
0.0
  0
LINE
  8
0
  6
CONTINUOUS
 10
70.596449
 20
125.23296
 30
0.0
 11
70.51958
 21
125.286537
 31
0.0
  0
LINE
  8
0
  6
CONTINUOUS
 10
70.51958
 20
125.286537
 30
0.0
 11
70.502343
 21
125.297648
 31
0.0
  0
LINE
  8
0
  6
CONTINUOUS
 10
70.502343
 20
125.297648
 30
0.0
 11
70.492518
 21
125.303655
 31
0.0
  0
LINE
  8
0
  6
CONTINUOUS
 10
70.23061
 20
125.280415
 30
0.0
 11
70.491447
 21
125.304286
 31
0.0
  0
LINE
  8
0
  6
CONTINUOUS
 10
70.491447
 20
125.304286
 30
0.0
 11
70.492515
 21
125.303657
 31
0.0
  0
LINE
  8
0
  6
CONTINUOUS
 10
71.459327
 20
123.956582
 30
0.0
 11
71.842683
 21
123.081165
 31
0.0
  0
LINE
  8
0
  6
CONTINUOUS
 10
71.842683
 20
123.081165
 30
0.0
 11
71.984243
 21
122.228253
 31
0.0
  0
LINE
  8
0
  6
CONTINUOUS
 10
71.62371
 20
124.042873
 30
0.0
 11
72.003881
 21
123.158805
 31
0.0
  0
LINE
  8
0
  6
CONTINUOUS
 10
72.003881
 20
123.158805
 30
0.0
 11
72.123228
 21
122.429825
 31
0.0
  0
LINE
  8
0
  6
CONTINUOUS
 10
72.123234
 20
122.431193
 30
0.0
 11
72.123188
 21
122.437364
 31
0.0
  0
LINE
  8
0
  6
CONTINUOUS
 10
72.123188
 20
122.437364
 30
0.0
 11
72.123039
 21
122.444587
 31
0.0
  0
LINE
  8
0
  6
CONTINUOUS
 10
72.123039
 20
122.444587
 30
0.0
 11
72.122386
 21
122.46232
 31
0.0
  0
LINE
  8
0
  6
CONTINUOUS
 10
72.122386
 20
122.46232
 30
0.0
 11
72.119484
 21
122.510175
 31
0.0
  0
LINE
  8
0
  6
CONTINUOUS
 10
72.119484
 20
122.510175
 30
0.0
 11
72.106088
 21
122.64795
 31
0.0
  0
LINE
  8
0
  6
CONTINUOUS
 10
72.106088
 20
122.64795
 30
0.0
 11
72.04049
 21
123.029948
 31
0.0
  0
LINE
  8
0
  6
CONTINUOUS
 10
72.04049
 20
123.029948
 30
0.0
 11
71.908823
 21
123.47084
 31
0.0
  0
LINE
  8
0
  6
CONTINUOUS
 10
71.908823
 20
123.47084
 30
0.0
 11
71.629449
 21
124.044883
 31
0.0
  0
LINE
  8
0
  6
CONTINUOUS
 10
72.123228
 20
122.429825
 30
0.0
 11
71.984243
 21
122.228253
 31
0.0
  0
LINE
  8
0
  6
CONTINUOUS
 10
72.123234
 20
122.431189
 30
0.0
 11
72.123228
 21
122.429825
 31
0.0
  0
LINE
  8
0
  6
CONTINUOUS
 10
71.459327
 20
123.956582
 30
0.0
 11
71.62371
 21
124.042873
 31
0.0
  0
LINE
  8
0
  6
CONTINUOUS
 10
71.629449
 20
124.044883
 30
0.0
 11
71.62371
 21
124.042873
 31
0.0
  0
LINE
  8
0
  6
CONTINUOUS
 10
38.211707
 20
106.377494
 30
0.0
 11
32.486592
 21
109.66177
 31
0.0
  0
LINE
  8
0
  6
CONTINUOUS
 10
32.486592
 20
109.66177
 30
0.0
 11
25.0
 21
113.956538
 31
0.0
  0
LINE
  8
0
  6
CONTINUOUS
 10
25.0
 20
73.109372
 30
0.0
 11
32.486592
 21
68.964659
 31
0.0
  0
LINE
  8
0
  6
CONTINUOUS
 10
32.486592
 20
68.964659
 30
0.0
 11
38.211707
 21
65.795132
 31
0.0
  0
LINE
  8
0
  6
CONTINUOUS
 10
38.565233
 20
106.989845
 30
0.0
 11
32.840118
 21
110.274121
 31
0.0
  0
LINE
  8
0
  6
CONTINUOUS
 10
32.840118
 20
110.274121
 30
0.0
 11
25.353526
 21
114.568888
 31
0.0
  0
LINE
  8
0
  6
CONTINUOUS
 10
25.111138
 20
72.883602
 30
0.0
 11
31.717593
 21
69.226149
 31
0.0
  0
LINE
  8
0
  6
CONTINUOUS
 10
31.717593
 20
69.226149
 30
0.0
 11
38.324066
 21
65.568686
 31
0.0
  0
LINE
  8
0
  6
CONTINUOUS
 10
25.111105
 20
72.883621
 30
0.0
 11
25.10741
 21
72.885723
 31
0.0
  0
LINE
  8
0
  6
CONTINUOUS
 10
25.10741
 20
72.885723
 30
0.0
 11
25.029306
 21
72.971465
 31
0.0
  0
LINE
  8
0
  6
CONTINUOUS
 10
25.029306
 20
72.971465
 30
0.0
 11
25.0
 21
73.109372
 31
0.0
  0
LINE
  8
0
  6
CONTINUOUS
 10
25.353526
 20
114.568888
 30
0.0
 11
25.219972
 21
114.458324
 31
0.0
  0
LINE
  8
0
  6
CONTINUOUS
 10
25.219972
 20
114.458324
 30
0.0
 11
25.107283
 21
114.3032
 31
0.0
  0
LINE
  8
0
  6
CONTINUOUS
 10
25.107283
 20
114.3032
 30
0.0
 11
25.029282
 21
114.12799
 31
0.0
  0
LINE
  8
0
  6
CONTINUOUS
 10
25.029282
 20
114.12799
 30
0.0
 11
25.0
 21
113.956538
 31
0.0
  0
ENDSEC
  0
EOF
