  0
SECTION
  2
HEADER
  9
$ACADVER
  1
AC1009
  9
$INSBASE
 10
0.0
 20
0.0
 30
0.0
  9
$EXTMIN
 10
24.971154
 20
57.886632
 30
0.0
  9
$EXTMAX
 10
121.286771
 20
156.307179
 30
0.0
  9
$LIMMIN
 10
24.971154
 20
57.886632
  9
$LIMMAX
 10
121.286771
 20
156.307179
  9
$ORTHOMODE
 70
     0
  9
$REGENMODE
 70
     1
  9
$FILLMODE
 70
     1
  9
$QTEXTMODE
 70
     0
  9
$MIRRTEXT
 70
     1
  9
$DRAGMODE
 70
     2
  9
$LTSCALE
 40
1.0
  9
$OSMODE
 70
     0
  9
$ATTMODE
 70
     1
  9
$TEXTSIZE
 40
3.5
  9
$TRACEWID
 40
0.5
  9
$TEXTSTYLE
  7
STANDARD
  9
$CLAYER
  8
0
  9
$CELTYPE
  6
BYLAYER
  9
$CECOLOR
 62
   256
  9
$DIMSCALE
 40
1.0
  9
$DIMASZ
 40
0.18
  9
$DIMEXO
 40
0.0625
  9
$DIMDLI
 40
0.38
  9
$DIMRND
 40
0.0
  9
$DIMDLE
 40
0.0
  9
$DIMEXE
 40
0.18
  9
$DIMTP
 40
0.0
  9
$DIMTM
 40
0.0
  9
$DIMTXT
 40
0.18
  9
$DIMCEN
 40
0.09
  9
$DIMTSZ
 40
0.0
  9
$DIMTOL
 70
     0
  9
$DIMLIM
 70
     0
  9
$DIMTIH
 70
     1
  9
$DIMTOH
 70
     1
  9
$DIMSE1
 70
     0
  9
$DIMSE2
 70
     0
  9
$DIMTAD
 70
     0
  9
$DIMZIN
 70
     0
  9
$DIMBLK
  1

  9
$DIMASO
 70
     1
  9
$DIMSHO
 70
     1
  9
$DIMPOST
  1

  9
$DIMAPOST
  1

  9
$DIMALT
 70
     0
  9
$DIMALTD
 70
     2
  9
$DIMALTF
 40
25.4
  9
$DIMLFAC
 40
1.0
  9
$DIMTOFL
 70
     0
  9
$DIMTVP
 40
0.0
  9
$DIMTIX
 70
     0
  9
$DIMSOXD
 70
     0
  9
$DIMSAH
 70
     0
  9
$DIMBLK1
  1

  9
$DIMBLK2
  1

  9
$DIMSTYLE
  2
*UNNAMED
  9
$DIMCLRD
 70
     0
  9
$DIMCLRE
 70
     0
  9
$DIMCLRT
 70
     0
  9
$DIMTFAC
 40
1.0
  9
$DIMGAP
 40
0.09
  9
$LUNITS
 70
     2
  9
$LUPREC
 70
     4
  9
$SKETCHINC
 40
0.1
  9
$FILLETRAD
 40
2.0
  9
$AUNITS
 70
     0
  9
$AUPREC
 70
     0
  9
$MENU
  1
ACAD
  9
$ELEVATION
 40
0.0
  9
$PELEVATION
 40
0.0
  9
$THICKNESS
 40
0.0
  9
$LIMCHECK
 70
     0
  9
$BLIPMODE
 70
     1
  9
$CHAMFERA
 40
0.0
  9
$CHAMFERB
 40
0.0
  9
$SKPOLY
 70
     0
  9
$TDCREATE
 40
2450954.692366319
  9
$TDUPDATE
 40
2450954.712026967
  9
$TDINDWG
 40
0.0001233796
  9
$TDUSRTIMER
 40
0.0001233796
  9
$USRTIMER
 70
     1
  9
$ANGBASE
 50
0.0
  9
$ANGDIR
 70
     0
  9
$PDMODE
 70
     0
  9
$PDSIZE
 40
0.0
  9
$PLINEWID
 40
0.0
  9
$COORDS
 70
     2
  9
$SPLFRAME
 70
     0
  9
$SPLINETYPE
 70
     6
  9
$SPLINESEGS
 70
     8
  9
$ATTDIA
 70
     0
  9
$ATTREQ
 70
     1
  9
$HANDLING
 70
     0
  9
$HANDSEED
  5
0
  9
$SURFTAB1
 70
     6
  9
$SURFTAB2
 70
     6
  9
$SURFTYPE
 70
     6
  9
$SURFU
 70
     6
  9
$SURFV
 70
     6
  9
$UCSNAME
  2

  9
$UCSORG
 10
0.0
 20
0.0
 30
0.0
  9
$UCSXDIR
 10
1.0
 20
0.0
 30
0.0
  9
$UCSYDIR
 10
0.0
 20
1.0
 30
0.0
  9
$PUCSNAME
  2

  9
$PUCSORG
 10
0.0
 20
0.0
 30
0.0
  9
$PUCSXDIR
 10
1.0
 20
0.0
 30
0.0
  9
$PUCSYDIR
 10
0.0
 20
1.0
 30
0.0
  9
$USERI1
 70
     0
  9
$USERI2
 70
     0
  9
$USERI3
 70
     0
  9
$USERI4
 70
     0
  9
$USERI5
 70
     0
  9
$USERR1
 40
0.0
  9
$USERR2
 40
0.0
  9
$USERR3
 40
0.0
  9
$USERR4
 40
0.0
  9
$USERR5
 40
0.0
  9
$WORLDVIEW
 70
     1
  9
$SHADEDGE
 70
     3
  9
$SHADEDIF
 70
    70
  9
$TILEMODE
 70
     1
  9
$MAXACTVP
 70
    16
  9
$PINSBASE
 10
0.0
 20
0.0
 30
0.0
  9
$PLIMCHECK
 70
     0
  9
$PEXTMIN
 10
1.000000E+20
 20
1.000000E+20
 30
1.000000E+20
  9
$PEXTMAX
 10
-1.000000E+20
 20
-1.000000E+20
 30
-1.000000E+20
  9
$PLIMMIN
 10
0.0
 20
0.0
  9
$PLIMMAX
 10
420.0
 20
297.0
  9
$UNITMODE
 70
     0
  9
$VISRETAIN
 70
     0
  9
$PLINEGEN
 70
     0
  9
$PSLTSCALE
 70
     1
  9
$TREEDEPTH
 70
  3020
  9
$DWGCODEPAGE
  3
iso8859-1
  0
ENDSEC
  0
SECTION
  2
TABLES
  0
TABLE
  2
VPORT
 70
     2
  0
VPORT
  2
*ACTIVE
 70
     0
 10
0.0
 20
0.0
 11
1.0
 21
1.0
 12
90.799055
 22
115.711555
 13
0.0
 23
0.0
 14
1.0
 24
1.0
 15
0.0
 25
0.0
 16
0.0
 26
0.0
 36
1.0
 17
0.0
 27
0.0
 37
0.0
 40
129.417362
 41
1.748359
 42
50.0
 43
0.0
 44
0.0
 50
0.0
 51
0.0
 71
     0
 72
   100
 73
     1
 74
     0
 75
     0
 76
     0
 77
     0
 78
     0
  0
ENDTAB
  0
TABLE
  2
LTYPE
 70
     1
  0
LTYPE
  2
CONTINUOUS
 70
    64
  3
Solid line
 72
    65
 73
     0
 40
0.0
  0
ENDTAB
  0
TABLE
  2
LAYER
 70
     1
  0
LAYER
  2
0
 70
    64
 62
     7
  6
CONTINUOUS
  0
ENDTAB
  0
TABLE
  2
STYLE
 70
     1
  0
STYLE
  2
STANDARD
 70
     0
 40
0.0
 41
1.0
 50
0.0
 71
     0
 42
3.5
  3
txt
  4

  0
ENDTAB
  0
TABLE
  2
VIEW
 70
     0
  0
ENDTAB
  0
TABLE
  2
UCS
 70
     0
  0
ENDTAB
  0
TABLE
  2
APPID
 70
     1
  0
APPID
  2
ACAD
 70
    64
  0
ENDTAB
  0
TABLE
  2
DIMSTYLE
 70
     0
  0
ENDTAB
  0
ENDSEC
  0
SECTION
  2
BLOCKS
  0
ENDSEC
  0
SECTION
  2
ENTITIES
  0
LINE
  8
0
  6
CONTINUOUS
 10
94.808709
 20
107.175909
 30
0.0
 11
63.185408
 21
89.122801
 31
0.0
  0
LINE
  8
0
  6
CONTINUOUS
 10
63.332592
 20
89.807094
 30
0.0
 11
95.339551
 21
108.284936
 31
0.0
  0
LINE
  8
0
  6
CONTINUOUS
 10
63.332592
 20
126.99316
 30
0.0
 11
95.339551
 21
145.471002
 31
0.0
  0
LINE
  8
0
  6
CONTINUOUS
 10
61.568018
 20
130.038975
 30
0.0
 11
93.599445
 21
148.530943
 31
0.0
  0
LINE
  8
0
  6
CONTINUOUS
 10
48.356821
 20
137.666463
 30
0.0
 11
80.616838
 21
156.290408
 31
0.0
  0
LINE
  8
0
  6
CONTINUOUS
 10
67.43843
 20
77.960578
 30
0.0
 11
67.512276
 21
91.540323
 31
0.0
  0
LINE
  8
0
  6
CONTINUOUS
 10
67.313077
 20
111.593852
 30
0.0
 11
67.450198
 21
111.511897
 31
0.0
  0
LINE
  8
0
  6
CONTINUOUS
 10
76.992879
 20
130.024227
 30
0.0
 11
78.927041
 21
128.946181
 31
0.0
  0
LINE
  8
0
  6
CONTINUOUS
 10
79.563945
 20
104.501072
 30
0.0
 11
80.412293
 21
104.028228
 31
0.0
  0
LINE
  8
0
  6
CONTINUOUS
 10
80.634132
 20
106.836505
 30
0.0
 11
76.078049
 21
109.559592
 31
0.0
  0
LINE
  8
0
  6
CONTINUOUS
 10
69.780043
 20
113.103116
 30
0.0
 11
67.87828
 21
114.239765
 31
0.0
  0
LINE
  8
0
  6
CONTINUOUS
 10
76.802902
 20
129.913256
 30
0.0
 11
89.78113
 21
122.67957
 31
0.0
  0
LINE
  8
0
  6
CONTINUOUS
 10
67.736721
 20
97.812067
 30
0.0
 11
68.088994
 21
97.615721
 31
0.0
  0
LINE
  8
0
  6
CONTINUOUS
 10
71.465195
 20
103.463472
 30
0.0
 11
67.877506
 21
105.607768
 31
0.0
  0
LINE
  8
0
  6
CONTINUOUS
 10
84.468985
 20
134.340358
 30
0.0
 11
88.117793
 21
132.306619
 31
0.0
  0
LINE
  8
0
  6
CONTINUOUS
 10
67.43843
 20
77.960578
 30
0.0
 11
70.801321
 21
76.019012
 31
0.0
  0
LINE
  8
0
  6
CONTINUOUS
 10
71.049696
 20
76.018081
 30
0.0
 11
87.097826
 21
85.123862
 31
0.0
  0
LINE
  8
0
  6
CONTINUOUS
 10
87.224444
 20
85.343172
 30
0.0
 11
87.093343
 21
102.842891
 31
0.0
  0
LINE
  8
0
  6
CONTINUOUS
 10
31.467132
 20
66.846086
 30
0.0
 11
31.575319
 21
66.907472
 31
0.0
  0
LINE
  8
0
  6
CONTINUOUS
 10
31.612419
 20
61.865333
 30
0.0
 11
30.033379
 21
60.969378
 31
0.0
  0
LINE
  8
0
  6
CONTINUOUS
 10
31.615231
 20
61.559161
 30
0.0
 11
31.167754
 21
61.305261
 31
0.0
  0
LINE
  8
0
  6
CONTINUOUS
 10
31.268333
 20
58.936705
 30
0.0
 11
31.633364
 21
59.143825
 31
0.0
  0
LINE
  8
0
  6
CONTINUOUS
 10
30.326442
 20
58.908958
 30
0.0
 11
30.390524
 21
58.945319
 31
0.0
  0
LINE
  8
0
  6
CONTINUOUS
 10
114.179277
 20
132.855153
 30
0.0
 11
95.4785
 21
122.325806
 31
0.0
  0
LINE
  8
0
  6
CONTINUOUS
 10
77.924651
 20
112.267974
 30
0.0
 11
70.901955
 21
108.283265
 31
0.0
  0
LINE
  8
0
  6
CONTINUOUS
 10
48.847936
 20
95.867414
 30
0.0
 11
25.023
 21
82.26748
 31
0.0
  0
LINE
  8
0
  6
CONTINUOUS
 10
30.930236
 20
78.343274
 30
0.0
 11
30.87967
 21
78.314583
 31
0.0
  0
LINE
  8
0
  6
CONTINUOUS
 10
31.400778
 20
75.703234
 30
0.0
 11
31.508965
 21
75.76462
 31
0.0
  0
LINE
  8
0
  6
CONTINUOUS
 10
31.548877
 20
70.416309
 30
0.0
 11
31.1014
 21
70.162408
 31
0.0
  0
LINE
  8
0
  6
CONTINUOUS
 10
31.367893
 20
68.833843
 30
0.0
 11
31.560033
 21
68.942863
 31
0.0
  0
LINE
  8
0
  6
CONTINUOUS
 10
32.078648
 20
57.897321
 30
0.0
 11
67.438431
 21
77.960621
 31
0.0
  0
LINE
  8
0
  6
CONTINUOUS
 10
87.194353
 20
89.17022
 30
0.0
 11
121.234925
 21
108.484993
 31
0.0
  0
LINE
  8
0
  6
CONTINUOUS
 10
30.510383
 20
60.292368
 30
0.0
 11
30.442886
 21
60.25407
 31
0.0
  0
LINE
  8
0
  6
CONTINUOUS
 10
30.653762
 20
77.608317
 30
0.0
 11
30.831408
 21
77.709114
 31
0.0
  0
LINE
  8
0
  6
CONTINUOUS
 10
119.435897
 20
129.820242
 30
0.0
 11
95.527912
 21
116.336303
 31
0.0
  0
LINE
  8
0
  6
CONTINUOUS
 10
54.197929
 20
92.885484
 30
0.0
 11
30.27962
 21
79.23257
 31
0.0
  0
LINE
  8
0
  6
CONTINUOUS
 10
69.666591
 20
102.666693
 30
0.0
 11
71.644496
 21
101.56393
 31
0.0
  0
LINE
  8
0
  6
CONTINUOUS
 10
67.348822
 20
111.739503
 30
0.0
 11
67.313123
 21
111.76084
 31
0.0
  0
LINE
  8
0
  6
CONTINUOUS
 10
80.129777
 20
111.77303
 30
0.0
 11
80.129777
 21
111.032399
 31
0.0
  0
LINE
  8
0
  6
CONTINUOUS
 10
74.079259
 20
106.628939
 30
0.0
 11
74.079259
 21
107.833318
 31
0.0
  0
LINE
  8
0
  6
CONTINUOUS
 10
78.715564
 20
130.610812
 30
0.0
 11
78.355836
 21
130.811314
 31
0.0
  0
LINE
  8
0
  6
CONTINUOUS
 10
78.715564
 20
105.156546
 30
0.0
 11
74.079259
 21
107.833318
 31
0.0
  0
LINE
  8
0
  6
CONTINUOUS
 10
78.715564
 20
129.406433
 30
0.0
 11
77.294557
 21
130.19846
 31
0.0
  0
LINE
  8
0
  6
CONTINUOUS
 10
74.826477
 20
114.888333
 30
0.0
 11
74.826477
 21
114.04082
 31
0.0
  0
LINE
  8
0
  6
CONTINUOUS
 10
71.290943
 20
114.906146
 30
0.0
 11
71.290943
 21
114.023006
 31
0.0
  0
LINE
  8
0
  6
CONTINUOUS
 10
74.079259
 20
106.628939
 30
0.0
 11
78.715564
 21
103.952167
 31
0.0
  0
LINE
  8
0
  6
CONTINUOUS
 10
69.346399
 20
112.280448
 30
0.0
 11
69.699952
 21
112.076324
 31
0.0
  0
LINE
  8
0
  6
CONTINUOUS
 10
79.253136
 20
129.934714
 30
0.0
 11
79.422671
 21
129.835124
 31
0.0
  0
LINE
  8
0
  6
CONTINUOUS
 10
79.422671
 20
129.733062
 30
0.0
 11
79.776224
 21
129.528938
 31
0.0
  0
LINE
  8
0
  6
CONTINUOUS
 10
79.253136
 20
105.439817
 30
0.0
 11
79.422671
 21
105.340227
 31
0.0
  0
LINE
  8
0
  6
CONTINUOUS
 10
79.422671
 20
105.238165
 30
0.0
 11
79.776224
 21
105.034041
 31
0.0
  0
LINE
  8
0
  6
CONTINUOUS
 10
90.300419
 20
124.573768
 30
0.0
 11
90.471214
 21
124.476866
 31
0.0
  0
LINE
  8
0
  6
CONTINUOUS
 10
90.559602
 20
124.527897
 30
0.0
 11
90.913156
 21
124.323773
 31
0.0
  0
LINE
  8
0
  6
CONTINUOUS
 10
68.285739
 20
111.055688
 30
0.0
 11
68.120902
 21
111.150856
 31
0.0
  0
LINE
  8
0
  6
CONTINUOUS
 10
67.932199
 20
110.443338
 30
0.0
 11
67.896847
 21
110.463749
 31
0.0
  0
LINE
  8
0
  6
CONTINUOUS
 10
67.702362
 20
110.310642
 30
0.0
 11
67.667011
 21
110.331053
 31
0.0
  0
LINE
  8
0
  6
CONTINUOUS
 10
79.422644
 20
106.381245
 30
0.0
 11
74.786339
 21
109.058016
 31
0.0
  0
LINE
  8
0
  6
CONTINUOUS
 10
74.786339
 20
109.058016
 30
0.0
 11
75.573721
 21
109.512611
 31
0.0
  0
LINE
  8
0
  6
CONTINUOUS
 10
75.573721
 20
109.512611
 30
0.0
 11
80.129804
 21
106.789524
 31
0.0
  0
LINE
  8
0
  6
CONTINUOUS
 10
67.87899
 20
112.665347
 30
0.0
 11
68.232692
 21
112.453946
 31
0.0
  0
LINE
  8
0
  6
CONTINUOUS
 10
69.275715
 20
113.056135
 30
0.0
 11
67.878511
 21
113.891218
 31
0.0
  0
LINE
  8
0
  6
CONTINUOUS
 10
79.599434
 20
131.059862
 30
0.0
 11
79.245732
 21
131.271263
 31
0.0
  0
LINE
  8
0
  6
CONTINUOUS
 10
67.702362
 20
110.310642
 30
0.0
 11
67.932199
 21
110.443338
 31
0.0
  0
LINE
  8
0
  6
CONTINUOUS
 10
68.285739
 20
111.055688
 30
0.0
 11
68.285739
 21
111.463967
 31
0.0
  0
LINE
  8
0
  6
CONTINUOUS
 10
67.348822
 20
111.739503
 30
0.0
 11
67.348822
 21
113.78076
 31
0.0
  0
LINE
  8
0
  6
CONTINUOUS
 10
79.245894
 20
131.52937
 30
0.0
 11
79.245894
 21
131.263978
 31
0.0
  0
LINE
  8
0
  6
CONTINUOUS
 10
79.599434
 20
131.059862
 30
0.0
 11
79.953014
 21
131.264001
 31
0.0
  0
LINE
  8
0
  6
CONTINUOUS
 10
80.306554
 20
131.87635
 30
0.0
 11
80.306554
 21
132.141743
 31
0.0
  0
LINE
  8
0
  6
CONTINUOUS
 10
92.203626
 20
128.130688
 30
0.0
 11
92.203626
 21
126.089431
 31
0.0
  0
LINE
  8
0
  6
CONTINUOUS
 10
91.850086
 20
125.477082
 30
0.0
 11
91.620249
 21
125.344386
 31
0.0
  0
LINE
  8
0
  6
CONTINUOUS
 10
91.620249
 20
124.119641
 30
0.0
 11
91.850086
 21
124.252337
 31
0.0
  0
LINE
  8
0
  6
CONTINUOUS
 10
92.203626
 20
124.048221
 30
0.0
 11
92.203626
 21
122.006964
 31
0.0
  0
LINE
  8
0
  6
CONTINUOUS
 10
80.129804
 20
129.406479
 30
0.0
 11
79.422644
 21
128.9982
 31
0.0
  0
LINE
  8
0
  6
CONTINUOUS
 10
78.715564
 20
129.406433
 30
0.0
 11
78.715564
 21
130.610812
 31
0.0
  0
LINE
  8
0
  6
CONTINUOUS
 10
68.232692
 20
112.453946
 30
0.0
 11
69.275715
 21
113.056135
 31
0.0
  0
LINE
  8
0
  6
CONTINUOUS
 10
69.982795
 20
112.647903
 30
0.0
 11
69.982795
 21
111.831344
 31
0.0
  0
LINE
  8
0
  6
CONTINUOUS
 10
69.275715
 20
110.606646
 30
0.0
 11
68.232692
 21
110.004456
 31
0.0
  0
LINE
  8
0
  6
CONTINUOUS
 10
78.715564
 20
103.952167
 30
0.0
 11
78.715564
 21
105.156546
 31
0.0
  0
LINE
  8
0
  6
CONTINUOUS
 10
79.422644
 20
106.381245
 30
0.0
 11
80.129804
 21
106.789524
 31
0.0
  0
LINE
  8
0
  6
CONTINUOUS
 10
80.836884
 20
106.381291
 30
0.0
 11
80.836884
 21
105.176912
 31
0.0
  0
LINE
  8
0
  6
CONTINUOUS
 10
91.266709
 20
124.732036
 30
0.0
 11
91.266709
 21
124.323757
 31
0.0
  0
LINE
  8
0
  6
CONTINUOUS
 10
67.932199
 20
111.668083
 30
0.0
 11
67.702362
 21
111.535387
 31
0.0
  0
LINE
  8
0
  6
CONTINUOUS
 10
67.348822
 20
99.2266
 30
0.0
 11
67.348822
 21
107.657036
 31
0.0
  0
LINE
  8
0
  6
CONTINUOUS
 10
67.313124
 20
107.676933
 30
0.0
 11
67.348822
 21
107.657036
 31
0.0
  0
LINE
  8
0
  6
CONTINUOUS
 10
89.569653
 20
123.139821
 30
0.0
 11
89.569653
 21
123.95638
 31
0.0
  0
LINE
  8
0
  6
CONTINUOUS
 10
79.214893
 20
128.911262
 30
0.0
 11
89.569653
 21
123.139821
 31
0.0
  0
LINE
  8
0
  6
CONTINUOUS
 10
80.130705
 20
129.405959
 30
0.0
 11
89.569653
 21
123.95638
 31
0.0
  0
LINE
  8
0
  6
CONTINUOUS
 10
80.836884
 20
130.631178
 30
0.0
 11
90.276733
 21
125.181078
 31
0.0
  0
LINE
  8
0
  6
CONTINUOUS
 10
91.319756
 20
125.783268
 30
0.0
 11
80.832234
 21
131.838242
 31
0.0
  0
LINE
  8
0
  6
CONTINUOUS
 10
90.276733
 20
125.181078
 30
0.0
 11
91.319756
 21
125.783268
 31
0.0
  0
LINE
  8
0
  6
CONTINUOUS
 10
80.836884
 20
131.835557
 30
0.0
 11
80.836884
 21
130.631178
 31
0.0
  0
LINE
  8
0
  6
CONTINUOUS
 10
91.319756
 20
123.333778
 30
0.0
 11
90.276733
 21
122.731589
 31
0.0
  0
LINE
  8
0
  6
CONTINUOUS
 10
79.953014
 20
104.727862
 30
0.0
 11
79.599434
 21
104.523723
 31
0.0
  0
LINE
  8
0
  6
CONTINUOUS
 10
80.306554
 20
104.523746
 30
0.0
 11
79.946826
 21
104.724248
 31
0.0
  0
LINE
  8
0
  6
CONTINUOUS
 10
80.306554
 20
104.258354
 30
0.0
 11
80.306554
 21
104.523746
 31
0.0
  0
LINE
  8
0
  6
CONTINUOUS
 10
79.712967
 20
104.589202
 30
0.0
 11
80.306554
 21
104.258354
 31
0.0
  0
LINE
  8
0
  6
CONTINUOUS
 10
79.245894
 20
103.911374
 30
0.0
 11
79.245894
 21
103.645981
 31
0.0
  0
LINE
  8
0
  6
CONTINUOUS
 10
67.879152
 20
102.451863
 30
0.0
 11
67.879152
 21
109.392107
 31
0.0
  0
LINE
  8
0
  6
CONTINUOUS
 10
89.728846
 20
137.989938
 30
0.0
 11
89.694106
 21
138.010702
 31
0.0
  0
LINE
  8
0
  6
CONTINUOUS
 10
80.660094
 20
132.754092
 30
0.0
 11
89.728846
 21
137.989938
 31
0.0
  0
LINE
  8
0
  6
CONTINUOUS
 10
72.351596
 20
127.344806
 30
0.0
 11
78.362024
 21
130.814928
 31
0.0
  0
LINE
  8
0
  6
CONTINUOUS
 10
87.200852
 20
108.442918
 30
0.0
 11
81.190424
 21
104.972796
 31
0.0
  0
LINE
  8
0
  6
CONTINUOUS
 10
81.190424
 20
104.972796
 30
0.0
 11
80.836722
 21
105.184197
 31
0.0
  0
LINE
  8
0
  6
CONTINUOUS
 10
77.936433
 20
108.447647
 30
0.0
 11
80.129777
 21
109.713974
 31
0.0
  0
LINE
  8
0
  6
CONTINUOUS
 10
80.129777
 20
111.77303
 30
0.0
 11
74.826477
 21
114.888333
 31
0.0
  0
LINE
  8
0
  6
CONTINUOUS
 10
71.290943
 20
114.906146
 30
0.0
 11
68.980957
 21
113.572475
 31
0.0
  0
LINE
  8
0
  6
CONTINUOUS
 10
72.9353
 20
116.679138
 30
0.0
 11
87.200852
 21
108.442918
 31
0.0
  0
LINE
  8
0
  6
CONTINUOUS
 10
67.313124
 20
99.246497
 30
0.0
 11
67.348822
 21
99.2266
 31
0.0
  0
LINE
  8
0
  6
CONTINUOUS
 10
91.493432
 20
133.436112
 30
0.0
 11
91.673296
 21
133.335861
 31
0.0
  0
LINE
  8
0
  6
CONTINUOUS
 10
91.673296
 20
133.335861
 30
0.0
 11
91.673296
 21
126.395617
 31
0.0
  0
LINE
  8
0
  6
CONTINUOUS
 10
91.673296
 20
126.395617
 30
0.0
 11
81.191482
 21
132.447295
 31
0.0
  0
LINE
  8
0
  6
CONTINUOUS
 10
78.892354
 20
103.033632
 30
0.0
 11
69.823602
 21
97.797785
 31
0.0
  0
LINE
  8
0
  6
CONTINUOUS
 10
92.203626
 20
122.006964
 30
0.0
 11
92.203626
 21
113.576527
 31
0.0
  0
LINE
  8
0
  6
CONTINUOUS
 10
69.666591
 20
125.936845
 30
0.0
 11
71.644496
 21
124.834083
 31
0.0
  0
LINE
  8
0
  6
CONTINUOUS
 10
87.377622
 20
110.647564
 30
0.0
 11
87.377622
 21
108.749093
 31
0.0
  0
LINE
  8
0
  6
CONTINUOUS
 10
73.11207
 20
116.985313
 30
0.0
 11
87.377622
 21
108.749093
 31
0.0
  0
LINE
  8
0
  6
CONTINUOUS
 10
68.055922
 20
119.904481
 30
0.0
 11
69.700047
 21
120.853716
 31
0.0
  0
LINE
  8
0
  6
CONTINUOUS
 10
72.174826
 20
127.038631
 30
0.0
 11
72.174826
 21
125.14016
 31
0.0
  0
LINE
  8
0
  6
CONTINUOUS
 10
87.377622
 20
135.81597
 30
0.0
 11
87.197758
 21
135.916221
 31
0.0
  0
LINE
  8
0
  6
CONTINUOUS
 10
87.377622
 20
135.81597
 30
0.0
 11
87.377622
 21
133.917499
 31
0.0
  0
LINE
  8
0
  6
CONTINUOUS
 10
77.230973
 20
124.119463
 30
0.0
 11
91.496526
 21
115.883243
 31
0.0
  0
LINE
  8
0
  6
CONTINUOUS
 10
89.852401
 20
114.934007
 30
0.0
 11
91.496526
 21
115.883243
 31
0.0
  0
LINE
  8
0
  6
CONTINUOUS
 10
89.852401
 20
132.488684
 30
0.0
 11
91.496526
 21
133.43792
 31
0.0
  0
LINE
  8
0
  6
CONTINUOUS
 10
68.055922
 20
102.349804
 30
0.0
 11
69.700047
 21
103.29904
 31
0.0
  0
LINE
  8
0
  6
CONTINUOUS
 10
67.879071
 20
102.455505
 30
0.0
 11
68.055922
 21
102.349804
 31
0.0
  0
LINE
  8
0
  6
CONTINUOUS
 10
72.174826
 20
101.870225
 30
0.0
 11
72.174826
 21
99.971754
 31
0.0
  0
LINE
  8
0
  6
CONTINUOUS
 10
78.857614
 20
131.75425
 30
0.0
 11
78.892354
 21
131.733487
 31
0.0
  0
LINE
  8
0
  6
CONTINUOUS
 10
69.823602
 20
126.49764
 30
0.0
 11
78.892354
 21
131.733487
 31
0.0
  0
LINE
  8
0
  6
CONTINUOUS
 10
69.823602
 20
126.49764
 30
0.0
 11
69.78825
 21
126.518051
 31
0.0
  0
LINE
  8
0
  6
CONTINUOUS
 10
67.348822
 20
122.211196
 30
0.0
 11
67.313127
 21
122.231805
 31
0.0
  0
LINE
  8
0
  6
CONTINUOUS
 10
67.348822
 20
113.78076
 30
0.0
 11
67.348822
 21
122.211196
 31
0.0
  0
LINE
  8
0
  6
CONTINUOUS
 10
67.348822
 20
113.78076
 30
0.0
 11
67.313124
 21
113.801371
 31
0.0
  0
LINE
  8
0
  6
CONTINUOUS
 10
69.732124
 20
113.123022
 30
0.0
 11
71.290943
 21
114.023006
 31
0.0
  0
LINE
  8
0
  6
CONTINUOUS
 10
74.826477
 20
114.04082
 30
0.0
 11
80.129777
 21
111.032399
 31
0.0
  0
LINE
  8
0
  6
CONTINUOUS
 10
89.728846
 20
109.290084
 30
0.0
 11
80.660094
 21
104.054237
 31
0.0
  0
LINE
  8
0
  6
CONTINUOUS
 10
92.203626
 20
136.561124
 30
0.0
 11
92.203626
 21
128.130688
 31
0.0
  0
LINE
  8
0
  6
CONTINUOUS
 10
69.700047
 20
103.29904
 30
0.0
 11
67.878316
 21
104.387855
 31
0.0
  0
LINE
  8
0
  6
CONTINUOUS
 10
81.190424
 20
132.447906
 30
0.0
 11
87.200852
 21
135.918028
 31
0.0
  0
LINE
  8
0
  6
CONTINUOUS
 10
91.673296
 20
123.129662
 30
0.0
 11
91.673296
 21
116.189418
 31
0.0
  0
LINE
  8
0
  6
CONTINUOUS
 10
77.407743
 20
124.425638
 30
0.0
 11
91.673296
 21
116.189418
 31
0.0
  0
LINE
  8
0
  6
CONTINUOUS
 10
91.313568
 20
123.330164
 30
0.0
 11
91.673296
 21
123.129662
 31
0.0
  0
LINE
  8
0
  6
CONTINUOUS
 10
73.11207
 20
118.883784
 30
0.0
 11
73.11207
 21
116.985313
 31
0.0
  0
LINE
  8
0
  6
CONTINUOUS
 10
72.9353
 20
116.679138
 30
0.0
 11
68.280021
 21
113.991412
 31
0.0
  0
LINE
  8
0
  6
CONTINUOUS
 10
77.407743
 20
129.574945
 30
0.0
 11
77.407743
 21
124.425638
 31
0.0
  0
LINE
  8
0
  6
CONTINUOUS
 10
77.230973
 20
124.119463
 30
0.0
 11
75.586849
 21
123.170228
 31
0.0
  0
LINE
  8
0
  6
CONTINUOUS
 10
67.879152
 20
112.658062
 30
0.0
 11
67.879152
 21
119.598306
 31
0.0
  0
LINE
  8
0
  6
CONTINUOUS
 10
78.362024
 20
103.339818
 30
0.0
 11
72.351596
 21
99.869696
 31
0.0
  0
LINE
  8
0
  6
CONTINUOUS
 10
72.174745
 20
99.975397
 30
0.0
 11
72.351596
 21
99.869696
 31
0.0
  0
LINE
  8
0
  6
CONTINUOUS
 10
70.401137
 20
104.097142
 30
0.0
 11
73.725719
 21
106.01659
 31
0.0
  0
LINE
  8
0
  6
CONTINUOUS
 10
73.725719
 20
106.01659
 30
0.0
 11
78.362024
 21
103.339818
 31
0.0
  0
LINE
  8
0
  6
CONTINUOUS
 10
69.087215
 20
112.326319
 30
0.0
 11
69.258011
 21
112.229417
 31
0.0
  0
LINE
  8
0
  6
CONTINUOUS
 10
89.852401
 20
114.934007
 30
0.0
 11
75.586849
 21
123.170228
 31
0.0
  0
LINE
  8
0
  6
CONTINUOUS
 10
87.377622
 20
110.647564
 30
0.0
 11
73.11207
 21
118.883784
 31
0.0
  0
LINE
  8
0
  6
CONTINUOUS
 10
87.377622
 20
133.917499
 30
0.0
 11
85.524857
 21
134.950176
 31
0.0
  0
LINE
  8
0
  6
CONTINUOUS
 10
89.819134
 20
137.571922
 30
0.0
 11
91.797039
 21
136.469159
 31
0.0
  0
LINE
  8
0
  6
CONTINUOUS
 10
75.453196
 20
113.683318
 30
0.0
 11
75.268091
 21
113.576447
 31
0.0
  0
LINE
  8
0
  6
CONTINUOUS
 10
75.268091
 20
113.576447
 30
0.0
 11
75.268091
 21
112.92325
 31
0.0
  0
LINE
  8
0
  6
CONTINUOUS
 10
75.268091
 20
112.92325
 30
0.0
 11
74.207431
 21
112.310878
 31
0.0
  0
LINE
  8
0
  6
CONTINUOUS
 10
74.207431
 20
112.310878
 30
0.0
 11
74.207431
 21
111.65768
 31
0.0
  0
LINE
  8
0
  6
CONTINUOUS
 10
74.207431
 20
111.65768
 30
0.0
 11
72.793217
 21
110.841184
 31
0.0
  0
LINE
  8
0
  6
CONTINUOUS
 10
72.793217
 20
110.841184
 30
0.0
 11
72.793217
 21
110.187987
 31
0.0
  0
LINE
  8
0
  6
CONTINUOUS
 10
71.025778
 20
109.167555
 30
0.0
 11
72.793217
 21
110.187987
 31
0.0
  0
LINE
  8
0
  6
CONTINUOUS
 10
68.020574
 20
109.392029
 30
0.0
 11
68.020574
 21
109.351267
 31
0.0
  0
LINE
  8
0
  6
CONTINUOUS
 10
68.550904
 20
109.698278
 30
0.0
 11
68.550904
 21
109.04508
 31
0.0
  0
LINE
  8
0
  6
CONTINUOUS
 10
68.020574
 20
109.351267
 30
0.0
 11
68.550904
 21
109.04508
 31
0.0
  0
LINE
  8
0
  6
CONTINUOUS
 10
68.550904
 20
109.04508
 30
0.0
 11
69.611564
 21
109.657453
 31
0.0
  0
LINE
  8
0
  6
CONTINUOUS
 10
69.081234
 20
109.351204
 30
0.0
 11
69.081234
 21
109.310442
 31
0.0
  0
LINE
  8
0
  6
CONTINUOUS
 10
69.611564
 20
109.657453
 30
0.0
 11
69.611564
 21
109.004255
 31
0.0
  0
LINE
  8
0
  6
CONTINUOUS
 10
69.081234
 20
109.310442
 30
0.0
 11
69.611564
 21
109.004255
 31
0.0
  0
LINE
  8
0
  6
CONTINUOUS
 10
69.611564
 20
109.004255
 30
0.0
 11
71.025778
 21
109.820752
 31
0.0
  0
LINE
  8
0
  6
CONTINUOUS
 10
70.495447
 20
109.473741
 30
0.0
 11
71.025778
 21
109.167555
 31
0.0
  0
LINE
  8
0
  6
CONTINUOUS
 10
70.495447
 20
109.514503
 30
0.0
 11
70.495447
 21
109.473741
 31
0.0
  0
LINE
  8
0
  6
CONTINUOUS
 10
71.025778
 20
109.820752
 30
0.0
 11
71.025778
 21
109.167555
 31
0.0
  0
LINE
  8
0
  6
CONTINUOUS
 10
67.872719
 20
109.306727
 30
0.0
 11
68.550904
 21
109.698278
 31
0.0
  0
LINE
  8
0
  6
CONTINUOUS
 10
89.819134
 20
114.301769
 30
0.0
 11
91.797039
 21
113.199007
 31
0.0
  0
LINE
  8
0
  6
CONTINUOUS
 10
67.348822
 20
107.657036
 30
0.0
 11
67.348822
 21
109.698293
 31
0.0
  0
LINE
  8
0
  6
CONTINUOUS
 10
67.313123
 20
107.677647
 30
0.0
 11
67.348822
 21
107.657036
 31
0.0
  0
LINE
  8
0
  6
CONTINUOUS
 10
67.348822
 20
109.698293
 30
0.0
 11
67.313123
 21
109.718904
 31
0.0
  0
LINE
  8
0
  6
CONTINUOUS
 10
67.438904
 20
78.047745
 30
0.0
 11
70.748009
 21
76.134343
 31
0.0
  0
LINE
  8
0
  6
CONTINUOUS
 10
87.149672
 20
85.240135
 30
0.0
 11
87.018124
 21
102.79947
 31
0.0
  0
LINE
  8
0
  6
CONTINUOUS
 10
87.149672
 20
85.240135
 30
0.0
 11
71.101542
 21
76.134354
 31
0.0
  0
LINE
  8
0
  6
CONTINUOUS
 10
71.101542
 20
76.134354
 30
0.0
 11
70.971185
 21
93.534749
 31
0.0
  0
LINE
  8
0
  6
CONTINUOUS
 10
70.748009
 20
76.134343
 30
0.0
 11
70.619175
 21
93.331495
 31
0.0
  0
LINE
  8
0
  6
CONTINUOUS
 10
25.900528
 20
71.204542
 30
0.0
 11
30.987414
 21
68.47115
 31
0.0
  0
LINE
  8
0
  6
CONTINUOUS
 10
30.987414
 20
68.47115
 30
0.0
 11
31.560954
 21
68.796579
 31
0.0
  0
LINE
  8
0
  6
CONTINUOUS
 10
31.535719
 20
67.542575
 30
0.0
 11
31.539717
 21
67.008869
 31
0.0
  0
LINE
  8
0
  6
CONTINUOUS
 10
31.535719
 20
67.542575
 30
0.0
 11
31.570448
 21
67.56228
 31
0.0
  0
LINE
  8
0
  6
CONTINUOUS
 10
31.539717
 20
67.008869
 30
0.0
 11
31.574446
 21
67.028574
 31
0.0
  0
LINE
  8
0
  6
CONTINUOUS
 10
31.049099
 20
67.292127
 30
0.0
 11
31.046373
 21
67.656048
 31
0.0
  0
LINE
  8
0
  6
CONTINUOUS
 10
30.863605
 20
67.965573
 30
0.0
 11
25.713668
 21
70.732844
 31
0.0
  0
LINE
  8
0
  6
CONTINUOUS
 10
25.545995
 20
70.625647
 30
0.0
 11
25.60645
 21
62.555925
 31
0.0
  0
LINE
  8
0
  6
CONTINUOUS
 10
25.545995
 20
70.625647
 30
0.0
 11
25.724483
 21
70.726921
 31
0.0
  0
LINE
  8
0
  6
CONTINUOUS
 10
25.60645
 20
62.555925
 30
0.0
 11
31.579841
 21
65.945254
 31
0.0
  0
LINE
  8
0
  6
CONTINUOUS
 10
25.959963
 20
61.943576
 30
0.0
 11
29.534464
 21
59.879837
 31
0.0
  0
LINE
  8
0
  6
CONTINUOUS
 10
25.959963
 20
61.943576
 30
0.0
 11
31.586064
 21
65.135851
 31
0.0
  0
LINE
  8
0
  6
CONTINUOUS
 10
29.534464
 20
59.879837
 30
0.0
 11
29.881708
 21
60.076865
 31
0.0
  0
LINE
  8
0
  6
CONTINUOUS
 10
29.881834
 20
60.087531
 30
0.0
 11
29.87784
 21
60.620559
 31
0.0
  0
LINE
  8
0
  6
CONTINUOUS
 10
30.398895
 20
60.932101
 30
0.0
 11
30.924557
 21
60.62861
 31
0.0
  0
LINE
  8
0
  6
CONTINUOUS
 10
30.398895
 20
60.932101
 30
0.0
 11
31.61441
 21
61.62179
 31
0.0
  0
LINE
  8
0
  6
CONTINUOUS
 10
30.924557
 20
60.62861
 30
0.0
 11
31.098179
 21
60.727124
 31
0.0
  0
LINE
  8
0
  6
CONTINUOUS
 10
31.098241
 20
60.732457
 30
0.0
 11
31.09517
 21
61.142479
 31
0.0
  0
LINE
  8
0
  6
CONTINUOUS
 10
31.585788
 20
60.85922
 30
0.0
 11
31.595041
 21
59.624056
 31
0.0
  0
LINE
  8
0
  6
CONTINUOUS
 10
31.585788
 20
60.85922
 30
0.0
 11
31.620517
 21
60.878926
 31
0.0
  0
LINE
  8
0
  6
CONTINUOUS
 10
31.595041
 20
59.624056
 30
0.0
 11
31.62977
 21
59.643762
 31
0.0
  0
LINE
  8
0
  6
CONTINUOUS
 10
31.504212
 20
59.268248
 30
0.0
 11
31.297472
 21
58.964026
 31
0.0
  0
LINE
  8
0
  6
CONTINUOUS
 10
31.504212
 20
59.268248
 30
0.0
 11
31.631997
 21
59.340754
 31
0.0
  0
LINE
  8
0
  6
CONTINUOUS
 10
31.297472
 20
58.964026
 30
0.0
 11
31.633297
 21
59.154574
 31
0.0
  0
LINE
  8
0
  6
CONTINUOUS
 10
30.969737
 20
59.255305
 30
0.0
 11
30.965437
 21
59.829336
 31
0.0
  0
LINE
  8
0
  6
CONTINUOUS
 10
30.788681
 20
60.13551
 30
0.0
 11
30.543372
 21
60.277139
 31
0.0
  0
LINE
  8
0
  6
CONTINUOUS
 10
30.369687
 20
60.173292
 30
0.0
 11
30.370301
 21
60.091288
 31
0.0
  0
LINE
  8
0
  6
CONTINUOUS
 10
30.369687
 20
60.173292
 30
0.0
 11
30.384743
 21
60.181835
 31
0.0
  0
LINE
  8
0
  6
CONTINUOUS
 10
30.204603
 20
58.921384
 30
0.0
 11
25.298425
 21
61.753967
 31
0.0
  0
LINE
  8
0
  6
CONTINUOUS
 10
25.121668
 20
62.060142
 30
0.0
 11
24.971154
 21
82.151207
 31
0.0
  0
LINE
  8
0
  6
CONTINUOUS
 10
25.144839
 20
82.255055
 30
0.0
 11
30.051017
 21
79.422471
 31
0.0
  0
LINE
  8
0
  6
CONTINUOUS
 10
25.144839
 20
82.255055
 30
0.0
 11
48.920475
 21
95.827015
 31
0.0
  0
LINE
  8
0
  6
CONTINUOUS
 10
70.974494
 20
108.242866
 30
0.0
 11
77.996557
 21
112.227216
 31
0.0
  0
LINE
  8
0
  6
CONTINUOUS
 10
95.478556
 20
122.24428
 30
0.0
 11
114.301116
 21
132.842727
 31
0.0
  0
LINE
  8
0
  6
CONTINUOUS
 10
119.207294
 20
130.010144
 30
0.0
 11
114.301116
 21
132.842727
 31
0.0
  0
LINE
  8
0
  6
CONTINUOUS
 10
30.051017
 20
79.422471
 30
0.0
 11
53.913802
 21
93.043881
 31
0.0
  0
LINE
  8
0
  6
CONTINUOUS
 10
95.527808
 20
116.655856
 30
0.0
 11
119.207294
 21
130.010144
 31
0.0
  0
LINE
  8
0
  6
CONTINUOUS
 10
30.235729
 20
78.054358
 30
0.0
 11
30.236374
 21
77.968236
 31
0.0
  0
LINE
  8
0
  6
CONTINUOUS
 10
30.236374
 20
77.968236
 30
0.0
 11
30.245084
 21
77.973178
 31
0.0
  0
LINE
  8
0
  6
CONTINUOUS
 10
30.413131
 20
77.662061
 30
0.0
 11
30.65844
 21
77.520432
 31
0.0
  0
LINE
  8
0
  6
CONTINUOUS
 10
30.413131
 20
77.662061
 30
0.0
 11
30.42407
 21
77.668269
 31
0.0
  0
LINE
  8
0
  6
CONTINUOUS
 10
30.65844
 20
77.520432
 30
0.0
 11
30.832062
 21
77.618946
 31
0.0
  0
LINE
  8
0
  6
CONTINUOUS
 10
30.832125
 20
77.624279
 30
0.0
 11
30.827824
 21
78.19831
 31
0.0
  0
LINE
  8
0
  6
CONTINUOUS
 10
31.154022
 20
78.112041
 30
0.0
 11
31.367137
 21
77.565416
 31
0.0
  0
LINE
  8
0
  6
CONTINUOUS
 10
31.154022
 20
78.112041
 30
0.0
 11
31.243129
 21
78.162601
 31
0.0
  0
LINE
  8
0
  6
CONTINUOUS
 10
31.367137
 20
77.565416
 30
0.0
 11
31.494922
 21
77.637921
 31
0.0
  0
LINE
  8
0
  6
CONTINUOUS
 10
31.464109
 20
77.10118
 30
0.0
 11
31.473363
 21
75.866016
 31
0.0
  0
LINE
  8
0
  6
CONTINUOUS
 10
31.464109
 20
77.10118
 30
0.0
 11
31.498838
 21
77.120886
 31
0.0
  0
LINE
  8
0
  6
CONTINUOUS
 10
31.473363
 20
75.866016
 30
0.0
 11
31.508092
 21
75.885722
 31
0.0
  0
LINE
  8
0
  6
CONTINUOUS
 10
30.982745
 20
76.149275
 30
0.0
 11
30.979673
 21
76.559296
 31
0.0
  0
LINE
  8
0
  6
CONTINUOUS
 10
30.802917
 20
76.865471
 30
0.0
 11
30.277255
 21
77.168962
 31
0.0
  0
LINE
  8
0
  6
CONTINUOUS
 10
29.746985
 20
78.087486
 30
0.0
 11
29.742992
 21
78.620514
 31
0.0
  0
LINE
  8
0
  6
CONTINUOUS
 10
29.389479
 20
79.232863
 30
0.0
 11
25.814978
 21
81.296602
 31
0.0
  0
LINE
  8
0
  6
CONTINUOUS
 10
25.467608
 20
81.088908
 30
0.0
 11
25.528063
 21
73.019186
 31
0.0
  0
LINE
  8
0
  6
CONTINUOUS
 10
25.467608
 20
81.088908
 30
0.0
 11
25.824033
 21
81.291145
 31
0.0
  0
LINE
  8
0
  6
CONTINUOUS
 10
25.528063
 20
73.019186
 30
0.0
 11
30.982093
 21
76.113827
 31
0.0
  0
LINE
  8
0
  6
CONTINUOUS
 10
25.698806
 20
72.716604
 30
0.0
 11
30.851844
 21
69.53545
 31
0.0
  0
LINE
  8
0
  6
CONTINUOUS
 10
25.698806
 20
72.716604
 30
0.0
 11
31.130161
 21
75.798378
 31
0.0
  0
LINE
  8
0
  6
CONTINUOUS
 10
30.851844
 20
69.53545
 30
0.0
 11
31.031447
 21
69.637358
 31
0.0
  0
LINE
  8
0
  6
CONTINUOUS
 10
31.031542
 20
69.635706
 30
0.0
 11
31.028816
 21
69.999626
 31
0.0
  0
LINE
  8
0
  6
CONTINUOUS
 10
31.519433
 20
69.716368
 30
0.0
 11
31.523432
 21
69.182662
 31
0.0
  0
LINE
  8
0
  6
CONTINUOUS
 10
31.519433
 20
69.716368
 30
0.0
 11
31.554162
 21
69.736073
 31
0.0
  0
LINE
  8
0
  6
CONTINUOUS
 10
31.523432
 20
69.182662
 30
0.0
 11
31.558161
 21
69.202367
 31
0.0
  0
LINE
  8
0
  6
CONTINUOUS
 10
30.984337
 20
68.881896
 30
0.0
 11
25.894388
 21
72.024103
 31
0.0
  0
LINE
  8
0
  6
CONTINUOUS
 10
25.900528
 20
71.204542
 30
0.0
 11
26.588709
 21
71.595019
 31
0.0
  0
LINE
  8
0
  6
CONTINUOUS
 10
31.956809
 20
57.909747
 30
0.0
 11
30.555044
 21
58.719057
 31
0.0
  0
LINE
  8
0
  6
CONTINUOUS
 10
30.378288
 20
59.025231
 30
0.0
 11
30.370301
 21
60.091288
 31
0.0
  0
LINE
  8
0
  6
CONTINUOUS
 10
30.860919
 20
59.808029
 30
0.0
 11
30.864605
 21
59.316003
 31
0.0
  0
LINE
  8
0
  6
CONTINUOUS
 10
30.860919
 20
59.808029
 30
0.0
 11
30.962394
 21
59.865607
 31
0.0
  0
LINE
  8
0
  6
CONTINUOUS
 10
30.864605
 20
59.316003
 30
0.0
 11
30.968792
 21
59.37512
 31
0.0
  0
LINE
  8
0
  6
CONTINUOUS
 10
31.041362
 20
59.009829
 30
0.0
 11
31.461891
 21
58.767036
 31
0.0
  0
LINE
  8
0
  6
CONTINUOUS
 10
31.041362
 20
59.009829
 30
0.0
 11
31.062909
 21
59.022055
 31
0.0
  0
LINE
  8
0
  6
CONTINUOUS
 10
31.461891
 20
58.767036
 30
0.0
 11
31.635513
 21
58.86555
 31
0.0
  0
LINE
  8
0
  6
CONTINUOUS
 10
31.635576
 20
58.870883
 30
0.0
 11
31.493663
 21
77.813888
 31
0.0
  0
LINE
  8
0
  6
CONTINUOUS
 10
31.316906
 20
78.120062
 30
0.0
 11
30.896377
 21
78.362855
 31
0.0
  0
LINE
  8
0
  6
CONTINUOUS
 10
30.722692
 20
78.259008
 30
0.0
 11
30.726347
 21
77.7711
 31
0.0
  0
LINE
  8
0
  6
CONTINUOUS
 10
30.722692
 20
78.259008
 30
0.0
 11
30.900904
 21
78.360127
 31
0.0
  0
LINE
  8
0
  6
CONTINUOUS
 10
30.726347
 20
77.7711
 30
0.0
 11
30.830534
 21
77.830216
 31
0.0
  0
LINE
  8
0
  6
CONTINUOUS
 10
30.235729
 20
78.054358
 30
0.0
 11
30.227774
 21
79.116297
 31
0.0
  0
LINE
  8
0
  6
CONTINUOUS
 10
30.401458
 20
79.220144
 30
0.0
 11
31.803223
 21
78.410835
 31
0.0
  0
LINE
  8
0
  6
CONTINUOUS
 10
30.401458
 20
79.220144
 30
0.0
 11
54.270468
 21
92.845085
 31
0.0
  0
LINE
  8
0
  6
CONTINUOUS
 10
95.527967
 20
116.254777
 30
0.0
 11
119.557735
 21
129.807816
 31
0.0
  0
LINE
  8
0
  6
CONTINUOUS
 10
120.9595
 20
128.998507
 30
0.0
 11
119.557735
 21
129.807816
 31
0.0
  0
LINE
  8
0
  6
CONTINUOUS
 10
31.803223
 20
78.410835
 30
0.0
 11
55.697133
 21
92.049904
 31
0.0
  0
LINE
  8
0
  6
CONTINUOUS
 10
95.528605
 20
114.650461
 30
0.0
 11
120.9595
 21
128.998507
 31
0.0
  0
LINE
  8
0
  6
CONTINUOUS
 10
32.130494
 20
58.013594
 30
0.0
 11
67.438904
 21
78.047745
 31
0.0
  0
LINE
  8
0
  6
CONTINUOUS
 10
87.193729
 20
89.256721
 30
0.0
 11
121.286771
 21
108.601266
 31
0.0
  0
LINE
  8
0
  6
CONTINUOUS
 10
31.97998
 20
78.10466
 30
0.0
 11
32.130494
 21
58.013594
 31
0.0
  0
LINE
  8
0
  6
CONTINUOUS
 10
31.97998
 20
78.10466
 30
0.0
 11
56.058409
 21
91.848427
 31
0.0
  0
LINE
  8
0
  6
CONTINUOUS
 10
95.528686
 20
114.24404
 30
0.0
 11
121.136257
 21
128.692332
 31
0.0
  0
LINE
  8
0
  6
CONTINUOUS
 10
121.286771
 20
108.601266
 30
0.0
 11
121.136257
 21
128.692332
 31
0.0
  0
LINE
  8
0
  6
CONTINUOUS
 10
72.174445
 20
106.6549
 30
0.0
 11
72.174445
 21
108.197807
 31
0.0
  0
LINE
  8
0
  6
CONTINUOUS
 10
73.491721
 20
105.880858
 30
0.0
 11
72.174445
 21
106.6549
 31
0.0
  0
LINE
  8
0
  6
CONTINUOUS
 10
72.174445
 20
108.197807
 30
0.0
 11
74.914538
 21
109.779801
 31
0.0
  0
LINE
  8
0
  6
CONTINUOUS
 10
74.077084
 20
107.099318
 30
0.0
 11
72.174445
 21
108.197807
 31
0.0
  0
LINE
  8
0
  6
CONTINUOUS
 10
74.914538
 20
109.779801
 30
0.0
 11
75.496102
 21
109.467075
 31
0.0
  0
LINE
  8
0
  6
CONTINUOUS
 10
68.930805
 20
108.829039
 30
0.0
 11
72.174287
 21
107.05279
 31
0.0
  0
LINE
  8
0
  6
CONTINUOUS
 10
69.788014
 20
97.736414
 30
0.0
 11
69.751561
 21
97.757459
 31
0.0
  0
LINE
  8
0
  6
CONTINUOUS
 10
79.256792
 20
104.019712
 30
0.0
 11
79.831801
 21
104.351694
 31
0.0
  0
LINE
  8
0
  6
CONTINUOUS
 10
67.944201
 20
111.634188
 30
0.0
 11
67.31314
 21
111.269845
 31
0.0
  0
LINE
  8
0
  6
CONTINUOUS
 10
68.120978
 20
111.532126
 30
0.0
 11
68.120978
 21
110.797279
 31
0.0
  0
LINE
  8
0
  6
CONTINUOUS
 10
67.944201
 20
110.491093
 30
0.0
 11
67.31314
 21
110.126749
 31
0.0
  0
LINE
  8
0
  6
CONTINUOUS
 10
67.31314
 20
99.165283
 30
0.0
 11
67.31314
 21
110.126749
 31
0.0
  0
LINE
  8
0
  6
CONTINUOUS
 10
68.930805
 20
108.829039
 30
0.0
 11
67.872397
 21
108.217967
 31
0.0
  0
LINE
  8
0
  6
CONTINUOUS
 10
48.003281
 20
137.054114
 30
0.0
 11
48.003281
 21
96.338232
 31
0.0
  0
LINE
  8
0
  6
CONTINUOUS
 10
69.112158
 20
108.729612
 30
0.0
 11
69.599323
 21
109.010876
 31
0.0
  0
LINE
  8
0
  6
CONTINUOUS
 10
72.173994
 20
107.586363
 30
0.0
 11
69.62074
 21
109.009472
 31
0.0
  0
LINE
  8
0
  6
CONTINUOUS
 10
67.31314
 20
111.269845
 30
0.0
 11
67.31314
 21
122.231311
 31
0.0
  0
ARC
  8
0
  6
CONTINUOUS
 10
86.974451
 20
85.341299
 30
0.0
 40
0.25
 50
299.570771
 51
0.429229
  0
ARC
  8
0
  6
CONTINUOUS
 10
70.926321
 20
76.235518
 30
0.0
 40
0.25
 50
240.0
 51
299.570771
  0
LINE
  8
0
  6
CONTINUOUS
 10
73.11207
 20
118.883784
 30
0.0
 11
73.836904
 21
121.32293
 31
0.0
  0
LINE
  8
0
  6
CONTINUOUS
 10
73.836904
 20
121.32293
 30
0.0
 11
75.586849
 21
123.170228
 31
0.0
  0
LINE
  8
0
  6
CONTINUOUS
 10
74.826477
 20
114.04082
 30
0.0
 11
73.05871
 21
114.450979
 31
0.0
  0
LINE
  8
0
  6
CONTINUOUS
 10
73.05871
 20
114.450979
 30
0.0
 11
71.290943
 21
114.023006
 31
0.0
  0
LINE
  8
0
  6
CONTINUOUS
 10
71.290943
 20
114.906146
 30
0.0
 11
73.05871
 21
115.323684
 31
0.0
  0
LINE
  8
0
  6
CONTINUOUS
 10
73.05871
 20
115.323684
 30
0.0
 11
74.826477
 21
114.888333
 31
0.0
  0
LINE
  8
0
  6
CONTINUOUS
 10
63.332592
 20
126.99316
 30
0.0
 11
63.332592
 21
108.400127
 31
0.0
  0
LINE
  8
0
  6
CONTINUOUS
 10
63.332592
 20
108.400127
 30
0.0
 11
63.332592
 21
89.807094
 31
0.0
  0
LINE
  8
0
  6
CONTINUOUS
 10
62.628584
 20
126.991386
 30
0.0
 11
62.628584
 21
108.398353
 31
0.0
  0
LINE
  8
0
  6
CONTINUOUS
 10
62.628584
 20
108.398353
 30
0.0
 11
62.628584
 21
89.80532
 31
0.0
  0
LINE
  8
0
  6
CONTINUOUS
 10
25.298425
 20
61.753967
 30
0.0
 11
25.174075
 21
61.885547
 31
0.0
  0
LINE
  8
0
  6
CONTINUOUS
 10
25.174075
 20
61.885547
 30
0.0
 11
25.121668
 21
62.060142
 31
0.0
  0
LINE
  8
0
  6
CONTINUOUS
 10
25.959963
 20
61.943576
 30
0.0
 11
25.784331
 21
62.099672
 31
0.0
  0
LINE
  8
0
  6
CONTINUOUS
 10
25.784331
 20
62.099672
 30
0.0
 11
25.654936
 21
62.323807
 31
0.0
  0
LINE
  8
0
  6
CONTINUOUS
 10
25.654936
 20
62.323807
 30
0.0
 11
25.60645
 21
62.555925
 31
0.0
  0
LINE
  8
0
  6
CONTINUOUS
 10
25.900528
 20
71.204542
 30
0.0
 11
25.719897
 21
71.358707
 31
0.0
  0
LINE
  8
0
  6
CONTINUOUS
 10
25.719897
 20
71.358707
 30
0.0
 11
25.585533
 21
71.586257
 31
0.0
  0
LINE
  8
0
  6
CONTINUOUS
 10
25.585533
 20
71.586257
 30
0.0
 11
25.534992
 21
71.823592
 31
0.0
  0
LINE
  8
0
  6
CONTINUOUS
 10
25.534992
 20
71.823592
 30
0.0
 11
25.5824
 21
72.004377
 31
0.0
  0
LINE
  8
0
  6
CONTINUOUS
 10
25.5824
 20
72.004377
 30
0.0
 11
25.714507
 21
72.07808
 31
0.0
  0
LINE
  8
0
  6
CONTINUOUS
 10
25.714507
 20
72.07808
 30
0.0
 11
25.894388
 21
72.024103
 31
0.0
  0
LINE
  8
0
  6
CONTINUOUS
 10
25.545995
 20
70.625647
 30
0.0
 11
25.594141
 21
70.739689
 31
0.0
  0
LINE
  8
0
  6
CONTINUOUS
 10
25.594141
 20
70.739689
 30
0.0
 11
25.713668
 21
70.732844
 31
0.0
  0
LINE
  8
0
  6
CONTINUOUS
 10
25.698806
 20
72.716604
 30
0.0
 11
25.578344
 21
72.848317
 31
0.0
  0
LINE
  8
0
  6
CONTINUOUS
 10
25.578344
 20
72.848317
 30
0.0
 11
25.528063
 21
73.019186
 31
0.0
  0
LINE
  8
0
  6
CONTINUOUS
 10
31.09517
 20
61.142479
 30
0.0
 11
31.12696
 21
61.267011
 31
0.0
  0
LINE
  8
0
  6
CONTINUOUS
 10
31.12696
 20
61.267011
 30
0.0
 11
31.215962
 21
61.320226
 31
0.0
  0
LINE
  8
0
  6
CONTINUOUS
 10
31.215962
 20
61.320226
 30
0.0
 11
31.338328
 21
61.287865
 31
0.0
  0
LINE
  8
0
  6
CONTINUOUS
 10
31.338328
 20
61.287865
 30
0.0
 11
31.461271
 21
61.178597
 31
0.0
  0
LINE
  8
0
  6
CONTINUOUS
 10
31.461271
 20
61.178597
 30
0.0
 11
31.551847
 21
61.021703
 31
0.0
  0
LINE
  8
0
  6
CONTINUOUS
 10
31.551847
 20
61.021703
 30
0.0
 11
31.585788
 21
60.85922
 31
0.0
  0
LINE
  8
0
  6
CONTINUOUS
 10
29.87784
 20
60.620559
 30
0.0
 11
29.945962
 21
60.887415
 31
0.0
  0
LINE
  8
0
  6
CONTINUOUS
 10
29.945962
 20
60.887415
 30
0.0
 11
30.136681
 21
61.001447
 31
0.0
  0
LINE
  8
0
  6
CONTINUOUS
 10
30.136681
 20
61.001447
 30
0.0
 11
30.398895
 21
60.932101
 31
0.0
  0
LINE
  8
0
  6
CONTINUOUS
 10
29.881834
 20
60.087531
 30
0.0
 11
29.836419
 21
59.909627
 31
0.0
  0
LINE
  8
0
  6
CONTINUOUS
 10
29.836419
 20
59.909627
 30
0.0
 11
29.709273
 21
59.833605
 31
0.0
  0
LINE
  8
0
  6
CONTINUOUS
 10
29.709273
 20
59.833605
 30
0.0
 11
29.534464
 21
59.879837
 31
0.0
  0
LINE
  8
0
  6
CONTINUOUS
 10
31.041362
 20
59.009829
 30
0.0
 11
30.917012
 21
59.141409
 31
0.0
  0
LINE
  8
0
  6
CONTINUOUS
 10
30.917012
 20
59.141409
 30
0.0
 11
30.864605
 21
59.316003
 31
0.0
  0
LINE
  8
0
  6
CONTINUOUS
 10
31.297472
 20
58.964026
 30
0.0
 11
31.213431
 21
58.926022
 31
0.0
  0
LINE
  8
0
  6
CONTINUOUS
 10
31.213431
 20
58.926022
 30
0.0
 11
31.101091
 21
58.982299
 31
0.0
  0
LINE
  8
0
  6
CONTINUOUS
 10
31.101091
 20
58.982299
 30
0.0
 11
31.006881
 21
59.109597
 31
0.0
  0
LINE
  8
0
  6
CONTINUOUS
 10
31.006881
 20
59.109597
 30
0.0
 11
30.969737
 21
59.255305
 31
0.0
  0
LINE
  8
0
  6
CONTINUOUS
 10
30.555044
 20
58.719057
 30
0.0
 11
30.467228
 21
58.797105
 31
0.0
  0
LINE
  8
0
  6
CONTINUOUS
 10
30.467228
 20
58.797105
 30
0.0
 11
30.402531
 21
58.909172
 31
0.0
  0
LINE
  8
0
  6
CONTINUOUS
 10
30.402531
 20
58.909172
 30
0.0
 11
30.378288
 21
59.025231
 31
0.0
  0
LINE
  8
0
  6
CONTINUOUS
 10
30.378288
 20
59.025231
 30
0.0
 11
30.35558
 21
58.936279
 31
0.0
  0
LINE
  8
0
  6
CONTINUOUS
 10
30.35558
 20
58.936279
 30
0.0
 11
30.292007
 21
58.898268
 31
0.0
  0
LINE
  8
0
  6
CONTINUOUS
 10
30.292007
 20
58.898268
 30
0.0
 11
30.204603
 21
58.921384
 31
0.0
  0
LINE
  8
0
  6
CONTINUOUS
 10
31.635576
 20
58.870883
 30
0.0
 11
31.612869
 21
58.781931
 31
0.0
  0
LINE
  8
0
  6
CONTINUOUS
 10
31.612869
 20
58.781931
 30
0.0
 11
31.549296
 21
58.74392
 31
0.0
  0
LINE
  8
0
  6
CONTINUOUS
 10
31.549296
 20
58.74392
 30
0.0
 11
31.461891
 21
58.767036
 31
0.0
  0
LINE
  8
0
  6
CONTINUOUS
 10
30.370301
 20
60.091288
 30
0.0
 11
30.402091
 21
60.215821
 31
0.0
  0
LINE
  8
0
  6
CONTINUOUS
 10
30.402091
 20
60.215821
 30
0.0
 11
30.491094
 21
60.269036
 31
0.0
  0
LINE
  8
0
  6
CONTINUOUS
 10
30.491094
 20
60.269036
 30
0.0
 11
30.61346
 21
60.236674
 31
0.0
  0
LINE
  8
0
  6
CONTINUOUS
 10
30.61346
 20
60.236674
 30
0.0
 11
30.736402
 21
60.127407
 31
0.0
  0
LINE
  8
0
  6
CONTINUOUS
 10
30.736402
 20
60.127407
 30
0.0
 11
30.826979
 21
59.970512
 31
0.0
  0
LINE
  8
0
  6
CONTINUOUS
 10
30.826979
 20
59.970512
 30
0.0
 11
30.860919
 21
59.808029
 31
0.0
  0
LINE
  8
0
  6
CONTINUOUS
 10
30.788681
 20
60.13551
 30
0.0
 11
30.91303
 21
60.00393
 31
0.0
  0
LINE
  8
0
  6
CONTINUOUS
 10
30.91303
 20
60.00393
 30
0.0
 11
30.965437
 21
59.829336
 31
0.0
  0
LINE
  8
0
  6
CONTINUOUS
 10
30.369687
 20
60.173292
 30
0.0
 11
30.392394
 21
60.262244
 31
0.0
  0
LINE
  8
0
  6
CONTINUOUS
 10
30.392394
 20
60.262244
 30
0.0
 11
30.455967
 21
60.300255
 31
0.0
  0
LINE
  8
0
  6
CONTINUOUS
 10
30.455967
 20
60.300255
 30
0.0
 11
30.543372
 21
60.277139
 31
0.0
  0
LINE
  8
0
  6
CONTINUOUS
 10
31.595041
 20
59.624056
 30
0.0
 11
31.572749
 21
59.425602
 31
0.0
  0
LINE
  8
0
  6
CONTINUOUS
 10
31.572749
 20
59.425602
 30
0.0
 11
31.504212
 21
59.268248
 31
0.0
  0
LINE
  8
0
  6
CONTINUOUS
 10
31.098241
 20
60.732457
 30
0.0
 11
31.075534
 21
60.643505
 31
0.0
  0
LINE
  8
0
  6
CONTINUOUS
 10
31.075534
 20
60.643505
 30
0.0
 11
31.011961
 21
60.605494
 31
0.0
  0
LINE
  8
0
  6
CONTINUOUS
 10
31.011961
 20
60.605494
 30
0.0
 11
30.924557
 21
60.62861
 31
0.0
  0
LINE
  8
0
  6
CONTINUOUS
 10
32.130494
 20
58.013594
 30
0.0
 11
32.107787
 21
57.924642
 31
0.0
  0
LINE
  8
0
  6
CONTINUOUS
 10
32.107787
 20
57.924642
 30
0.0
 11
32.044214
 21
57.886632
 31
0.0
  0
LINE
  8
0
  6
CONTINUOUS
 10
32.044214
 20
57.886632
 30
0.0
 11
31.956809
 21
57.909747
 31
0.0
  0
LINE
  8
0
  6
CONTINUOUS
 10
30.863605
 20
67.965573
 30
0.0
 11
30.95392
 21
67.88849
 31
0.0
  0
LINE
  8
0
  6
CONTINUOUS
 10
30.95392
 20
67.88849
 30
0.0
 11
31.021102
 21
67.774715
 31
0.0
  0
LINE
  8
0
  6
CONTINUOUS
 10
31.021102
 20
67.774715
 30
0.0
 11
31.046373
 21
67.656048
 31
0.0
  0
LINE
  8
0
  6
CONTINUOUS
 10
31.539717
 20
67.008869
 30
0.0
 11
31.494131
 21
66.867214
 31
0.0
  0
LINE
  8
0
  6
CONTINUOUS
 10
31.494131
 20
66.867214
 30
0.0
 11
31.372258
 21
66.833764
 31
0.0
  0
LINE
  8
0
  6
CONTINUOUS
 10
31.372258
 20
66.833764
 30
0.0
 11
31.220648
 21
66.921296
 31
0.0
  0
LINE
  8
0
  6
CONTINUOUS
 10
31.220648
 20
66.921296
 30
0.0
 11
31.097213
 21
67.096375
 31
0.0
  0
LINE
  8
0
  6
CONTINUOUS
 10
31.097213
 20
67.096375
 30
0.0
 11
31.049099
 21
67.292127
 31
0.0
  0
LINE
  8
0
  6
CONTINUOUS
 10
30.987414
 20
68.47115
 30
0.0
 11
31.258362
 21
68.239903
 31
0.0
  0
LINE
  8
0
  6
CONTINUOUS
 10
31.258362
 20
68.239903
 30
0.0
 11
31.459907
 21
67.898577
 31
0.0
  0
LINE
  8
0
  6
CONTINUOUS
 10
31.459907
 20
67.898577
 30
0.0
 11
31.535719
 21
67.542575
 31
0.0
  0
LINE
  8
0
  6
CONTINUOUS
 10
31.523432
 20
69.182662
 30
0.0
 11
31.452319
 21
68.911486
 31
0.0
  0
LINE
  8
0
  6
CONTINUOUS
 10
31.452319
 20
68.911486
 30
0.0
 11
31.254159
 21
68.80093
 31
0.0
  0
LINE
  8
0
  6
CONTINUOUS
 10
31.254159
 20
68.80093
 30
0.0
 11
30.984337
 21
68.881896
 31
0.0
  0
LINE
  8
0
  6
CONTINUOUS
 10
31.028816
 20
69.999626
 30
0.0
 11
31.060606
 21
70.124159
 31
0.0
  0
LINE
  8
0
  6
CONTINUOUS
 10
31.060606
 20
70.124159
 30
0.0
 11
31.149608
 21
70.177374
 31
0.0
  0
LINE
  8
0
  6
CONTINUOUS
 10
31.149608
 20
70.177374
 30
0.0
 11
31.271974
 21
70.145012
 31
0.0
  0
LINE
  8
0
  6
CONTINUOUS
 10
31.271974
 20
70.145012
 30
0.0
 11
31.394917
 21
70.035745
 31
0.0
  0
LINE
  8
0
  6
CONTINUOUS
 10
31.394917
 20
70.035745
 30
0.0
 11
31.485493
 21
69.87885
 31
0.0
  0
LINE
  8
0
  6
CONTINUOUS
 10
31.485493
 20
69.87885
 30
0.0
 11
31.519433
 21
69.716368
 31
0.0
  0
LINE
  8
0
  6
CONTINUOUS
 10
31.031542
 20
69.635706
 30
0.0
 11
31.007838
 21
69.545313
 31
0.0
  0
LINE
  8
0
  6
CONTINUOUS
 10
31.007838
 20
69.545313
 30
0.0
 11
30.941784
 21
69.508462
 31
0.0
  0
LINE
  8
0
  6
CONTINUOUS
 10
30.941784
 20
69.508462
 30
0.0
 11
30.851844
 21
69.53545
 31
0.0
  0
LINE
  8
0
  6
CONTINUOUS
 10
31.473363
 20
75.866016
 30
0.0
 11
31.427777
 21
75.724362
 31
0.0
  0
LINE
  8
0
  6
CONTINUOUS
 10
31.427777
 20
75.724362
 30
0.0
 11
31.305903
 21
75.690912
 31
0.0
  0
LINE
  8
0
  6
CONTINUOUS
 10
31.305903
 20
75.690912
 30
0.0
 11
31.154294
 21
75.778443
 31
0.0
  0
LINE
  8
0
  6
CONTINUOUS
 10
31.154294
 20
75.778443
 30
0.0
 11
31.030859
 21
75.953522
 31
0.0
  0
LINE
  8
0
  6
CONTINUOUS
 10
31.030859
 20
75.953522
 30
0.0
 11
30.982745
 21
76.149275
 31
0.0
  0
LINE
  8
0
  6
CONTINUOUS
 10
25.467608
 20
81.088908
 30
0.0
 11
25.568078
 21
81.319577
 31
0.0
  0
LINE
  8
0
  6
CONTINUOUS
 10
25.568078
 20
81.319577
 30
0.0
 11
25.814978
 21
81.296602
 31
0.0
  0
LINE
  8
0
  6
CONTINUOUS
 10
24.971154
 20
82.151207
 30
0.0
 11
24.993861
 21
82.24016
 31
0.0
  0
LINE
  8
0
  6
CONTINUOUS
 10
24.993861
 20
82.24016
 30
0.0
 11
25.057434
 21
82.27817
 31
0.0
  0
LINE
  8
0
  6
CONTINUOUS
 10
25.057434
 20
82.27817
 30
0.0
 11
25.144839
 21
82.255055
 31
0.0
  0
LINE
  8
0
  6
CONTINUOUS
 10
30.277255
 20
77.168962
 30
0.0
 11
29.904206
 21
77.563701
 31
0.0
  0
LINE
  8
0
  6
CONTINUOUS
 10
29.904206
 20
77.563701
 30
0.0
 11
29.746985
 21
78.087486
 31
0.0
  0
LINE
  8
0
  6
CONTINUOUS
 10
29.389479
 20
79.232863
 30
0.0
 11
29.565111
 21
79.076767
 31
0.0
  0
LINE
  8
0
  6
CONTINUOUS
 10
29.565111
 20
79.076767
 30
0.0
 11
29.694506
 21
78.852631
 31
0.0
  0
LINE
  8
0
  6
CONTINUOUS
 10
29.694506
 20
78.852631
 30
0.0
 11
29.742992
 21
78.620514
 31
0.0
  0
LINE
  8
0
  6
CONTINUOUS
 10
30.722692
 20
78.259008
 30
0.0
 11
30.745399
 21
78.34796
 31
0.0
  0
LINE
  8
0
  6
CONTINUOUS
 10
30.745399
 20
78.34796
 30
0.0
 11
30.808972
 21
78.385971
 31
0.0
  0
LINE
  8
0
  6
CONTINUOUS
 10
30.808972
 20
78.385971
 30
0.0
 11
30.896377
 21
78.362855
 31
0.0
  0
LINE
  8
0
  6
CONTINUOUS
 10
30.827824
 20
78.19831
 30
0.0
 11
30.863098
 21
78.302207
 31
0.0
  0
LINE
  8
0
  6
CONTINUOUS
 10
30.863098
 20
78.302207
 30
0.0
 11
30.956211
 21
78.321355
 31
0.0
  0
LINE
  8
0
  6
CONTINUOUS
 10
30.956211
 20
78.321355
 30
0.0
 11
31.06868
 21
78.247838
 31
0.0
  0
LINE
  8
0
  6
CONTINUOUS
 10
31.06868
 20
78.247838
 30
0.0
 11
31.154022
 21
78.112041
 31
0.0
  0
LINE
  8
0
  6
CONTINUOUS
 10
30.832125
 20
77.624279
 30
0.0
 11
30.809417
 21
77.535327
 31
0.0
  0
LINE
  8
0
  6
CONTINUOUS
 10
30.809417
 20
77.535327
 30
0.0
 11
30.745844
 21
77.497317
 31
0.0
  0
LINE
  8
0
  6
CONTINUOUS
 10
30.745844
 20
77.497317
 30
0.0
 11
30.65844
 21
77.520432
 31
0.0
  0
LINE
  8
0
  6
CONTINUOUS
 10
30.726347
 20
77.7711
 30
0.0
 11
30.680761
 21
77.629445
 31
0.0
  0
LINE
  8
0
  6
CONTINUOUS
 10
30.680761
 20
77.629445
 30
0.0
 11
30.558888
 21
77.595995
 31
0.0
  0
LINE
  8
0
  6
CONTINUOUS
 10
30.558888
 20
77.595995
 30
0.0
 11
30.407278
 21
77.683527
 31
0.0
  0
LINE
  8
0
  6
CONTINUOUS
 10
30.407278
 20
77.683527
 30
0.0
 11
30.283843
 21
77.858606
 31
0.0
  0
LINE
  8
0
  6
CONTINUOUS
 10
30.283843
 20
77.858606
 30
0.0
 11
30.235729
 21
78.054358
 31
0.0
  0
LINE
  8
0
  6
CONTINUOUS
 10
30.413131
 20
77.662061
 30
0.0
 11
30.288781
 21
77.793641
 31
0.0
  0
LINE
  8
0
  6
CONTINUOUS
 10
30.288781
 20
77.793641
 30
0.0
 11
30.236374
 21
77.968236
 31
0.0
  0
LINE
  8
0
  6
CONTINUOUS
 10
31.316906
 20
78.120062
 30
0.0
 11
31.404722
 21
78.042014
 31
0.0
  0
LINE
  8
0
  6
CONTINUOUS
 10
31.404722
 20
78.042014
 30
0.0
 11
31.46942
 21
77.929947
 31
0.0
  0
LINE
  8
0
  6
CONTINUOUS
 10
31.46942
 20
77.929947
 30
0.0
 11
31.493663
 21
77.813888
 31
0.0
  0
LINE
  8
0
  6
CONTINUOUS
 10
30.802917
 20
76.865471
 30
0.0
 11
30.890733
 21
76.787423
 31
0.0
  0
LINE
  8
0
  6
CONTINUOUS
 10
30.890733
 20
76.787423
 30
0.0
 11
30.95543
 21
76.675355
 31
0.0
  0
LINE
  8
0
  6
CONTINUOUS
 10
30.95543
 20
76.675355
 30
0.0
 11
30.979673
 21
76.559296
 31
0.0
  0
LINE
  8
0
  6
CONTINUOUS
 10
31.367137
 20
77.565416
 30
0.0
 11
31.438637
 21
77.327211
 31
0.0
  0
LINE
  8
0
  6
CONTINUOUS
 10
31.438637
 20
77.327211
 30
0.0
 11
31.464109
 21
77.10118
 31
0.0
  0
LINE
  8
0
  6
CONTINUOUS
 10
30.227774
 20
79.116297
 30
0.0
 11
30.250481
 21
79.205249
 31
0.0
  0
LINE
  8
0
  6
CONTINUOUS
 10
30.250481
 20
79.205249
 30
0.0
 11
30.314054
 21
79.24326
 31
0.0
  0
LINE
  8
0
  6
CONTINUOUS
 10
30.314054
 20
79.24326
 30
0.0
 11
30.401458
 21
79.220144
 31
0.0
  0
LINE
  8
0
  6
CONTINUOUS
 10
30.051017
 20
79.422471
 30
0.0
 11
30.175367
 21
79.290892
 31
0.0
  0
LINE
  8
0
  6
CONTINUOUS
 10
30.175367
 20
79.290892
 30
0.0
 11
30.227774
 21
79.116297
 31
0.0
  0
LINE
  8
0
  6
CONTINUOUS
 10
31.803223
 20
78.410835
 30
0.0
 11
31.927573
 21
78.279255
 31
0.0
  0
LINE
  8
0
  6
CONTINUOUS
 10
31.927573
 20
78.279255
 30
0.0
 11
31.97998
 21
78.10466
 31
0.0
  0
LINE
  8
0
  6
CONTINUOUS
 10
71.101542
 20
76.134354
 30
0.0
 11
70.988911
 21
76.09732
 31
0.0
  0
LINE
  8
0
  6
CONTINUOUS
 10
70.988911
 20
76.09732
 30
0.0
 11
70.859509
 21
76.097316
 31
0.0
  0
LINE
  8
0
  6
CONTINUOUS
 10
70.859509
 20
76.097316
 30
0.0
 11
70.748009
 21
76.134343
 31
0.0
  0
LINE
  8
0
  6
CONTINUOUS
 10
71.101542
 20
76.134354
 30
0.0
 11
71.088357
 21
76.062613
 31
0.0
  0
LINE
  8
0
  6
CONTINUOUS
 10
71.088357
 20
76.062613
 30
0.0
 11
71.04968
 21
76.018072
 31
0.0
  0
LINE
  8
0
  6
CONTINUOUS
 10
70.801321
 20
76.019012
 30
0.0
 11
70.76217
 21
76.06359
 31
0.0
  0
LINE
  8
0
  6
CONTINUOUS
 10
70.76217
 20
76.06359
 30
0.0
 11
70.748009
 21
76.134343
 31
0.0
  0
LINE
  8
0
  6
CONTINUOUS
 10
48.003281
 20
96.338232
 30
0.0
 11
55.489584
 21
92.165586
 31
0.0
  0
LINE
  8
0
  6
CONTINUOUS
 10
55.489584
 20
92.165586
 30
0.0
 11
61.214478
 21
88.974697
 31
0.0
  0
LINE
  8
0
  6
CONTINUOUS
 10
48.11305
 20
96.114564
 30
0.0
 11
54.71925
 21
92.432461
 31
0.0
  0
LINE
  8
0
  6
CONTINUOUS
 10
54.71925
 20
92.432461
 30
0.0
 11
61.325469
 21
88.750348
 31
0.0
  0
LINE
  8
0
  6
CONTINUOUS
 10
48.11303
 20
96.114576
 30
0.0
 11
48.110695
 21
96.1159
 31
0.0
  0
LINE
  8
0
  6
CONTINUOUS
 10
48.110695
 20
96.1159
 30
0.0
 11
48.032589
 21
96.200932
 31
0.0
  0
LINE
  8
0
  6
CONTINUOUS
 10
48.032589
 20
96.200932
 30
0.0
 11
48.003281
 21
96.338232
 31
0.0
  0
LINE
  8
0
  6
CONTINUOUS
 10
62.200062
 20
88.915901
 30
0.0
 11
61.74878
 21
88.810258
 31
0.0
  0
LINE
  8
0
  6
CONTINUOUS
 10
61.74878
 20
88.810258
 30
0.0
 11
61.214478
 21
88.974697
 31
0.0
  0
LINE
  8
0
  6
CONTINUOUS
 10
61.323051
 20
88.75172
 30
0.0
 11
61.90174
 21
88.570587
 31
0.0
  0
LINE
  8
0
  6
CONTINUOUS
 10
61.90174
 20
88.570587
 30
0.0
 11
62.47036
 21
88.699427
 31
0.0
  0
LINE
  8
0
  6
CONTINUOUS
 10
61.325468
 20
88.750349
 30
0.0
 11
61.332152
 21
88.746702
 31
0.0
  0
LINE
  8
0
  6
CONTINUOUS
 10
61.332152
 20
88.746702
 30
0.0
 11
61.340154
 21
88.742502
 31
0.0
  0
LINE
  8
0
  6
CONTINUOUS
 10
61.340154
 20
88.742502
 30
0.0
 11
61.360245
 21
88.732467
 31
0.0
  0
LINE
  8
0
  6
CONTINUOUS
 10
61.360245
 20
88.732467
 30
0.0
 11
61.415295
 21
88.707096
 31
0.0
  0
LINE
  8
0
  6
CONTINUOUS
 10
61.415295
 20
88.707096
 30
0.0
 11
61.569708
 21
88.645799
 31
0.0
  0
LINE
  8
0
  6
CONTINUOUS
 10
61.569708
 20
88.645799
 30
0.0
 11
61.944952
 21
88.549844
 31
0.0
  0
LINE
  8
0
  6
CONTINUOUS
 10
61.944952
 20
88.549844
 30
0.0
 11
62.216287
 21
88.53766
 31
0.0
  0
LINE
  8
0
  6
CONTINUOUS
 10
62.216287
 20
88.53766
 30
0.0
 11
62.376432
 21
88.555045
 31
0.0
  0
LINE
  8
0
  6
CONTINUOUS
 10
62.376432
 20
88.555045
 30
0.0
 11
62.543374
 21
88.590369
 31
0.0
  0
LINE
  8
0
  6
CONTINUOUS
 10
62.543374
 20
88.590369
 30
0.0
 11
62.639078
 21
88.62075
 31
0.0
  0
LINE
  8
0
  6
CONTINUOUS
 10
62.639078
 20
88.62075
 30
0.0
 11
62.789408
 21
88.690941
 31
0.0
  0
LINE
  8
0
  6
CONTINUOUS
 10
61.325462
 20
88.750352
 30
0.0
 11
61.323051
 21
88.75172
 31
0.0
  0
LINE
  8
0
  6
CONTINUOUS
 10
61.323051
 20
88.75172
 30
0.0
 11
61.214478
 21
88.974697
 31
0.0
  0
LINE
  8
0
  6
CONTINUOUS
 10
62.628584
 20
89.80532
 30
0.0
 11
62.512079
 21
89.258598
 31
0.0
  0
LINE
  8
0
  6
CONTINUOUS
 10
62.512079
 20
89.258598
 30
0.0
 11
62.200062
 21
88.915901
 31
0.0
  0
LINE
  8
0
  6
CONTINUOUS
 10
62.795464
 20
88.694468
 30
0.0
 11
63.185408
 21
89.122801
 31
0.0
  0
LINE
  8
0
  6
CONTINUOUS
 10
63.185408
 20
89.122801
 30
0.0
 11
63.332592
 21
89.807094
 31
0.0
  0
LINE
  8
0
  6
CONTINUOUS
 10
62.628584
 20
89.80532
 30
0.0
 11
62.981188
 21
89.726842
 31
0.0
  0
LINE
  8
0
  6
CONTINUOUS
 10
62.981188
 20
89.726842
 30
0.0
 11
63.332592
 21
89.807094
 31
0.0
  0
LINE
  8
0
  6
CONTINUOUS
 10
62.47036
 20
88.699427
 30
0.0
 11
62.860922
 21
89.137869
 31
0.0
  0
LINE
  8
0
  6
CONTINUOUS
 10
62.860922
 20
89.137869
 30
0.0
 11
62.981188
 21
89.726842
 31
0.0
  0
LINE
  8
0
  6
CONTINUOUS
 10
62.795464
 20
88.694468
 30
0.0
 11
62.47036
 21
88.699427
 31
0.0
  0
LINE
  8
0
  6
CONTINUOUS
 10
62.200062
 20
88.915901
 30
0.0
 11
62.47036
 21
88.699427
 31
0.0
  0
LINE
  8
0
  6
CONTINUOUS
 10
62.795464
 20
88.694468
 30
0.0
 11
62.789437
 21
88.690958
 31
0.0
  0
LINE
  8
0
  6
CONTINUOUS
 10
71.644496
 20
101.56393
 30
0.0
 11
71.273121
 21
100.029724
 31
0.0
  0
LINE
  8
0
  6
CONTINUOUS
 10
71.273121
 20
100.029724
 30
0.0
 11
70.300849
 21
98.652706
 31
0.0
  0
LINE
  8
0
  6
CONTINUOUS
 10
70.300849
 20
98.652706
 30
0.0
 11
69.099055
 21
97.95885
 31
0.0
  0
LINE
  8
0
  6
CONTINUOUS
 10
69.099055
 20
97.95885
 30
0.0
 11
68.126783
 21
98.213185
 31
0.0
  0
LINE
  8
0
  6
CONTINUOUS
 10
68.126783
 20
98.213185
 30
0.0
 11
67.755409
 21
99.318565
 31
0.0
  0
LINE
  8
0
  6
CONTINUOUS
 10
67.755409
 20
99.318565
 30
0.0
 11
68.015928
 21
100.591659
 31
0.0
  0
LINE
  8
0
  6
CONTINUOUS
 10
68.015928
 20
100.591659
 30
0.0
 11
68.727681
 21
101.82445
 31
0.0
  0
LINE
  8
0
  6
CONTINUOUS
 10
68.727681
 20
101.82445
 30
0.0
 11
69.699952
 21
102.686613
 31
0.0
  0
LINE
  8
0
  6
CONTINUOUS
 10
69.699952
 20
102.686613
 30
0.0
 11
70.672224
 21
102.947133
 31
0.0
  0
LINE
  8
0
  6
CONTINUOUS
 10
70.672224
 20
102.947133
 30
0.0
 11
71.383977
 21
102.536202
 31
0.0
  0
LINE
  8
0
  6
CONTINUOUS
 10
71.383977
 20
102.536202
 30
0.0
 11
71.644496
 21
101.56393
 31
0.0
  0
LINE
  8
0
  6
CONTINUOUS
 10
69.788014
 20
97.736414
 30
0.0
 11
68.550577
 21
97.404844
 31
0.0
  0
LINE
  8
0
  6
CONTINUOUS
 10
68.550577
 20
97.404844
 30
0.0
 11
67.64471
 21
97.927846
 31
0.0
  0
LINE
  8
0
  6
CONTINUOUS
 10
67.64471
 20
97.927846
 30
0.0
 11
67.31314
 21
99.165283
 31
0.0
  0
LINE
  8
0
  6
CONTINUOUS
 10
69.823602
 20
97.797785
 30
0.0
 11
68.073657
 21
97.624421
 31
0.0
  0
LINE
  8
0
  6
CONTINUOUS
 10
68.073657
 20
97.624421
 30
0.0
 11
67.348822
 21
99.2266
 31
0.0
  0
LINE
  8
0
  6
CONTINUOUS
 10
68.055922
 20
102.349804
 30
0.0
 11
67.930926
 21
102.337421
 31
0.0
  0
LINE
  8
0
  6
CONTINUOUS
 10
67.930926
 20
102.337421
 30
0.0
 11
67.879152
 21
102.451863
 31
0.0
  0
LINE
  8
0
  6
CONTINUOUS
 10
69.700047
 20
103.29904
 30
0.0
 11
71.449991
 21
103.472404
 31
0.0
  0
LINE
  8
0
  6
CONTINUOUS
 10
71.449991
 20
103.472404
 30
0.0
 11
72.174826
 21
101.870225
 31
0.0
  0
LINE
  8
0
  6
CONTINUOUS
 10
72.351596
 20
99.869696
 30
0.0
 11
72.2266
 21
99.857313
 31
0.0
  0
LINE
  8
0
  6
CONTINUOUS
 10
72.2266
 20
99.857313
 30
0.0
 11
72.174826
 21
99.971754
 31
0.0
  0
LINE
  8
0
  6
CONTINUOUS
 10
61.214478
 20
129.426625
 30
0.0
 11
55.489584
 21
132.731894
 31
0.0
  0
LINE
  8
0
  6
CONTINUOUS
 10
55.489584
 20
132.731894
 30
0.0
 11
48.003281
 21
137.054114
 31
0.0
  0
LINE
  8
0
  6
CONTINUOUS
 10
61.568018
 20
130.038975
 30
0.0
 11
55.843124
 21
133.344244
 31
0.0
  0
LINE
  8
0
  6
CONTINUOUS
 10
55.843124
 20
133.344244
 30
0.0
 11
48.356821
 21
137.666463
 31
0.0
  0
LINE
  8
0
  6
CONTINUOUS
 10
48.356821
 20
137.666463
 30
0.0
 11
48.223262
 21
137.555511
 31
0.0
  0
LINE
  8
0
  6
CONTINUOUS
 10
48.223262
 20
137.555511
 30
0.0
 11
48.110569
 21
137.400258
 31
0.0
  0
LINE
  8
0
  6
CONTINUOUS
 10
48.110569
 20
137.400258
 30
0.0
 11
48.032564
 21
137.225178
 31
0.0
  0
LINE
  8
0
  6
CONTINUOUS
 10
48.032564
 20
137.225178
 30
0.0
 11
48.003281
 21
137.054114
 31
0.0
  0
LINE
  8
0
  6
CONTINUOUS
 10
67.31314
 20
122.231311
 30
0.0
 11
68.038014
 21
124.670543
 31
0.0
  0
LINE
  8
0
  6
CONTINUOUS
 10
68.038014
 20
124.670543
 30
0.0
 11
69.788014
 21
126.517918
 31
0.0
  0
LINE
  8
0
  6
CONTINUOUS
 10
72.174826
 20
125.14016
 30
0.0
 11
71.449991
 21
122.701015
 31
0.0
  0
LINE
  8
0
  6
CONTINUOUS
 10
71.449991
 20
122.701015
 30
0.0
 11
69.700047
 21
120.853716
 31
0.0
  0
LINE
  8
0
  6
CONTINUOUS
 10
71.644496
 20
124.834083
 30
0.0
 11
71.383977
 21
123.560989
 31
0.0
  0
LINE
  8
0
  6
CONTINUOUS
 10
71.383977
 20
123.560989
 30
0.0
 11
70.672224
 21
122.328198
 31
0.0
  0
LINE
  8
0
  6
CONTINUOUS
 10
70.672224
 20
122.328198
 30
0.0
 11
69.699952
 21
121.466035
 31
0.0
  0
LINE
  8
0
  6
CONTINUOUS
 10
69.699952
 20
121.466035
 30
0.0
 11
68.727681
 21
121.205515
 31
0.0
  0
LINE
  8
0
  6
CONTINUOUS
 10
68.727681
 20
121.205515
 30
0.0
 11
68.015928
 21
121.616445
 31
0.0
  0
LINE
  8
0
  6
CONTINUOUS
 10
68.015928
 20
121.616445
 30
0.0
 11
67.755409
 21
122.588717
 31
0.0
  0
LINE
  8
0
  6
CONTINUOUS
 10
67.348822
 20
122.211196
 30
0.0
 11
68.073657
 21
124.650342
 31
0.0
  0
LINE
  8
0
  6
CONTINUOUS
 10
68.073657
 20
124.650342
 30
0.0
 11
69.823602
 21
126.49764
 31
0.0
  0
LINE
  8
0
  6
CONTINUOUS
 10
69.982795
 20
111.831344
 30
0.0
 11
69.775699
 21
111.134445
 31
0.0
  0
LINE
  8
0
  6
CONTINUOUS
 10
69.775699
 20
111.134445
 30
0.0
 11
69.275715
 21
110.606646
 31
0.0
  0
LINE
  8
0
  6
CONTINUOUS
 10
69.275715
 20
113.056135
 30
0.0
 11
69.775699
 21
113.105668
 31
0.0
  0
LINE
  8
0
  6
CONTINUOUS
 10
69.775699
 20
113.105668
 30
0.0
 11
69.982795
 21
112.647903
 31
0.0
  0
LINE
  8
0
  6
CONTINUOUS
 10
69.699952
 20
112.076324
 30
0.0
 11
69.598668
 21
111.657904
 31
0.0
  0
LINE
  8
0
  6
CONTINUOUS
 10
69.598668
 20
111.657904
 30
0.0
 11
69.333503
 21
111.282354
 31
0.0
  0
LINE
  8
0
  6
CONTINUOUS
 10
69.333503
 20
111.282354
 30
0.0
 11
69.005741
 21
111.09312
 31
0.0
  0
LINE
  8
0
  6
CONTINUOUS
 10
69.005741
 20
111.09312
 30
0.0
 11
68.740576
 21
111.162484
 31
0.0
  0
LINE
  8
0
  6
CONTINUOUS
 10
68.740576
 20
111.162484
 30
0.0
 11
68.639292
 21
111.463951
 31
0.0
  0
LINE
  8
0
  6
CONTINUOUS
 10
68.639292
 20
111.463951
 30
0.0
 11
68.710343
 21
111.811159
 31
0.0
  0
LINE
  8
0
  6
CONTINUOUS
 10
68.710343
 20
111.811159
 30
0.0
 11
68.904457
 21
112.147375
 31
0.0
  0
LINE
  8
0
  6
CONTINUOUS
 10
68.904457
 20
112.147375
 30
0.0
 11
69.169622
 21
112.38251
 31
0.0
  0
LINE
  8
0
  6
CONTINUOUS
 10
69.169622
 20
112.38251
 30
0.0
 11
69.434787
 21
112.453561
 31
0.0
  0
LINE
  8
0
  6
CONTINUOUS
 10
69.434787
 20
112.453561
 30
0.0
 11
69.628902
 21
112.341489
 31
0.0
  0
LINE
  8
0
  6
CONTINUOUS
 10
69.628902
 20
112.341489
 30
0.0
 11
69.699952
 21
112.076324
 31
0.0
  0
LINE
  8
0
  6
CONTINUOUS
 10
68.285739
 20
111.055688
 30
0.0
 11
68.182191
 21
110.707238
 31
0.0
  0
LINE
  8
0
  6
CONTINUOUS
 10
68.182191
 20
110.707238
 30
0.0
 11
67.932199
 21
110.443338
 31
0.0
  0
LINE
  8
0
  6
CONTINUOUS
 10
67.348822
 20
109.698293
 30
0.0
 11
67.45237
 21
110.046742
 31
0.0
  0
LINE
  8
0
  6
CONTINUOUS
 10
67.45237
 20
110.046742
 30
0.0
 11
67.702362
 21
110.310642
 31
0.0
  0
LINE
  8
0
  6
CONTINUOUS
 10
67.944201
 20
110.491093
 30
0.0
 11
68.010983
 21
110.546571
 31
0.0
  0
LINE
  8
0
  6
CONTINUOUS
 10
68.010983
 20
110.546571
 30
0.0
 11
68.067331
 21
110.624201
 31
0.0
  0
LINE
  8
0
  6
CONTINUOUS
 10
68.067331
 20
110.624201
 30
0.0
 11
68.106335
 21
110.711744
 31
0.0
  0
LINE
  8
0
  6
CONTINUOUS
 10
68.106335
 20
110.711744
 30
0.0
 11
68.120978
 21
110.797279
 31
0.0
  0
LINE
  8
0
  6
CONTINUOUS
 10
67.879152
 20
109.392107
 30
0.0
 11
67.9827
 21
109.740556
 31
0.0
  0
LINE
  8
0
  6
CONTINUOUS
 10
67.9827
 20
109.740556
 30
0.0
 11
68.232692
 21
110.004456
 31
0.0
  0
LINE
  8
0
  6
CONTINUOUS
 10
67.702362
 20
111.535387
 30
0.0
 11
67.45237
 21
111.510621
 31
0.0
  0
LINE
  8
0
  6
CONTINUOUS
 10
67.45237
 20
111.510621
 30
0.0
 11
67.348822
 21
111.739503
 31
0.0
  0
LINE
  8
0
  6
CONTINUOUS
 10
67.944201
 20
111.634188
 30
0.0
 11
68.010955
 21
111.65582
 31
0.0
  0
LINE
  8
0
  6
CONTINUOUS
 10
68.010955
 20
111.65582
 30
0.0
 11
68.067268
 21
111.643295
 31
0.0
  0
LINE
  8
0
  6
CONTINUOUS
 10
68.067268
 20
111.643295
 30
0.0
 11
68.106323
 21
111.600778
 31
0.0
  0
LINE
  8
0
  6
CONTINUOUS
 10
68.106323
 20
111.600778
 30
0.0
 11
68.120978
 21
111.532126
 31
0.0
  0
LINE
  8
0
  6
CONTINUOUS
 10
67.908849
 20
111.654598
 30
0.0
 11
67.944201
 21
111.634188
 31
0.0
  0
LINE
  8
0
  6
CONTINUOUS
 10
68.232692
 20
112.453946
 30
0.0
 11
67.9827
 21
112.429179
 31
0.0
  0
LINE
  8
0
  6
CONTINUOUS
 10
67.9827
 20
112.429179
 30
0.0
 11
67.879152
 21
112.658062
 31
0.0
  0
LINE
  8
0
  6
CONTINUOUS
 10
67.932199
 20
111.668083
 30
0.0
 11
68.182191
 21
111.69285
 31
0.0
  0
LINE
  8
0
  6
CONTINUOUS
 10
68.182191
 20
111.69285
 30
0.0
 11
68.285739
 21
111.463967
 31
0.0
  0
LINE
  8
0
  6
CONTINUOUS
 10
69.222274
 20
112.409816
 30
0.0
 11
69.248984
 21
112.326817
 31
0.0
  0
LINE
  8
0
  6
CONTINUOUS
 10
69.248984
 20
112.326817
 30
0.0
 11
69.258011
 21
112.229417
 31
0.0
  0
LINE
  8
0
  6
CONTINUOUS
 10
69.3236
 20
112.444907
 30
0.0
 11
69.340668
 21
112.36692
 31
0.0
  0
LINE
  8
0
  6
CONTINUOUS
 10
69.340668
 20
112.36692
 30
0.0
 11
69.346399
 21
112.280448
 31
0.0
  0
LINE
  8
0
  6
CONTINUOUS
 10
69.346399
 20
112.280448
 30
0.0
 11
69.247166
 21
111.866494
 31
0.0
  0
LINE
  8
0
  6
CONTINUOUS
 10
69.247166
 20
111.866494
 30
0.0
 11
68.986602
 21
111.492871
 31
0.0
  0
LINE
  8
0
  6
CONTINUOUS
 10
68.986602
 20
111.492871
 30
0.0
 11
68.66222
 21
111.299399
 31
0.0
  0
LINE
  8
0
  6
CONTINUOUS
 10
69.258011
 20
112.229417
 30
0.0
 11
69.165585
 21
111.86375
 31
0.0
  0
LINE
  8
0
  6
CONTINUOUS
 10
69.165585
 20
111.86375
 30
0.0
 11
68.926967
 21
111.544307
 31
0.0
  0
LINE
  8
0
  6
CONTINUOUS
 10
68.926967
 20
111.544307
 30
0.0
 11
68.641964
 21
111.404701
 31
0.0
  0
LINE
  8
0
  6
CONTINUOUS
 10
67.879152
 20
119.598306
 30
0.0
 11
67.930926
 21
119.772531
 31
0.0
  0
LINE
  8
0
  6
CONTINUOUS
 10
67.930926
 20
119.772531
 30
0.0
 11
68.055922
 21
119.904481
 31
0.0
  0
LINE
  8
0
  6
CONTINUOUS
 10
73.11207
 20
116.985313
 30
0.0
 11
73.060296
 21
116.811088
 31
0.0
  0
LINE
  8
0
  6
CONTINUOUS
 10
73.060296
 20
116.811088
 30
0.0
 11
72.9353
 21
116.679138
 31
0.0
  0
LINE
  8
0
  6
CONTINUOUS
 10
61.214478
 20
129.426625
 30
0.0
 11
61.74878
 21
128.984781
 31
0.0
  0
LINE
  8
0
  6
CONTINUOUS
 10
61.74878
 20
128.984781
 30
0.0
 11
62.200062
 21
128.367058
 31
0.0
  0
LINE
  8
0
  6
CONTINUOUS
 10
62.795464
 20
128.711882
 30
0.0
 11
62.23294
 21
129.484951
 31
0.0
  0
LINE
  8
0
  6
CONTINUOUS
 10
62.23294
 20
129.484951
 30
0.0
 11
61.568018
 21
130.038975
 31
0.0
  0
LINE
  8
0
  6
CONTINUOUS
 10
62.465252
 20
128.525904
 30
0.0
 11
61.896671
 21
129.302423
 31
0.0
  0
LINE
  8
0
  6
CONTINUOUS
 10
61.896671
 20
129.302423
 30
0.0
 11
61.323051
 21
129.772174
 31
0.0
  0
LINE
  8
0
  6
CONTINUOUS
 10
61.214478
 20
129.426625
 30
0.0
 11
61.323051
 21
129.772174
 31
0.0
  0
LINE
  8
0
  6
CONTINUOUS
 10
61.323051
 20
129.772174
 30
0.0
 11
61.568018
 21
130.038975
 31
0.0
  0
LINE
  8
0
  6
CONTINUOUS
 10
62.200062
 20
128.367058
 30
0.0
 11
62.512079
 21
127.670309
 31
0.0
  0
LINE
  8
0
  6
CONTINUOUS
 10
62.512079
 20
127.670309
 30
0.0
 11
62.628584
 21
126.991386
 31
0.0
  0
LINE
  8
0
  6
CONTINUOUS
 10
63.332592
 20
126.99316
 30
0.0
 11
63.185408
 21
127.840905
 31
0.0
  0
LINE
  8
0
  6
CONTINUOUS
 10
63.185408
 20
127.840905
 30
0.0
 11
62.795464
 21
128.711882
 31
0.0
  0
LINE
  8
0
  6
CONTINUOUS
 10
62.981188
 20
126.912908
 30
0.0
 11
62.858846
 21
127.646705
 31
0.0
  0
LINE
  8
0
  6
CONTINUOUS
 10
62.858846
 20
127.646705
 30
0.0
 11
62.465252
 21
128.525904
 31
0.0
  0
LINE
  8
0
  6
CONTINUOUS
 10
62.981188
 20
126.912908
 30
0.0
 11
62.628584
 21
126.991386
 31
0.0
  0
LINE
  8
0
  6
CONTINUOUS
 10
63.332592
 20
126.99316
 30
0.0
 11
62.981188
 21
126.912908
 31
0.0
  0
LINE
  8
0
  6
CONTINUOUS
 10
62.795464
 20
128.711882
 30
0.0
 11
62.465252
 21
128.525904
 31
0.0
  0
LINE
  8
0
  6
CONTINUOUS
 10
62.200062
 20
128.367058
 30
0.0
 11
62.465252
 21
128.525904
 31
0.0
  0
LINE
  8
0
  6
CONTINUOUS
 10
67.755409
 20
122.588717
 30
0.0
 11
68.015928
 21
123.861811
 31
0.0
  0
LINE
  8
0
  6
CONTINUOUS
 10
68.015928
 20
123.861811
 30
0.0
 11
68.727681
 21
125.094602
 31
0.0
  0
LINE
  8
0
  6
CONTINUOUS
 10
68.727681
 20
125.094602
 30
0.0
 11
69.699952
 21
125.956766
 31
0.0
  0
LINE
  8
0
  6
CONTINUOUS
 10
69.699952
 20
125.956766
 30
0.0
 11
70.672224
 21
126.217285
 31
0.0
  0
LINE
  8
0
  6
CONTINUOUS
 10
70.672224
 20
126.217285
 30
0.0
 11
71.383977
 21
125.806355
 31
0.0
  0
LINE
  8
0
  6
CONTINUOUS
 10
71.383977
 20
125.806355
 30
0.0
 11
71.644496
 21
124.834083
 31
0.0
  0
LINE
  8
0
  6
CONTINUOUS
 10
72.174826
 20
127.038631
 30
0.0
 11
72.2266
 21
127.212856
 31
0.0
  0
LINE
  8
0
  6
CONTINUOUS
 10
72.2266
 20
127.212856
 30
0.0
 11
72.351596
 21
127.344806
 31
0.0
  0
LINE
  8
0
  6
CONTINUOUS
 10
87.224444
 20
85.34319
 30
0.0
 11
87.205209
 21
85.287425
 31
0.0
  0
LINE
  8
0
  6
CONTINUOUS
 10
87.205209
 20
85.287425
 30
0.0
 11
87.149672
 21
85.240135
 31
0.0
  0
LINE
  8
0
  6
CONTINUOUS
 10
87.149672
 20
85.240135
 30
0.0
 11
87.136486
 21
85.168394
 31
0.0
  0
LINE
  8
0
  6
CONTINUOUS
 10
87.136486
 20
85.168394
 30
0.0
 11
87.09781
 21
85.123853
 31
0.0
  0
LINE
  8
0
  6
CONTINUOUS
 10
80.129804
 20
106.789524
 30
0.0
 11
80.629789
 21
106.839057
 31
0.0
  0
LINE
  8
0
  6
CONTINUOUS
 10
80.629789
 20
106.839057
 30
0.0
 11
80.836884
 21
106.381291
 31
0.0
  0
LINE
  8
0
  6
CONTINUOUS
 10
80.660094
 20
104.054237
 30
0.0
 11
80.410102
 21
104.029471
 31
0.0
  0
LINE
  8
0
  6
CONTINUOUS
 10
80.410102
 20
104.029471
 30
0.0
 11
80.306554
 21
104.258354
 31
0.0
  0
LINE
  8
0
  6
CONTINUOUS
 10
74.079259
 20
106.628939
 30
0.0
 11
73.975712
 21
106.28049
 31
0.0
  0
LINE
  8
0
  6
CONTINUOUS
 10
73.975712
 20
106.28049
 30
0.0
 11
73.725719
 21
106.01659
 31
0.0
  0
LINE
  8
0
  6
CONTINUOUS
 10
79.245894
 20
103.645981
 30
0.0
 11
79.142346
 21
103.297532
 31
0.0
  0
LINE
  8
0
  6
CONTINUOUS
 10
79.142346
 20
103.297532
 30
0.0
 11
78.892354
 21
103.033632
 31
0.0
  0
LINE
  8
0
  6
CONTINUOUS
 10
78.715564
 20
105.156546
 30
0.0
 11
78.922659
 21
105.853445
 31
0.0
  0
LINE
  8
0
  6
CONTINUOUS
 10
78.922659
 20
105.853445
 30
0.0
 11
79.422644
 21
106.381245
 31
0.0
  0
LINE
  8
0
  6
CONTINUOUS
 10
78.715564
 20
103.952167
 30
0.0
 11
78.612016
 21
103.603718
 31
0.0
  0
LINE
  8
0
  6
CONTINUOUS
 10
78.612016
 20
103.603718
 30
0.0
 11
78.362024
 21
103.339818
 31
0.0
  0
LINE
  8
0
  6
CONTINUOUS
 10
79.776224
 20
106.258786
 30
0.0
 11
80.041389
 21
106.329836
 31
0.0
  0
LINE
  8
0
  6
CONTINUOUS
 10
80.041389
 20
106.329836
 30
0.0
 11
80.235503
 21
106.217765
 31
0.0
  0
LINE
  8
0
  6
CONTINUOUS
 10
80.235503
 20
106.217765
 30
0.0
 11
80.306554
 21
105.952599
 31
0.0
  0
LINE
  8
0
  6
CONTINUOUS
 10
80.306554
 20
105.952599
 30
0.0
 11
80.235503
 21
105.605392
 31
0.0
  0
LINE
  8
0
  6
CONTINUOUS
 10
80.235503
 20
105.605392
 30
0.0
 11
80.041389
 21
105.269176
 31
0.0
  0
LINE
  8
0
  6
CONTINUOUS
 10
80.041389
 20
105.269176
 30
0.0
 11
79.776224
 21
105.034041
 31
0.0
  0
LINE
  8
0
  6
CONTINUOUS
 10
79.776224
 20
105.034041
 30
0.0
 11
79.511059
 21
104.96299
 31
0.0
  0
LINE
  8
0
  6
CONTINUOUS
 10
79.511059
 20
104.96299
 30
0.0
 11
79.316945
 21
105.075062
 31
0.0
  0
LINE
  8
0
  6
CONTINUOUS
 10
79.316945
 20
105.075062
 30
0.0
 11
79.245894
 21
105.340227
 31
0.0
  0
LINE
  8
0
  6
CONTINUOUS
 10
79.245894
 20
105.340227
 30
0.0
 11
79.316945
 21
105.687434
 31
0.0
  0
LINE
  8
0
  6
CONTINUOUS
 10
79.316945
 20
105.687434
 30
0.0
 11
79.511059
 21
106.02365
 31
0.0
  0
LINE
  8
0
  6
CONTINUOUS
 10
79.511059
 20
106.02365
 30
0.0
 11
79.776224
 21
106.258786
 31
0.0
  0
LINE
  8
0
  6
CONTINUOUS
 10
79.245894
 20
103.911374
 30
0.0
 11
79.349442
 21
104.259823
 31
0.0
  0
LINE
  8
0
  6
CONTINUOUS
 10
79.349442
 20
104.259823
 30
0.0
 11
79.599434
 21
104.523723
 31
0.0
  0
LINE
  8
0
  6
CONTINUOUS
 10
79.953014
 20
104.727862
 30
0.0
 11
80.203006
 21
104.752629
 31
0.0
  0
LINE
  8
0
  6
CONTINUOUS
 10
80.203006
 20
104.752629
 30
0.0
 11
80.306554
 21
104.523746
 31
0.0
  0
LINE
  8
0
  6
CONTINUOUS
 10
79.930202
 20
106.321182
 30
0.0
 11
79.924829
 21
105.943525
 31
0.0
  0
LINE
  8
0
  6
CONTINUOUS
 10
79.924829
 20
105.943525
 30
0.0
 11
79.731542
 21
105.531071
 31
0.0
  0
LINE
  8
0
  6
CONTINUOUS
 10
79.731542
 20
105.531071
 30
0.0
 11
79.422671
 21
105.238165
 31
0.0
  0
LINE
  8
0
  6
CONTINUOUS
 10
79.828875
 20
106.286091
 30
0.0
 11
79.850471
 21
105.969468
 31
0.0
  0
LINE
  8
0
  6
CONTINUOUS
 10
79.850471
 20
105.969468
 30
0.0
 11
79.693133
 21
105.603101
 31
0.0
  0
LINE
  8
0
  6
CONTINUOUS
 10
79.693133
 20
105.603101
 30
0.0
 11
79.422671
 21
105.340227
 31
0.0
  0
LINE
  8
0
  6
CONTINUOUS
 10
79.422671
 20
105.238165
 30
0.0
 11
79.344906
 21
105.199887
 31
0.0
  0
LINE
  8
0
  6
CONTINUOUS
 10
79.344906
 20
105.199887
 30
0.0
 11
79.268822
 21
105.175675
 31
0.0
  0
LINE
  8
0
  6
CONTINUOUS
 10
79.422671
 20
105.340227
 30
0.0
 11
79.333803
 21
105.299343
 31
0.0
  0
LINE
  8
0
  6
CONTINUOUS
 10
79.333803
 20
105.299343
 30
0.0
 11
79.248566
 21
105.280976
 31
0.0
  0
LINE
  8
0
  6
CONTINUOUS
 10
81.190424
 20
104.972796
 30
0.0
 11
80.940432
 21
104.94803
 31
0.0
  0
LINE
  8
0
  6
CONTINUOUS
 10
80.940432
 20
104.94803
 30
0.0
 11
80.836884
 21
105.176912
 31
0.0
  0
LINE
  8
0
  6
CONTINUOUS
 10
95.339551
 20
108.284936
 30
0.0
 11
95.339551
 21
126.877969
 31
0.0
  0
LINE
  8
0
  6
CONTINUOUS
 10
95.339551
 20
126.877969
 30
0.0
 11
95.339551
 21
145.471002
 31
0.0
  0
LINE
  8
0
  6
CONTINUOUS
 10
89.728846
 20
137.989938
 30
0.0
 11
91.478791
 21
138.163303
 31
0.0
  0
LINE
  8
0
  6
CONTINUOUS
 10
91.478791
 20
138.163303
 30
0.0
 11
92.203626
 21
136.561124
 31
0.0
  0
LINE
  8
0
  6
CONTINUOUS
 10
95.478556
 20
145.675274
 30
0.0
 11
95.478556
 21
127.082241
 31
0.0
  0
LINE
  8
0
  6
CONTINUOUS
 10
95.478556
 20
127.082241
 30
0.0
 11
95.478556
 21
108.489208
 31
0.0
  0
LINE
  8
0
  6
CONTINUOUS
 10
91.797039
 20
113.199007
 30
0.0
 11
91.53652
 21
111.925913
 31
0.0
  0
LINE
  8
0
  6
CONTINUOUS
 10
91.53652
 20
111.925913
 30
0.0
 11
90.824767
 21
110.693122
 31
0.0
  0
LINE
  8
0
  6
CONTINUOUS
 10
90.824767
 20
110.693122
 30
0.0
 11
89.852496
 21
109.830958
 31
0.0
  0
LINE
  8
0
  6
CONTINUOUS
 10
89.852496
 20
109.830958
 30
0.0
 11
88.880224
 21
109.570439
 31
0.0
  0
LINE
  8
0
  6
CONTINUOUS
 10
88.880224
 20
109.570439
 30
0.0
 11
88.168471
 21
109.981369
 31
0.0
  0
LINE
  8
0
  6
CONTINUOUS
 10
88.168471
 20
109.981369
 30
0.0
 11
87.907952
 21
110.953641
 31
0.0
  0
LINE
  8
0
  6
CONTINUOUS
 10
91.797039
 20
136.469159
 30
0.0
 11
91.425664
 21
134.934953
 31
0.0
  0
LINE
  8
0
  6
CONTINUOUS
 10
91.425664
 20
134.934953
 30
0.0
 11
90.453393
 21
133.557935
 31
0.0
  0
LINE
  8
0
  6
CONTINUOUS
 10
90.453393
 20
133.557935
 30
0.0
 11
89.251599
 21
132.864079
 31
0.0
  0
LINE
  8
0
  6
CONTINUOUS
 10
89.251599
 20
132.864079
 30
0.0
 11
88.279327
 21
133.118414
 31
0.0
  0
LINE
  8
0
  6
CONTINUOUS
 10
88.279327
 20
133.118414
 30
0.0
 11
87.907952
 21
134.223794
 31
0.0
  0
LINE
  8
0
  6
CONTINUOUS
 10
89.852401
 20
132.488684
 30
0.0
 11
88.102457
 21
132.31532
 31
0.0
  0
LINE
  8
0
  6
CONTINUOUS
 10
88.102457
 20
132.31532
 30
0.0
 11
87.377622
 21
133.917499
 31
0.0
  0
LINE
  8
0
  6
CONTINUOUS
 10
87.377622
 20
110.647564
 30
0.0
 11
88.102457
 21
113.086709
 31
0.0
  0
LINE
  8
0
  6
CONTINUOUS
 10
88.102457
 20
113.086709
 30
0.0
 11
89.852401
 21
114.934007
 31
0.0
  0
LINE
  8
0
  6
CONTINUOUS
 10
87.907952
 20
110.953641
 30
0.0
 11
88.168471
 21
112.226735
 31
0.0
  0
LINE
  8
0
  6
CONTINUOUS
 10
88.168471
 20
112.226735
 30
0.0
 11
88.880224
 21
113.459526
 31
0.0
  0
LINE
  8
0
  6
CONTINUOUS
 10
88.880224
 20
113.459526
 30
0.0
 11
89.852496
 21
114.321689
 31
0.0
  0
LINE
  8
0
  6
CONTINUOUS
 10
89.852496
 20
114.321689
 30
0.0
 11
90.824767
 21
114.582209
 31
0.0
  0
LINE
  8
0
  6
CONTINUOUS
 10
90.824767
 20
114.582209
 30
0.0
 11
91.53652
 21
114.171278
 31
0.0
  0
LINE
  8
0
  6
CONTINUOUS
 10
91.53652
 20
114.171278
 30
0.0
 11
91.797039
 21
113.199007
 31
0.0
  0
LINE
  8
0
  6
CONTINUOUS
 10
87.907952
 20
134.223794
 30
0.0
 11
88.168471
 21
135.496887
 31
0.0
  0
LINE
  8
0
  6
CONTINUOUS
 10
88.168471
 20
135.496887
 30
0.0
 11
88.880224
 21
136.729679
 31
0.0
  0
LINE
  8
0
  6
CONTINUOUS
 10
88.880224
 20
136.729679
 30
0.0
 11
89.852496
 21
137.591842
 31
0.0
  0
LINE
  8
0
  6
CONTINUOUS
 10
89.852496
 20
137.591842
 30
0.0
 11
90.824767
 21
137.852361
 31
0.0
  0
LINE
  8
0
  6
CONTINUOUS
 10
90.824767
 20
137.852361
 30
0.0
 11
91.53652
 21
137.441431
 31
0.0
  0
LINE
  8
0
  6
CONTINUOUS
 10
91.53652
 20
137.441431
 30
0.0
 11
91.797039
 21
136.469159
 31
0.0
  0
LINE
  8
0
  6
CONTINUOUS
 10
80.783514
 20
110.379698
 30
0.0
 11
80.533634
 21
110.731567
 31
0.0
  0
LINE
  8
0
  6
CONTINUOUS
 10
80.533634
 20
110.731567
 30
0.0
 11
80.129777
 21
111.032399
 31
0.0
  0
LINE
  8
0
  6
CONTINUOUS
 10
80.129777
 20
111.77303
 30
0.0
 11
80.776825
 21
111.117075
 31
0.0
  0
LINE
  8
0
  6
CONTINUOUS
 10
80.776825
 20
111.117075
 30
0.0
 11
80.776825
 21
110.363409
 31
0.0
  0
LINE
  8
0
  6
CONTINUOUS
 10
80.776825
 20
110.363409
 30
0.0
 11
80.129777
 21
109.713974
 31
0.0
  0
LINE
  8
0
  6
CONTINUOUS
 10
74.079259
 20
107.833318
 30
0.0
 11
74.286355
 21
108.530217
 31
0.0
  0
LINE
  8
0
  6
CONTINUOUS
 10
74.286355
 20
108.530217
 30
0.0
 11
74.786339
 21
109.058016
 31
0.0
  0
LINE
  8
0
  6
CONTINUOUS
 10
75.573721
 20
109.512611
 30
0.0
 11
75.84719
 21
109.606965
 31
0.0
  0
LINE
  8
0
  6
CONTINUOUS
 10
75.84719
 20
109.606965
 30
0.0
 11
76.078094
 21
109.559565
 31
0.0
  0
LINE
  8
0
  6
CONTINUOUS
 10
87.377622
 20
108.749093
 30
0.0
 11
87.325848
 21
108.574868
 31
0.0
  0
LINE
  8
0
  6
CONTINUOUS
 10
87.325848
 20
108.574868
 30
0.0
 11
87.200852
 21
108.442918
 31
0.0
  0
LINE
  8
0
  6
CONTINUOUS
 10
80.836884
 20
130.631178
 30
0.0
 11
80.629789
 21
129.934279
 31
0.0
  0
LINE
  8
0
  6
CONTINUOUS
 10
80.629789
 20
129.934279
 30
0.0
 11
80.129804
 21
129.406479
 31
0.0
  0
LINE
  8
0
  6
CONTINUOUS
 10
80.306554
 20
132.141743
 30
0.0
 11
80.410102
 21
132.490192
 31
0.0
  0
LINE
  8
0
  6
CONTINUOUS
 10
80.410102
 20
132.490192
 30
0.0
 11
80.660094
 21
132.754092
 31
0.0
  0
LINE
  8
0
  6
CONTINUOUS
 10
79.776224
 20
129.528938
 30
0.0
 11
79.464504
 21
129.465919
 31
0.0
  0
LINE
  8
0
  6
CONTINUOUS
 10
79.464504
 20
129.465919
 30
0.0
 11
79.27185
 21
129.660877
 31
0.0
  0
LINE
  8
0
  6
CONTINUOUS
 10
79.27185
 20
129.660877
 30
0.0
 11
79.27185
 21
130.039344
 31
0.0
  0
LINE
  8
0
  6
CONTINUOUS
 10
79.27185
 20
130.039344
 30
0.0
 11
79.464504
 21
130.456759
 31
0.0
  0
LINE
  8
0
  6
CONTINUOUS
 10
79.464504
 20
130.456759
 30
0.0
 11
79.776224
 21
130.753683
 31
0.0
  0
LINE
  8
0
  6
CONTINUOUS
 10
79.776224
 20
130.753683
 30
0.0
 11
80.041389
 21
130.824734
 31
0.0
  0
LINE
  8
0
  6
CONTINUOUS
 10
80.041389
 20
130.824734
 30
0.0
 11
80.235503
 21
130.712662
 31
0.0
  0
LINE
  8
0
  6
CONTINUOUS
 10
80.235503
 20
130.712662
 30
0.0
 11
80.306554
 21
130.447497
 31
0.0
  0
LINE
  8
0
  6
CONTINUOUS
 10
80.306554
 20
130.447497
 30
0.0
 11
80.235503
 21
130.10029
 31
0.0
  0
LINE
  8
0
  6
CONTINUOUS
 10
80.235503
 20
130.10029
 30
0.0
 11
80.041389
 21
129.764074
 31
0.0
  0
LINE
  8
0
  6
CONTINUOUS
 10
80.041389
 20
129.764074
 30
0.0
 11
79.776224
 21
129.528938
 31
0.0
  0
LINE
  8
0
  6
CONTINUOUS
 10
79.930202
 20
130.81608
 30
0.0
 11
79.924829
 21
130.438422
 31
0.0
  0
LINE
  8
0
  6
CONTINUOUS
 10
79.924829
 20
130.438422
 30
0.0
 11
79.731542
 21
130.025968
 31
0.0
  0
LINE
  8
0
  6
CONTINUOUS
 10
79.731542
 20
130.025968
 30
0.0
 11
79.422671
 21
129.733062
 31
0.0
  0
LINE
  8
0
  6
CONTINUOUS
 10
79.828875
 20
130.780989
 30
0.0
 11
79.850471
 21
130.464366
 31
0.0
  0
LINE
  8
0
  6
CONTINUOUS
 10
79.850471
 20
130.464366
 30
0.0
 11
79.693133
 21
130.097998
 31
0.0
  0
LINE
  8
0
  6
CONTINUOUS
 10
79.693133
 20
130.097998
 30
0.0
 11
79.422671
 21
129.835124
 31
0.0
  0
LINE
  8
0
  6
CONTINUOUS
 10
77.407743
 20
124.425638
 30
0.0
 11
77.355969
 21
124.251413
 31
0.0
  0
LINE
  8
0
  6
CONTINUOUS
 10
77.355969
 20
124.251413
 30
0.0
 11
77.230973
 21
124.119463
 31
0.0
  0
LINE
  8
0
  6
CONTINUOUS
 10
79.422644
 20
128.9982
 30
0.0
 11
78.922659
 21
128.948667
 31
0.0
  0
LINE
  8
0
  6
CONTINUOUS
 10
78.922659
 20
128.948667
 30
0.0
 11
78.715564
 21
129.406433
 31
0.0
  0
LINE
  8
0
  6
CONTINUOUS
 10
79.422671
 20
129.733062
 30
0.0
 11
79.344906
 21
129.694784
 31
0.0
  0
LINE
  8
0
  6
CONTINUOUS
 10
79.344906
 20
129.694784
 30
0.0
 11
79.268822
 21
129.670572
 31
0.0
  0
LINE
  8
0
  6
CONTINUOUS
 10
79.422671
 20
129.835124
 30
0.0
 11
79.333803
 21
129.79424
 31
0.0
  0
LINE
  8
0
  6
CONTINUOUS
 10
79.333803
 20
129.79424
 30
0.0
 11
79.248566
 21
129.775874
 31
0.0
  0
LINE
  8
0
  6
CONTINUOUS
 10
78.362024
 20
130.814928
 30
0.0
 11
78.612016
 21
130.839694
 31
0.0
  0
LINE
  8
0
  6
CONTINUOUS
 10
78.612016
 20
130.839694
 30
0.0
 11
78.715564
 21
130.610812
 31
0.0
  0
LINE
  8
0
  6
CONTINUOUS
 10
79.599434
 20
131.059862
 30
0.0
 11
79.349442
 21
131.035095
 31
0.0
  0
LINE
  8
0
  6
CONTINUOUS
 10
79.349442
 20
131.035095
 30
0.0
 11
79.245894
 21
131.263978
 31
0.0
  0
LINE
  8
0
  6
CONTINUOUS
 10
78.892354
 20
131.733487
 30
0.0
 11
79.142346
 21
131.758253
 31
0.0
  0
LINE
  8
0
  6
CONTINUOUS
 10
79.142346
 20
131.758253
 30
0.0
 11
79.245894
 21
131.52937
 31
0.0
  0
LINE
  8
0
  6
CONTINUOUS
 10
80.306554
 20
131.87635
 30
0.0
 11
80.203006
 21
131.527901
 31
0.0
  0
LINE
  8
0
  6
CONTINUOUS
 10
80.203006
 20
131.527901
 30
0.0
 11
79.953014
 21
131.264001
 31
0.0
  0
LINE
  8
0
  6
CONTINUOUS
 10
80.836884
 20
131.835557
 30
0.0
 11
80.940432
 21
132.184006
 31
0.0
  0
LINE
  8
0
  6
CONTINUOUS
 10
80.940432
 20
132.184006
 30
0.0
 11
81.190424
 21
132.447906
 31
0.0
  0
LINE
  8
0
  6
CONTINUOUS
 10
87.200852
 20
135.918028
 30
0.0
 11
87.325848
 21
135.930411
 31
0.0
  0
LINE
  8
0
  6
CONTINUOUS
 10
87.325848
 20
135.930411
 30
0.0
 11
87.377622
 21
135.81597
 31
0.0
  0
LINE
  8
0
  6
CONTINUOUS
 10
92.203626
 20
113.576527
 30
0.0
 11
91.478791
 21
111.137382
 31
0.0
  0
LINE
  8
0
  6
CONTINUOUS
 10
91.478791
 20
111.137382
 30
0.0
 11
89.728846
 21
109.290084
 31
0.0
  0
LINE
  8
0
  6
CONTINUOUS
 10
94.808713
 20
107.175911
 30
0.0
 11
94.814657
 21
107.179373
 31
0.0
  0
LINE
  8
0
  6
CONTINUOUS
 10
95.339551
 20
108.284936
 30
0.0
 11
95.197998
 21
107.603893
 31
0.0
  0
LINE
  8
0
  6
CONTINUOUS
 10
95.197998
 20
107.603893
 30
0.0
 11
94.814657
 21
107.179373
 31
0.0
  0
LINE
  8
0
  6
CONTINUOUS
 10
95.339551
 20
108.284936
 30
0.0
 11
95.478551
 21
108.487819
 31
0.0
  0
LINE
  8
0
  6
CONTINUOUS
 10
95.478551
 20
108.487819
 30
0.0
 11
95.478556
 21
108.489204
 31
0.0
  0
LINE
  8
0
  6
CONTINUOUS
 10
94.814657
 20
107.179373
 30
0.0
 11
94.814732
 21
107.179417
 31
0.0
  0
LINE
  8
0
  6
CONTINUOUS
 10
95.478551
 20
108.487819
 30
0.0
 11
95.478544
 21
108.48618
 31
0.0
  0
LINE
  8
0
  6
CONTINUOUS
 10
94.814732
 20
107.179417
 30
0.0
 11
94.913335
 21
107.246227
 31
0.0
  0
LINE
  8
0
  6
CONTINUOUS
 10
94.913335
 20
107.246227
 30
0.0
 11
94.993254
 21
107.315021
 31
0.0
  0
LINE
  8
0
  6
CONTINUOUS
 10
94.993254
 20
107.315021
 30
0.0
 11
95.062248
 21
107.385796
 31
0.0
  0
LINE
  8
0
  6
CONTINUOUS
 10
95.062248
 20
107.385796
 30
0.0
 11
95.179729
 21
107.530115
 31
0.0
  0
LINE
  8
0
  6
CONTINUOUS
 10
95.179729
 20
107.530115
 30
0.0
 11
95.283818
 21
107.69624
 31
0.0
  0
LINE
  8
0
  6
CONTINUOUS
 10
95.283818
 20
107.69624
 30
0.0
 11
95.419083
 21
108.066027
 31
0.0
  0
LINE
  8
0
  6
CONTINUOUS
 10
95.419083
 20
108.066027
 30
0.0
 11
95.468366
 21
108.348569
 31
0.0
  0
LINE
  8
0
  6
CONTINUOUS
 10
95.468366
 20
108.348569
 30
0.0
 11
95.477176
 21
108.448947
 31
0.0
  0
LINE
  8
0
  6
CONTINUOUS
 10
95.477176
 20
108.448947
 30
0.0
 11
95.478298
 21
108.47378
 31
0.0
  0
LINE
  8
0
  6
CONTINUOUS
 10
95.478298
 20
108.47378
 30
0.0
 11
95.478544
 21
108.48618
 31
0.0
  0
LINE
  8
0
  6
CONTINUOUS
 10
95.478556
 20
108.489208
 30
0.0
 11
95.478544
 21
108.48618
 31
0.0
  0
LINE
  8
0
  6
CONTINUOUS
 10
94.814732
 20
107.179417
 30
0.0
 11
94.808709
 21
107.175909
 31
0.0
  0
LINE
  8
0
  6
CONTINUOUS
 10
91.673296
 20
116.189418
 30
0.0
 11
91.621522
 21
116.015193
 31
0.0
  0
LINE
  8
0
  6
CONTINUOUS
 10
91.621522
 20
116.015193
 30
0.0
 11
91.496526
 21
115.883243
 31
0.0
  0
LINE
  8
0
  6
CONTINUOUS
 10
91.850086
 20
124.252337
 30
0.0
 11
92.100078
 21
124.277103
 31
0.0
  0
LINE
  8
0
  6
CONTINUOUS
 10
92.100078
 20
124.277103
 30
0.0
 11
92.203626
 21
124.048221
 31
0.0
  0
LINE
  8
0
  6
CONTINUOUS
 10
92.203626
 20
126.089431
 30
0.0
 11
92.100078
 21
125.740981
 31
0.0
  0
LINE
  8
0
  6
CONTINUOUS
 10
92.100078
 20
125.740981
 30
0.0
 11
91.850086
 21
125.477082
 31
0.0
  0
LINE
  8
0
  6
CONTINUOUS
 10
91.673296
 20
126.395617
 30
0.0
 11
91.569748
 21
126.047168
 31
0.0
  0
LINE
  8
0
  6
CONTINUOUS
 10
91.569748
 20
126.047168
 30
0.0
 11
91.319756
 21
125.783268
 31
0.0
  0
LINE
  8
0
  6
CONTINUOUS
 10
89.569653
 20
123.95638
 30
0.0
 11
89.776749
 21
124.653279
 31
0.0
  0
LINE
  8
0
  6
CONTINUOUS
 10
89.776749
 20
124.653279
 30
0.0
 11
90.276733
 21
125.181078
 31
0.0
  0
LINE
  8
0
  6
CONTINUOUS
 10
90.276733
 20
122.731589
 30
0.0
 11
89.776749
 21
122.682056
 31
0.0
  0
LINE
  8
0
  6
CONTINUOUS
 10
89.776749
 20
122.682056
 30
0.0
 11
89.569653
 21
123.139821
 31
0.0
  0
LINE
  8
0
  6
CONTINUOUS
 10
89.852496
 20
123.7114
 30
0.0
 11
89.923546
 21
124.058608
 31
0.0
  0
LINE
  8
0
  6
CONTINUOUS
 10
89.923546
 20
124.058608
 30
0.0
 11
90.117661
 21
124.394823
 31
0.0
  0
LINE
  8
0
  6
CONTINUOUS
 10
90.117661
 20
124.394823
 30
0.0
 11
90.382826
 21
124.629959
 31
0.0
  0
LINE
  8
0
  6
CONTINUOUS
 10
90.382826
 20
124.629959
 30
0.0
 11
90.647991
 21
124.70101
 31
0.0
  0
LINE
  8
0
  6
CONTINUOUS
 10
90.647991
 20
124.70101
 30
0.0
 11
90.842105
 21
124.588938
 31
0.0
  0
LINE
  8
0
  6
CONTINUOUS
 10
90.842105
 20
124.588938
 30
0.0
 11
90.913156
 21
124.323773
 31
0.0
  0
LINE
  8
0
  6
CONTINUOUS
 10
90.913156
 20
124.323773
 30
0.0
 11
90.842105
 21
123.976565
 31
0.0
  0
LINE
  8
0
  6
CONTINUOUS
 10
90.842105
 20
123.976565
 30
0.0
 11
90.647991
 21
123.640349
 31
0.0
  0
LINE
  8
0
  6
CONTINUOUS
 10
90.647991
 20
123.640349
 30
0.0
 11
90.382826
 21
123.405214
 31
0.0
  0
LINE
  8
0
  6
CONTINUOUS
 10
90.382826
 20
123.405214
 30
0.0
 11
90.117661
 21
123.334163
 31
0.0
  0
LINE
  8
0
  6
CONTINUOUS
 10
90.117661
 20
123.334163
 30
0.0
 11
89.923546
 21
123.446235
 31
0.0
  0
LINE
  8
0
  6
CONTINUOUS
 10
89.923546
 20
123.446235
 30
0.0
 11
89.852496
 21
123.7114
 31
0.0
  0
LINE
  8
0
  6
CONTINUOUS
 10
90.559602
 20
124.527897
 30
0.0
 11
90.460369
 21
124.113943
 31
0.0
  0
LINE
  8
0
  6
CONTINUOUS
 10
90.460369
 20
124.113943
 30
0.0
 11
90.199806
 21
123.740319
 31
0.0
  0
LINE
  8
0
  6
CONTINUOUS
 10
90.199806
 20
123.740319
 30
0.0
 11
89.875423
 21
123.546848
 31
0.0
  0
LINE
  8
0
  6
CONTINUOUS
 10
90.471214
 20
124.476866
 30
0.0
 11
90.378789
 21
124.111199
 31
0.0
  0
LINE
  8
0
  6
CONTINUOUS
 10
90.378789
 20
124.111199
 30
0.0
 11
90.140171
 21
123.791755
 31
0.0
  0
LINE
  8
0
  6
CONTINUOUS
 10
90.140171
 20
123.791755
 30
0.0
 11
89.855168
 21
123.652149
 31
0.0
  0
LINE
  8
0
  6
CONTINUOUS
 10
91.319756
 20
123.333778
 30
0.0
 11
91.569748
 21
123.358545
 31
0.0
  0
LINE
  8
0
  6
CONTINUOUS
 10
91.569748
 20
123.358545
 30
0.0
 11
91.673296
 21
123.129662
 31
0.0
  0
LINE
  8
0
  6
CONTINUOUS
 10
91.620249
 20
124.119641
 30
0.0
 11
91.370257
 21
124.094874
 31
0.0
  0
LINE
  8
0
  6
CONTINUOUS
 10
91.370257
 20
124.094874
 30
0.0
 11
91.266709
 21
124.323757
 31
0.0
  0
LINE
  8
0
  6
CONTINUOUS
 10
90.536804
 20
124.692355
 30
0.0
 11
90.553872
 21
124.614369
 31
0.0
  0
LINE
  8
0
  6
CONTINUOUS
 10
90.553872
 20
124.614369
 30
0.0
 11
90.559602
 21
124.527897
 31
0.0
  0
LINE
  8
0
  6
CONTINUOUS
 10
90.435477
 20
124.657264
 30
0.0
 11
90.462188
 21
124.574266
 31
0.0
  0
LINE
  8
0
  6
CONTINUOUS
 10
90.462188
 20
124.574266
 30
0.0
 11
90.471214
 21
124.476866
 31
0.0
  0
LINE
  8
0
  6
CONTINUOUS
 10
91.266709
 20
124.732036
 30
0.0
 11
91.370257
 21
125.080486
 31
0.0
  0
LINE
  8
0
  6
CONTINUOUS
 10
91.370257
 20
125.080486
 30
0.0
 11
91.620249
 21
125.344386
 31
0.0
  0
LINE
  8
0
  6
CONTINUOUS
 10
91.496526
 20
133.43792
 30
0.0
 11
91.621522
 21
133.450303
 31
0.0
  0
LINE
  8
0
  6
CONTINUOUS
 10
91.621522
 20
133.450303
 30
0.0
 11
91.673296
 21
133.335861
 31
0.0
  0
LINE
  8
0
  6
CONTINUOUS
 10
80.616838
 20
156.290408
 30
0.0
 11
87.973607
 21
151.893402
 31
0.0
  0
LINE
  8
0
  6
CONTINUOUS
 10
87.973607
 20
151.893402
 30
0.0
 11
93.599445
 21
148.530943
 31
0.0
  0
LINE
  8
0
  6
CONTINUOUS
 10
93.849232
 20
148.546997
 30
0.0
 11
87.357319
 21
152.427093
 31
0.0
  0
LINE
  8
0
  6
CONTINUOUS
 10
87.357319
 20
152.427093
 30
0.0
 11
80.865424
 21
156.307179
 31
0.0
  0
LINE
  8
0
  6
CONTINUOUS
 10
94.814657
 20
147.196787
 30
0.0
 11
95.197998
 21
146.321998
 31
0.0
  0
LINE
  8
0
  6
CONTINUOUS
 10
95.197998
 20
146.321998
 30
0.0
 11
95.339551
 21
145.471002
 31
0.0
  0
LINE
  8
0
  6
CONTINUOUS
 10
95.478551
 20
145.673885
 30
0.0
 11
95.339551
 21
145.471002
 31
0.0
  0
LINE
  8
0
  6
CONTINUOUS
 10
93.599445
 20
148.530943
 30
0.0
 11
94.258736
 21
147.973669
 31
0.0
  0
LINE
  8
0
  6
CONTINUOUS
 10
94.258736
 20
147.973669
 30
0.0
 11
94.814657
 21
147.196787
 31
0.0
  0
LINE
  8
0
  6
CONTINUOUS
 10
93.599445
 20
148.530943
 30
0.0
 11
93.846835
 21
148.548405
 31
0.0
  0
LINE
  8
0
  6
CONTINUOUS
 10
94.979052
 20
147.284613
 30
0.0
 11
94.415111
 21
148.067337
 31
0.0
  0
LINE
  8
0
  6
CONTINUOUS
 10
94.415111
 20
148.067337
 30
0.0
 11
93.846835
 21
148.548405
 31
0.0
  0
LINE
  8
0
  6
CONTINUOUS
 10
94.9848
 20
147.286978
 30
0.0
 11
94.774557
 21
147.633109
 31
0.0
  0
LINE
  8
0
  6
CONTINUOUS
 10
94.774557
 20
147.633109
 30
0.0
 11
94.514951
 21
147.967093
 31
0.0
  0
LINE
  8
0
  6
CONTINUOUS
 10
94.514951
 20
147.967093
 30
0.0
 11
93.953168
 21
148.475927
 31
0.0
  0
LINE
  8
0
  6
CONTINUOUS
 10
93.953168
 20
148.475927
 30
0.0
 11
93.876092
 21
148.529911
 31
0.0
  0
LINE
  8
0
  6
CONTINUOUS
 10
93.876092
 20
148.529911
 30
0.0
 11
93.858892
 21
148.541056
 31
0.0
  0
LINE
  8
0
  6
CONTINUOUS
 10
93.858892
 20
148.541056
 30
0.0
 11
93.849233
 21
148.546996
 31
0.0
  0
LINE
  8
0
  6
CONTINUOUS
 10
95.478556
 20
145.675271
 30
0.0
 11
95.478551
 21
145.673885
 31
0.0
  0
LINE
  8
0
  6
CONTINUOUS
 10
94.814657
 20
147.196787
 30
0.0
 11
94.979052
 21
147.284613
 31
0.0
  0
LINE
  8
0
  6
CONTINUOUS
 10
94.9848
 20
147.286978
 30
0.0
 11
94.979052
 21
147.284613
 31
0.0
  0
LINE
  8
0
  6
CONTINUOUS
 10
95.478551
 20
145.673885
 30
0.0
 11
95.359208
 21
146.401197
 31
0.0
  0
LINE
  8
0
  6
CONTINUOUS
 10
95.359208
 20
146.401197
 30
0.0
 11
94.979052
 21
147.284613
 31
0.0
  0
LINE
  8
0
  6
CONTINUOUS
 10
95.478556
 20
145.675274
 30
0.0
 11
95.478442
 21
145.685312
 31
0.0
  0
LINE
  8
0
  6
CONTINUOUS
 10
95.478442
 20
145.685312
 30
0.0
 11
95.478062
 21
145.697943
 31
0.0
  0
LINE
  8
0
  6
CONTINUOUS
 10
95.478062
 20
145.697943
 30
0.0
 11
95.47638
 21
145.730895
 31
0.0
  0
LINE
  8
0
  6
CONTINUOUS
 10
95.47638
 20
145.730895
 30
0.0
 11
95.468753
 21
145.824204
 31
0.0
  0
LINE
  8
0
  6
CONTINUOUS
 10
95.468753
 20
145.824204
 30
0.0
 11
95.432071
 21
146.091645
 31
0.0
  0
LINE
  8
0
  6
CONTINUOUS
 10
95.432071
 20
146.091645
 30
0.0
 11
95.257266
 21
146.731171
 31
0.0
  0
LINE
  8
0
  6
CONTINUOUS
 10
95.257266
 20
146.731171
 30
0.0
 11
94.9848
 21
147.286978
 31
0.0
  0
LINE
  8
0
  6
CONTINUOUS
 10
93.846835
 20
148.548405
 30
0.0
 11
93.849225
 21
148.547001
 31
0.0
  0
LINE
  8
0
  6
CONTINUOUS
 10
114.179293
 20
132.855162
 30
0.0
 11
114.235242
 21
132.865731
 31
0.0
  0
LINE
  8
0
  6
CONTINUOUS
 10
114.235242
 20
132.865731
 30
0.0
 11
114.301116
 21
132.842727
 31
0.0
  0
LINE
  8
0
  6
CONTINUOUS
 10
121.286771
 20
108.601266
 30
0.0
 11
121.273586
 21
108.529525
 31
0.0
  0
LINE
  8
0
  6
CONTINUOUS
 10
121.273586
 20
108.529525
 30
0.0
 11
121.234909
 21
108.484984
 31
0.0
  0
LINE
  8
0
  6
CONTINUOUS
 10
119.207294
 20
130.010144
 30
0.0
 11
119.306877
 21
129.916696
 31
0.0
  0
LINE
  8
0
  6
CONTINUOUS
 10
119.306877
 20
129.916696
 30
0.0
 11
119.371921
 21
129.783949
 31
0.0
  0
LINE
  8
0
  6
CONTINUOUS
 10
119.435913
 20
129.820251
 30
0.0
 11
119.491861
 21
129.830821
 31
0.0
  0
LINE
  8
0
  6
CONTINUOUS
 10
119.491861
 20
129.830821
 30
0.0
 11
119.557735
 21
129.807816
 31
0.0
  0
LINE
  8
0
  6
CONTINUOUS
 10
120.9595
 20
128.998507
 30
0.0
 11
121.047317
 21
128.920459
 31
0.0
  0
LINE
  8
0
  6
CONTINUOUS
 10
121.047317
 20
128.920459
 30
0.0
 11
121.112014
 21
128.808391
 31
0.0
  0
LINE
  8
0
  6
CONTINUOUS
 10
121.112014
 20
128.808391
 30
0.0
 11
121.136257
 21
128.692332
 31
0.0
  0
ENDSEC
  0
EOF
