  0
SECTION
  2
HEADER
  9
$ACADVER
  1
AC1009
  9
$INSBASE
 10
0.0
 20
0.0
 30
0.0
  9
$EXTMIN
 10
349.050246
 20
-92.770213
 30
0.0
  9
$EXTMAX
 10
402.358979
 20
72.922998
 30
0.0
  9
$LIMMIN
 10
349.050246
 20
-92.770213
  9
$LIMMAX
 10
402.050246
 20
72.922998
  9
$ORTHOMODE
 70
     0
  9
$REGENMODE
 70
     1
  9
$FILLMODE
 70
     1
  9
$QTEXTMODE
 70
     0
  9
$MIRRTEXT
 70
     1
  9
$DRAGMODE
 70
     2
  9
$LTSCALE
 40
1.0
  9
$OSMODE
 70
     0
  9
$ATTMODE
 70
     1
  9
$TEXTSIZE
 40
3.5
  9
$TRACEWID
 40
0.5
  9
$TEXTSTYLE
  7
STANDARD
  9
$CLAYER
  8
0
  9
$CELTYPE
  6
BYLAYER
  9
$CECOLOR
 62
   256
  9
$DIMSCALE
 40
1.0
  9
$DIMASZ
 40
0.18
  9
$DIMEXO
 40
0.0625
  9
$DIMDLI
 40
0.38
  9
$DIMRND
 40
0.0
  9
$DIMDLE
 40
0.0
  9
$DIMEXE
 40
0.18
  9
$DIMTP
 40
0.0
  9
$DIMTM
 40
0.0
  9
$DIMTXT
 40
0.18
  9
$DIMCEN
 40
0.09
  9
$DIMTSZ
 40
0.0
  9
$DIMTOL
 70
     0
  9
$DIMLIM
 70
     0
  9
$DIMTIH
 70
     1
  9
$DIMTOH
 70
     1
  9
$DIMSE1
 70
     0
  9
$DIMSE2
 70
     0
  9
$DIMTAD
 70
     0
  9
$DIMZIN
 70
     0
  9
$DIMBLK
  1

  9
$DIMASO
 70
     1
  9
$DIMSHO
 70
     1
  9
$DIMPOST
  1

  9
$DIMAPOST
  1

  9
$DIMALT
 70
     0
  9
$DIMALTD
 70
     2
  9
$DIMALTF
 40
25.4
  9
$DIMLFAC
 40
1.0
  9
$DIMTOFL
 70
     0
  9
$DIMTVP
 40
0.0
  9
$DIMTIX
 70
     0
  9
$DIMSOXD
 70
     0
  9
$DIMSAH
 70
     0
  9
$DIMBLK1
  1

  9
$DIMBLK2
  1

  9
$DIMSTYLE
  2
*UNNAMED
  9
$DIMCLRD
 70
     0
  9
$DIMCLRE
 70
     0
  9
$DIMCLRT
 70
     0
  9
$DIMTFAC
 40
1.0
  9
$DIMGAP
 40
0.09
  9
$LUNITS
 70
     2
  9
$LUPREC
 70
     4
  9
$SKETCHINC
 40
0.1
  9
$FILLETRAD
 40
2.0
  9
$AUNITS
 70
     0
  9
$AUPREC
 70
     0
  9
$MENU
  1
ACAD
  9
$ELEVATION
 40
0.0
  9
$PELEVATION
 40
0.0
  9
$THICKNESS
 40
0.0
  9
$LIMCHECK
 70
     0
  9
$BLIPMODE
 70
     1
  9
$CHAMFERA
 40
0.0
  9
$CHAMFERB
 40
0.0
  9
$SKPOLY
 70
     0
  9
$TDCREATE
 40
2450954.685436458
  9
$TDUPDATE
 40
2450954.686084143
  9
$TDINDWG
 40
0.0004239583
  9
$TDUSRTIMER
 40
0.0004239583
  9
$USRTIMER
 70
     1
  9
$ANGBASE
 50
0.0
  9
$ANGDIR
 70
     0
  9
$PDMODE
 70
     0
  9
$PDSIZE
 40
0.0
  9
$PLINEWID
 40
0.0
  9
$COORDS
 70
     2
  9
$SPLFRAME
 70
     0
  9
$SPLINETYPE
 70
     6
  9
$SPLINESEGS
 70
     8
  9
$ATTDIA
 70
     0
  9
$ATTREQ
 70
     1
  9
$HANDLING
 70
     0
  9
$HANDSEED
  5
0
  9
$SURFTAB1
 70
     6
  9
$SURFTAB2
 70
     6
  9
$SURFTYPE
 70
     6
  9
$SURFU
 70
     6
  9
$SURFV
 70
     6
  9
$UCSNAME
  2

  9
$UCSORG
 10
0.0
 20
0.0
 30
0.0
  9
$UCSXDIR
 10
1.0
 20
0.0
 30
0.0
  9
$UCSYDIR
 10
0.0
 20
1.0
 30
0.0
  9
$PUCSNAME
  2

  9
$PUCSORG
 10
0.0
 20
0.0
 30
0.0
  9
$PUCSXDIR
 10
1.0
 20
0.0
 30
0.0
  9
$PUCSYDIR
 10
0.0
 20
1.0
 30
0.0
  9
$USERI1
 70
     0
  9
$USERI2
 70
     0
  9
$USERI3
 70
     0
  9
$USERI4
 70
     0
  9
$USERI5
 70
     0
  9
$USERR1
 40
0.0
  9
$USERR2
 40
0.0
  9
$USERR3
 40
0.0
  9
$USERR4
 40
0.0
  9
$USERR5
 40
0.0
  9
$WORLDVIEW
 70
     1
  9
$SHADEDGE
 70
     3
  9
$SHADEDIF
 70
    70
  9
$TILEMODE
 70
     1
  9
$MAXACTVP
 70
    16
  9
$PINSBASE
 10
0.0
 20
0.0
 30
0.0
  9
$PLIMCHECK
 70
     0
  9
$PEXTMIN
 10
1.000000E+20
 20
1.000000E+20
 30
1.000000E+20
  9
$PEXTMAX
 10
-1.000000E+20
 20
-1.000000E+20
 30
-1.000000E+20
  9
$PLIMMIN
 10
0.0
 20
0.0
  9
$PLIMMAX
 10
420.0
 20
297.0
  9
$UNITMODE
 70
     0
  9
$VISRETAIN
 70
     0
  9
$PLINEGEN
 70
     0
  9
$PSLTSCALE
 70
     1
  9
$TREEDEPTH
 70
  3020
  9
$DWGCODEPAGE
  3
iso8859-1
  0
ENDSEC
  0
SECTION
  2
TABLES
  0
TABLE
  2
VPORT
 70
     2
  0
VPORT
  2
*ACTIVE
 70
     0
 10
0.0
 20
0.0
 11
1.0
 21
1.0
 12
517.633569
 22
-16.160641
 13
0.0
 23
0.0
 14
1.0
 24
1.0
 15
0.0
 25
0.0
 16
0.0
 26
0.0
 36
1.0
 17
0.0
 27
0.0
 37
0.0
 40
263.966425
 41
1.748359
 42
50.0
 43
0.0
 44
0.0
 50
0.0
 51
0.0
 71
     0
 72
   100
 73
     1
 74
     0
 75
     0
 76
     0
 77
     0
 78
     0
  0
ENDTAB
  0
TABLE
  2
LTYPE
 70
     1
  0
LTYPE
  2
CONTINUOUS
 70
    64
  3
Solid line
 72
    65
 73
     0
 40
0.0
  0
ENDTAB
  0
TABLE
  2
LAYER
 70
     1
  0
LAYER
  2
0
 70
    64
 62
     7
  6
CONTINUOUS
  0
ENDTAB
  0
TABLE
  2
STYLE
 70
     1
  0
STYLE
  2
STANDARD
 70
     0
 40
0.0
 41
1.0
 50
0.0
 71
     0
 42
3.5
  3
txt
  4

  0
ENDTAB
  0
TABLE
  2
VIEW
 70
     0
  0
ENDTAB
  0
TABLE
  2
UCS
 70
     0
  0
ENDTAB
  0
TABLE
  2
APPID
 70
     1
  0
APPID
  2
ACAD
 70
    64
  0
ENDTAB
  0
TABLE
  2
DIMSTYLE
 70
     0
  0
ENDTAB
  0
ENDSEC
  0
SECTION
  2
BLOCKS
  0
ENDSEC
  0
SECTION
  2
ENTITIES
  0
LINE
  8
0
 10
369.050246
 20
-23.270213
 30
0.0
 11
369.050246
 21
-23.270213
 31
0.0
  0
LINE
  8
0
 10
369.050246
 20
-23.270213
 30
0.0
 11
369.050246
 21
72.922998
 31
0.0
  0
LINE
  8
0
 10
369.050246
 20
-72.270213
 30
0.0
 11
369.050246
 21
-92.770213
 31
0.0
  0
LINE
  8
0
 10
370.450246
 20
-25.170213
 30
0.0
 11
370.450246
 21
-33.423803
 31
0.0
  0
LINE
  8
0
 10
370.450246
 20
-34.116623
 30
0.0
 11
370.450246
 21
-61.423803
 31
0.0
  0
LINE
  8
0
 10
370.450246
 20
-62.116623
 30
0.0
 11
370.450246
 21
-70.370213
 31
0.0
  0
LINE
  8
0
 10
384.150246
 20
-67.570213
 30
0.0
 11
385.650246
 21
-67.570213
 31
0.0
  0
LINE
  8
0
 10
381.650246
 20
-24.170213
 30
0.0
 11
371.450246
 21
-24.170213
 31
0.0
  0
LINE
  8
0
 10
382.650246
 20
-25.170213
 30
0.0
 11
382.650246
 21
-26.470213
 31
0.0
  0
LINE
  8
0
 10
385.750246
 20
-24.670213
 30
0.0
 11
385.750246
 21
-26.070213
 31
0.0
  0
LINE
  8
0
 10
386.683259
 20
-24.420213
 30
0.0
 11
387.282297
 21
-25.457778
 31
0.0
  0
LINE
  8
0
 10
384.050246
 20
-23.270213
 30
0.0
 11
384.050246
 21
-26.070213
 31
0.0
  0
LINE
  8
0
 10
384.550246
 20
-26.570213
 30
0.0
 11
385.250246
 21
-26.570213
 31
0.0
  0
LINE
  8
0
 10
370.250246
 20
-33.770213
 30
0.0
 11
370.450246
 21
-34.116623
 31
0.0
  0
LINE
  8
0
 10
370.450246
 20
-33.423803
 30
0.0
 11
370.250246
 21
-33.770213
 31
0.0
  0
LINE
  8
0
 10
371.450246
 20
-71.370213
 30
0.0
 11
381.650246
 21
-71.370213
 31
0.0
  0
LINE
  8
0
 10
382.650246
 20
-69.070213
 30
0.0
 11
382.650246
 21
-70.370213
 31
0.0
  0
LINE
  8
0
 10
385.750246
 20
-69.470213
 30
0.0
 11
385.750246
 21
-70.870213
 31
0.0
  0
LINE
  8
0
 10
387.282297
 20
-70.082649
 30
0.0
 11
386.683259
 21
-71.120213
 31
0.0
  0
LINE
  8
0
 10
389.050246
 20
-23.270213
 30
0.0
 11
389.050246
 21
-47.770213
 31
0.0
  0
LINE
  8
0
 10
389.050246
 20
-47.770213
 30
0.0
 11
389.050246
 21
-72.270213
 31
0.0
  0
LINE
  8
0
 10
384.050246
 20
-69.470213
 30
0.0
 11
384.050246
 21
-72.270213
 31
0.0
  0
LINE
  8
0
 10
385.250246
 20
-68.970213
 30
0.0
 11
384.550246
 21
-68.970213
 31
0.0
  0
LINE
  8
0
 10
370.450246
 20
-61.423803
 30
0.0
 11
370.250246
 21
-61.770213
 31
0.0
  0
LINE
  8
0
 10
370.250246
 20
-61.770213
 30
0.0
 11
370.450246
 21
-62.116623
 31
0.0
  0
LINE
  8
0
 10
369.050246
 20
-72.270213
 30
0.0
 11
369.050246
 21
-23.270213
 31
0.0
  0
LINE
  8
0
 10
369.550246
 20
-22.770213
 30
0.0
 11
383.550246
 21
-22.770213
 31
0.0
  0
LINE
  8
0
 10
369.550246
 20
-72.770213
 30
0.0
 11
383.550246
 21
-72.770213
 31
0.0
  0
LINE
  8
0
 10
384.050246
 20
-69.680256
 30
0.0
 11
384.050246
 21
-72.270213
 31
0.0
  0
LINE
  8
0
 10
384.050246
 20
-25.870213
 30
0.0
 11
384.050246
 21
-23.270213
 31
0.0
  0
LINE
  8
0
 10
385.450246
 20
-69.680256
 30
0.0
 11
385.450246
 21
-70.870213
 31
0.0
  0
LINE
  8
0
 10
387.650246
 20
-47.770213
 30
0.0
 11
387.650246
 21
-70.870213
 31
0.0
  0
LINE
  8
0
 10
387.650246
 20
-24.670213
 30
0.0
 11
387.650246
 21
-47.770213
 31
0.0
  0
LINE
  8
0
 10
385.450246
 20
-25.870213
 30
0.0
 11
385.450246
 21
-24.670213
 31
0.0
  0
LINE
  8
0
 10
384.550246
 20
-72.770213
 30
0.0
 11
388.550246
 21
-72.770213
 31
0.0
  0
LINE
  8
0
 10
385.950246
 20
-71.370213
 30
0.0
 11
387.150246
 21
-71.370213
 31
0.0
  0
LINE
  8
0
 10
384.550246
 20
-22.770213
 30
0.0
 11
388.550246
 21
-22.770213
 31
0.0
  0
LINE
  8
0
 10
385.950246
 20
-24.170213
 30
0.0
 11
387.150246
 21
-24.170213
 31
0.0
  0
LINE
  8
0
 10
385.650246
 20
-27.970213
 30
0.0
 11
384.150246
 21
-27.970213
 31
0.0
  0
LINE
  8
0
 10
387.550246
 20
-26.457778
 30
0.0
 11
387.550246
 21
-29.479622
 31
0.0
  0
LINE
  8
0
 10
386.150246
 20
-28.470213
 30
0.0
 11
386.150246
 21
-29.479622
 31
0.0
  0
LINE
  8
0
 10
387.550246
 20
-66.071564
 30
0.0
 11
387.550246
 21
-69.082649
 31
0.0
  0
LINE
  8
0
 10
386.150246
 20
-67.070213
 30
0.0
 11
386.150246
 21
-66.071564
 31
0.0
  0
ARC
  8
0
 10
386.250246
 20
-24.670213
 30
0.0
 40
0.5
 50
30.0
 51
90.0
  0
ARC
  8
0
 10
386.250246
 20
-24.670213
 30
0.0
 40
0.5
 50
90.0
 51
180.0
  0
ARC
  8
0
 10
386.250246
 20
-70.870213
 30
0.0
 40
0.5
 50
270.0
 51
330.0
  0
ARC
  8
0
 10
386.250246
 20
-70.870213
 30
0.0
 40
0.5
 50
180.0
 51
270.0
  0
ARC
  8
0
 10
385.650246
 20
-67.070213
 30
0.0
 40
0.5
 50
270.0
 51
0.0
  0
ARC
  8
0
 10
386.850246
 20
-66.071564
 30
0.0
 40
0.7
 50
90.0
 51
180.0
  0
ARC
  8
0
 10
386.850246
 20
-66.071564
 30
0.0
 40
0.7
 50
0.0
 51
90.0
  0
ARC
  8
0
 10
385.550246
 20
-26.457778
 30
0.0
 40
2.0
 50
0.0
 51
30.0
  0
ARC
  8
0
 10
385.250246
 20
-26.070213
 30
0.0
 40
0.5
 50
270.0
 51
0.0
  0
ARC
  8
0
 10
384.550246
 20
-26.070213
 30
0.0
 40
0.5
 50
180.0
 51
270.0
  0
ARC
  8
0
 10
383.550246
 20
-23.270213
 30
0.0
 40
0.5
 50
0.0
 51
90.0
  0
ARC
  8
0
 10
381.650246
 20
-25.170213
 30
0.0
 40
1.0
 50
0.0
 51
90.0
  0
ARC
  8
0
 10
369.550246
 20
-23.270213
 30
0.0
 40
0.5
 50
90.0
 51
180.0
  0
ARC
  8
0
 10
371.450246
 20
-25.170213
 30
0.0
 40
1.0
 50
90.0
 51
180.0
  0
ARC
  8
0
 10
384.550246
 20
-23.270213
 30
0.0
 40
0.5
 50
90.0
 51
180.0
  0
ARC
  8
0
 10
388.550246
 20
-23.270213
 30
0.0
 40
0.5
 50
0.0
 51
90.0
  0
ARC
  8
0
 10
384.550246
 20
-72.270213
 30
0.0
 40
0.5
 50
180.0
 51
270.0
  0
ARC
  8
0
 10
388.550246
 20
-72.270213
 30
0.0
 40
0.5
 50
270.0
 51
0.0
  0
ARC
  8
0
 10
385.550246
 20
-69.082649
 30
0.0
 40
2.0
 50
330.0
 51
0.0
  0
ARC
  8
0
 10
385.250246
 20
-69.470213
 30
0.0
 40
0.5
 50
0.0
 51
90.0
  0
ARC
  8
0
 10
384.550246
 20
-69.470213
 30
0.0
 40
0.5
 50
90.0
 51
180.0
  0
ARC
  8
0
 10
383.550246
 20
-72.270213
 30
0.0
 40
0.5
 50
270.0
 51
0.0
  0
ARC
  8
0
 10
381.650246
 20
-70.370213
 30
0.0
 40
1.0
 50
270.0
 51
0.0
  0
ARC
  8
0
 10
384.150246
 20
-69.070213
 30
0.0
 40
1.5
 50
90.0
 51
180.0
  0
ARC
  8
0
 10
369.550246
 20
-72.270213
 30
0.0
 40
0.5
 50
180.0
 51
270.0
  0
ARC
  8
0
 10
371.450246
 20
-70.370213
 30
0.0
 40
1.0
 50
180.0
 51
270.0
  0
ARC
  8
0
 10
387.150246
 20
-70.870213
 30
0.0
 40
0.5
 50
270.0
 51
0.0
  0
ARC
  8
0
 10
385.950246
 20
-70.870213
 30
0.0
 40
0.5
 50
180.0
 51
270.0
  0
ARC
  8
0
 10
384.750246
 20
-69.680256
 30
0.0
 40
0.7
 50
0.0
 51
90.0
  0
ARC
  8
0
 10
384.750246
 20
-69.680256
 30
0.0
 40
0.7
 50
90.0
 51
180.0
  0
ARC
  8
0
 10
384.750246
 20
-25.870213
 30
0.0
 40
0.7
 50
270.0
 51
0.0
  0
ARC
  8
0
 10
384.750246
 20
-25.870213
 30
0.0
 40
0.7
 50
180.0
 51
270.0
  0
ARC
  8
0
 10
387.150246
 20
-24.670213
 30
0.0
 40
0.5
 50
0.0
 51
90.0
  0
ARC
  8
0
 10
385.950246
 20
-24.670213
 30
0.0
 40
0.5
 50
90.0
 51
180.0
  0
ARC
  8
0
 10
386.850246
 20
-29.479622
 30
0.0
 40
0.7
 50
270.0
 51
0.0
  0
ARC
  8
0
 10
386.850246
 20
-29.479622
 30
0.0
 40
0.7
 50
180.0
 51
270.0
  0
ARC
  8
0
 10
384.150246
 20
-26.470213
 30
0.0
 40
1.5
 50
180.0
 51
270.0
  0
ARC
  8
0
 10
385.650246
 20
-28.470213
 30
0.0
 40
0.5
 50
0.0
 51
90.0
  0
LINE
  8
0
 10
369.058973
 20
51.089853
 30
0.0
 11
400.563336
 21
50.814918
 31
0.0
  0
LINE
  8
0
 10
402.050246
 20
49.314976
 30
0.0
 11
402.050246
 21
-20.693713
 31
0.0
  0
LINE
  8
0
 10
400.563336
 20
-22.193656
 30
0.0
 11
369.050246
 21
-22.468667
 31
0.0
  0
ARC
  8
0
 10
400.550246
 20
49.314976
 30
0.0
 40
1.5
 50
0.0
 51
89.5
  0
ARC
  8
0
 10
400.550246
 20
-20.693713
 30
0.0
 40
1.5
 50
270.5
 51
0.0
  0
LINE
  8
0
 10
349.050246
 20
66.207534
 30
0.0
 11
355.765711
 21
72.922998
 31
0.0
  0
LINE
  8
0
 10
349.050246
 20
59.136466
 30
0.0
 11
362.836778
 21
72.922998
 31
0.0
  0
LINE
  8
0
 10
349.050246
 20
52.065398
 30
0.0
 11
369.050246
 21
72.065398
 31
0.0
  0
LINE
  8
0
 10
349.050246
 20
44.99433
 30
0.0
 11
369.050246
 21
64.99433
 31
0.0
  0
LINE
  8
0
 10
349.050246
 20
37.923262
 30
0.0
 11
369.050246
 21
57.923262
 31
0.0
  0
LINE
  8
0
 10
349.050246
 20
30.852195
 30
0.0
 11
369.050246
 21
50.852195
 31
0.0
  0
LINE
  8
0
 10
349.050246
 20
23.781127
 30
0.0
 11
369.050246
 21
43.781127
 31
0.0
  0
LINE
  8
0
 10
349.050246
 20
16.710059
 30
0.0
 11
369.050246
 21
36.710059
 31
0.0
  0
LINE
  8
0
 10
349.050246
 20
9.638991
 30
0.0
 11
369.050246
 21
29.638991
 31
0.0
  0
LINE
  8
0
 10
349.050246
 20
2.567923
 30
0.0
 11
369.050246
 21
22.567923
 31
0.0
  0
LINE
  8
0
 10
349.050246
 20
-4.503144
 30
0.0
 11
369.050246
 21
15.496856
 31
0.0
  0
LINE
  8
0
 10
349.050246
 20
-11.574212
 30
0.0
 11
369.050246
 21
8.425788
 31
0.0
  0
LINE
  8
0
 10
349.050246
 20
-18.64528
 30
0.0
 11
369.050246
 21
1.35472
 31
0.0
  0
LINE
  8
0
 10
349.050246
 20
-25.716348
 30
0.0
 11
369.050246
 21
-5.716348
 31
0.0
  0
LINE
  8
0
 10
349.050246
 20
-32.787416
 30
0.0
 11
369.050246
 21
-12.787416
 31
0.0
  0
LINE
  8
0
 10
349.050246
 20
-39.858483
 30
0.0
 11
369.050246
 21
-19.858483
 31
0.0
  0
LINE
  8
0
 10
349.050246
 20
-46.929551
 30
0.0
 11
369.050246
 21
-26.929551
 31
0.0
  0
LINE
  8
0
 10
349.050246
 20
-54.000619
 30
0.0
 11
369.050246
 21
-34.000619
 31
0.0
  0
LINE
  8
0
 10
349.050246
 20
-61.071687
 30
0.0
 11
369.050246
 21
-41.071687
 31
0.0
  0
LINE
  8
0
 10
349.050246
 20
-68.142755
 30
0.0
 11
369.050246
 21
-48.142755
 31
0.0
  0
LINE
  8
0
 10
349.050246
 20
-75.213823
 30
0.0
 11
369.050246
 21
-55.213823
 31
0.0
  0
LINE
  8
0
 10
349.050246
 20
-82.28489
 30
0.0
 11
369.050246
 21
-62.28489
 31
0.0
  0
LINE
  8
0
 10
349.050246
 20
-89.355958
 30
0.0
 11
369.050246
 21
-69.355958
 31
0.0
  0
LINE
  8
0
 10
352.707059
 20
-92.770213
 30
0.0
 11
369.050246
 21
-76.427026
 31
0.0
  0
LINE
  8
0
 10
359.778127
 20
-92.770213
 30
0.0
 11
369.050246
 21
-83.498094
 31
0.0
  0
LINE
  8
0
 10
366.849195
 20
-92.770213
 30
0.0
 11
369.050246
 21
-90.569162
 31
0.0
  0
LINE
  8
0
 10
383.750246
 20
-72.973819
 30
0.0
 11
383.803037
 21
-72.701602
 31
0.0
  0
LINE
  8
0
 10
401.550246
 20
-23.091372
 30
0.0
 11
401.536383
 21
-21.823994
 31
0.0
  0
LINE
  8
0
 10
383.250246
 20
-73.973819
 30
0.0
 11
383.250246
 21
-74.973819
 31
0.0
  0
LINE
  8
0
 10
383.250246
 20
-72.973819
 30
0.0
 11
383.750246
 21
-72.973819
 31
0.0
  0
LINE
  8
0
 10
389.050246
 20
-71.973819
 30
0.0
 11
389.050246
 21
-72.473819
 31
0.0
  0
LINE
  8
0
 10
383.250246
 20
-72.973819
 30
0.0
 11
383.250246
 21
-73.973819
 31
0.0
  0
LINE
  8
0
 10
383.250246
 20
-74.973819
 30
0.0
 11
398.350246
 21
-74.973819
 31
0.0
  0
LINE
  8
0
 10
400.063336
 20
-25.078105
 30
0.0
 11
399.850246
 21
-25.079965
 31
0.0
  0
LINE
  8
0
 10
401.550246
 20
-23.578162
 30
0.0
 11
401.550246
 21
-23.091372
 31
0.0
  0
LINE
  8
0
 10
399.850246
 20
-25.079965
 30
0.0
 11
399.850246
 21
-73.473819
 31
0.0
  0
ARC
  8
0
 10
398.350246
 20
-73.473819
 30
0.0
 40
1.5
 50
270.0
 51
0.0
  0
ARC
  8
0
 10
400.050246
 20
-23.578162
 30
0.0
 40
1.5
 50
270.5
 51
0.0
  0
ENDSEC
  0
EOF
