  0
SECTION
  2
HEADER
  9
$ACADVER
  1
AC1009
  9
$INSBASE
 10
0.0
 20
0.0
 30
0.0
  9
$EXTMIN
 10
278.347751
 20
-67.873766
 30
0.0
  9
$EXTMAX
 10
368.347751
 20
-27.770213
 30
0.0
  9
$LIMMIN
 10
278.347751
 20
-67.770213
  9
$LIMMAX
 10
368.347751
 20
-27.770213
  9
$ORTHOMODE
 70
     0
  9
$REGENMODE
 70
     1
  9
$FILLMODE
 70
     1
  9
$QTEXTMODE
 70
     0
  9
$MIRRTEXT
 70
     1
  9
$DRAGMODE
 70
     2
  9
$LTSCALE
 40
1.0
  9
$OSMODE
 70
     0
  9
$ATTMODE
 70
     1
  9
$TEXTSIZE
 40
3.5
  9
$TRACEWID
 40
0.5
  9
$TEXTSTYLE
  7
STANDARD
  9
$CLAYER
  8
0
  9
$CELTYPE
  6
BYLAYER
  9
$CECOLOR
 62
   256
  9
$DIMSCALE
 40
1.0
  9
$DIMASZ
 40
0.18
  9
$DIMEXO
 40
0.0625
  9
$DIMDLI
 40
0.38
  9
$DIMRND
 40
0.0
  9
$DIMDLE
 40
0.0
  9
$DIMEXE
 40
0.18
  9
$DIMTP
 40
0.0
  9
$DIMTM
 40
0.0
  9
$DIMTXT
 40
0.18
  9
$DIMCEN
 40
0.09
  9
$DIMTSZ
 40
0.0
  9
$DIMTOL
 70
     0
  9
$DIMLIM
 70
     0
  9
$DIMTIH
 70
     1
  9
$DIMTOH
 70
     1
  9
$DIMSE1
 70
     0
  9
$DIMSE2
 70
     0
  9
$DIMTAD
 70
     0
  9
$DIMZIN
 70
     0
  9
$DIMBLK
  1

  9
$DIMASO
 70
     1
  9
$DIMSHO
 70
     1
  9
$DIMPOST
  1

  9
$DIMAPOST
  1

  9
$DIMALT
 70
     0
  9
$DIMALTD
 70
     2
  9
$DIMALTF
 40
25.4
  9
$DIMLFAC
 40
1.0
  9
$DIMTOFL
 70
     0
  9
$DIMTVP
 40
0.0
  9
$DIMTIX
 70
     0
  9
$DIMSOXD
 70
     0
  9
$DIMSAH
 70
     0
  9
$DIMBLK1
  1

  9
$DIMBLK2
  1

  9
$DIMSTYLE
  2
*UNNAMED
  9
$DIMCLRD
 70
     0
  9
$DIMCLRE
 70
     0
  9
$DIMCLRT
 70
     0
  9
$DIMTFAC
 40
1.0
  9
$DIMGAP
 40
0.09
  9
$LUNITS
 70
     2
  9
$LUPREC
 70
     4
  9
$SKETCHINC
 40
0.1
  9
$FILLETRAD
 40
2.0
  9
$AUNITS
 70
     0
  9
$AUPREC
 70
     0
  9
$MENU
  1
ACAD
  9
$ELEVATION
 40
0.0
  9
$PELEVATION
 40
0.0
  9
$THICKNESS
 40
0.0
  9
$LIMCHECK
 70
     0
  9
$BLIPMODE
 70
     1
  9
$CHAMFERA
 40
0.0
  9
$CHAMFERB
 40
0.0
  9
$SKPOLY
 70
     0
  9
$TDCREATE
 40
2450954.679644444
  9
$TDUPDATE
 40
2450954.681313773
  9
$TDINDWG
 40
0.0014105324
  9
$TDUSRTIMER
 40
0.0014105324
  9
$USRTIMER
 70
     1
  9
$ANGBASE
 50
0.0
  9
$ANGDIR
 70
     0
  9
$PDMODE
 70
     0
  9
$PDSIZE
 40
0.0
  9
$PLINEWID
 40
0.0
  9
$COORDS
 70
     2
  9
$SPLFRAME
 70
     0
  9
$SPLINETYPE
 70
     6
  9
$SPLINESEGS
 70
     8
  9
$ATTDIA
 70
     0
  9
$ATTREQ
 70
     1
  9
$HANDLING
 70
     0
  9
$HANDSEED
  5
0
  9
$SURFTAB1
 70
     6
  9
$SURFTAB2
 70
     6
  9
$SURFTYPE
 70
     6
  9
$SURFU
 70
     6
  9
$SURFV
 70
     6
  9
$UCSNAME
  2

  9
$UCSORG
 10
0.0
 20
0.0
 30
0.0
  9
$UCSXDIR
 10
1.0
 20
0.0
 30
0.0
  9
$UCSYDIR
 10
0.0
 20
1.0
 30
0.0
  9
$PUCSNAME
  2

  9
$PUCSORG
 10
0.0
 20
0.0
 30
0.0
  9
$PUCSXDIR
 10
1.0
 20
0.0
 30
0.0
  9
$PUCSYDIR
 10
0.0
 20
1.0
 30
0.0
  9
$USERI1
 70
     0
  9
$USERI2
 70
     0
  9
$USERI3
 70
     0
  9
$USERI4
 70
     0
  9
$USERI5
 70
     0
  9
$USERR1
 40
0.0
  9
$USERR2
 40
0.0
  9
$USERR3
 40
0.0
  9
$USERR4
 40
0.0
  9
$USERR5
 40
0.0
  9
$WORLDVIEW
 70
     1
  9
$SHADEDGE
 70
     3
  9
$SHADEDIF
 70
    70
  9
$TILEMODE
 70
     1
  9
$MAXACTVP
 70
    16
  9
$PINSBASE
 10
0.0
 20
0.0
 30
0.0
  9
$PLIMCHECK
 70
     0
  9
$PEXTMIN
 10
1.000000E+20
 20
1.000000E+20
 30
1.000000E+20
  9
$PEXTMAX
 10
-1.000000E+20
 20
-1.000000E+20
 30
-1.000000E+20
  9
$PLIMMIN
 10
0.0
 20
0.0
  9
$PLIMMAX
 10
420.0
 20
297.0
  9
$UNITMODE
 70
     0
  9
$VISRETAIN
 70
     0
  9
$PLINEGEN
 70
     0
  9
$PSLTSCALE
 70
     1
  9
$TREEDEPTH
 70
  3020
  9
$DWGCODEPAGE
  3
iso8859-1
  0
ENDSEC
  0
SECTION
  2
TABLES
  0
TABLE
  2
VPORT
 70
     2
  0
VPORT
  2
*ACTIVE
 70
     0
 10
0.0
 20
0.0
 11
1.0
 21
1.0
 12
338.203523
 22
-44.738771
 13
0.0
 23
0.0
 14
1.0
 24
1.0
 15
0.0
 25
0.0
 16
0.0
 26
0.0
 36
1.0
 17
0.0
 27
0.0
 37
0.0
 40
96.760692
 41
1.748359
 42
50.0
 43
0.0
 44
0.0
 50
0.0
 51
0.0
 71
     0
 72
   100
 73
     1
 74
     0
 75
     0
 76
     0
 77
     0
 78
     0
  0
ENDTAB
  0
TABLE
  2
LTYPE
 70
     1
  0
LTYPE
  2
CONTINUOUS
 70
    64
  3
Solid line
 72
    65
 73
     0
 40
0.0
  0
ENDTAB
  0
TABLE
  2
LAYER
 70
     1
  0
LAYER
  2
0
 70
    64
 62
     7
  6
CONTINUOUS
  0
ENDTAB
  0
TABLE
  2
STYLE
 70
     1
  0
STYLE
  2
STANDARD
 70
     0
 40
0.0
 41
1.0
 50
0.0
 71
     0
 42
3.5
  3
txt
  4

  0
ENDTAB
  0
TABLE
  2
VIEW
 70
     0
  0
ENDTAB
  0
TABLE
  2
UCS
 70
     0
  0
ENDTAB
  0
TABLE
  2
APPID
 70
     1
  0
APPID
  2
ACAD
 70
    64
  0
ENDTAB
  0
TABLE
  2
DIMSTYLE
 70
     0
  0
ENDTAB
  0
ENDSEC
  0
SECTION
  2
BLOCKS
  0
ENDSEC
  0
SECTION
  2
ENTITIES
  0
LINE
  8
0
 10
347.847751
 20
-47.770213
 30
0.0
 11
368.347751
 21
-47.770213
 31
0.0
  0
LINE
  8
0
 10
298.847751
 20
-47.770213
 30
0.0
 11
278.347751
 21
-47.770213
 31
0.0
  0
LINE
  8
0
 10
322.348854
 20
-50.217148
 30
0.0
 11
322.846098
 21
-64.699811
 31
0.0
  0
LINE
  8
0
 10
320.046098
 20
-64.870213
 30
0.0
 11
320.933663
 21
-64.870213
 31
0.0
  0
LINE
  8
0
 10
325.262135
 20
-64.353056
 30
0.0
 11
325.766842
 21
-49.653056
 31
0.0
  0
LINE
  8
0
 10
325.76184
 20
-64.870213
 30
0.0
 11
326.649405
 21
-64.870213
 31
0.0
  0
LINE
  8
0
 10
323.849405
 20
-64.699811
 30
0.0
 11
324.346649
 21
-50.217148
 31
0.0
  0
LINE
  8
0
 10
345.947751
 20
-49.170213
 30
0.0
 11
339.694162
 21
-49.170213
 31
0.0
  0
LINE
  8
0
 10
346.947751
 20
-60.370213
 30
0.0
 11
346.947751
 21
-50.170213
 31
0.0
  0
LINE
  8
0
 10
345.947751
 20
-61.370213
 30
0.0
 11
344.647751
 21
-61.370213
 31
0.0
  0
LINE
  8
0
 10
346.447751
 20
-64.470213
 30
0.0
 11
345.047751
 21
-64.470213
 31
0.0
  0
LINE
  8
0
 10
346.697751
 20
-65.403226
 30
0.0
 11
345.660187
 21
-66.002264
 31
0.0
  0
LINE
  8
0
 10
341.647751
 20
-66.270213
 30
0.0
 11
344.660187
 21
-66.270213
 31
0.0
  0
LINE
  8
0
 10
347.847751
 20
-62.770213
 30
0.0
 11
345.047751
 21
-62.770213
 31
0.0
  0
LINE
  8
0
 10
344.547751
 20
-63.270213
 30
0.0
 11
344.547751
 21
-63.970213
 31
0.0
  0
LINE
  8
0
 10
339.347751
 20
-48.970213
 30
0.0
 11
339.001341
 21
-49.170213
 31
0.0
  0
LINE
  8
0
 10
339.694162
 20
-49.170213
 30
0.0
 11
339.347751
 21
-48.970213
 31
0.0
  0
LINE
  8
0
 10
307.001341
 20
-49.170213
 30
0.0
 11
300.747751
 21
-49.170213
 31
0.0
  0
LINE
  8
0
 10
299.747751
 20
-50.170213
 30
0.0
 11
299.747751
 21
-60.370213
 31
0.0
  0
LINE
  8
0
 10
302.047751
 20
-61.370213
 30
0.0
 11
300.747751
 21
-61.370213
 31
0.0
  0
LINE
  8
0
 10
301.647751
 20
-64.470213
 30
0.0
 11
300.247751
 21
-64.470213
 31
0.0
  0
LINE
  8
0
 10
301.035316
 20
-66.002264
 30
0.0
 11
299.997751
 21
-65.403226
 31
0.0
  0
LINE
  8
0
 10
347.847751
 20
-67.770213
 30
0.0
 11
323.347751
 21
-67.770213
 31
0.0
  0
LINE
  8
0
 10
323.347751
 20
-67.770213
 30
0.0
 11
298.847751
 21
-67.770213
 31
0.0
  0
LINE
  8
0
 10
301.647751
 20
-62.770213
 30
0.0
 11
298.847751
 21
-62.770213
 31
0.0
  0
LINE
  8
0
 10
302.147751
 20
-63.970213
 30
0.0
 11
302.147751
 21
-63.270213
 31
0.0
  0
LINE
  8
0
 10
307.694162
 20
-49.170213
 30
0.0
 11
307.347751
 21
-48.970213
 31
0.0
  0
LINE
  8
0
 10
307.347751
 20
-48.970213
 30
0.0
 11
307.001341
 21
-49.170213
 31
0.0
  0
LINE
  8
0
 10
298.847751
 20
-47.770213
 30
0.0
 11
347.847751
 21
-47.770213
 31
0.0
  0
LINE
  8
0
 10
348.347751
 20
-48.270213
 30
0.0
 11
348.347751
 21
-62.270213
 31
0.0
  0
LINE
  8
0
 10
298.347751
 20
-48.270213
 30
0.0
 11
298.347751
 21
-62.270213
 31
0.0
  0
LINE
  8
0
 10
301.437709
 20
-62.770213
 30
0.0
 11
298.847751
 21
-62.770213
 31
0.0
  0
LINE
  8
0
 10
345.247751
 20
-62.770213
 30
0.0
 11
347.847751
 21
-62.770213
 31
0.0
  0
LINE
  8
0
 10
301.437709
 20
-64.170213
 30
0.0
 11
300.247751
 21
-64.170213
 31
0.0
  0
LINE
  8
0
 10
323.347751
 20
-66.370213
 30
0.0
 11
300.247751
 21
-66.370213
 31
0.0
  0
LINE
  8
0
 10
346.447751
 20
-66.370213
 30
0.0
 11
323.347751
 21
-66.370213
 31
0.0
  0
LINE
  8
0
 10
345.247751
 20
-64.170213
 30
0.0
 11
346.447751
 21
-64.170213
 31
0.0
  0
LINE
  8
0
 10
298.347751
 20
-63.270213
 30
0.0
 11
298.347751
 21
-67.270213
 31
0.0
  0
LINE
  8
0
 10
299.747751
 20
-64.670213
 30
0.0
 11
299.747751
 21
-65.870213
 31
0.0
  0
LINE
  8
0
 10
348.347751
 20
-63.270213
 30
0.0
 11
348.347751
 21
-67.270213
 31
0.0
  0
LINE
  8
0
 10
346.947751
 20
-64.670213
 30
0.0
 11
346.947751
 21
-65.870213
 31
0.0
  0
LINE
  8
0
 10
320.928661
 20
-49.653056
 30
0.0
 11
321.433111
 21
-64.346746
 31
0.0
  0
LINE
  8
0
 10
320.046098
 20
-66.270213
 30
0.0
 11
321.347751
 21
-66.270213
 31
0.0
  0
LINE
  8
0
 10
326.649405
 20
-66.270213
 30
0.0
 11
325.347751
 21
-66.270213
 31
0.0
  0
LINE
  8
0
 10
320.428956
 20
-49.170213
 30
0.0
 11
307.694162
 21
-49.170213
 31
0.0
  0
LINE
  8
0
 10
339.001341
 20
-49.170213
 30
0.0
 11
326.266547
 21
-49.170213
 31
0.0
  0
LINE
  8
0
 10
342.647751
 20
-64.870213
 30
0.0
 11
341.647751
 21
-64.870213
 31
0.0
  0
LINE
  8
0
 10
343.147751
 20
-64.370213
 30
0.0
 11
343.147751
 21
-62.870213
 31
0.0
  0
LINE
  8
0
 10
305.047751
 20
-64.870213
 30
0.0
 11
304.047751
 21
-64.870213
 31
0.0
  0
LINE
  8
0
 10
303.547751
 20
-62.870213
 30
0.0
 11
303.547751
 21
-64.370213
 31
0.0
  0
LINE
  8
0
 10
305.047751
 20
-66.270213
 30
0.0
 11
302.035316
 21
-66.270213
 31
0.0
  0
ARC
  8
0
 10
346.447751
 20
-64.970213
 30
0.0
 40
0.5
 50
300.0
 51
0.0
  0
ARC
  8
0
 10
346.447751
 20
-64.970213
 30
0.0
 40
0.5
 50
0.0
 51
90.0
  0
ARC
  8
0
 10
323.347751
 20
-50.170213
 30
0.0
 40
1.0
 50
357.309836
 51
90.0
  0
ARC
  8
0
 10
325.347751
 20
-64.770213
 30
0.0
 40
1.5
 50
177.309836
 51
270.0
  0
ARC
  8
0
 10
323.347751
 20
-50.170213
 30
0.0
 40
1.0
 50
90.0
 51
182.690164
  0
ARC
  8
0
 10
321.347751
 20
-64.770213
 30
0.0
 40
1.5
 50
270.0
 51
2.690164
  0
ARC
  8
0
 10
300.247751
 20
-64.970213
 30
0.0
 40
0.5
 50
180.0
 51
240.0
  0
ARC
  8
0
 10
300.247751
 20
-64.970213
 30
0.0
 40
0.5
 50
90.0
 51
180.0
  0
ARC
  8
0
 10
320.428956
 20
-49.670213
 30
0.0
 40
0.5
 50
1.96641
 51
90.0
  0
ARC
  8
0
 10
320.046098
 20
-65.570213
 30
0.0
 40
0.7
 50
90.0
 51
180.0
  0
ARC
  8
0
 10
320.046098
 20
-65.570213
 30
0.0
 40
0.7
 50
180.0
 51
270.0
  0
ARC
  8
0
 10
326.266547
 20
-49.670213
 30
0.0
 40
0.5
 50
90.0
 51
178.03359
  0
ARC
  8
0
 10
325.76184
 20
-64.370213
 30
0.0
 40
0.5
 50
178.03359
 51
270.0
  0
ARC
  8
0
 10
326.649405
 20
-65.570213
 30
0.0
 40
0.7
 50
0.0
 51
90.0
  0
ARC
  8
0
 10
326.649405
 20
-65.570213
 30
0.0
 40
0.7
 50
270.0
 51
0.0
  0
ARC
  8
0
 10
344.660187
 20
-64.270213
 30
0.0
 40
2.0
 50
270.0
 51
300.0
  0
ARC
  8
0
 10
345.047751
 20
-63.970213
 30
0.0
 40
0.5
 50
180.0
 51
270.0
  0
ARC
  8
0
 10
345.047751
 20
-63.270213
 30
0.0
 40
0.5
 50
90.0
 51
180.0
  0
ARC
  8
0
 10
347.847751
 20
-62.270213
 30
0.0
 40
0.5
 50
270.0
 51
0.0
  0
ARC
  8
0
 10
345.947751
 20
-60.370213
 30
0.0
 40
1.0
 50
270.0
 51
0.0
  0
ARC
  8
0
 10
344.647751
 20
-62.870213
 30
0.0
 40
1.5
 50
90.0
 51
180.0
  0
ARC
  8
0
 10
347.847751
 20
-48.270213
 30
0.0
 40
0.5
 50
0.0
 51
90.0
  0
ARC
  8
0
 10
345.947751
 20
-50.170213
 30
0.0
 40
1.0
 50
0.0
 51
90.0
  0
ARC
  8
0
 10
320.933663
 20
-64.370213
 30
0.0
 40
0.5
 50
270.0
 51
2.690164
  0
ARC
  8
0
 10
347.847751
 20
-63.270213
 30
0.0
 40
0.5
 50
0.0
 51
90.0
  0
ARC
  8
0
 10
347.847751
 20
-67.270213
 30
0.0
 40
0.5
 50
270.0
 51
0.0
  0
ARC
  8
0
 10
298.847751
 20
-63.270213
 30
0.0
 40
0.5
 50
90.0
 51
180.0
  0
ARC
  8
0
 10
298.847751
 20
-67.270213
 30
0.0
 40
0.5
 50
180.0
 51
270.0
  0
ARC
  8
0
 10
302.035316
 20
-64.270213
 30
0.0
 40
2.0
 50
240.0
 51
270.0
  0
ARC
  8
0
 10
301.647751
 20
-63.970213
 30
0.0
 40
0.5
 50
270.0
 51
0.0
  0
ARC
  8
0
 10
301.647751
 20
-63.270213
 30
0.0
 40
0.5
 50
0.0
 51
90.0
  0
ARC
  8
0
 10
298.847751
 20
-62.270213
 30
0.0
 40
0.5
 50
180.0
 51
270.0
  0
ARC
  8
0
 10
300.747751
 20
-60.370213
 30
0.0
 40
1.0
 50
180.0
 51
270.0
  0
ARC
  8
0
 10
302.047751
 20
-62.870213
 30
0.0
 40
1.5
 50
0.0
 51
90.0
  0
ARC
  8
0
 10
298.847751
 20
-48.270213
 30
0.0
 40
0.5
 50
90.0
 51
180.0
  0
ARC
  8
0
 10
300.747751
 20
-50.170213
 30
0.0
 40
1.0
 50
90.0
 51
180.0
  0
ARC
  8
0
 10
300.247751
 20
-65.870213
 30
0.0
 40
0.5
 50
180.0
 51
270.0
  0
ARC
  8
0
 10
300.247751
 20
-64.670213
 30
0.0
 40
0.5
 50
90.0
 51
180.0
  0
ARC
  8
0
 10
301.437709
 20
-63.470213
 30
0.0
 40
0.7
 50
270.0
 51
0.0
  0
ARC
  8
0
 10
301.437709
 20
-63.470213
 30
0.0
 40
0.7
 50
0.0
 51
90.0
  0
ARC
  8
0
 10
345.247751
 20
-63.470213
 30
0.0
 40
0.7
 50
180.0
 51
270.0
  0
ARC
  8
0
 10
345.247751
 20
-63.470213
 30
0.0
 40
0.7
 50
90.0
 51
180.0
  0
ARC
  8
0
 10
346.447751
 20
-65.870213
 30
0.0
 40
0.5
 50
270.0
 51
0.0
  0
ARC
  8
0
 10
346.447751
 20
-64.670213
 30
0.0
 40
0.5
 50
0.0
 51
90.0
  0
ARC
  8
0
 10
341.647751
 20
-65.570213
 30
0.0
 40
0.7
 50
180.0
 51
270.0
  0
ARC
  8
0
 10
341.647751
 20
-65.570213
 30
0.0
 40
0.7
 50
90.0
 51
180.0
  0
ARC
  8
0
 10
342.647751
 20
-64.370213
 30
0.0
 40
0.5
 50
270.0
 51
0.0
  0
ARC
  8
0
 10
305.047751
 20
-65.570213
 30
0.0
 40
0.7
 50
270.0
 51
0.0
  0
ARC
  8
0
 10
305.047751
 20
-65.570213
 30
0.0
 40
0.7
 50
0.0
 51
90.0
  0
ARC
  8
0
 10
304.047751
 20
-64.370213
 30
0.0
 40
0.5
 50
180.0
 51
270.0
  0
LINE
  8
0
 10
278.347751
 20
-32.779232
 30
0.0
 11
283.35677
 21
-27.770213
 31
0.0
  0
LINE
  8
0
 10
278.347751
 20
-39.8503
 30
0.0
 11
290.427838
 21
-27.770213
 31
0.0
  0
LINE
  8
0
 10
278.347751
 20
-46.921368
 30
0.0
 11
297.498906
 21
-27.770213
 31
0.0
  0
LINE
  8
0
 10
284.569974
 20
-47.770213
 30
0.0
 11
304.569974
 21
-27.770213
 31
0.0
  0
LINE
  8
0
 10
291.641042
 20
-47.770213
 30
0.0
 11
311.641042
 21
-27.770213
 31
0.0
  0
LINE
  8
0
 10
298.71211
 20
-47.770213
 30
0.0
 11
318.71211
 21
-27.770213
 31
0.0
  0
LINE
  8
0
 10
305.783177
 20
-47.770213
 30
0.0
 11
325.783177
 21
-27.770213
 31
0.0
  0
LINE
  8
0
 10
312.854245
 20
-47.770213
 30
0.0
 11
332.854245
 21
-27.770213
 31
0.0
  0
LINE
  8
0
 10
319.925313
 20
-47.770213
 30
0.0
 11
339.925313
 21
-27.770213
 31
0.0
  0
LINE
  8
0
 10
326.996381
 20
-47.770213
 30
0.0
 11
346.996381
 21
-27.770213
 31
0.0
  0
LINE
  8
0
 10
334.067449
 20
-47.770213
 30
0.0
 11
354.067449
 21
-27.770213
 31
0.0
  0
LINE
  8
0
 10
341.138516
 20
-47.770213
 30
0.0
 11
361.138516
 21
-27.770213
 31
0.0
  0
LINE
  8
0
 10
348.209584
 20
-47.770213
 30
0.0
 11
368.209584
 21
-27.770213
 31
0.0
  0
LINE
  8
0
 10
355.280652
 20
-47.770213
 30
0.0
 11
368.347751
 21
-34.703114
 31
0.0
  0
LINE
  8
0
 10
362.35172
 20
-47.770213
 30
0.0
 11
368.347751
 21
-41.774182
 31
0.0
  0
ENDSEC
  0
EOF
