  0
SECTION
  2
HEADER
  9
$ACADVER
  1
AC1009
  9
$INSBASE
 10
0.0
 20
0.0
 30
0.0
  9
$EXTMIN
 10
324.050246
 20
-67.873766
 30
0.0
  9
$EXTMAX
 10
414.050246
 20
-27.770213
 30
0.0
  9
$LIMMIN
 10
324.050246
 20
-67.770213
  9
$LIMMAX
 10
414.050246
 20
-27.770213
  9
$ORTHOMODE
 70
     0
  9
$REGENMODE
 70
     1
  9
$FILLMODE
 70
     1
  9
$QTEXTMODE
 70
     0
  9
$MIRRTEXT
 70
     1
  9
$DRAGMODE
 70
     2
  9
$LTSCALE
 40
1.0
  9
$OSMODE
 70
     0
  9
$ATTMODE
 70
     1
  9
$TEXTSIZE
 40
3.5
  9
$TRACEWID
 40
0.5
  9
$TEXTSTYLE
  7
STANDARD
  9
$CLAYER
  8
0
  9
$CELTYPE
  6
BYLAYER
  9
$CECOLOR
 62
   256
  9
$DIMSCALE
 40
1.0
  9
$DIMASZ
 40
0.18
  9
$DIMEXO
 40
0.0625
  9
$DIMDLI
 40
0.38
  9
$DIMRND
 40
0.0
  9
$DIMDLE
 40
0.0
  9
$DIMEXE
 40
0.18
  9
$DIMTP
 40
0.0
  9
$DIMTM
 40
0.0
  9
$DIMTXT
 40
0.18
  9
$DIMCEN
 40
0.09
  9
$DIMTSZ
 40
0.0
  9
$DIMTOL
 70
     0
  9
$DIMLIM
 70
     0
  9
$DIMTIH
 70
     1
  9
$DIMTOH
 70
     1
  9
$DIMSE1
 70
     0
  9
$DIMSE2
 70
     0
  9
$DIMTAD
 70
     0
  9
$DIMZIN
 70
     0
  9
$DIMBLK
  1

  9
$DIMASO
 70
     1
  9
$DIMSHO
 70
     1
  9
$DIMPOST
  1

  9
$DIMAPOST
  1

  9
$DIMALT
 70
     0
  9
$DIMALTD
 70
     2
  9
$DIMALTF
 40
25.4
  9
$DIMLFAC
 40
1.0
  9
$DIMTOFL
 70
     0
  9
$DIMTVP
 40
0.0
  9
$DIMTIX
 70
     0
  9
$DIMSOXD
 70
     0
  9
$DIMSAH
 70
     0
  9
$DIMBLK1
  1

  9
$DIMBLK2
  1

  9
$DIMSTYLE
  2
*UNNAMED
  9
$DIMCLRD
 70
     0
  9
$DIMCLRE
 70
     0
  9
$DIMCLRT
 70
     0
  9
$DIMTFAC
 40
1.0
  9
$DIMGAP
 40
0.09
  9
$LUNITS
 70
     2
  9
$LUPREC
 70
     4
  9
$SKETCHINC
 40
0.1
  9
$FILLETRAD
 40
2.0
  9
$AUNITS
 70
     0
  9
$AUPREC
 70
     0
  9
$MENU
  1
ACAD
  9
$ELEVATION
 40
0.0
  9
$PELEVATION
 40
0.0
  9
$THICKNESS
 40
0.0
  9
$LIMCHECK
 70
     0
  9
$BLIPMODE
 70
     1
  9
$CHAMFERA
 40
0.0
  9
$CHAMFERB
 40
0.0
  9
$SKPOLY
 70
     0
  9
$TDCREATE
 40
2450954.669687963
  9
$TDUPDATE
 40
2450954.674225578
  9
$TDINDWG
 40
0.0042534722
  9
$TDUSRTIMER
 40
0.0042534722
  9
$USRTIMER
 70
     1
  9
$ANGBASE
 50
0.0
  9
$ANGDIR
 70
     0
  9
$PDMODE
 70
     0
  9
$PDSIZE
 40
0.0
  9
$PLINEWID
 40
0.0
  9
$COORDS
 70
     2
  9
$SPLFRAME
 70
     0
  9
$SPLINETYPE
 70
     6
  9
$SPLINESEGS
 70
     8
  9
$ATTDIA
 70
     0
  9
$ATTREQ
 70
     1
  9
$HANDLING
 70
     0
  9
$HANDSEED
  5
0
  9
$SURFTAB1
 70
     6
  9
$SURFTAB2
 70
     6
  9
$SURFTYPE
 70
     6
  9
$SURFU
 70
     6
  9
$SURFV
 70
     6
  9
$UCSNAME
  2

  9
$UCSORG
 10
0.0
 20
0.0
 30
0.0
  9
$UCSXDIR
 10
1.0
 20
0.0
 30
0.0
  9
$UCSYDIR
 10
0.0
 20
1.0
 30
0.0
  9
$PUCSNAME
  2

  9
$PUCSORG
 10
0.0
 20
0.0
 30
0.0
  9
$PUCSXDIR
 10
1.0
 20
0.0
 30
0.0
  9
$PUCSYDIR
 10
0.0
 20
1.0
 30
0.0
  9
$USERI1
 70
     0
  9
$USERI2
 70
     0
  9
$USERI3
 70
     0
  9
$USERI4
 70
     0
  9
$USERI5
 70
     0
  9
$USERR1
 40
0.0
  9
$USERR2
 40
0.0
  9
$USERR3
 40
0.0
  9
$USERR4
 40
0.0
  9
$USERR5
 40
0.0
  9
$WORLDVIEW
 70
     1
  9
$SHADEDGE
 70
     3
  9
$SHADEDIF
 70
    70
  9
$TILEMODE
 70
     1
  9
$MAXACTVP
 70
    16
  9
$PINSBASE
 10
0.0
 20
0.0
 30
0.0
  9
$PLIMCHECK
 70
     0
  9
$PEXTMIN
 10
1.000000E+20
 20
1.000000E+20
 30
1.000000E+20
  9
$PEXTMAX
 10
-1.000000E+20
 20
-1.000000E+20
 30
-1.000000E+20
  9
$PLIMMIN
 10
0.0
 20
0.0
  9
$PLIMMAX
 10
420.0
 20
297.0
  9
$UNITMODE
 70
     0
  9
$VISRETAIN
 70
     0
  9
$PLINEGEN
 70
     0
  9
$PSLTSCALE
 70
     1
  9
$TREEDEPTH
 70
  3020
  9
$DWGCODEPAGE
  3
iso8859-1
  0
ENDSEC
  0
SECTION
  2
TABLES
  0
TABLE
  2
VPORT
 70
     2
  0
VPORT
  2
*ACTIVE
 70
     0
 10
0.0
 20
0.0
 11
1.0
 21
1.0
 12
371.878582
 22
-41.484487
 13
0.0
 23
0.0
 14
1.0
 24
1.0
 15
0.0
 25
0.0
 16
0.0
 26
0.0
 36
1.0
 17
0.0
 27
0.0
 37
0.0
 40
74.631565
 41
1.748359
 42
50.0
 43
0.0
 44
0.0
 50
0.0
 51
0.0
 71
     0
 72
   100
 73
     1
 74
     0
 75
     0
 76
     0
 77
     0
 78
     0
  0
ENDTAB
  0
TABLE
  2
LTYPE
 70
     1
  0
LTYPE
  2
CONTINUOUS
 70
    64
  3
Solid line
 72
    65
 73
     0
 40
0.0
  0
ENDTAB
  0
TABLE
  2
LAYER
 70
     1
  0
LAYER
  2
0
 70
    64
 62
     7
  6
CONTINUOUS
  0
ENDTAB
  0
TABLE
  2
STYLE
 70
     1
  0
STYLE
  2
STANDARD
 70
     0
 40
0.0
 41
1.0
 50
0.0
 71
     0
 42
3.5
  3
txt
  4

  0
ENDTAB
  0
TABLE
  2
VIEW
 70
     0
  0
ENDTAB
  0
TABLE
  2
UCS
 70
     0
  0
ENDTAB
  0
TABLE
  2
APPID
 70
     1
  0
APPID
  2
ACAD
 70
    64
  0
ENDTAB
  0
TABLE
  2
DIMSTYLE
 70
     0
  0
ENDTAB
  0
ENDSEC
  0
SECTION
  2
BLOCKS
  0
ENDSEC
  0
SECTION
  2
ENTITIES
  0
LINE
  8
0
 10
349.750246
 20
-64.870213
 30
0.0
 11
350.748895
 21
-64.870213
 31
0.0
  0
LINE
  8
0
 10
350.748895
 20
-66.270213
 30
0.0
 11
347.737811
 21
-66.270213
 31
0.0
  0
LINE
  8
0
 10
388.350246
 20
-64.870213
 30
0.0
 11
387.340837
 21
-64.870213
 31
0.0
  0
LINE
  8
0
 10
390.362682
 20
-66.270213
 30
0.0
 11
387.340837
 21
-66.270213
 31
0.0
  0
LINE
  8
0
 10
388.850246
 20
-64.370213
 30
0.0
 11
388.850246
 21
-62.870213
 31
0.0
  0
LINE
  8
0
 10
392.650246
 20
-64.670213
 30
0.0
 11
392.650246
 21
-65.870213
 31
0.0
  0
LINE
  8
0
 10
394.050246
 20
-63.270213
 30
0.0
 11
394.050246
 21
-67.270213
 31
0.0
  0
LINE
  8
0
 10
345.450246
 20
-64.670213
 30
0.0
 11
345.450246
 21
-65.870213
 31
0.0
  0
LINE
  8
0
 10
344.050246
 20
-63.270213
 30
0.0
 11
344.050246
 21
-67.270213
 31
0.0
  0
LINE
  8
0
 10
390.950246
 20
-64.170213
 30
0.0
 11
392.150246
 21
-64.170213
 31
0.0
  0
LINE
  8
0
 10
392.150246
 20
-66.370213
 30
0.0
 11
369.050246
 21
-66.370213
 31
0.0
  0
LINE
  8
0
 10
369.050246
 20
-66.370213
 30
0.0
 11
345.950246
 21
-66.370213
 31
0.0
  0
LINE
  8
0
 10
347.140204
 20
-64.170213
 30
0.0
 11
345.950246
 21
-64.170213
 31
0.0
  0
LINE
  8
0
 10
390.950246
 20
-62.770213
 30
0.0
 11
393.550246
 21
-62.770213
 31
0.0
  0
LINE
  8
0
 10
347.140204
 20
-62.770213
 30
0.0
 11
344.550246
 21
-62.770213
 31
0.0
  0
LINE
  8
0
 10
344.050246
 20
-48.270213
 30
0.0
 11
344.050246
 21
-62.270213
 31
0.0
  0
LINE
  8
0
 10
394.050246
 20
-48.270213
 30
0.0
 11
394.050246
 21
-62.270213
 31
0.0
  0
LINE
  8
0
 10
344.550246
 20
-47.770213
 30
0.0
 11
393.550246
 21
-47.770213
 31
0.0
  0
LINE
  8
0
 10
355.050246
 20
-48.970213
 30
0.0
 11
354.703836
 21
-49.170213
 31
0.0
  0
LINE
  8
0
 10
355.396656
 20
-49.170213
 30
0.0
 11
355.050246
 21
-48.970213
 31
0.0
  0
LINE
  8
0
 10
347.850246
 20
-63.970213
 30
0.0
 11
347.850246
 21
-63.270213
 31
0.0
  0
LINE
  8
0
 10
347.350246
 20
-62.770213
 30
0.0
 11
344.550246
 21
-62.770213
 31
0.0
  0
LINE
  8
0
 10
369.050246
 20
-67.770213
 30
0.0
 11
344.550246
 21
-67.770213
 31
0.0
  0
LINE
  8
0
 10
393.550246
 20
-67.770213
 30
0.0
 11
369.050246
 21
-67.770213
 31
0.0
  0
LINE
  8
0
 10
346.737811
 20
-66.002264
 30
0.0
 11
345.700246
 21
-65.403226
 31
0.0
  0
LINE
  8
0
 10
347.350246
 20
-64.470213
 30
0.0
 11
345.950246
 21
-64.470213
 31
0.0
  0
LINE
  8
0
 10
347.750246
 20
-61.370213
 30
0.0
 11
346.450246
 21
-61.370213
 31
0.0
  0
LINE
  8
0
 10
345.450246
 20
-50.170213
 30
0.0
 11
345.450246
 21
-60.370213
 31
0.0
  0
LINE
  8
0
 10
383.396656
 20
-49.170213
 30
0.0
 11
383.050246
 21
-48.970213
 31
0.0
  0
LINE
  8
0
 10
383.050246
 20
-48.970213
 30
0.0
 11
382.703836
 21
-49.170213
 31
0.0
  0
LINE
  8
0
 10
390.250246
 20
-63.270213
 30
0.0
 11
390.250246
 21
-63.970213
 31
0.0
  0
LINE
  8
0
 10
393.550246
 20
-62.770213
 30
0.0
 11
390.750246
 21
-62.770213
 31
0.0
  0
LINE
  8
0
 10
392.400246
 20
-65.403226
 30
0.0
 11
391.362682
 21
-66.002264
 31
0.0
  0
LINE
  8
0
 10
392.150246
 20
-64.470213
 30
0.0
 11
390.750246
 21
-64.470213
 31
0.0
  0
LINE
  8
0
 10
391.650246
 20
-61.370213
 30
0.0
 11
390.350246
 21
-61.370213
 31
0.0
  0
LINE
  8
0
 10
392.650246
 20
-60.370213
 30
0.0
 11
392.650246
 21
-50.170213
 31
0.0
  0
LINE
  8
0
 10
349.250246
 20
-62.870213
 30
0.0
 11
349.250246
 21
-64.370213
 31
0.0
  0
LINE
  8
0
 10
354.703836
 20
-49.170213
 30
0.0
 11
346.450246
 21
-49.170213
 31
0.0
  0
LINE
  8
0
 10
382.703836
 20
-49.170213
 30
0.0
 11
355.396656
 21
-49.170213
 31
0.0
  0
LINE
  8
0
 10
391.650246
 20
-49.170213
 30
0.0
 11
383.396656
 21
-49.170213
 31
0.0
  0
LINE
  8
0
 10
344.550246
 20
-47.770213
 30
0.0
 11
324.050246
 21
-47.770213
 31
0.0
  0
LINE
  8
0
 10
393.550246
 20
-47.770213
 30
0.0
 11
414.050246
 21
-47.770213
 31
0.0
  0
LINE
  8
0
 10
393.550246
 20
-47.770213
 30
0.0
 11
393.550246
 21
-47.770213
 31
0.0
  0
ARC
  8
0
 10
345.950246
 20
-64.970213
 30
0.0
 40
0.5
 50
90.0
 51
180.0
  0
ARC
  8
0
 10
345.950246
 20
-64.970213
 30
0.0
 40
0.5
 50
180.0
 51
240.0
  0
ARC
  8
0
 10
392.150246
 20
-64.970213
 30
0.0
 40
0.5
 50
0.0
 51
90.0
  0
ARC
  8
0
 10
392.150246
 20
-64.970213
 30
0.0
 40
0.5
 50
300.0
 51
0.0
  0
ARC
  8
0
 10
388.350246
 20
-64.370213
 30
0.0
 40
0.5
 50
270.0
 51
0.0
  0
ARC
  8
0
 10
390.350246
 20
-62.870213
 30
0.0
 40
1.5
 50
90.0
 51
180.0
  0
ARC
  8
0
 10
387.340837
 20
-65.570213
 30
0.0
 40
0.7
 50
90.0
 51
180.0
  0
ARC
  8
0
 10
387.340837
 20
-65.570213
 30
0.0
 40
0.7
 50
180.0
 51
270.0
  0
ARC
  8
0
 10
392.150246
 20
-64.670213
 30
0.0
 40
0.5
 50
0.0
 51
90.0
  0
ARC
  8
0
 10
392.150246
 20
-65.870213
 30
0.0
 40
0.5
 50
270.0
 51
0.0
  0
ARC
  8
0
 10
390.950246
 20
-63.470213
 30
0.0
 40
0.7
 50
90.0
 51
180.0
  0
ARC
  8
0
 10
390.950246
 20
-63.470213
 30
0.0
 40
0.7
 50
180.0
 51
270.0
  0
ARC
  8
0
 10
347.140204
 20
-63.470213
 30
0.0
 40
0.7
 50
0.0
 51
90.0
  0
ARC
  8
0
 10
347.140204
 20
-63.470213
 30
0.0
 40
0.7
 50
270.0
 51
0.0
  0
ARC
  8
0
 10
345.950246
 20
-64.670213
 30
0.0
 40
0.5
 50
90.0
 51
180.0
  0
ARC
  8
0
 10
345.950246
 20
-65.870213
 30
0.0
 40
0.5
 50
180.0
 51
270.0
  0
ARC
  8
0
 10
346.450246
 20
-50.170213
 30
0.0
 40
1.0
 50
90.0
 51
180.0
  0
ARC
  8
0
 10
344.550246
 20
-48.270213
 30
0.0
 40
0.5
 50
90.0
 51
180.0
  0
ARC
  8
0
 10
347.750246
 20
-62.870213
 30
0.0
 40
1.5
 50
0.0
 51
90.0
  0
ARC
  8
0
 10
346.450246
 20
-60.370213
 30
0.0
 40
1.0
 50
180.0
 51
270.0
  0
ARC
  8
0
 10
344.550246
 20
-62.270213
 30
0.0
 40
0.5
 50
180.0
 51
270.0
  0
ARC
  8
0
 10
347.350246
 20
-63.270213
 30
0.0
 40
0.5
 50
0.0
 51
90.0
  0
ARC
  8
0
 10
347.350246
 20
-63.970213
 30
0.0
 40
0.5
 50
270.0
 51
0.0
  0
ARC
  8
0
 10
347.737811
 20
-64.270213
 30
0.0
 40
2.0
 50
240.0
 51
270.0
  0
ARC
  8
0
 10
344.550246
 20
-67.270213
 30
0.0
 40
0.5
 50
180.0
 51
270.0
  0
ARC
  8
0
 10
344.550246
 20
-63.270213
 30
0.0
 40
0.5
 50
90.0
 51
180.0
  0
ARC
  8
0
 10
393.550246
 20
-67.270213
 30
0.0
 40
0.5
 50
270.0
 51
0.0
  0
ARC
  8
0
 10
393.550246
 20
-63.270213
 30
0.0
 40
0.5
 50
0.0
 51
90.0
  0
ARC
  8
0
 10
391.650246
 20
-50.170213
 30
0.0
 40
1.0
 50
0.0
 51
90.0
  0
ARC
  8
0
 10
393.550246
 20
-48.270213
 30
0.0
 40
0.5
 50
0.0
 51
90.0
  0
ARC
  8
0
 10
391.650246
 20
-60.370213
 30
0.0
 40
1.0
 50
270.0
 51
0.0
  0
ARC
  8
0
 10
393.550246
 20
-62.270213
 30
0.0
 40
0.5
 50
270.0
 51
0.0
  0
ARC
  8
0
 10
390.750246
 20
-63.270213
 30
0.0
 40
0.5
 50
90.0
 51
180.0
  0
ARC
  8
0
 10
390.750246
 20
-63.970213
 30
0.0
 40
0.5
 50
180.0
 51
270.0
  0
ARC
  8
0
 10
390.362682
 20
-64.270213
 30
0.0
 40
2.0
 50
270.0
 51
300.0
  0
ARC
  8
0
 10
350.748895
 20
-65.570213
 30
0.0
 40
0.7
 50
270.0
 51
0.0
  0
ARC
  8
0
 10
350.748895
 20
-65.570213
 30
0.0
 40
0.7
 50
0.0
 51
90.0
  0
ARC
  8
0
 10
349.750246
 20
-64.370213
 30
0.0
 40
0.5
 50
180.0
 51
270.0
  0
LINE
  8
0
 10
324.050246
 20
-29.503144
 30
0.0
 11
325.783177
 21
-27.770213
 31
0.0
  0
LINE
  8
0
 10
324.050246
 20
-36.574212
 30
0.0
 11
332.854245
 21
-27.770213
 31
0.0
  0
LINE
  8
0
 10
324.050246
 20
-43.64528
 30
0.0
 11
339.925313
 21
-27.770213
 31
0.0
  0
LINE
  8
0
 10
326.996381
 20
-47.770213
 30
0.0
 11
346.996381
 21
-27.770213
 31
0.0
  0
LINE
  8
0
 10
334.067449
 20
-47.770213
 30
0.0
 11
354.067449
 21
-27.770213
 31
0.0
  0
LINE
  8
0
 10
341.138516
 20
-47.770213
 30
0.0
 11
361.138516
 21
-27.770213
 31
0.0
  0
LINE
  8
0
 10
348.209584
 20
-47.770213
 30
0.0
 11
368.209584
 21
-27.770213
 31
0.0
  0
LINE
  8
0
 10
355.280652
 20
-47.770213
 30
0.0
 11
375.280652
 21
-27.770213
 31
0.0
  0
LINE
  8
0
 10
362.35172
 20
-47.770213
 30
0.0
 11
382.35172
 21
-27.770213
 31
0.0
  0
LINE
  8
0
 10
369.422788
 20
-47.770213
 30
0.0
 11
389.422788
 21
-27.770213
 31
0.0
  0
LINE
  8
0
 10
376.493855
 20
-47.770213
 30
0.0
 11
396.493855
 21
-27.770213
 31
0.0
  0
LINE
  8
0
 10
383.564923
 20
-47.770213
 30
0.0
 11
403.564923
 21
-27.770213
 31
0.0
  0
LINE
  8
0
 10
390.635991
 20
-47.770213
 30
0.0
 11
410.635991
 21
-27.770213
 31
0.0
  0
LINE
  8
0
 10
397.707059
 20
-47.770213
 30
0.0
 11
414.050246
 21
-31.427026
 31
0.0
  0
LINE
  8
0
 10
404.778127
 20
-47.770213
 30
0.0
 11
414.050246
 21
-38.498094
 31
0.0
  0
LINE
  8
0
 10
411.849195
 20
-47.770213
 30
0.0
 11
414.050246
 21
-45.569162
 31
0.0
  0
ENDSEC
  0
EOF
