  0
SECTION
  2
HEADER
  9
$ACADVER
  1
AC1009
  9
$INSBASE
 10
0.0
 20
0.0
 30
0.0
  9
$EXTMIN
 10
251.817259
 20
-92.770213
 30
0.0
  9
$EXTMAX
 10
291.920812
 20
-2.770213
 30
0.0
  9
$LIMMIN
 10
251.817259
 20
-92.770213
  9
$LIMMAX
 10
291.817259
 20
-2.770213
  9
$ORTHOMODE
 70
     0
  9
$REGENMODE
 70
     1
  9
$FILLMODE
 70
     1
  9
$QTEXTMODE
 70
     0
  9
$MIRRTEXT
 70
     1
  9
$DRAGMODE
 70
     2
  9
$LTSCALE
 40
1.0
  9
$OSMODE
 70
     0
  9
$ATTMODE
 70
     1
  9
$TEXTSIZE
 40
3.5
  9
$TRACEWID
 40
0.5
  9
$TEXTSTYLE
  7
STANDARD
  9
$CLAYER
  8
0
  9
$CELTYPE
  6
BYLAYER
  9
$CECOLOR
 62
   256
  9
$DIMSCALE
 40
1.0
  9
$DIMASZ
 40
0.18
  9
$DIMEXO
 40
0.0625
  9
$DIMDLI
 40
0.38
  9
$DIMRND
 40
0.0
  9
$DIMDLE
 40
0.0
  9
$DIMEXE
 40
0.18
  9
$DIMTP
 40
0.0
  9
$DIMTM
 40
0.0
  9
$DIMTXT
 40
0.18
  9
$DIMCEN
 40
0.09
  9
$DIMTSZ
 40
0.0
  9
$DIMTOL
 70
     0
  9
$DIMLIM
 70
     0
  9
$DIMTIH
 70
     1
  9
$DIMTOH
 70
     1
  9
$DIMSE1
 70
     0
  9
$DIMSE2
 70
     0
  9
$DIMTAD
 70
     0
  9
$DIMZIN
 70
     0
  9
$DIMBLK
  1

  9
$DIMASO
 70
     1
  9
$DIMSHO
 70
     1
  9
$DIMPOST
  1

  9
$DIMAPOST
  1

  9
$DIMALT
 70
     0
  9
$DIMALTD
 70
     2
  9
$DIMALTF
 40
25.4
  9
$DIMLFAC
 40
1.0
  9
$DIMTOFL
 70
     0
  9
$DIMTVP
 40
0.0
  9
$DIMTIX
 70
     0
  9
$DIMSOXD
 70
     0
  9
$DIMSAH
 70
     0
  9
$DIMBLK1
  1

  9
$DIMBLK2
  1

  9
$DIMSTYLE
  2
*UNNAMED
  9
$DIMCLRD
 70
     0
  9
$DIMCLRE
 70
     0
  9
$DIMCLRT
 70
     0
  9
$DIMTFAC
 40
1.0
  9
$DIMGAP
 40
0.09
  9
$LUNITS
 70
     2
  9
$LUPREC
 70
     4
  9
$SKETCHINC
 40
0.1
  9
$FILLETRAD
 40
2.0
  9
$AUNITS
 70
     0
  9
$AUPREC
 70
     0
  9
$MENU
  1
ACAD
  9
$ELEVATION
 40
0.0
  9
$PELEVATION
 40
0.0
  9
$THICKNESS
 40
0.0
  9
$LIMCHECK
 70
     0
  9
$BLIPMODE
 70
     1
  9
$CHAMFERA
 40
0.0
  9
$CHAMFERB
 40
0.0
  9
$SKPOLY
 70
     0
  9
$TDCREATE
 40
2450953.693031250
  9
$TDUPDATE
 40
2450953.693935879
  9
$TDINDWG
 40
0.0003655093
  9
$TDUSRTIMER
 40
0.0003655093
  9
$USRTIMER
 70
     1
  9
$ANGBASE
 50
0.0
  9
$ANGDIR
 70
     0
  9
$PDMODE
 70
     0
  9
$PDSIZE
 40
0.0
  9
$PLINEWID
 40
0.0
  9
$COORDS
 70
     2
  9
$SPLFRAME
 70
     0
  9
$SPLINETYPE
 70
     6
  9
$SPLINESEGS
 70
     8
  9
$ATTDIA
 70
     0
  9
$ATTREQ
 70
     1
  9
$HANDLING
 70
     0
  9
$HANDSEED
  5
0
  9
$SURFTAB1
 70
     6
  9
$SURFTAB2
 70
     6
  9
$SURFTYPE
 70
     6
  9
$SURFU
 70
     6
  9
$SURFV
 70
     6
  9
$UCSNAME
  2

  9
$UCSORG
 10
0.0
 20
0.0
 30
0.0
  9
$UCSXDIR
 10
1.0
 20
0.0
 30
0.0
  9
$UCSYDIR
 10
0.0
 20
1.0
 30
0.0
  9
$PUCSNAME
  2

  9
$PUCSORG
 10
0.0
 20
0.0
 30
0.0
  9
$PUCSXDIR
 10
1.0
 20
0.0
 30
0.0
  9
$PUCSYDIR
 10
0.0
 20
1.0
 30
0.0
  9
$USERI1
 70
     0
  9
$USERI2
 70
     0
  9
$USERI3
 70
     0
  9
$USERI4
 70
     0
  9
$USERI5
 70
     0
  9
$USERR1
 40
0.0
  9
$USERR2
 40
0.0
  9
$USERR3
 40
0.0
  9
$USERR4
 40
0.0
  9
$USERR5
 40
0.0
  9
$WORLDVIEW
 70
     1
  9
$SHADEDGE
 70
     3
  9
$SHADEDIF
 70
    70
  9
$TILEMODE
 70
     1
  9
$MAXACTVP
 70
    16
  9
$PINSBASE
 10
0.0
 20
0.0
 30
0.0
  9
$PLIMCHECK
 70
     0
  9
$PEXTMIN
 10
1.000000E+20
 20
1.000000E+20
 30
1.000000E+20
  9
$PEXTMAX
 10
-1.000000E+20
 20
-1.000000E+20
 30
-1.000000E+20
  9
$PLIMMIN
 10
0.0
 20
0.0
  9
$PLIMMAX
 10
420.0
 20
297.0
  9
$UNITMODE
 70
     0
  9
$VISRETAIN
 70
     0
  9
$PLINEGEN
 70
     0
  9
$PSLTSCALE
 70
     1
  9
$TREEDEPTH
 70
  3020
  9
$DWGCODEPAGE
  3
iso8859-1
  0
ENDSEC
  0
SECTION
  2
TABLES
  0
TABLE
  2
VPORT
 70
     2
  0
VPORT
  2
*ACTIVE
 70
     0
 10
0.0
 20
0.0
 11
1.0
 21
1.0
 12
324.351904
 22
-52.882639
 13
0.0
 23
0.0
 14
1.0
 24
1.0
 15
0.0
 25
0.0
 16
0.0
 26
0.0
 36
1.0
 17
0.0
 27
0.0
 37
0.0
 40
128.965517
 41
1.748359
 42
50.0
 43
0.0
 44
0.0
 50
0.0
 51
0.0
 71
     0
 72
   100
 73
     1
 74
     0
 75
     0
 76
     0
 77
     0
 78
     0
  0
ENDTAB
  0
TABLE
  2
LTYPE
 70
     1
  0
LTYPE
  2
CONTINUOUS
 70
    64
  3
Solid line
 72
    65
 73
     0
 40
0.0
  0
ENDTAB
  0
TABLE
  2
LAYER
 70
     2
  0
LAYER
  2
0
 70
    64
 62
     7
  6
CONTINUOUS
  0
ENDTAB
  0
TABLE
  2
STYLE
 70
     1
  0
STYLE
  2
STANDARD
 70
     0
 40
0.0
 41
1.0
 50
0.0
 71
     0
 42
3.5
  3
txt
  4

  0
ENDTAB
  0
TABLE
  2
VIEW
 70
     0
  0
ENDTAB
  0
TABLE
  2
UCS
 70
     0
  0
ENDTAB
  0
TABLE
  2
APPID
 70
     1
  0
APPID
  2
ACAD
 70
    64
  0
ENDTAB
  0
TABLE
  2
DIMSTYLE
 70
     0
  0
ENDTAB
  0
ENDSEC
  0
SECTION
  2
BLOCKS
  0
ENDSEC
  0
SECTION
  2
ENTITIES
  0
LINE
  8
0
 10
271.817259
 20
-72.270213
 30
0.0
 11
271.817259
 21
-92.770213
 31
0.0
  0
LINE
  8
0
 10
271.817259
 20
-23.270213
 30
0.0
 11
271.817259
 21
-2.770213
 31
0.0
  0
LINE
  8
0
 10
273.217259
 20
-42.689009
 30
0.0
 11
273.217259
 21
-47.770213
 31
0.0
  0
LINE
  8
0
 10
274.264194
 20
-40.769111
 30
0.0
 11
288.746857
 21
-40.271866
 31
0.0
  0
LINE
  8
0
 10
288.917259
 20
-43.071866
 30
0.0
 11
288.917259
 21
-42.184302
 31
0.0
  0
LINE
  8
0
 10
273.217259
 20
-36.851417
 30
0.0
 11
273.217259
 21
-32.116623
 31
0.0
  0
LINE
  8
0
 10
288.400103
 20
-37.85583
 30
0.0
 11
273.700103
 21
-37.351123
 31
0.0
  0
LINE
  8
0
 10
288.917259
 20
-37.356124
 30
0.0
 11
288.917259
 21
-36.46856
 31
0.0
  0
LINE
  8
0
 10
288.746857
 20
-39.26856
 30
0.0
 11
274.264194
 21
-38.771315
 31
0.0
  0
LINE
  8
0
 10
273.217259
 20
-25.170213
 30
0.0
 11
273.217259
 21
-31.423803
 31
0.0
  0
LINE
  8
0
 10
284.417259
 20
-24.170213
 30
0.0
 11
274.217259
 21
-24.170213
 31
0.0
  0
LINE
  8
0
 10
285.417259
 20
-25.170213
 30
0.0
 11
285.417259
 21
-26.470213
 31
0.0
  0
LINE
  8
0
 10
289.817259
 20
-27.970213
 30
0.0
 11
286.917259
 21
-27.970213
 31
0.0
  0
LINE
  8
0
 10
288.517259
 20
-24.670213
 30
0.0
 11
288.517259
 21
-26.070213
 31
0.0
  0
LINE
  8
0
 10
289.450272
 20
-24.420213
 30
0.0
 11
290.04931
 21
-25.457778
 31
0.0
  0
LINE
  8
0
 10
290.317259
 20
-26.457778
 30
0.0
 11
290.317259
 21
-27.470213
 31
0.0
  0
LINE
  8
0
 10
286.817259
 20
-23.270213
 30
0.0
 11
286.817259
 21
-26.070213
 31
0.0
  0
LINE
  8
0
 10
287.317259
 20
-26.570213
 30
0.0
 11
288.017259
 21
-26.570213
 31
0.0
  0
LINE
  8
0
 10
273.017259
 20
-31.770213
 30
0.0
 11
273.217259
 21
-32.116623
 31
0.0
  0
LINE
  8
0
 10
273.217259
 20
-31.423803
 30
0.0
 11
273.017259
 21
-31.770213
 31
0.0
  0
LINE
  8
0
 10
273.217259
 20
-47.770213
 30
0.0
 11
273.217259
 21
-52.851417
 31
0.0
  0
LINE
  8
0
 10
288.746857
 20
-55.26856
 30
0.0
 11
274.264194
 21
-54.771315
 31
0.0
  0
LINE
  8
0
 10
288.917259
 20
-53.356124
 30
0.0
 11
288.917259
 21
-52.46856
 31
0.0
  0
LINE
  8
0
 10
290.317259
 20
-57.770213
 30
0.0
 11
290.317259
 21
-59.071866
 31
0.0
  0
LINE
  8
0
 10
273.217259
 20
-63.423803
 30
0.0
 11
273.217259
 21
-58.689009
 31
0.0
  0
LINE
  8
0
 10
273.700103
 20
-58.189304
 30
0.0
 11
288.400103
 21
-57.684597
 31
0.0
  0
LINE
  8
0
 10
288.917259
 20
-59.071866
 30
0.0
 11
288.917259
 21
-58.184302
 31
0.0
  0
LINE
  8
0
 10
274.264194
 20
-56.769111
 30
0.0
 11
288.746857
 21
-56.271866
 31
0.0
  0
LINE
  8
0
 10
273.217259
 20
-64.116623
 30
0.0
 11
273.217259
 21
-70.370213
 31
0.0
  0
LINE
  8
0
 10
274.217259
 20
-71.370213
 30
0.0
 11
284.417259
 21
-71.370213
 31
0.0
  0
LINE
  8
0
 10
285.417259
 20
-69.070213
 30
0.0
 11
285.417259
 21
-70.370213
 31
0.0
  0
LINE
  8
0
 10
286.917259
 20
-67.570213
 30
0.0
 11
289.817259
 21
-67.570213
 31
0.0
  0
LINE
  8
0
 10
288.517259
 20
-69.470213
 30
0.0
 11
288.517259
 21
-70.870213
 31
0.0
  0
LINE
  8
0
 10
290.04931
 20
-70.082649
 30
0.0
 11
289.450272
 21
-71.120213
 31
0.0
  0
LINE
  8
0
 10
290.317259
 20
-68.070213
 30
0.0
 11
290.317259
 21
-69.082649
 31
0.0
  0
LINE
  8
0
 10
291.817259
 20
-23.270213
 30
0.0
 11
291.817259
 21
-47.770213
 31
0.0
  0
LINE
  8
0
 10
291.817259
 20
-47.770213
 30
0.0
 11
291.817259
 21
-72.270213
 31
0.0
  0
LINE
  8
0
 10
286.817259
 20
-69.470213
 30
0.0
 11
286.817259
 21
-72.270213
 31
0.0
  0
LINE
  8
0
 10
288.017259
 20
-68.970213
 30
0.0
 11
287.317259
 21
-68.970213
 31
0.0
  0
LINE
  8
0
 10
290.317259
 20
-59.121866
 30
0.0
 11
290.317259
 21
-57.770213
 31
0.0
  0
LINE
  8
0
 10
273.217259
 20
-63.423803
 30
0.0
 11
273.017259
 21
-63.770213
 31
0.0
  0
LINE
  8
0
 10
273.017259
 20
-63.770213
 30
0.0
 11
273.217259
 21
-64.116623
 31
0.0
  0
LINE
  8
0
 10
271.817259
 20
-72.270213
 30
0.0
 11
271.817259
 21
-23.270213
 31
0.0
  0
LINE
  8
0
 10
272.317259
 20
-22.770213
 30
0.0
 11
286.317259
 21
-22.770213
 31
0.0
  0
LINE
  8
0
 10
272.317259
 20
-72.770213
 30
0.0
 11
286.317259
 21
-72.770213
 31
0.0
  0
LINE
  8
0
 10
286.817259
 20
-69.680256
 30
0.0
 11
286.817259
 21
-72.270213
 31
0.0
  0
LINE
  8
0
 10
286.817259
 20
-25.870213
 30
0.0
 11
286.817259
 21
-23.270213
 31
0.0
  0
LINE
  8
0
 10
288.217259
 20
-69.680256
 30
0.0
 11
288.217259
 21
-70.870213
 31
0.0
  0
LINE
  8
0
 10
290.417259
 20
-47.770213
 30
0.0
 11
290.417259
 21
-70.870213
 31
0.0
  0
LINE
  8
0
 10
290.417259
 20
-24.670213
 30
0.0
 11
290.417259
 21
-47.770213
 31
0.0
  0
LINE
  8
0
 10
288.217259
 20
-25.870213
 30
0.0
 11
288.217259
 21
-24.670213
 31
0.0
  0
LINE
  8
0
 10
287.317259
 20
-72.770213
 30
0.0
 11
291.317259
 21
-72.770213
 31
0.0
  0
LINE
  8
0
 10
288.717259
 20
-71.370213
 30
0.0
 11
289.917259
 21
-71.370213
 31
0.0
  0
LINE
  8
0
 10
287.317259
 20
-22.770213
 30
0.0
 11
291.317259
 21
-22.770213
 31
0.0
  0
LINE
  8
0
 10
288.717259
 20
-24.170213
 30
0.0
 11
289.917259
 21
-24.170213
 31
0.0
  0
LINE
  8
0
 10
273.700103
 20
-53.351123
 30
0.0
 11
288.393792
 21
-53.855573
 31
0.0
  0
LINE
  8
0
 10
273.700103
 20
-42.189304
 30
0.0
 11
288.393792
 21
-41.684853
 31
0.0
  0
LINE
  8
0
 10
290.317259
 20
-52.46856
 30
0.0
 11
290.317259
 21
-53.770213
 31
0.0
  0
LINE
  8
0
 10
290.317259
 20
-43.071866
 30
0.0
 11
290.317259
 21
-41.770213
 31
0.0
  0
LINE
  8
0
 10
290.317259
 20
-36.46856
 30
0.0
 11
290.317259
 21
-37.770213
 31
0.0
  0
ARC
  8
0
 10
289.017259
 20
-24.670213
 30
0.0
 40
0.5
 50
30.0
 51
90.0
  0
ARC
  8
0
 10
289.017259
 20
-24.670213
 30
0.0
 40
0.5
 50
90.0
 51
180.0
  0
ARC
  8
0
 10
274.217259
 20
-39.770213
 30
0.0
 40
1.0
 50
87.309836
 51
180.0
  0
ARC
  8
0
 10
288.817259
 20
-37.770213
 30
0.0
 40
1.5
 50
267.309836
 51
0.0
  0
ARC
  8
0
 10
274.217259
 20
-39.770213
 30
0.0
 40
1.0
 50
180.0
 51
272.690164
  0
ARC
  8
0
 10
288.817259
 20
-41.770213
 30
0.0
 40
1.5
 50
0.0
 51
92.690164
  0
ARC
  8
0
 10
289.017259
 20
-70.870213
 30
0.0
 40
0.5
 50
270.0
 51
330.0
  0
ARC
  8
0
 10
289.017259
 20
-70.870213
 30
0.0
 40
0.5
 50
180.0
 51
270.0
  0
ARC
  8
0
 10
274.217259
 20
-55.770213
 30
0.0
 40
1.0
 50
180.0
 51
272.690164
  0
ARC
  8
0
 10
288.817259
 20
-57.770213
 30
0.0
 40
1.5
 50
0.0
 51
92.690164
  0
ARC
  8
0
 10
274.217259
 20
-55.770213
 30
0.0
 40
1.0
 50
87.309836
 51
180.0
  0
ARC
  8
0
 10
288.817259
 20
-53.770213
 30
0.0
 40
1.5
 50
267.309836
 51
0.0
  0
ARC
  8
0
 10
273.717259
 20
-42.689009
 30
0.0
 40
0.5
 50
91.96641
 51
180.0
  0
ARC
  8
0
 10
289.617259
 20
-43.071866
 30
0.0
 40
0.7
 50
180.0
 51
270.0
  0
ARC
  8
0
 10
289.617259
 20
-43.071866
 30
0.0
 40
0.7
 50
270.0
 51
0.0
  0
ARC
  8
0
 10
273.717259
 20
-36.851417
 30
0.0
 40
0.5
 50
180.0
 51
268.03359
  0
ARC
  8
0
 10
288.417259
 20
-37.356124
 30
0.0
 40
0.5
 50
268.03359
 51
0.0
  0
ARC
  8
0
 10
289.617259
 20
-36.46856
 30
0.0
 40
0.7
 50
90.0
 51
180.0
  0
ARC
  8
0
 10
289.617259
 20
-36.46856
 30
0.0
 40
0.7
 50
0.0
 51
90.0
  0
ARC
  8
0
 10
288.317259
 20
-26.457778
 30
0.0
 40
2.0
 50
0.0
 51
30.0
  0
ARC
  8
0
 10
288.017259
 20
-26.070213
 30
0.0
 40
0.5
 50
270.0
 51
0.0
  0
ARC
  8
0
 10
287.317259
 20
-26.070213
 30
0.0
 40
0.5
 50
180.0
 51
270.0
  0
ARC
  8
0
 10
286.317259
 20
-23.270213
 30
0.0
 40
0.5
 50
0.0
 51
90.0
  0
ARC
  8
0
 10
284.417259
 20
-25.170213
 30
0.0
 40
1.0
 50
0.0
 51
90.0
  0
ARC
  8
0
 10
286.917259
 20
-26.470213
 30
0.0
 40
1.5
 50
180.0
 51
270.0
  0
ARC
  8
0
 10
272.317259
 20
-23.270213
 30
0.0
 40
0.5
 50
90.0
 51
180.0
  0
ARC
  8
0
 10
274.217259
 20
-25.170213
 30
0.0
 40
1.0
 50
90.0
 51
180.0
  0
ARC
  8
0
 10
288.417259
 20
-42.184302
 30
0.0
 40
0.5
 50
0.0
 51
92.690164
  0
ARC
  8
0
 10
289.817259
 20
-27.470213
 30
0.0
 40
0.5
 50
270.0
 51
0.0
  0
ARC
  8
0
 10
273.717259
 20
-52.851417
 30
0.0
 40
0.5
 50
180.0
 51
268.03359
  0
ARC
  8
0
 10
289.617259
 20
-52.46856
 30
0.0
 40
0.7
 50
90.0
 51
180.0
  0
ARC
  8
0
 10
289.617259
 20
-52.46856
 30
0.0
 40
0.7
 50
0.0
 51
90.0
  0
ARC
  8
0
 10
273.717259
 20
-58.689009
 30
0.0
 40
0.5
 50
91.96641
 51
180.0
  0
ARC
  8
0
 10
288.417259
 20
-58.184302
 30
0.0
 40
0.5
 50
0.0
 51
91.96641
  0
ARC
  8
0
 10
289.617259
 20
-59.071866
 30
0.0
 40
0.7
 50
180.0
 51
270.0
  0
ARC
  8
0
 10
289.617259
 20
-59.071866
 30
0.0
 40
0.7
 50
270.0
 51
0.0
  0
ARC
  8
0
 10
287.317259
 20
-23.270213
 30
0.0
 40
0.5
 50
90.0
 51
180.0
  0
ARC
  8
0
 10
291.317259
 20
-23.270213
 30
0.0
 40
0.5
 50
0.0
 51
90.0
  0
ARC
  8
0
 10
287.317259
 20
-72.270213
 30
0.0
 40
0.5
 50
180.0
 51
270.0
  0
ARC
  8
0
 10
291.317259
 20
-72.270213
 30
0.0
 40
0.5
 50
270.0
 51
0.0
  0
ARC
  8
0
 10
288.317259
 20
-69.082649
 30
0.0
 40
2.0
 50
330.0
 51
0.0
  0
ARC
  8
0
 10
288.017259
 20
-69.470213
 30
0.0
 40
0.5
 50
0.0
 51
90.0
  0
ARC
  8
0
 10
287.317259
 20
-69.470213
 30
0.0
 40
0.5
 50
90.0
 51
180.0
  0
ARC
  8
0
 10
286.317259
 20
-72.270213
 30
0.0
 40
0.5
 50
270.0
 51
0.0
  0
ARC
  8
0
 10
284.417259
 20
-70.370213
 30
0.0
 40
1.0
 50
270.0
 51
0.0
  0
ARC
  8
0
 10
286.917259
 20
-69.070213
 30
0.0
 40
1.5
 50
90.0
 51
180.0
  0
ARC
  8
0
 10
272.317259
 20
-72.270213
 30
0.0
 40
0.5
 50
180.0
 51
270.0
  0
ARC
  8
0
 10
274.217259
 20
-70.370213
 30
0.0
 40
1.0
 50
180.0
 51
270.0
  0
ARC
  8
0
 10
288.417259
 20
-53.356124
 30
0.0
 40
0.5
 50
267.309836
 51
0.0
  0
ARC
  8
0
 10
289.817259
 20
-68.070213
 30
0.0
 40
0.5
 50
0.0
 51
90.0
  0
ARC
  8
0
 10
289.917259
 20
-70.870213
 30
0.0
 40
0.5
 50
270.0
 51
0.0
  0
ARC
  8
0
 10
288.717259
 20
-70.870213
 30
0.0
 40
0.5
 50
180.0
 51
270.0
  0
ARC
  8
0
 10
287.517259
 20
-69.680256
 30
0.0
 40
0.7
 50
0.0
 51
90.0
  0
ARC
  8
0
 10
287.517259
 20
-69.680256
 30
0.0
 40
0.7
 50
90.0
 51
180.0
  0
ARC
  8
0
 10
287.517259
 20
-25.870213
 30
0.0
 40
0.7
 50
270.0
 51
0.0
  0
ARC
  8
0
 10
287.517259
 20
-25.870213
 30
0.0
 40
0.7
 50
180.0
 51
270.0
  0
ARC
  8
0
 10
289.917259
 20
-24.670213
 30
0.0
 40
0.5
 50
0.0
 51
90.0
  0
ARC
  8
0
 10
288.717259
 20
-24.670213
 30
0.0
 40
0.5
 50
90.0
 51
180.0
  0
LINE
  8
0
 10
251.817259
 20
-9.81225
 30
0.0
 11
258.859296
 21
-2.770213
 31
0.0
  0
LINE
  8
0
 10
251.817259
 20
-16.883317
 30
0.0
 11
265.930364
 21
-2.770213
 31
0.0
  0
LINE
  8
0
 10
251.817259
 20
-23.954385
 30
0.0
 11
271.817259
 21
-3.954385
 31
0.0
  0
LINE
  8
0
 10
251.817259
 20
-31.025453
 30
0.0
 11
271.817259
 21
-11.025453
 31
0.0
  0
LINE
  8
0
 10
251.817259
 20
-38.096521
 30
0.0
 11
271.817259
 21
-18.096521
 31
0.0
  0
LINE
  8
0
 10
251.817259
 20
-45.167589
 30
0.0
 11
271.817259
 21
-25.167589
 31
0.0
  0
LINE
  8
0
 10
251.817259
 20
-52.238657
 30
0.0
 11
271.817259
 21
-32.238657
 31
0.0
  0
LINE
  8
0
 10
251.817259
 20
-59.309724
 30
0.0
 11
271.817259
 21
-39.309724
 31
0.0
  0
LINE
  8
0
 10
251.817259
 20
-66.380792
 30
0.0
 11
271.817259
 21
-46.380792
 31
0.0
  0
LINE
  8
0
 10
251.817259
 20
-73.45186
 30
0.0
 11
271.817259
 21
-53.45186
 31
0.0
  0
LINE
  8
0
 10
251.817259
 20
-80.522928
 30
0.0
 11
271.817259
 21
-60.522928
 31
0.0
  0
LINE
  8
0
 10
251.817259
 20
-87.593996
 30
0.0
 11
271.817259
 21
-67.593996
 31
0.0
  0
LINE
  8
0
 10
253.71211
 20
-92.770213
 30
0.0
 11
271.817259
 21
-74.665063
 31
0.0
  0
LINE
  8
0
 10
260.783177
 20
-92.770213
 30
0.0
 11
271.817259
 21
-81.736131
 31
0.0
  0
LINE
  8
0
 10
267.854245
 20
-92.770213
 30
0.0
 11
271.817259
 21
-88.807199
 31
0.0
  0
ENDSEC
  0
EOF
