  0
SECTION
  2
HEADER
  9
$ACADVER
  1
AC1009
  9
$INSBASE
 10
0.0
 20
0.0
 30
0.0
  9
$EXTMIN
 10
789.539252
 20
417.047374
 30
0.0
  9
$EXTMAX
 10
945.016592
 20
497.022788
 30
0.0
  9
$LIMMIN
 10
835.039764
 20
279.722317
  9
$LIMMAX
 10
955.039764
 20
456.864907
  9
$ORTHOMODE
 70
     1
  9
$REGENMODE
 70
     1
  9
$FILLMODE
 70
     1
  9
$QTEXTMODE
 70
     0
  9
$MIRRTEXT
 70
     1
  9
$DRAGMODE
 70
     2
  9
$LTSCALE
 40
1.0
  9
$OSMODE
 70
     0
  9
$ATTMODE
 70
     1
  9
$TEXTSIZE
 40
3.5
  9
$TRACEWID
 40
0.5
  9
$TEXTSTYLE
  7
STANDARD
  9
$CLAYER
  8
0
  9
$CELTYPE
  6
BYLAYER
  9
$CECOLOR
 62
   256
  9
$DIMSCALE
 40
1.0
  9
$DIMASZ
 40
0.18
  9
$DIMEXO
 40
0.0625
  9
$DIMDLI
 40
0.38
  9
$DIMRND
 40
0.0
  9
$DIMDLE
 40
0.0
  9
$DIMEXE
 40
0.18
  9
$DIMTP
 40
0.0
  9
$DIMTM
 40
0.0
  9
$DIMTXT
 40
0.18
  9
$DIMCEN
 40
0.09
  9
$DIMTSZ
 40
0.0
  9
$DIMTOL
 70
     0
  9
$DIMLIM
 70
     0
  9
$DIMTIH
 70
     1
  9
$DIMTOH
 70
     1
  9
$DIMSE1
 70
     0
  9
$DIMSE2
 70
     0
  9
$DIMTAD
 70
     0
  9
$DIMZIN
 70
     0
  9
$DIMBLK
  1

  9
$DIMASO
 70
     1
  9
$DIMSHO
 70
     1
  9
$DIMPOST
  1

  9
$DIMAPOST
  1

  9
$DIMALT
 70
     0
  9
$DIMALTD
 70
     2
  9
$DIMALTF
 40
25.4
  9
$DIMLFAC
 40
1.0
  9
$DIMTOFL
 70
     0
  9
$DIMTVP
 40
0.0
  9
$DIMTIX
 70
     0
  9
$DIMSOXD
 70
     0
  9
$DIMSAH
 70
     0
  9
$DIMBLK1
  1

  9
$DIMBLK2
  1

  9
$DIMSTYLE
  2
*UNNAMED
  9
$DIMCLRD
 70
     0
  9
$DIMCLRE
 70
     0
  9
$DIMCLRT
 70
     0
  9
$DIMTFAC
 40
1.0
  9
$DIMGAP
 40
0.09
  9
$LUNITS
 70
     2
  9
$LUPREC
 70
     4
  9
$SKETCHINC
 40
0.1
  9
$FILLETRAD
 40
2.0
  9
$AUNITS
 70
     0
  9
$AUPREC
 70
     0
  9
$MENU
  1
ACAD
  9
$ELEVATION
 40
0.0
  9
$PELEVATION
 40
0.0
  9
$THICKNESS
 40
0.0
  9
$LIMCHECK
 70
     0
  9
$BLIPMODE
 70
     1
  9
$CHAMFERA
 40
0.0
  9
$CHAMFERB
 40
0.0
  9
$SKPOLY
 70
     0
  9
$TDCREATE
 40
2450953.686271759
  9
$TDUPDATE
 40
2450953.687156018
  9
$TDINDWG
 40
0.0005035880
  9
$TDUSRTIMER
 40
0.0005035880
  9
$USRTIMER
 70
     1
  9
$ANGBASE
 50
0.0
  9
$ANGDIR
 70
     0
  9
$PDMODE
 70
     0
  9
$PDSIZE
 40
0.0
  9
$PLINEWID
 40
0.0
  9
$COORDS
 70
     2
  9
$SPLFRAME
 70
     0
  9
$SPLINETYPE
 70
     6
  9
$SPLINESEGS
 70
     8
  9
$ATTDIA
 70
     0
  9
$ATTREQ
 70
     1
  9
$HANDLING
 70
     0
  9
$HANDSEED
  5
0
  9
$SURFTAB1
 70
     6
  9
$SURFTAB2
 70
     6
  9
$SURFTYPE
 70
     6
  9
$SURFU
 70
     6
  9
$SURFV
 70
     6
  9
$UCSNAME
  2

  9
$UCSORG
 10
0.0
 20
0.0
 30
0.0
  9
$UCSXDIR
 10
1.0
 20
0.0
 30
0.0
  9
$UCSYDIR
 10
0.0
 20
1.0
 30
0.0
  9
$PUCSNAME
  2

  9
$PUCSORG
 10
0.0
 20
0.0
 30
0.0
  9
$PUCSXDIR
 10
1.0
 20
0.0
 30
0.0
  9
$PUCSYDIR
 10
0.0
 20
1.0
 30
0.0
  9
$USERI1
 70
     0
  9
$USERI2
 70
     0
  9
$USERI3
 70
     0
  9
$USERI4
 70
     0
  9
$USERI5
 70
     0
  9
$USERR1
 40
0.0
  9
$USERR2
 40
0.0
  9
$USERR3
 40
0.0
  9
$USERR4
 40
0.0
  9
$USERR5
 40
0.0
  9
$WORLDVIEW
 70
     1
  9
$SHADEDGE
 70
     3
  9
$SHADEDIF
 70
    70
  9
$TILEMODE
 70
     1
  9
$MAXACTVP
 70
    16
  9
$PINSBASE
 10
0.0
 20
0.0
 30
0.0
  9
$PLIMCHECK
 70
     0
  9
$PEXTMIN
 10
1.000000E+20
 20
1.000000E+20
 30
1.000000E+20
  9
$PEXTMAX
 10
-1.000000E+20
 20
-1.000000E+20
 30
-1.000000E+20
  9
$PLIMMIN
 10
0.0
 20
0.0
  9
$PLIMMAX
 10
420.0
 20
297.0
  9
$UNITMODE
 70
     0
  9
$VISRETAIN
 70
     0
  9
$PLINEGEN
 70
     0
  9
$PSLTSCALE
 70
     1
  9
$TREEDEPTH
 70
  3020
  9
$DWGCODEPAGE
  3
iso8859-1
  0
ENDSEC
  0
SECTION
  2
TABLES
  0
TABLE
  2
VPORT
 70
     2
  0
VPORT
  2
*ACTIVE
 70
     0
 10
0.0
 20
0.0
 11
1.0
 21
1.0
 12
1212.154255
 22
315.191136
 13
0.0
 23
0.0
 14
1.0
 24
1.0
 15
0.0
 25
0.0
 16
0.0
 26
0.0
 36
1.0
 17
0.0
 27
0.0
 37
0.0
 40
758.57617
 41
1.748359
 42
50.0
 43
0.0
 44
0.0
 50
0.0
 51
0.0
 71
     0
 72
   100
 73
     1
 74
     0
 75
     0
 76
     0
 77
     0
 78
     0
  0
ENDTAB
  0
TABLE
  2
LTYPE
 70
     1
  0
LTYPE
  2
CONTINUOUS
 70
    64
  3
Solid line
 72
    65
 73
     0
 40
0.0
  0
ENDTAB
  0
TABLE
  2
LAYER
 70
     2
  0
LAYER
  2
0
 70
    64
 62
     7
  6
CONTINUOUS
  0
LAYER
  2
CAPA_1
 70
    64
 62
     2
  6
CONTINUOUS
  0
ENDTAB
  0
TABLE
  2
STYLE
 70
     1
  0
STYLE
  2
STANDARD
 70
    64
 40
0.0
 41
1.0
 50
0.0
 71
     0
 42
3.5
  3
txt
  4

  0
ENDTAB
  0
TABLE
  2
VIEW
 70
     0
  0
ENDTAB
  0
TABLE
  2
UCS
 70
     0
  0
ENDTAB
  0
TABLE
  2
APPID
 70
     1
  0
APPID
  2
ACAD
 70
    64
  0
ENDTAB
  0
TABLE
  2
DIMSTYLE
 70
     0
  0
ENDTAB
  0
ENDSEC
  0
SECTION
  2
BLOCKS
  0
ENDSEC
  0
SECTION
  2
ENTITIES
  0
LINE
  8
0
 10
909.539252
 20
437.047374
 30
0.0
 11
889.539252
 21
437.047374
 31
0.0
  0
LINE
  8
0
 10
809.539252
 20
437.047374
 30
0.0
 11
809.539252
 21
457.047374
 31
0.0
  0
LINE
  8
0
 10
809.539252
 20
437.047374
 30
0.0
 11
789.539252
 21
437.047374
 31
0.0
  0
LINE
  8
0
 10
889.539252
 20
437.047374
 30
0.0
 11
809.539252
 21
437.047374
 31
0.0
  0
LINE
  8
0
 10
916.447315
 20
437.254363
 30
0.0
 11
916.447315
 21
457.047374
 31
0.0
  0
LINE
  8
0
 10
931.997207
 20
437.047374
 30
0.0
 11
851.997207
 21
437.047374
 31
0.0
  0
LINE
  8
0
 10
945.006336
 20
437.047374
 30
0.0
 11
931.997207
 21
437.047374
 31
0.0
  0
LINE
  8
0
 10
851.997207
 20
437.047374
 30
0.0
 11
831.997207
 21
437.047374
 31
0.0
  0
LINE
  8
0
 10
945.016592
 20
420.71018
 30
0.0
 11
941.353787
 21
417.047374
 31
0.0
  0
LINE
  8
0
 10
945.016592
 20
427.781248
 30
0.0
 11
934.282719
 21
417.047374
 31
0.0
  0
LINE
  8
0
 10
945.016592
 20
434.852316
 30
0.0
 11
927.211651
 21
417.047374
 31
0.0
  0
LINE
  8
0
 10
940.140583
 20
437.047374
 30
0.0
 11
920.140583
 21
417.047374
 31
0.0
  0
LINE
  8
0
 10
933.069515
 20
437.047374
 30
0.0
 11
913.069515
 21
417.047374
 31
0.0
  0
LINE
  8
0
 10
925.998448
 20
437.047374
 30
0.0
 11
905.998448
 21
417.047374
 31
0.0
  0
LINE
  8
0
 10
918.92738
 20
437.047374
 30
0.0
 11
898.92738
 21
417.047374
 31
0.0
  0
LINE
  8
0
 10
911.856312
 20
437.047374
 30
0.0
 11
891.856312
 21
417.047374
 31
0.0
  0
LINE
  8
0
 10
904.663243
 20
437.047374
 30
0.0
 11
884.663243
 21
417.047374
 31
0.0
  0
LINE
  8
0
 10
897.592175
 20
437.047374
 30
0.0
 11
877.592175
 21
417.047374
 31
0.0
  0
LINE
  8
0
 10
890.521107
 20
437.047374
 30
0.0
 11
870.521107
 21
417.047374
 31
0.0
  0
LINE
  8
0
 10
883.450039
 20
437.047374
 30
0.0
 11
863.450039
 21
417.047374
 31
0.0
  0
LINE
  8
0
 10
876.378972
 20
437.047374
 30
0.0
 11
856.378972
 21
417.047374
 31
0.0
  0
LINE
  8
0
 10
869.307904
 20
437.047374
 30
0.0
 11
849.307904
 21
417.047374
 31
0.0
  0
LINE
  8
0
 10
862.236836
 20
437.047374
 30
0.0
 11
842.236836
 21
417.047374
 31
0.0
  0
LINE
  8
0
 10
855.165768
 20
437.047374
 30
0.0
 11
835.165768
 21
417.047374
 31
0.0
  0
LINE
  8
0
 10
848.0947
 20
437.047374
 30
0.0
 11
828.0947
 21
417.047374
 31
0.0
  0
LINE
  8
0
 10
841.023633
 20
437.047374
 30
0.0
 11
821.023633
 21
417.047374
 31
0.0
  0
LINE
  8
0
 10
833.952565
 20
437.047374
 30
0.0
 11
813.952565
 21
417.047374
 31
0.0
  0
LINE
  8
0
 10
826.881497
 20
437.047374
 30
0.0
 11
806.881497
 21
417.047374
 31
0.0
  0
LINE
  8
0
 10
819.810429
 20
437.047374
 30
0.0
 11
799.810429
 21
417.047374
 31
0.0
  0
LINE
  8
0
 10
812.739361
 20
437.047374
 30
0.0
 11
792.739361
 21
417.047374
 31
0.0
  0
LINE
  8
0
 10
805.668294
 20
437.047374
 30
0.0
 11
789.539252
 21
420.918333
 31
0.0
  0
LINE
  8
0
 10
798.597226
 20
437.047374
 30
0.0
 11
789.539252
 21
427.989401
 31
0.0
  0
LINE
  8
0
 10
791.526158
 20
437.047374
 30
0.0
 11
789.539252
 21
435.060469
 31
0.0
  0
TEXT
  8
CAPA_1
 62
     2
 10
819.250919
 20
459.246897
 30
0.0
 40
10.10358
  1
 
 50
270.0
 41
0.192496
  0
LINE
  8
0
 10
863.538414
 20
492.246779
 30
0.0
 11
863.538414
 21
489.548284
 31
0.0
  0
LINE
  8
0
 10
863.538414
 20
489.548284
 30
0.0
 11
867.637081
 21
489.548284
 31
0.0
  0
LINE
  8
0
 10
867.637081
 20
489.548284
 30
0.0
 11
867.637081
 21
492.246779
 31
0.0
  0
LINE
  8
0
 10
867.637081
 20
492.246779
 30
0.0
 11
863.538414
 21
492.246779
 31
0.0
  0
LINE
  8
0
 10
910.137632
 20
493.646456
 30
0.0
 11
905.638492
 21
493.646456
 31
0.0
  0
LINE
  8
0
 10
905.638492
 20
493.646456
 30
0.0
 11
905.524283
 21
493.639535
 31
0.0
  0
LINE
  8
0
 10
905.524283
 20
493.639535
 30
0.0
 11
905.41403
 21
493.62223
 31
0.0
  0
LINE
  8
0
 10
905.41403
 20
493.62223
 30
0.0
 11
905.306743
 21
493.591082
 31
0.0
  0
LINE
  8
0
 10
905.306743
 20
493.591082
 30
0.0
 11
905.202916
 21
493.549552
 31
0.0
  0
LINE
  8
0
 10
905.202916
 20
493.549552
 30
0.0
 11
905.106506
 21
493.494672
 31
0.0
  0
LINE
  8
0
 10
905.106506
 20
493.494672
 30
0.0
 11
905.013062
 21
493.428916
 31
0.0
  0
LINE
  8
0
 10
905.013062
 20
493.428916
 30
0.0
 11
904.930001
 21
493.352776
 31
0.0
  0
LINE
  8
0
 10
904.930001
 20
493.352776
 30
0.0
 11
904.857323
 21
493.269715
 31
0.0
  0
LINE
  8
0
 10
904.857323
 20
493.269715
 30
0.0
 11
904.792061
 21
493.180227
 31
0.0
  0
LINE
  8
0
 10
904.792061
 20
493.180227
 30
0.0
 11
904.736687
 21
493.079861
 31
0.0
  0
LINE
  8
0
 10
904.736687
 20
493.079861
 30
0.0
 11
904.695156
 21
492.976035
 31
0.0
  0
LINE
  8
0
 10
904.695156
 20
492.976035
 30
0.0
 11
904.664008
 21
492.869242
 31
0.0
  0
LINE
  8
0
 10
904.664008
 20
492.869242
 30
0.0
 11
904.643243
 21
492.758494
 31
0.0
  0
LINE
  8
0
 10
904.643243
 20
492.758494
 30
0.0
 11
904.636321
 21
492.647746
 31
0.0
  0
LINE
  8
0
 10
904.636321
 20
492.647746
 30
0.0
 11
904.636321
 21
489.147317
 31
0.0
  0
LINE
  8
0
 10
904.636321
 20
489.147317
 30
0.0
 11
904.643243
 21
489.036569
 31
0.0
  0
LINE
  8
0
 10
904.643243
 20
489.036569
 30
0.0
 11
904.664008
 21
488.926315
 31
0.0
  0
LINE
  8
0
 10
904.664008
 20
488.926315
 30
0.0
 11
904.695156
 21
488.815567
 31
0.0
  0
LINE
  8
0
 10
904.695156
 20
488.815567
 30
0.0
 11
904.736687
 21
488.711741
 31
0.0
  0
LINE
  8
0
 10
904.736687
 20
488.711741
 30
0.0
 11
904.792061
 21
488.615331
 31
0.0
  0
LINE
  8
0
 10
904.792061
 20
488.615331
 30
0.0
 11
904.857323
 21
488.525348
 31
0.0
  0
LINE
  8
0
 10
904.857323
 20
488.525348
 30
0.0
 11
904.930001
 21
488.438826
 31
0.0
  0
LINE
  8
0
 10
904.930001
 20
488.438826
 30
0.0
 11
905.013062
 21
488.366148
 31
0.0
  0
LINE
  8
0
 10
905.013062
 20
488.366148
 30
0.0
 11
905.106506
 21
488.300391
 31
0.0
  0
LINE
  8
0
 10
905.106506
 20
488.300391
 30
0.0
 11
905.202916
 21
488.245512
 31
0.0
  0
LINE
  8
0
 10
905.202916
 20
488.245512
 30
0.0
 11
905.306743
 21
488.203981
 31
0.0
  0
LINE
  8
0
 10
905.306743
 20
488.203981
 30
0.0
 11
905.41403
 21
488.172833
 31
0.0
  0
LINE
  8
0
 10
905.41403
 20
488.172833
 30
0.0
 11
905.524283
 21
488.152068
 31
0.0
  0
LINE
  8
0
 10
905.524283
 20
488.152068
 30
0.0
 11
905.638492
 21
488.148607
 31
0.0
  0
LINE
  8
0
 10
905.638492
 20
488.148607
 30
0.0
 11
910.137632
 21
488.148607
 31
0.0
  0
LINE
  8
0
 10
910.137632
 20
488.148607
 30
0.0
 11
915.638942
 21
485.581131
 31
0.0
  0
LINE
  8
0
 10
915.638942
 20
485.581131
 30
0.0
 11
915.638942
 21
459.221614
 31
0.0
  0
LINE
  8
0
 10
915.638942
 20
459.221614
 30
0.0
 11
863.939382
 21
459.221614
 31
0.0
  0
LINE
  8
0
 10
863.939382
 20
474.222535
 30
0.0
 11
863.538414
 21
488.148607
 31
0.0
  0
LINE
  8
0
 10
863.538414
 20
488.148607
 30
0.0
 11
868.037554
 21
488.148607
 31
0.0
  0
LINE
  8
0
 10
868.037554
 20
488.148607
 30
0.0
 11
868.151763
 21
488.152068
 31
0.0
  0
LINE
  8
0
 10
868.151763
 20
488.152068
 30
0.0
 11
868.262511
 21
488.172833
 31
0.0
  0
LINE
  8
0
 10
868.262511
 20
488.172833
 30
0.0
 11
868.369303
 21
488.203981
 31
0.0
  0
LINE
  8
0
 10
868.369303
 20
488.203981
 30
0.0
 11
868.47313
 21
488.245512
 31
0.0
  0
LINE
  8
0
 10
868.47313
 20
488.245512
 30
0.0
 11
868.570034
 21
488.300391
 31
0.0
  0
LINE
  8
0
 10
868.570034
 20
488.300391
 30
0.0
 11
868.663478
 21
488.366148
 31
0.0
  0
LINE
  8
0
 10
868.663478
 20
488.366148
 30
0.0
 11
868.746045
 21
488.438826
 31
0.0
  0
LINE
  8
0
 10
868.746045
 20
488.438826
 30
0.0
 11
868.818723
 21
488.525348
 31
0.0
  0
LINE
  8
0
 10
868.818723
 20
488.525348
 30
0.0
 11
868.88448
 21
488.615331
 31
0.0
  0
LINE
  8
0
 10
868.88448
 20
488.615331
 30
0.0
 11
868.939854
 21
488.711741
 31
0.0
  0
LINE
  8
0
 10
868.939854
 20
488.711741
 30
0.0
 11
868.981384
 21
488.815567
 31
0.0
  0
LINE
  8
0
 10
868.981384
 20
488.815567
 30
0.0
 11
869.012038
 21
488.926315
 31
0.0
  0
LINE
  8
0
 10
869.012038
 20
488.926315
 30
0.0
 11
869.032803
 21
489.036569
 31
0.0
  0
LINE
  8
0
 10
869.032803
 20
489.036569
 30
0.0
 11
869.039725
 21
489.147317
 31
0.0
  0
LINE
  8
0
 10
869.039725
 20
489.147317
 30
0.0
 11
869.039725
 21
492.647746
 31
0.0
  0
LINE
  8
0
 10
869.039725
 20
492.647746
 30
0.0
 11
869.032803
 21
492.758494
 31
0.0
  0
LINE
  8
0
 10
869.032803
 20
492.758494
 30
0.0
 11
869.012038
 21
492.869242
 31
0.0
  0
LINE
  8
0
 10
869.012038
 20
492.869242
 30
0.0
 11
868.981384
 21
492.976035
 31
0.0
  0
LINE
  8
0
 10
868.981384
 20
492.976035
 30
0.0
 11
868.939854
 21
493.079861
 31
0.0
  0
LINE
  8
0
 10
868.939854
 20
493.079861
 30
0.0
 11
868.88448
 21
493.180227
 31
0.0
  0
LINE
  8
0
 10
868.88448
 20
493.180227
 30
0.0
 11
868.818723
 21
493.269715
 31
0.0
  0
LINE
  8
0
 10
868.818723
 20
493.269715
 30
0.0
 11
868.746045
 21
493.352776
 31
0.0
  0
LINE
  8
0
 10
868.746045
 20
493.352776
 30
0.0
 11
868.663478
 21
493.428916
 31
0.0
  0
LINE
  8
0
 10
868.663478
 20
493.428916
 30
0.0
 11
868.570034
 21
493.494672
 31
0.0
  0
LINE
  8
0
 10
868.570034
 20
493.494672
 30
0.0
 11
868.47313
 21
493.549552
 31
0.0
  0
LINE
  8
0
 10
868.47313
 20
493.549552
 30
0.0
 11
868.369303
 21
493.591082
 31
0.0
  0
LINE
  8
0
 10
868.369303
 20
493.591082
 30
0.0
 11
868.262511
 21
493.62223
 31
0.0
  0
LINE
  8
0
 10
868.262511
 20
493.62223
 30
0.0
 11
868.151763
 21
493.639535
 31
0.0
  0
LINE
  8
0
 10
868.151763
 20
493.639535
 30
0.0
 11
868.037554
 21
493.646456
 31
0.0
  0
LINE
  8
0
 10
868.037554
 20
493.646456
 30
0.0
 11
863.538414
 21
493.646456
 31
0.0
  0
LINE
  8
0
 10
863.538414
 20
493.646456
 30
0.0
 11
863.538414
 21
495.322509
 31
0.0
  0
LINE
  8
0
 10
863.538414
 20
495.322509
 30
0.0
 11
862.139232
 21
495.322509
 31
0.0
  0
LINE
  8
0
 10
862.139232
 20
495.322509
 30
0.0
 11
862.139232
 21
493.646456
 31
0.0
  0
LINE
  8
0
 10
862.139232
 20
493.646456
 30
0.0
 11
857.639598
 21
493.646456
 31
0.0
  0
LINE
  8
0
 10
857.639598
 20
493.646456
 30
0.0
 11
857.525883
 21
493.639535
 31
0.0
  0
LINE
  8
0
 10
857.525883
 20
493.639535
 30
0.0
 11
857.415135
 21
493.62223
 31
0.0
  0
LINE
  8
0
 10
857.415135
 20
493.62223
 30
0.0
 11
857.307848
 21
493.591082
 31
0.0
  0
LINE
  8
0
 10
857.307848
 20
493.591082
 30
0.0
 11
857.204516
 21
493.549552
 31
0.0
  0
LINE
  8
0
 10
857.204516
 20
493.549552
 30
0.0
 11
857.107612
 21
493.494672
 31
0.0
  0
LINE
  8
0
 10
857.107612
 20
493.494672
 30
0.0
 11
857.014168
 21
493.428916
 31
0.0
  0
LINE
  8
0
 10
857.014168
 20
493.428916
 30
0.0
 11
856.931601
 21
493.352776
 31
0.0
  0
LINE
  8
0
 10
856.931601
 20
493.352776
 30
0.0
 11
856.855462
 21
493.269715
 31
0.0
  0
LINE
  8
0
 10
856.855462
 20
493.269715
 30
0.0
 11
856.793166
 21
493.180227
 31
0.0
  0
LINE
  8
0
 10
856.793166
 20
493.180227
 30
0.0
 11
856.737792
 21
493.079861
 31
0.0
  0
LINE
  8
0
 10
856.737792
 20
493.079861
 30
0.0
 11
856.692801
 21
492.976035
 31
0.0
  0
LINE
  8
0
 10
856.692801
 20
492.976035
 30
0.0
 11
856.661653
 21
492.869242
 31
0.0
  0
LINE
  8
0
 10
856.661653
 20
492.869242
 30
0.0
 11
856.644349
 21
492.758494
 31
0.0
  0
LINE
  8
0
 10
856.644349
 20
492.758494
 30
0.0
 11
856.637427
 21
492.647746
 31
0.0
  0
LINE
  8
0
 10
856.637427
 20
492.647746
 30
0.0
 11
856.637427
 21
489.147317
 31
0.0
  0
LINE
  8
0
 10
856.637427
 20
489.147317
 30
0.0
 11
856.644349
 21
489.036569
 31
0.0
  0
LINE
  8
0
 10
856.644349
 20
489.036569
 30
0.0
 11
856.661653
 21
488.926315
 31
0.0
  0
LINE
  8
0
 10
856.661653
 20
488.926315
 30
0.0
 11
856.692801
 21
488.815567
 31
0.0
  0
LINE
  8
0
 10
856.692801
 20
488.815567
 30
0.0
 11
856.737792
 21
488.711741
 31
0.0
  0
LINE
  8
0
 10
856.737792
 20
488.711741
 30
0.0
 11
856.793166
 21
488.615331
 31
0.0
  0
LINE
  8
0
 10
856.793166
 20
488.615331
 30
0.0
 11
856.855462
 21
488.525348
 31
0.0
  0
LINE
  8
0
 10
856.855462
 20
488.525348
 30
0.0
 11
856.931601
 21
488.438826
 31
0.0
  0
LINE
  8
0
 10
856.931601
 20
488.438826
 30
0.0
 11
857.014168
 21
488.366148
 31
0.0
  0
LINE
  8
0
 10
857.014168
 20
488.366148
 30
0.0
 11
857.107612
 21
488.300391
 31
0.0
  0
LINE
  8
0
 10
857.107612
 20
488.300391
 30
0.0
 11
857.204516
 21
488.245512
 31
0.0
  0
LINE
  8
0
 10
857.204516
 20
488.245512
 30
0.0
 11
857.307848
 21
488.203981
 31
0.0
  0
LINE
  8
0
 10
857.307848
 20
488.203981
 30
0.0
 11
857.415135
 21
488.172833
 31
0.0
  0
LINE
  8
0
 10
857.415135
 20
488.172833
 30
0.0
 11
857.525883
 21
488.152068
 31
0.0
  0
LINE
  8
0
 10
857.525883
 20
488.152068
 30
0.0
 11
857.639598
 21
488.148607
 31
0.0
  0
LINE
  8
0
 10
857.639598
 20
488.148607
 30
0.0
 11
862.139232
 21
488.148607
 31
0.0
  0
LINE
  8
0
 10
862.139232
 20
488.148607
 30
0.0
 11
861.738264
 21
474.222535
 31
0.0
  0
LINE
  8
0
 10
861.738264
 20
474.222535
 30
0.0
 11
861.738264
 21
459.221614
 31
0.0
  0
LINE
  8
0
 10
861.738264
 20
459.221614
 30
0.0
 11
810.03821
 21
459.221614
 31
0.0
  0
LINE
  8
0
 10
810.03821
 20
459.221614
 30
0.0
 11
810.03821
 21
485.581131
 31
0.0
  0
LINE
  8
0
 10
810.03821
 20
485.581131
 30
0.0
 11
815.540015
 21
488.148607
 31
0.0
  0
LINE
  8
0
 10
815.540015
 20
488.148607
 30
0.0
 11
820.039154
 21
488.148607
 31
0.0
  0
LINE
  8
0
 10
820.039154
 20
488.148607
 30
0.0
 11
820.149407
 21
488.152068
 31
0.0
  0
LINE
  8
0
 10
820.149407
 20
488.152068
 30
0.0
 11
820.260156
 21
488.172833
 31
0.0
  0
LINE
  8
0
 10
820.260156
 20
488.172833
 30
0.0
 11
820.367443
 21
488.203981
 31
0.0
  0
LINE
  8
0
 10
820.367443
 20
488.203981
 30
0.0
 11
820.470775
 21
488.245512
 31
0.0
  0
LINE
  8
0
 10
820.470775
 20
488.245512
 30
0.0
 11
820.57114
 21
488.300391
 31
0.0
  0
LINE
  8
0
 10
820.57114
 20
488.300391
 30
0.0
 11
820.661123
 21
488.366148
 31
0.0
  0
LINE
  8
0
 10
820.661123
 20
488.366148
 30
0.0
 11
820.747645
 21
488.438826
 31
0.0
  0
LINE
  8
0
 10
820.747645
 20
488.438826
 30
0.0
 11
820.819829
 21
488.525348
 31
0.0
  0
LINE
  8
0
 10
820.819829
 20
488.525348
 30
0.0
 11
820.885585
 21
488.615331
 31
0.0
  0
LINE
  8
0
 10
820.885585
 20
488.615331
 30
0.0
 11
820.940959
 21
488.711741
 31
0.0
  0
LINE
  8
0
 10
820.940959
 20
488.711741
 30
0.0
 11
820.98249
 21
488.815567
 31
0.0
  0
LINE
  8
0
 10
820.98249
 20
488.815567
 30
0.0
 11
821.013638
 21
488.926315
 31
0.0
  0
LINE
  8
0
 10
821.013638
 20
488.926315
 30
0.0
 11
821.030942
 21
489.036569
 31
0.0
  0
LINE
  8
0
 10
821.030942
 20
489.036569
 30
0.0
 11
821.037864
 21
489.147317
 31
0.0
  0
LINE
  8
0
 10
821.037864
 20
489.147317
 30
0.0
 11
821.037864
 21
492.647746
 31
0.0
  0
LINE
  8
0
 10
821.037864
 20
492.647746
 30
0.0
 11
821.030942
 21
492.758494
 31
0.0
  0
LINE
  8
0
 10
821.030942
 20
492.758494
 30
0.0
 11
821.013638
 21
492.869242
 31
0.0
  0
LINE
  8
0
 10
821.013638
 20
492.869242
 30
0.0
 11
820.98249
 21
492.976035
 31
0.0
  0
LINE
  8
0
 10
820.98249
 20
492.976035
 30
0.0
 11
820.940959
 21
493.079861
 31
0.0
  0
LINE
  8
0
 10
820.940959
 20
493.079861
 30
0.0
 11
820.885585
 21
493.180227
 31
0.0
  0
LINE
  8
0
 10
820.885585
 20
493.180227
 30
0.0
 11
820.819829
 21
493.269715
 31
0.0
  0
LINE
  8
0
 10
820.819829
 20
493.269715
 30
0.0
 11
820.747645
 21
493.352776
 31
0.0
  0
LINE
  8
0
 10
820.747645
 20
493.352776
 30
0.0
 11
820.661123
 21
493.428916
 31
0.0
  0
LINE
  8
0
 10
820.661123
 20
493.428916
 30
0.0
 11
820.57114
 21
493.494672
 31
0.0
  0
LINE
  8
0
 10
820.57114
 20
493.494672
 30
0.0
 11
820.470775
 21
493.549552
 31
0.0
  0
LINE
  8
0
 10
820.470775
 20
493.549552
 30
0.0
 11
820.367443
 21
493.591082
 31
0.0
  0
LINE
  8
0
 10
820.367443
 20
493.591082
 30
0.0
 11
820.260156
 21
493.62223
 31
0.0
  0
LINE
  8
0
 10
820.260156
 20
493.62223
 30
0.0
 11
820.149407
 21
493.639535
 31
0.0
  0
LINE
  8
0
 10
820.149407
 20
493.639535
 30
0.0
 11
820.039154
 21
493.646456
 31
0.0
  0
LINE
  8
0
 10
820.039154
 20
493.646456
 30
0.0
 11
815.540015
 21
493.646456
 31
0.0
  0
LINE
  8
0
 10
815.540015
 20
493.646456
 30
0.0
 11
815.540015
 21
494.320338
 31
0.0
  0
LINE
  8
0
 10
815.540015
 20
494.320338
 30
0.0
 11
815.533093
 21
494.434547
 31
0.0
  0
LINE
  8
0
 10
815.533093
 20
494.434547
 30
0.0
 11
815.512328
 21
494.544801
 31
0.0
  0
LINE
  8
0
 10
815.512328
 20
494.544801
 30
0.0
 11
815.48118
 21
494.652088
 31
0.0
  0
LINE
  8
0
 10
815.48118
 20
494.652088
 30
0.0
 11
815.439649
 21
494.755914
 31
0.0
  0
LINE
  8
0
 10
815.439649
 20
494.755914
 30
0.0
 11
815.384275
 21
494.852325
 31
0.0
  0
LINE
  8
0
 10
815.384275
 20
494.852325
 30
0.0
 11
815.321979
 21
494.945768
 31
0.0
  0
LINE
  8
0
 10
815.321979
 20
494.945768
 30
0.0
 11
815.24584
 21
495.028829
 31
0.0
  0
LINE
  8
0
 10
815.24584
 20
495.028829
 30
0.0
 11
815.163273
 21
495.104969
 31
0.0
  0
LINE
  8
0
 10
815.163273
 20
495.104969
 30
0.0
 11
815.06983
 21
495.16677
 31
0.0
  0
LINE
  8
0
 10
815.06983
 20
495.16677
 30
0.0
 11
814.972925
 21
495.222144
 31
0.0
  0
LINE
  8
0
 10
814.972925
 20
495.222144
 30
0.0
 11
814.869593
 21
495.267135
 31
0.0
  0
LINE
  8
0
 10
814.869593
 20
495.267135
 30
0.0
 11
814.762306
 21
495.298283
 31
0.0
  0
LINE
  8
0
 10
814.762306
 20
495.298283
 30
0.0
 11
814.651558
 21
495.315588
 31
0.0
  0
LINE
  8
0
 10
814.651558
 20
495.315588
 30
0.0
 11
814.537844
 21
495.322509
 31
0.0
  0
LINE
  8
0
 10
814.537844
 20
495.322509
 30
0.0
 11
812.453902
 21
495.322509
 31
0.0
  0
LINE
  8
0
 10
812.453902
 20
495.322509
 30
0.0
 11
812.339693
 21
495.315588
 31
0.0
  0
LINE
  8
0
 10
812.339693
 20
495.315588
 30
0.0
 11
812.229439
 21
495.298283
 31
0.0
  0
LINE
  8
0
 10
812.229439
 20
495.298283
 30
0.0
 11
812.122152
 21
495.267135
 31
0.0
  0
LINE
  8
0
 10
812.122152
 20
495.267135
 30
0.0
 11
812.018326
 21
495.222144
 31
0.0
  0
LINE
  8
0
 10
812.018326
 20
495.222144
 30
0.0
 11
811.921916
 21
495.16677
 31
0.0
  0
LINE
  8
0
 10
811.921916
 20
495.16677
 30
0.0
 11
811.828472
 21
495.104969
 31
0.0
  0
LINE
  8
0
 10
811.828472
 20
495.104969
 30
0.0
 11
811.745411
 21
495.028829
 31
0.0
  0
LINE
  8
0
 10
811.745411
 20
495.028829
 30
0.0
 11
809.831052
 21
493.11447
 31
0.0
  0
LINE
  8
0
 10
809.831052
 20
493.11447
 30
0.0
 11
809.758373
 21
493.031409
 31
0.0
  0
LINE
  8
0
 10
809.758373
 20
493.031409
 30
0.0
 11
809.692617
 21
492.937966
 31
0.0
  0
LINE
  8
0
 10
809.692617
 20
492.937966
 30
0.0
 11
809.637737
 21
492.841555
 31
0.0
  0
LINE
  8
0
 10
809.637737
 20
492.841555
 30
0.0
 11
809.596207
 21
492.737729
 31
0.0
  0
LINE
  8
0
 10
809.596207
 20
492.737729
 30
0.0
 11
809.565059
 21
492.630442
 31
0.0
  0
LINE
  8
0
 10
809.565059
 20
492.630442
 30
0.0
 11
809.544293
 21
492.520188
 31
0.0
  0
LINE
  8
0
 10
809.544293
 20
492.520188
 30
0.0
 11
809.537372
 21
492.40944
 31
0.0
  0
LINE
  8
0
 10
809.537372
 20
492.40944
 30
0.0
 11
809.537372
 21
491.120511
 31
0.0
  0
LINE
  8
0
 10
809.537372
 20
491.120511
 30
0.0
 11
809.544293
 21
491.016685
 31
0.0
  0
LINE
  8
0
 10
809.544293
 20
491.016685
 30
0.0
 11
809.565059
 21
490.916814
 31
0.0
  0
LINE
  8
0
 10
809.565059
 20
490.916814
 30
0.0
 11
809.599667
 21
490.816448
 31
0.0
  0
LINE
  8
0
 10
809.599667
 20
490.816448
 30
0.0
 11
809.644659
 21
490.723005
 31
0.0
  0
LINE
  8
0
 10
809.644659
 20
490.723005
 30
0.0
 11
809.702999
 21
490.636483
 31
0.0
  0
LINE
  8
0
 10
809.702999
 20
490.636483
 30
0.0
 11
809.772217
 21
490.557377
 31
0.0
  0
LINE
  8
0
 10
809.772217
 20
490.557377
 30
0.0
 11
809.851817
 21
490.488159
 31
0.0
  0
LINE
  8
0
 10
809.851817
 20
490.488159
 30
0.0
 11
809.938339
 21
490.429325
 31
0.0
  0
LINE
  8
0
 10
809.938339
 20
490.429325
 30
0.0
 11
810.031288
 21
490.384333
 31
0.0
  0
LINE
  8
0
 10
810.031288
 20
490.384333
 30
0.0
 11
810.131654
 21
490.349724
 31
0.0
  0
LINE
  8
0
 10
810.131654
 20
490.349724
 30
0.0
 11
810.23548
 21
490.328959
 31
0.0
  0
LINE
  8
0
 10
810.23548
 20
490.328959
 30
0.0
 11
810.339306
 21
490.322037
 31
0.0
  0
LINE
  8
0
 10
810.339306
 20
490.322037
 30
0.0
 11
810.442638
 21
490.328959
 31
0.0
  0
LINE
  8
0
 10
810.442638
 20
490.328959
 30
0.0
 11
810.546464
 21
490.349724
 31
0.0
  0
LINE
  8
0
 10
810.546464
 20
490.349724
 30
0.0
 11
810.643369
 21
490.384333
 31
0.0
  0
LINE
  8
0
 10
810.643369
 20
490.384333
 30
0.0
 11
810.739779
 21
490.429325
 31
0.0
  0
LINE
  8
0
 10
810.739779
 20
490.429325
 30
0.0
 11
810.826301
 21
490.488159
 31
0.0
  0
LINE
  8
0
 10
810.826301
 20
490.488159
 30
0.0
 11
810.905901
 21
490.557377
 31
0.0
  0
LINE
  8
0
 10
810.905901
 20
490.557377
 30
0.0
 11
810.975119
 21
490.636483
 31
0.0
  0
LINE
  8
0
 10
810.975119
 20
490.636483
 30
0.0
 11
811.029998
 21
490.723005
 31
0.0
  0
LINE
  8
0
 10
811.029998
 20
490.723005
 30
0.0
 11
811.078451
 21
490.816448
 31
0.0
  0
LINE
  8
0
 10
811.078451
 20
490.816448
 30
0.0
 11
811.113059
 21
490.916814
 31
0.0
  0
LINE
  8
0
 10
811.113059
 20
490.916814
 30
0.0
 11
811.130364
 21
491.016685
 31
0.0
  0
LINE
  8
0
 10
811.130364
 20
491.016685
 30
0.0
 11
811.137285
 21
491.120511
 31
0.0
  0
LINE
  8
0
 10
811.137285
 20
491.120511
 30
0.0
 11
811.137285
 21
492.160752
 31
0.0
  0
LINE
  8
0
 10
811.137285
 20
492.160752
 30
0.0
 11
812.70259
 21
493.722596
 31
0.0
  0
LINE
  8
0
 10
812.70259
 20
493.722596
 30
0.0
 11
813.939606
 21
493.722596
 31
0.0
  0
LINE
  8
0
 10
813.939606
 20
493.722596
 30
0.0
 11
813.939606
 21
489.168082
 31
0.0
  0
LINE
  8
0
 10
813.939606
 20
489.168082
 30
0.0
 11
808.995003
 21
486.859678
 31
0.0
  0
LINE
  8
0
 10
808.995003
 20
486.859678
 30
0.0
 11
808.849646
 21
486.786999
 31
0.0
  0
LINE
  8
0
 10
808.849646
 20
486.786999
 30
0.0
 11
808.711706
 21
486.700477
 31
0.0
  0
LINE
  8
0
 10
808.711706
 20
486.700477
 30
0.0
 11
808.583653
 21
486.604067
 31
0.0
  0
LINE
  8
0
 10
808.583653
 20
486.604067
 30
0.0
 11
808.459062
 21
486.49678
 31
0.0
  0
LINE
  8
0
 10
808.459062
 20
486.49678
 30
0.0
 11
808.348808
 21
486.37911
 31
0.0
  0
LINE
  8
0
 10
808.348808
 20
486.37911
 30
0.0
 11
808.244982
 21
486.255013
 31
0.0
  0
LINE
  8
0
 10
808.244982
 20
486.255013
 30
0.0
 11
808.151538
 21
486.1235
 31
0.0
  0
LINE
  8
0
 10
808.151538
 20
486.1235
 30
0.0
 11
808.071938
 21
485.982098
 31
0.0
  0
LINE
  8
0
 10
808.071938
 20
485.982098
 30
0.0
 11
807.999754
 21
485.836742
 31
0.0
  0
LINE
  8
0
 10
807.999754
 20
485.836742
 30
0.0
 11
807.94438
 21
485.684957
 31
0.0
  0
LINE
  8
0
 10
807.94438
 20
485.684957
 30
0.0
 11
807.895928
 21
485.529218
 31
0.0
  0
LINE
  8
0
 10
807.895928
 20
485.529218
 30
0.0
 11
807.86478
 21
485.370018
 31
0.0
  0
LINE
  8
0
 10
807.86478
 20
485.370018
 30
0.0
 11
807.844014
 21
485.211312
 31
0.0
  0
LINE
  8
0
 10
807.844014
 20
485.211312
 30
0.0
 11
807.837093
 21
485.048651
 31
0.0
  0
LINE
  8
0
 10
807.837093
 20
485.048651
 30
0.0
 11
807.837093
 21
459.024344
 31
0.0
  0
LINE
  8
0
 10
807.837093
 20
459.024344
 30
0.0
 11
807.844014
 21
458.858716
 31
0.0
  0
LINE
  8
0
 10
807.844014
 20
458.858716
 30
0.0
 11
807.86478
 21
458.692594
 31
0.0
  0
LINE
  8
0
 10
807.86478
 20
458.692594
 30
0.0
 11
807.899388
 21
458.533888
 31
0.0
  0
LINE
  8
0
 10
807.899388
 20
458.533888
 30
0.0
 11
807.947841
 21
458.374688
 31
0.0
  0
LINE
  8
0
 10
807.947841
 20
458.374688
 30
0.0
 11
808.006676
 21
458.219443
 31
0.0
  0
LINE
  8
0
 10
808.006676
 20
458.219443
 30
0.0
 11
808.07886
 21
458.070625
 31
0.0
  0
LINE
  8
0
 10
808.07886
 20
458.070625
 30
0.0
 11
808.165381
 21
457.929223
 31
0.0
  0
LINE
  8
0
 10
808.165381
 20
457.929223
 30
0.0
 11
808.258825
 21
457.794249
 31
0.0
  0
LINE
  8
0
 10
808.258825
 20
457.794249
 30
0.0
 11
808.366112
 21
457.669658
 31
0.0
  0
LINE
  8
0
 10
808.366112
 20
457.669658
 30
0.0
 11
808.483288
 21
457.552482
 31
0.0
  0
LINE
  8
0
 10
808.483288
 20
457.552482
 30
0.0
 11
808.61134
 21
457.445195
 31
0.0
  0
LINE
  8
0
 10
808.61134
 20
457.445195
 30
0.0
 11
808.74582
 21
457.348291
 31
0.0
  0
LINE
  8
0
 10
808.74582
 20
457.348291
 30
0.0
 11
808.887716
 21
457.265724
 31
0.0
  0
LINE
  8
0
 10
808.887716
 20
457.265724
 30
0.0
 11
809.036533
 21
457.193046
 31
0.0
  0
LINE
  8
0
 10
809.036533
 20
457.193046
 30
0.0
 11
809.188318
 21
457.13075
 31
0.0
  0
LINE
  8
0
 10
809.188318
 20
457.13075
 30
0.0
 11
809.347518
 21
457.085758
 31
0.0
  0
LINE
  8
0
 10
809.347518
 20
457.085758
 30
0.0
 11
809.509685
 21
457.05115
 31
0.0
  0
LINE
  8
0
 10
809.509685
 20
457.05115
 30
0.0
 11
809.672346
 21
457.030384
 31
0.0
  0
LINE
  8
0
 10
809.672346
 20
457.030384
 30
0.0
 11
809.837974
 21
457.023463
 31
0.0
  0
LINE
  8
0
 10
809.837974
 20
457.023463
 30
0.0
 11
915.839673
 21
457.023463
 31
0.0
  0
LINE
  8
0
 10
915.839673
 20
457.023463
 30
0.0
 11
916.001839
 21
457.030384
 31
0.0
  0
LINE
  8
0
 10
916.001839
 20
457.030384
 30
0.0
 11
916.167961
 21
457.05115
 31
0.0
  0
LINE
  8
0
 10
916.167961
 20
457.05115
 30
0.0
 11
916.330128
 21
457.085758
 31
0.0
  0
LINE
  8
0
 10
916.330128
 20
457.085758
 30
0.0
 11
916.485868
 21
457.13075
 31
0.0
  0
LINE
  8
0
 10
916.485868
 20
457.13075
 30
0.0
 11
916.641113
 21
457.193046
 31
0.0
  0
LINE
  8
0
 10
916.641113
 20
457.193046
 30
0.0
 11
916.78993
 21
457.265724
 31
0.0
  0
LINE
  8
0
 10
916.78993
 20
457.265724
 30
0.0
 11
916.931332
 21
457.348291
 31
0.0
  0
LINE
  8
0
 10
916.931332
 20
457.348291
 30
0.0
 11
917.066306
 21
457.445195
 31
0.0
  0
LINE
  8
0
 10
917.066306
 20
457.445195
 30
0.0
 11
917.194358
 21
457.552482
 31
0.0
  0
LINE
  8
0
 10
917.194358
 20
457.552482
 30
0.0
 11
917.308073
 21
457.669658
 31
0.0
  0
LINE
  8
0
 10
917.308073
 20
457.669658
 30
0.0
 11
917.41536
 21
457.794249
 31
0.0
  0
LINE
  8
0
 10
917.41536
 20
457.794249
 30
0.0
 11
917.512265
 21
457.929223
 31
0.0
  0
LINE
  8
0
 10
917.512265
 20
457.929223
 30
0.0
 11
917.598292
 21
458.070625
 31
0.0
  0
LINE
  8
0
 10
917.598292
 20
458.070625
 30
0.0
 11
917.670971
 21
458.219443
 31
0.0
  0
LINE
  8
0
 10
917.670971
 20
458.219443
 30
0.0
 11
917.729805
 21
458.374688
 31
0.0
  0
LINE
  8
0
 10
917.729805
 20
458.374688
 30
0.0
 11
917.778258
 21
458.533888
 31
0.0
  0
LINE
  8
0
 10
917.778258
 20
458.533888
 30
0.0
 11
917.809406
 21
458.692594
 31
0.0
  0
LINE
  8
0
 10
917.809406
 20
458.692594
 30
0.0
 11
917.830171
 21
458.858716
 31
0.0
  0
LINE
  8
0
 10
917.830171
 20
458.858716
 30
0.0
 11
917.837093
 21
459.024344
 31
0.0
  0
LINE
  8
0
 10
917.837093
 20
459.024344
 30
0.0
 11
917.837093
 21
485.048651
 31
0.0
  0
LINE
  8
0
 10
917.837093
 20
485.048651
 30
0.0
 11
917.830171
 21
485.211312
 31
0.0
  0
LINE
  8
0
 10
917.830171
 20
485.211312
 30
0.0
 11
917.812866
 21
485.370018
 31
0.0
  0
LINE
  8
0
 10
917.812866
 20
485.370018
 30
0.0
 11
917.778258
 21
485.529218
 31
0.0
  0
LINE
  8
0
 10
917.778258
 20
485.529218
 30
0.0
 11
917.733266
 21
485.684957
 31
0.0
  0
LINE
  8
0
 10
917.733266
 20
485.684957
 30
0.0
 11
917.674431
 21
485.836742
 31
0.0
  0
LINE
  8
0
 10
917.674431
 20
485.836742
 30
0.0
 11
917.605214
 21
485.982098
 31
0.0
  0
LINE
  8
0
 10
917.605214
 20
485.982098
 30
0.0
 11
917.526108
 21
486.1235
 31
0.0
  0
LINE
  8
0
 10
917.526108
 20
486.1235
 30
0.0
 11
917.432664
 21
486.255013
 31
0.0
  0
LINE
  8
0
 10
917.432664
 20
486.255013
 30
0.0
 11
917.328838
 21
486.37911
 31
0.0
  0
LINE
  8
0
 10
917.328838
 20
486.37911
 30
0.0
 11
917.215124
 21
486.49678
 31
0.0
  0
LINE
  8
0
 10
917.215124
 20
486.49678
 30
0.0
 11
917.093993
 21
486.604067
 31
0.0
  0
LINE
  8
0
 10
917.093993
 20
486.604067
 30
0.0
 11
916.965941
 21
486.700477
 31
0.0
  0
LINE
  8
0
 10
916.965941
 20
486.700477
 30
0.0
 11
916.828
 21
486.786999
 31
0.0
  0
LINE
  8
0
 10
916.828
 20
486.786999
 30
0.0
 11
916.682643
 21
486.859678
 31
0.0
  0
LINE
  8
0
 10
916.682643
 20
486.859678
 30
0.0
 11
911.737545
 21
489.168082
 31
0.0
  0
LINE
  8
0
 10
911.737545
 20
489.168082
 30
0.0
 11
911.737545
 21
493.722596
 31
0.0
  0
LINE
  8
0
 10
911.737545
 20
493.722596
 30
0.0
 11
912.975056
 21
493.722596
 31
0.0
  0
LINE
  8
0
 10
912.975056
 20
493.722596
 30
0.0
 11
914.5369
 21
492.160752
 31
0.0
  0
LINE
  8
0
 10
914.5369
 20
492.160752
 30
0.0
 11
914.5369
 21
491.120511
 31
0.0
  0
LINE
  8
0
 10
914.5369
 20
491.120511
 30
0.0
 11
914.543822
 21
491.016685
 31
0.0
  0
LINE
  8
0
 10
914.543822
 20
491.016685
 30
0.0
 11
914.564587
 21
490.916814
 31
0.0
  0
LINE
  8
0
 10
914.564587
 20
490.916814
 30
0.0
 11
914.599196
 21
490.816448
 31
0.0
  0
LINE
  8
0
 10
914.599196
 20
490.816448
 30
0.0
 11
914.643693
 21
490.723005
 31
0.0
  0
LINE
  8
0
 10
914.643693
 20
490.723005
 30
0.0
 11
914.702527
 21
490.636483
 31
0.0
  0
LINE
  8
0
 10
914.702527
 20
490.636483
 30
0.0
 11
914.771745
 21
490.557377
 31
0.0
  0
LINE
  8
0
 10
914.771745
 20
490.557377
 30
0.0
 11
914.851345
 21
490.488159
 31
0.0
  0
LINE
  8
0
 10
914.851345
 20
490.488159
 30
0.0
 11
914.937867
 21
490.429325
 31
0.0
  0
LINE
  8
0
 10
914.937867
 20
490.429325
 30
0.0
 11
915.030816
 21
490.384333
 31
0.0
  0
LINE
  8
0
 10
915.030816
 20
490.384333
 30
0.0
 11
915.131182
 21
490.349724
 31
0.0
  0
LINE
  8
0
 10
915.131182
 20
490.349724
 30
0.0
 11
915.235008
 21
490.328959
 31
0.0
  0
LINE
  8
0
 10
915.235008
 20
490.328959
 30
0.0
 11
915.33834
 21
490.322037
 31
0.0
  0
LINE
  8
0
 10
915.33834
 20
490.322037
 30
0.0
 11
915.442166
 21
490.328959
 31
0.0
  0
LINE
  8
0
 10
915.442166
 20
490.328959
 30
0.0
 11
915.545992
 21
490.349724
 31
0.0
  0
LINE
  8
0
 10
915.545992
 20
490.349724
 30
0.0
 11
915.642403
 21
490.384333
 31
0.0
  0
LINE
  8
0
 10
915.642403
 20
490.384333
 30
0.0
 11
915.739307
 21
490.429325
 31
0.0
  0
LINE
  8
0
 10
915.739307
 20
490.429325
 30
0.0
 11
915.825829
 21
490.488159
 31
0.0
  0
LINE
  8
0
 10
915.825829
 20
490.488159
 30
0.0
 11
915.905429
 21
490.557377
 31
0.0
  0
LINE
  8
0
 10
915.905429
 20
490.557377
 30
0.0
 11
915.974152
 21
490.636483
 31
0.0
  0
LINE
  8
0
 10
915.974152
 20
490.636483
 30
0.0
 11
916.029526
 21
490.723005
 31
0.0
  0
LINE
  8
0
 10
916.029526
 20
490.723005
 30
0.0
 11
916.077979
 21
490.816448
 31
0.0
  0
LINE
  8
0
 10
916.077979
 20
490.816448
 30
0.0
 11
916.109126
 21
490.916814
 31
0.0
  0
LINE
  8
0
 10
916.109126
 20
490.916814
 30
0.0
 11
916.129892
 21
491.016685
 31
0.0
  0
LINE
  8
0
 10
916.129892
 20
491.016685
 30
0.0
 11
916.136813
 21
491.120511
 31
0.0
  0
LINE
  8
0
 10
916.136813
 20
491.120511
 30
0.0
 11
916.136813
 21
492.40944
 31
0.0
  0
LINE
  8
0
 10
916.136813
 20
492.40944
 30
0.0
 11
916.133353
 21
492.520188
 31
0.0
  0
LINE
  8
0
 10
916.133353
 20
492.520188
 30
0.0
 11
916.112587
 21
492.630442
 31
0.0
  0
LINE
  8
0
 10
916.112587
 20
492.630442
 30
0.0
 11
916.081439
 21
492.737729
 31
0.0
  0
LINE
  8
0
 10
916.081439
 20
492.737729
 30
0.0
 11
916.039909
 21
492.841555
 31
0.0
  0
LINE
  8
0
 10
916.039909
 20
492.841555
 30
0.0
 11
915.984535
 21
492.937966
 31
0.0
  0
LINE
  8
0
 10
915.984535
 20
492.937966
 30
0.0
 11
915.919273
 21
493.031409
 31
0.0
  0
LINE
  8
0
 10
915.919273
 20
493.031409
 30
0.0
 11
915.846594
 21
493.11447
 31
0.0
  0
LINE
  8
0
 10
915.846594
 20
493.11447
 30
0.0
 11
913.932235
 21
495.028829
 31
0.0
  0
LINE
  8
0
 10
913.932235
 20
495.028829
 30
0.0
 11
913.845713
 21
495.104969
 31
0.0
  0
LINE
  8
0
 10
913.845713
 20
495.104969
 30
0.0
 11
913.755731
 21
495.16677
 31
0.0
  0
LINE
  8
0
 10
913.755731
 20
495.16677
 30
0.0
 11
913.658826
 21
495.222144
 31
0.0
  0
LINE
  8
0
 10
913.658826
 20
495.222144
 30
0.0
 11
913.555494
 21
495.267135
 31
0.0
  0
LINE
  8
0
 10
913.555494
 20
495.267135
 30
0.0
 11
913.444746
 21
495.298283
 31
0.0
  0
LINE
  8
0
 10
913.444746
 20
495.298283
 30
0.0
 11
913.333998
 21
495.315588
 31
0.0
  0
LINE
  8
0
 10
913.333998
 20
495.315588
 30
0.0
 11
913.223744
 21
495.322509
 31
0.0
  0
LINE
  8
0
 10
913.223744
 20
495.322509
 30
0.0
 11
911.136342
 21
495.322509
 31
0.0
  0
LINE
  8
0
 10
911.136342
 20
495.322509
 30
0.0
 11
911.026088
 21
495.315588
 31
0.0
  0
LINE
  8
0
 10
911.026088
 20
495.315588
 30
0.0
 11
910.91534
 21
495.298283
 31
0.0
  0
LINE
  8
0
 10
910.91534
 20
495.298283
 30
0.0
 11
910.808053
 21
495.267135
 31
0.0
  0
LINE
  8
0
 10
910.808053
 20
495.267135
 30
0.0
 11
910.704721
 21
495.222144
 31
0.0
  0
LINE
  8
0
 10
910.704721
 20
495.222144
 30
0.0
 11
910.604355
 21
495.16677
 31
0.0
  0
LINE
  8
0
 10
910.604355
 20
495.16677
 30
0.0
 11
910.514373
 21
495.104969
 31
0.0
  0
LINE
  8
0
 10
910.514373
 20
495.104969
 30
0.0
 11
910.431312
 21
495.028829
 31
0.0
  0
LINE
  8
0
 10
910.431312
 20
495.028829
 30
0.0
 11
910.355667
 21
494.945768
 31
0.0
  0
LINE
  8
0
 10
910.355667
 20
494.945768
 30
0.0
 11
910.28991
 21
494.852325
 31
0.0
  0
LINE
  8
0
 10
910.28991
 20
494.852325
 30
0.0
 11
910.237997
 21
494.755914
 31
0.0
  0
LINE
  8
0
 10
910.237997
 20
494.755914
 30
0.0
 11
910.193006
 21
494.652088
 31
0.0
  0
LINE
  8
0
 10
910.193006
 20
494.652088
 30
0.0
 11
910.161858
 21
494.544801
 31
0.0
  0
LINE
  8
0
 10
910.161858
 20
494.544801
 30
0.0
 11
910.144553
 21
494.434547
 31
0.0
  0
LINE
  8
0
 10
910.144553
 20
494.434547
 30
0.0
 11
910.137632
 21
494.320338
 31
0.0
  0
LINE
  8
0
 10
910.137632
 20
494.320338
 30
0.0
 11
910.137632
 21
493.646456
 31
0.0
  0
LINE
  8
0
 10
910.137632
 20
492.246779
 30
0.0
 11
906.039459
 21
492.246779
 31
0.0
  0
LINE
  8
0
 10
906.039459
 20
492.246779
 30
0.0
 11
906.039459
 21
489.548284
 31
0.0
  0
LINE
  8
0
 10
906.039459
 20
489.548284
 30
0.0
 11
910.137632
 21
489.548284
 31
0.0
  0
LINE
  8
0
 10
910.137632
 20
489.548284
 30
0.0
 11
910.137632
 21
492.246779
 31
0.0
  0
LINE
  8
0
 10
917.837093
 20
459.024344
 30
0.0
 11
917.830171
 21
458.858716
 31
0.0
  0
LINE
  8
0
 10
917.830171
 20
458.858716
 30
0.0
 11
917.809406
 21
458.692594
 31
0.0
  0
LINE
  8
0
 10
917.809406
 20
458.692594
 30
0.0
 11
917.778258
 21
458.533888
 31
0.0
  0
LINE
  8
0
 10
917.778258
 20
458.533888
 30
0.0
 11
917.729805
 21
458.374688
 31
0.0
  0
LINE
  8
0
 10
917.729805
 20
458.374688
 30
0.0
 11
917.670971
 21
458.219443
 31
0.0
  0
LINE
  8
0
 10
917.670971
 20
458.219443
 30
0.0
 11
917.598292
 21
458.070625
 31
0.0
  0
LINE
  8
0
 10
917.598292
 20
458.070625
 30
0.0
 11
917.512265
 21
457.929223
 31
0.0
  0
LINE
  8
0
 10
917.512265
 20
457.929223
 30
0.0
 11
917.41536
 21
457.794249
 31
0.0
  0
LINE
  8
0
 10
917.41536
 20
457.794249
 30
0.0
 11
917.308073
 21
457.669658
 31
0.0
  0
LINE
  8
0
 10
917.308073
 20
457.669658
 30
0.0
 11
917.194358
 21
457.552482
 31
0.0
  0
LINE
  8
0
 10
917.194358
 20
457.552482
 30
0.0
 11
917.066306
 21
457.445195
 31
0.0
  0
LINE
  8
0
 10
917.066306
 20
457.445195
 30
0.0
 11
916.931332
 21
457.348291
 31
0.0
  0
LINE
  8
0
 10
916.931332
 20
457.348291
 30
0.0
 11
916.78993
 21
457.265724
 31
0.0
  0
LINE
  8
0
 10
916.78993
 20
457.265724
 30
0.0
 11
916.641113
 21
457.193046
 31
0.0
  0
LINE
  8
0
 10
916.641113
 20
457.193046
 30
0.0
 11
916.485868
 21
457.13075
 31
0.0
  0
LINE
  8
0
 10
916.485868
 20
457.13075
 30
0.0
 11
916.330128
 21
457.085758
 31
0.0
  0
LINE
  8
0
 10
916.330128
 20
457.085758
 30
0.0
 11
916.167961
 21
457.05115
 31
0.0
  0
LINE
  8
0
 10
916.167961
 20
457.05115
 30
0.0
 11
916.001839
 21
457.030384
 31
0.0
  0
LINE
  8
0
 10
916.001839
 20
457.030384
 30
0.0
 11
915.839673
 21
457.023463
 31
0.0
  0
LINE
  8
0
 10
862.139232
 20
489.548284
 30
0.0
 11
862.139232
 21
492.246779
 31
0.0
  0
LINE
  8
0
 10
862.139232
 20
492.246779
 30
0.0
 11
858.037104
 21
492.246779
 31
0.0
  0
LINE
  8
0
 10
858.037104
 20
492.246779
 30
0.0
 11
858.037104
 21
489.548284
 31
0.0
  0
LINE
  8
0
 10
858.037104
 20
489.548284
 30
0.0
 11
862.139232
 21
489.548284
 31
0.0
  0
LINE
  8
0
 10
819.638187
 20
489.548284
 30
0.0
 11
815.540015
 21
489.548284
 31
0.0
  0
LINE
  8
0
 10
815.540015
 20
489.548284
 30
0.0
 11
815.540015
 21
492.246779
 31
0.0
  0
LINE
  8
0
 10
815.540015
 20
492.246779
 30
0.0
 11
819.638187
 21
492.246779
 31
0.0
  0
LINE
  8
0
 10
819.638187
 20
492.246779
 30
0.0
 11
819.638187
 21
489.548284
 31
0.0
  0
LINE
  8
0
 10
863.939382
 20
459.221614
 30
0.0
 11
863.939382
 21
474.222535
 31
0.0
  0
LINE
  8
0
 10
904.363407
 20
493.501594
 30
0.0
 11
904.380711
 21
493.550046
 31
0.0
  0
LINE
  8
0
 10
904.453389
 20
493.62223
 30
0.0
 11
904.498381
 21
493.639535
 31
0.0
  0
LINE
  8
0
 10
904.498381
 20
493.639535
 30
0.0
 11
904.549799
 21
493.646456
 31
0.0
  0
LINE
  8
0
 10
865.086909
 20
491.504174
 30
0.0
 11
865.079988
 21
491.594157
 31
0.0
  0
LINE
  8
0
 10
865.079988
 20
491.594157
 30
0.0
 11
865.059222
 21
491.687106
 31
0.0
  0
LINE
  8
0
 10
865.059222
 20
491.687106
 30
0.0
 11
865.028075
 21
491.773628
 31
0.0
  0
LINE
  8
0
 10
865.028075
 20
491.773628
 30
0.0
 11
864.983083
 21
491.853228
 31
0.0
  0
LINE
  8
0
 10
864.983083
 20
491.853228
 30
0.0
 11
864.927709
 21
491.929367
 31
0.0
  0
LINE
  8
0
 10
864.927709
 20
491.929367
 30
0.0
 11
864.861952
 21
491.99463
 31
0.0
  0
LINE
  8
0
 10
864.861952
 20
491.99463
 30
0.0
 11
864.785813
 21
492.050004
 31
0.0
  0
LINE
  8
0
 10
864.785813
 20
492.050004
 30
0.0
 11
864.706707
 21
492.094995
 31
0.0
  0
LINE
  8
0
 10
864.706707
 20
492.094995
 30
0.0
 11
864.620186
 21
492.126143
 31
0.0
  0
LINE
  8
0
 10
864.620186
 20
492.126143
 30
0.0
 11
864.526742
 21
492.146908
 31
0.0
  0
LINE
  8
0
 10
864.526742
 20
492.146908
 30
0.0
 11
864.436759
 21
492.15383
 31
0.0
  0
LINE
  8
0
 10
864.436759
 20
492.15383
 30
0.0
 11
864.34381
 21
492.146908
 31
0.0
  0
LINE
  8
0
 10
864.34381
 20
492.146908
 30
0.0
 11
864.253827
 21
492.126143
 31
0.0
  0
LINE
  8
0
 10
864.253827
 20
492.126143
 30
0.0
 11
864.167305
 21
492.094995
 31
0.0
  0
LINE
  8
0
 10
864.167305
 20
492.094995
 30
0.0
 11
864.084739
 21
492.050004
 31
0.0
  0
LINE
  8
0
 10
864.084739
 20
492.050004
 30
0.0
 11
864.008599
 21
491.99463
 31
0.0
  0
LINE
  8
0
 10
864.008599
 20
491.99463
 30
0.0
 11
863.946303
 21
491.929367
 31
0.0
  0
LINE
  8
0
 10
863.946303
 20
491.929367
 30
0.0
 11
863.887469
 21
491.853228
 31
0.0
  0
LINE
  8
0
 10
863.887469
 20
491.853228
 30
0.0
 11
863.845938
 21
491.773628
 31
0.0
  0
LINE
  8
0
 10
863.845938
 20
491.773628
 30
0.0
 11
863.811329
 21
491.687106
 31
0.0
  0
LINE
  8
0
 10
863.811329
 20
491.687106
 30
0.0
 11
863.790564
 21
491.594157
 31
0.0
  0
LINE
  8
0
 10
863.790564
 20
491.594157
 30
0.0
 11
863.787598
 21
491.504174
 31
0.0
  0
LINE
  8
0
 10
863.787598
 20
491.504174
 30
0.0
 11
863.790564
 21
491.41073
 31
0.0
  0
LINE
  8
0
 10
863.790564
 20
491.41073
 30
0.0
 11
863.811329
 21
491.320747
 31
0.0
  0
LINE
  8
0
 10
863.811329
 20
491.320747
 30
0.0
 11
863.845938
 21
491.231259
 31
0.0
  0
LINE
  8
0
 10
863.845938
 20
491.231259
 30
0.0
 11
863.887469
 21
491.151659
 31
0.0
  0
LINE
  8
0
 10
863.887469
 20
491.151659
 30
0.0
 11
863.946303
 21
491.07552
 31
0.0
  0
LINE
  8
0
 10
863.946303
 20
491.07552
 30
0.0
 11
864.008599
 21
491.009763
 31
0.0
  0
LINE
  8
0
 10
864.008599
 20
491.009763
 30
0.0
 11
864.084739
 21
490.954883
 31
0.0
  0
LINE
  8
0
 10
864.084739
 20
490.954883
 30
0.0
 11
864.167305
 21
490.909892
 31
0.0
  0
LINE
  8
0
 10
864.167305
 20
490.909892
 30
0.0
 11
864.253827
 21
490.878744
 31
0.0
  0
LINE
  8
0
 10
864.253827
 20
490.878744
 30
0.0
 11
864.34381
 21
490.857979
 31
0.0
  0
LINE
  8
0
 10
864.34381
 20
490.857979
 30
0.0
 11
864.436759
 21
490.851057
 31
0.0
  0
LINE
  8
0
 10
864.436759
 20
490.851057
 30
0.0
 11
864.526742
 21
490.857979
 31
0.0
  0
LINE
  8
0
 10
864.526742
 20
490.857979
 30
0.0
 11
864.620186
 21
490.878744
 31
0.0
  0
LINE
  8
0
 10
864.620186
 20
490.878744
 30
0.0
 11
864.706707
 21
490.909892
 31
0.0
  0
LINE
  8
0
 10
864.706707
 20
490.909892
 30
0.0
 11
864.785813
 21
490.954883
 31
0.0
  0
LINE
  8
0
 10
864.785813
 20
490.954883
 30
0.0
 11
864.861952
 21
491.009763
 31
0.0
  0
LINE
  8
0
 10
864.861952
 20
491.009763
 30
0.0
 11
864.927709
 21
491.07552
 31
0.0
  0
LINE
  8
0
 10
864.927709
 20
491.07552
 30
0.0
 11
864.983083
 21
491.151659
 31
0.0
  0
LINE
  8
0
 10
864.983083
 20
491.151659
 30
0.0
 11
865.028075
 21
491.231259
 31
0.0
  0
LINE
  8
0
 10
865.028075
 20
491.231259
 30
0.0
 11
865.059222
 21
491.320747
 31
0.0
  0
LINE
  8
0
 10
865.059222
 20
491.320747
 30
0.0
 11
865.079988
 21
491.41073
 31
0.0
  0
LINE
  8
0
 10
865.079988
 20
491.41073
 30
0.0
 11
865.086909
 21
491.504174
 31
0.0
  0
LINE
  8
0
 10
865.445852
 20
493.48775
 30
0.0
 11
865.076527
 21
491.389965
 31
0.0
  0
LINE
  8
0
 10
863.794025
 20
491.614428
 30
0.0
 11
864.205375
 21
493.947058
 31
0.0
  0
LINE
  8
0
 10
865.445852
 20
493.48775
 30
0.0
 11
865.463156
 21
493.539664
 31
0.0
  0
LINE
  8
0
 10
865.463156
 20
493.539664
 30
0.0
 11
865.494304
 21
493.584161
 31
0.0
  0
LINE
  8
0
 10
865.494304
 20
493.584161
 30
0.0
 11
865.535835
 21
493.618769
 31
0.0
  0
LINE
  8
0
 10
865.535835
 20
493.618769
 30
0.0
 11
865.584287
 21
493.639535
 31
0.0
  0
LINE
  8
0
 10
865.584287
 20
493.639535
 30
0.0
 11
865.6362
 21
493.646456
 31
0.0
  0
LINE
  8
0
 10
865.166015
 20
494.752454
 30
0.0
 11
865.052301
 21
494.745532
 31
0.0
  0
LINE
  8
0
 10
865.052301
 20
494.745532
 30
0.0
 11
864.941553
 21
494.724767
 31
0.0
  0
LINE
  8
0
 10
864.941553
 20
494.724767
 30
0.0
 11
864.834265
 21
494.693619
 31
0.0
  0
LINE
  8
0
 10
864.834265
 20
494.693619
 30
0.0
 11
864.730934
 21
494.648627
 31
0.0
  0
LINE
  8
0
 10
864.730934
 20
494.648627
 30
0.0
 11
864.630568
 21
494.593253
 31
0.0
  0
LINE
  8
0
 10
864.630568
 20
494.593253
 30
0.0
 11
864.540585
 21
494.52453
 31
0.0
  0
LINE
  8
0
 10
864.540585
 20
494.52453
 30
0.0
 11
864.457524
 21
494.44493
 31
0.0
  0
LINE
  8
0
 10
864.457524
 20
494.44493
 30
0.0
 11
864.38534
 21
494.358408
 31
0.0
  0
LINE
  8
0
 10
864.38534
 20
494.358408
 30
0.0
 11
864.323045
 21
494.264964
 31
0.0
  0
LINE
  8
0
 10
864.323045
 20
494.264964
 30
0.0
 11
864.271131
 21
494.165093
 31
0.0
  0
LINE
  8
0
 10
864.271131
 20
494.165093
 30
0.0
 11
864.233062
 21
494.057806
 31
0.0
  0
LINE
  8
0
 10
864.233062
 20
494.057806
 30
0.0
 11
864.205375
 21
493.947058
 31
0.0
  0
LINE
  8
0
 10
865.6362
 20
493.646456
 30
0.0
 11
868.984845
 21
493.646456
 31
0.0
  0
LINE
  8
0
 10
868.984845
 20
493.646456
 30
0.0
 11
869.036264
 21
493.639535
 31
0.0
  0
LINE
  8
0
 10
869.036264
 20
493.639535
 30
0.0
 11
869.084716
 21
493.62223
 31
0.0
  0
LINE
  8
0
 10
869.084716
 20
493.62223
 30
0.0
 11
869.122786
 21
493.591082
 31
0.0
  0
LINE
  8
0
 10
869.122786
 20
493.591082
 30
0.0
 11
869.153934
 21
493.550046
 31
0.0
  0
LINE
  8
0
 10
869.153934
 20
493.550046
 30
0.0
 11
869.174699
 21
493.501594
 31
0.0
  0
LINE
  8
0
 10
869.903955
 20
490.788761
 30
0.0
 11
869.174699
 21
493.501594
 31
0.0
  0
LINE
  8
0
 10
869.903955
 20
490.788761
 30
0.0
 11
874.721
 21
490.788761
 31
0.0
  0
LINE
  8
0
 10
873.943292
 20
489.226917
 30
0.0
 11
870.919969
 21
489.226917
 31
0.0
  0
LINE
  8
0
 10
870.919969
 20
489.226917
 30
0.0
 11
873.939831
 21
489.226917
 31
0.0
  0
LINE
  8
0
 10
874.721
 20
491.252024
 30
0.0
 11
874.721
 21
490.788761
 31
0.0
  0
LINE
  8
0
 10
874.721
 20
490.788761
 30
0.0
 11
874.721
 21
490.78184
 31
0.0
  0
LINE
  8
0
 10
874.721
 20
490.78184
 30
0.0
 11
874.721
 21
490.761074
 31
0.0
  0
LINE
  8
0
 10
874.721
 20
490.761074
 30
0.0
 11
874.721
 21
490.729926
 31
0.0
  0
LINE
  8
0
 10
874.721
 20
490.729926
 30
0.0
 11
874.721
 21
490.684935
 31
0.0
  0
LINE
  8
0
 10
874.721
 20
490.684935
 30
0.0
 11
874.721
 21
490.626595
 31
0.0
  0
LINE
  8
0
 10
874.721
 20
490.626595
 30
0.0
 11
874.721
 21
490.560838
 31
0.0
  0
LINE
  8
0
 10
874.721
 20
490.560838
 30
0.0
 11
874.721
 21
490.484699
 31
0.0
  0
LINE
  8
0
 10
874.721
 20
490.484699
 30
0.0
 11
874.721
 21
490.398177
 31
0.0
  0
LINE
  8
0
 10
874.721
 20
490.398177
 30
0.0
 11
874.721
 21
490.308688
 31
0.0
  0
LINE
  8
0
 10
874.721
 20
490.308688
 30
0.0
 11
874.721
 21
490.211784
 31
0.0
  0
LINE
  8
0
 10
874.721
 20
490.211784
 30
0.0
 11
874.721
 21
490.111418
 31
0.0
  0
LINE
  8
0
 10
874.721
 20
490.111418
 30
0.0
 11
874.721
 21
490.011053
 31
0.0
  0
LINE
  8
0
 10
874.721
 20
490.011053
 30
0.0
 11
874.721
 21
490.007592
 31
0.0
  0
LINE
  8
0
 10
870.111113
 20
490.011053
 30
0.0
 11
870.111113
 21
490.004131
 31
0.0
  0
LINE
  8
0
 10
870.111113
 20
490.004131
 30
0.0
 11
870.111113
 21
490.00067
 31
0.0
  0
LINE
  8
0
 10
870.111113
 20
490.00067
 30
0.0
 11
870.166487
 21
489.807356
 31
0.0
  0
LINE
  8
0
 10
870.166487
 20
489.807356
 30
0.0
 11
870.169948
 21
489.78313
 31
0.0
  0
LINE
  8
0
 10
870.169948
 20
489.78313
 30
0.0
 11
870.17687
 21
489.765825
 31
0.0
  0
LINE
  8
0
 10
870.17687
 20
489.765825
 30
0.0
 11
870.183792
 21
489.74506
 31
0.0
  0
LINE
  8
0
 10
870.183792
 20
489.74506
 30
0.0
 11
870.190713
 21
489.724295
 31
0.0
  0
LINE
  8
0
 10
870.190713
 20
489.724295
 30
0.0
 11
870.201096
 21
489.703529
 31
0.0
  0
LINE
  8
0
 10
870.201096
 20
489.703529
 30
0.0
 11
870.208018
 21
489.682764
 31
0.0
  0
LINE
  8
0
 10
870.208018
 20
489.682764
 30
0.0
 11
870.2184
 21
489.66546
 31
0.0
  0
LINE
  8
0
 10
870.2184
 20
489.66546
 30
0.0
 11
870.228783
 21
489.645189
 31
0.0
  0
LINE
  8
0
 10
870.228783
 20
489.645189
 30
0.0
 11
870.239166
 21
489.624424
 31
0.0
  0
LINE
  8
0
 10
870.239166
 20
489.624424
 30
0.0
 11
870.249548
 21
489.607119
 31
0.0
  0
LINE
  8
0
 10
870.249548
 20
489.607119
 30
0.0
 11
870.259931
 21
489.589815
 31
0.0
  0
LINE
  8
0
 10
870.259931
 20
489.589815
 30
0.0
 11
870.273774
 21
489.56905
 31
0.0
  0
LINE
  8
0
 10
870.273774
 20
489.56905
 30
0.0
 11
870.284157
 21
489.551745
 31
0.0
  0
LINE
  8
0
 10
870.284157
 20
489.551745
 30
0.0
 11
870.298
 21
489.534441
 31
0.0
  0
LINE
  8
0
 10
870.298
 20
489.534441
 30
0.0
 11
870.31135
 21
489.517136
 31
0.0
  0
LINE
  8
0
 10
870.31135
 20
489.517136
 30
0.0
 11
870.325193
 21
489.503293
 31
0.0
  0
LINE
  8
0
 10
870.325193
 20
489.503293
 30
0.0
 11
870.339037
 21
489.485989
 31
0.0
  0
LINE
  8
0
 10
870.339037
 20
489.485989
 30
0.0
 11
870.35288
 21
489.468684
 31
0.0
  0
LINE
  8
0
 10
870.35288
 20
489.468684
 30
0.0
 11
870.370184
 21
489.454841
 31
0.0
  0
LINE
  8
0
 10
870.370184
 20
489.454841
 30
0.0
 11
870.384028
 21
489.437536
 31
0.0
  0
LINE
  8
0
 10
870.384028
 20
489.437536
 30
0.0
 11
870.401332
 21
489.423693
 31
0.0
  0
LINE
  8
0
 10
870.401332
 20
489.423693
 30
0.0
 11
870.418637
 21
489.409849
 31
0.0
  0
LINE
  8
0
 10
870.418637
 20
489.409849
 30
0.0
 11
870.43248
 21
489.396006
 31
0.0
  0
LINE
  8
0
 10
870.43248
 20
489.396006
 30
0.0
 11
870.449785
 21
489.382162
 31
0.0
  0
LINE
  8
0
 10
870.449785
 20
489.382162
 30
0.0
 11
870.467089
 21
489.37178
 31
0.0
  0
LINE
  8
0
 10
870.467089
 20
489.37178
 30
0.0
 11
870.487854
 21
489.357936
 31
0.0
  0
LINE
  8
0
 10
870.487854
 20
489.357936
 30
0.0
 11
870.505159
 21
489.347553
 31
0.0
  0
LINE
  8
0
 10
870.505159
 20
489.347553
 30
0.0
 11
870.522463
 21
489.334204
 31
0.0
  0
LINE
  8
0
 10
870.522463
 20
489.334204
 30
0.0
 11
870.543228
 21
489.323822
 31
0.0
  0
LINE
  8
0
 10
870.543228
 20
489.323822
 30
0.0
 11
870.560533
 21
489.313439
 31
0.0
  0
LINE
  8
0
 10
870.560533
 20
489.313439
 30
0.0
 11
870.581298
 21
489.306517
 31
0.0
  0
LINE
  8
0
 10
870.581298
 20
489.306517
 30
0.0
 11
870.598602
 21
489.296135
 31
0.0
  0
LINE
  8
0
 10
870.598602
 20
489.296135
 30
0.0
 11
870.618873
 21
489.285752
 31
0.0
  0
LINE
  8
0
 10
870.618873
 20
489.285752
 30
0.0
 11
870.639638
 21
489.27883
 31
0.0
  0
LINE
  8
0
 10
870.639638
 20
489.27883
 30
0.0
 11
870.660404
 21
489.271909
 31
0.0
  0
LINE
  8
0
 10
870.660404
 20
489.271909
 30
0.0
 11
870.681169
 21
489.264987
 31
0.0
  0
LINE
  8
0
 10
870.681169
 20
489.264987
 30
0.0
 11
870.701934
 21
489.258065
 31
0.0
  0
LINE
  8
0
 10
870.701934
 20
489.258065
 30
0.0
 11
870.722699
 21
489.254604
 31
0.0
  0
LINE
  8
0
 10
870.722699
 20
489.254604
 30
0.0
 11
870.743465
 21
489.247682
 31
0.0
  0
LINE
  8
0
 10
870.743465
 20
489.247682
 30
0.0
 11
870.76423
 21
489.244222
 31
0.0
  0
LINE
  8
0
 10
870.76423
 20
489.244222
 30
0.0
 11
870.784995
 21
489.240761
 31
0.0
  0
LINE
  8
0
 10
870.784995
 20
489.240761
 30
0.0
 11
870.80576
 21
489.2373
 31
0.0
  0
LINE
  8
0
 10
870.80576
 20
489.2373
 30
0.0
 11
870.829987
 21
489.233839
 31
0.0
  0
LINE
  8
0
 10
870.829987
 20
489.233839
 30
0.0
 11
870.850752
 21
489.230378
 31
0.0
  0
LINE
  8
0
 10
870.850752
 20
489.230378
 30
0.0
 11
870.871517
 21
489.230378
 31
0.0
  0
LINE
  8
0
 10
870.871517
 20
489.230378
 30
0.0
 11
870.913048
 21
489.226917
 31
0.0
  0
LINE
  8
0
 10
870.913048
 20
489.226917
 30
0.0
 11
870.916508
 21
489.226917
 31
0.0
  0
LINE
  8
0
 10
870.111113
 20
490.014514
 30
0.0
 11
870.062661
 21
490.187558
 31
0.0
  0
LINE
  8
0
 10
870.062661
 20
490.187558
 30
0.0
 11
870.034974
 21
490.287923
 31
0.0
  0
LINE
  8
0
 10
870.034974
 20
490.287923
 30
0.0
 11
870.010748
 21
490.380872
 31
0.0
  0
LINE
  8
0
 10
870.010748
 20
490.380872
 30
0.0
 11
869.986522
 21
490.470855
 31
0.0
  0
LINE
  8
0
 10
869.986522
 20
490.470855
 30
0.0
 11
869.966251
 21
490.550455
 31
0.0
  0
LINE
  8
0
 10
869.966251
 20
490.550455
 30
0.0
 11
869.948946
 21
490.619673
 31
0.0
  0
LINE
  8
0
 10
869.948946
 20
490.619673
 30
0.0
 11
869.931642
 21
490.678013
 31
0.0
  0
LINE
  8
0
 10
869.931642
 20
490.678013
 30
0.0
 11
869.917798
 21
490.726466
 31
0.0
  0
LINE
  8
0
 10
869.917798
 20
490.726466
 30
0.0
 11
869.910877
 21
490.761074
 31
0.0
  0
LINE
  8
0
 10
869.910877
 20
490.761074
 30
0.0
 11
869.903955
 21
490.78184
 31
0.0
  0
LINE
  8
0
 10
869.903955
 20
490.78184
 30
0.0
 11
869.903955
 21
490.788761
 31
0.0
  0
LINE
  8
0
 10
874.721
 20
490.004131
 30
0.0
 11
874.721
 21
489.980399
 31
0.0
  0
LINE
  8
0
 10
874.721
 20
489.980399
 30
0.0
 11
874.71754
 21
489.952712
 31
0.0
  0
LINE
  8
0
 10
874.71754
 20
489.952712
 30
0.0
 11
874.71754
 21
489.928486
 31
0.0
  0
LINE
  8
0
 10
874.71754
 20
489.928486
 30
0.0
 11
874.714079
 21
489.900799
 31
0.0
  0
LINE
  8
0
 10
874.714079
 20
489.900799
 30
0.0
 11
874.707157
 21
489.876573
 31
0.0
  0
LINE
  8
0
 10
874.707157
 20
489.876573
 30
0.0
 11
874.703696
 21
489.848886
 31
0.0
  0
LINE
  8
0
 10
874.703696
 20
489.848886
 30
0.0
 11
874.696774
 21
489.82466
 31
0.0
  0
LINE
  8
0
 10
874.696774
 20
489.82466
 30
0.0
 11
874.693313
 21
489.800434
 31
0.0
  0
LINE
  8
0
 10
874.693313
 20
489.800434
 30
0.0
 11
874.682931
 21
489.772747
 31
0.0
  0
LINE
  8
0
 10
874.682931
 20
489.772747
 30
0.0
 11
874.676009
 21
489.748521
 31
0.0
  0
LINE
  8
0
 10
874.676009
 20
489.748521
 30
0.0
 11
874.665626
 21
489.724295
 31
0.0
  0
LINE
  8
0
 10
874.665626
 20
489.724295
 30
0.0
 11
874.658705
 21
489.700068
 31
0.0
  0
LINE
  8
0
 10
874.658705
 20
489.700068
 30
0.0
 11
874.648322
 21
489.675842
 31
0.0
  0
LINE
  8
0
 10
874.648322
 20
489.675842
 30
0.0
 11
874.634479
 21
489.655077
 31
0.0
  0
LINE
  8
0
 10
874.634479
 20
489.655077
 30
0.0
 11
874.624096
 21
489.631345
 31
0.0
  0
LINE
  8
0
 10
874.624096
 20
489.631345
 30
0.0
 11
874.610252
 21
489.607119
 31
0.0
  0
LINE
  8
0
 10
874.610252
 20
489.607119
 30
0.0
 11
874.596409
 21
489.586354
 31
0.0
  0
LINE
  8
0
 10
874.596409
 20
489.586354
 30
0.0
 11
874.582565
 21
489.565589
 31
0.0
  0
LINE
  8
0
 10
874.582565
 20
489.565589
 30
0.0
 11
874.565261
 21
489.544823
 31
0.0
  0
LINE
  8
0
 10
874.565261
 20
489.544823
 30
0.0
 11
874.551417
 21
489.524058
 31
0.0
  0
LINE
  8
0
 10
874.551417
 20
489.524058
 30
0.0
 11
874.534608
 21
489.503293
 31
0.0
  0
LINE
  8
0
 10
874.534608
 20
489.503293
 30
0.0
 11
874.517303
 21
489.482528
 31
0.0
  0
LINE
  8
0
 10
874.517303
 20
489.482528
 30
0.0
 11
874.499999
 21
489.465223
 31
0.0
  0
LINE
  8
0
 10
874.499999
 20
489.465223
 30
0.0
 11
874.482694
 21
489.444458
 31
0.0
  0
LINE
  8
0
 10
874.482694
 20
489.444458
 30
0.0
 11
874.461929
 21
489.427154
 31
0.0
  0
LINE
  8
0
 10
874.461929
 20
489.427154
 30
0.0
 11
874.441164
 21
489.409849
 31
0.0
  0
LINE
  8
0
 10
874.441164
 20
489.409849
 30
0.0
 11
874.423859
 21
489.396006
 31
0.0
  0
LINE
  8
0
 10
874.423859
 20
489.396006
 30
0.0
 11
874.403094
 21
489.378701
 31
0.0
  0
LINE
  8
0
 10
874.403094
 20
489.378701
 30
0.0
 11
874.382329
 21
489.364858
 31
0.0
  0
LINE
  8
0
 10
874.382329
 20
489.364858
 30
0.0
 11
874.358103
 21
489.351014
 31
0.0
  0
LINE
  8
0
 10
874.358103
 20
489.351014
 30
0.0
 11
874.337338
 21
489.337171
 31
0.0
  0
LINE
  8
0
 10
874.337338
 20
489.337171
 30
0.0
 11
874.313111
 21
489.323822
 31
0.0
  0
LINE
  8
0
 10
874.313111
 20
489.323822
 30
0.0
 11
874.292346
 21
489.309978
 31
0.0
  0
LINE
  8
0
 10
874.292346
 20
489.309978
 30
0.0
 11
874.26812
 21
489.299596
 31
0.0
  0
LINE
  8
0
 10
874.26812
 20
489.299596
 30
0.0
 11
874.243894
 21
489.289213
 31
0.0
  0
LINE
  8
0
 10
874.243894
 20
489.289213
 30
0.0
 11
874.219668
 21
489.27883
 31
0.0
  0
LINE
  8
0
 10
874.219668
 20
489.27883
 30
0.0
 11
874.195936
 21
489.271909
 31
0.0
  0
LINE
  8
0
 10
874.195936
 20
489.271909
 30
0.0
 11
874.17171
 21
489.261526
 31
0.0
  0
LINE
  8
0
 10
874.17171
 20
489.261526
 30
0.0
 11
874.147484
 21
489.254604
 31
0.0
  0
LINE
  8
0
 10
874.147484
 20
489.254604
 30
0.0
 11
874.119797
 21
489.247682
 31
0.0
  0
LINE
  8
0
 10
874.119797
 20
489.247682
 30
0.0
 11
874.095571
 21
489.244222
 31
0.0
  0
LINE
  8
0
 10
874.095571
 20
489.244222
 30
0.0
 11
874.071344
 21
489.2373
 31
0.0
  0
LINE
  8
0
 10
874.071344
 20
489.2373
 30
0.0
 11
874.043657
 21
489.233839
 31
0.0
  0
LINE
  8
0
 10
874.043657
 20
489.233839
 30
0.0
 11
874.019431
 21
489.230378
 31
0.0
  0
LINE
  8
0
 10
874.019431
 20
489.230378
 30
0.0
 11
873.991744
 21
489.230378
 31
0.0
  0
LINE
  8
0
 10
873.991744
 20
489.230378
 30
0.0
 11
873.967518
 21
489.226917
 31
0.0
  0
LINE
  8
0
 10
873.967518
 20
489.226917
 30
0.0
 11
873.943292
 21
489.226917
 31
0.0
  0
LINE
  8
0
 10
873.943292
 20
489.226917
 30
0.0
 11
873.939831
 21
489.226917
 31
0.0
  0
LINE
  8
0
 10
874.721
 20
490.004131
 30
0.0
 11
874.721
 21
490.007592
 31
0.0
  0
LINE
  8
0
 10
898.817105
 20
491.252024
 30
0.0
 11
874.721
 21
491.252024
 31
0.0
  0
LINE
  8
0
 10
898.817105
 20
490.788761
 30
0.0
 11
903.63415
 21
490.788761
 31
0.0
  0
LINE
  8
0
 10
899.017341
 20
489.482528
 30
0.0
 11
899.034646
 21
489.465223
 31
0.0
  0
LINE
  8
0
 10
899.034646
 20
489.465223
 30
0.0
 11
899.055411
 21
489.447919
 31
0.0
  0
LINE
  8
0
 10
899.055411
 20
489.447919
 30
0.0
 11
899.072715
 21
489.427154
 31
0.0
  0
LINE
  8
0
 10
899.072715
 20
489.427154
 30
0.0
 11
899.093481
 21
489.409849
 31
0.0
  0
LINE
  8
0
 10
899.093481
 20
489.409849
 30
0.0
 11
899.114246
 21
489.396006
 31
0.0
  0
LINE
  8
0
 10
899.114246
 20
489.396006
 30
0.0
 11
899.135011
 21
489.378701
 31
0.0
  0
LINE
  8
0
 10
899.135011
 20
489.378701
 30
0.0
 11
899.155776
 21
489.364858
 31
0.0
  0
LINE
  8
0
 10
899.155776
 20
489.364858
 30
0.0
 11
899.176542
 21
489.351014
 31
0.0
  0
LINE
  8
0
 10
899.176542
 20
489.351014
 30
0.0
 11
899.197307
 21
489.337171
 31
0.0
  0
LINE
  8
0
 10
899.197307
 20
489.337171
 30
0.0
 11
899.221533
 21
489.323822
 31
0.0
  0
LINE
  8
0
 10
899.221533
 20
489.323822
 30
0.0
 11
899.245759
 21
489.309978
 31
0.0
  0
LINE
  8
0
 10
899.245759
 20
489.309978
 30
0.0
 11
899.266524
 21
489.299596
 31
0.0
  0
LINE
  8
0
 10
899.266524
 20
489.299596
 30
0.0
 11
899.290751
 21
489.289213
 31
0.0
  0
LINE
  8
0
 10
899.290751
 20
489.289213
 30
0.0
 11
899.314482
 21
489.27883
 31
0.0
  0
LINE
  8
0
 10
899.314482
 20
489.27883
 30
0.0
 11
899.338708
 21
489.271909
 31
0.0
  0
LINE
  8
0
 10
899.338708
 20
489.271909
 30
0.0
 11
899.362935
 21
489.261526
 31
0.0
  0
LINE
  8
0
 10
899.362935
 20
489.261526
 30
0.0
 11
899.390622
 21
489.254604
 31
0.0
  0
LINE
  8
0
 10
899.390622
 20
489.254604
 30
0.0
 11
899.414848
 21
489.247682
 31
0.0
  0
LINE
  8
0
 10
899.414848
 20
489.247682
 30
0.0
 11
899.439074
 21
489.244222
 31
0.0
  0
LINE
  8
0
 10
899.439074
 20
489.244222
 30
0.0
 11
899.466761
 21
489.2373
 31
0.0
  0
LINE
  8
0
 10
899.466761
 20
489.2373
 30
0.0
 11
899.490987
 21
489.233839
 31
0.0
  0
LINE
  8
0
 10
899.490987
 20
489.233839
 30
0.0
 11
899.518674
 21
489.230378
 31
0.0
  0
LINE
  8
0
 10
899.518674
 20
489.230378
 30
0.0
 11
899.5429
 21
489.230378
 31
0.0
  0
LINE
  8
0
 10
899.5429
 20
489.230378
 30
0.0
 11
899.570587
 21
489.226917
 31
0.0
  0
LINE
  8
0
 10
899.570587
 20
489.226917
 30
0.0
 11
899.594813
 21
489.226917
 31
0.0
  0
LINE
  8
0
 10
899.594813
 20
489.226917
 30
0.0
 11
902.618136
 21
489.226917
 31
0.0
  0
LINE
  8
0
 10
902.618136
 20
489.226917
 30
0.0
 11
902.659667
 21
489.230378
 31
0.0
  0
LINE
  8
0
 10
902.659667
 20
489.230378
 30
0.0
 11
902.683893
 21
489.230378
 31
0.0
  0
LINE
  8
0
 10
902.683893
 20
489.230378
 30
0.0
 11
902.704658
 21
489.233839
 31
0.0
  0
LINE
  8
0
 10
902.704658
 20
489.233839
 30
0.0
 11
902.725423
 21
489.233839
 31
0.0
  0
LINE
  8
0
 10
902.725423
 20
489.233839
 30
0.0
 11
902.746188
 21
489.2373
 31
0.0
  0
LINE
  8
0
 10
902.746188
 20
489.2373
 30
0.0
 11
902.770415
 21
489.244222
 31
0.0
  0
LINE
  8
0
 10
902.770415
 20
489.244222
 30
0.0
 11
902.79118
 21
489.247682
 31
0.0
  0
LINE
  8
0
 10
902.79118
 20
489.247682
 30
0.0
 11
902.811945
 21
489.251143
 31
0.0
  0
LINE
  8
0
 10
902.811945
 20
489.251143
 30
0.0
 11
902.83271
 21
489.258065
 31
0.0
  0
LINE
  8
0
 10
902.83271
 20
489.258065
 30
0.0
 11
902.853476
 21
489.264987
 31
0.0
  0
LINE
  8
0
 10
902.853476
 20
489.264987
 30
0.0
 11
902.874241
 21
489.271909
 31
0.0
  0
LINE
  8
0
 10
902.874241
 20
489.271909
 30
0.0
 11
902.894512
 21
489.27883
 31
0.0
  0
LINE
  8
0
 10
902.894512
 20
489.27883
 30
0.0
 11
902.915277
 21
489.285752
 31
0.0
  0
LINE
  8
0
 10
902.915277
 20
489.285752
 30
0.0
 11
902.932581
 21
489.296135
 31
0.0
  0
LINE
  8
0
 10
902.932581
 20
489.296135
 30
0.0
 11
902.953347
 21
489.303057
 31
0.0
  0
LINE
  8
0
 10
902.953347
 20
489.303057
 30
0.0
 11
902.974112
 21
489.313439
 31
0.0
  0
LINE
  8
0
 10
902.974112
 20
489.313439
 30
0.0
 11
902.991416
 21
489.323822
 31
0.0
  0
LINE
  8
0
 10
902.991416
 20
489.323822
 30
0.0
 11
903.012181
 21
489.334204
 31
0.0
  0
LINE
  8
0
 10
903.012181
 20
489.334204
 30
0.0
 11
903.029486
 21
489.344093
 31
0.0
  0
LINE
  8
0
 10
903.029486
 20
489.344093
 30
0.0
 11
903.04679
 21
489.357936
 31
0.0
  0
LINE
  8
0
 10
903.04679
 20
489.357936
 30
0.0
 11
903.067556
 21
489.368319
 31
0.0
  0
LINE
  8
0
 10
903.067556
 20
489.368319
 30
0.0
 11
903.08486
 21
489.382162
 31
0.0
  0
LINE
  8
0
 10
903.08486
 20
489.382162
 30
0.0
 11
903.102164
 21
489.396006
 31
0.0
  0
LINE
  8
0
 10
903.102164
 20
489.396006
 30
0.0
 11
903.119469
 21
489.409849
 31
0.0
  0
LINE
  8
0
 10
903.119469
 20
489.409849
 30
0.0
 11
903.133312
 21
489.423693
 31
0.0
  0
LINE
  8
0
 10
903.133312
 20
489.423693
 30
0.0
 11
903.150617
 21
489.437536
 31
0.0
  0
LINE
  8
0
 10
903.150617
 20
489.437536
 30
0.0
 11
903.167921
 21
489.45138
 31
0.0
  0
LINE
  8
0
 10
903.167921
 20
489.45138
 30
0.0
 11
903.181764
 21
489.468684
 31
0.0
  0
LINE
  8
0
 10
903.181764
 20
489.468684
 30
0.0
 11
903.195608
 21
489.485989
 31
0.0
  0
LINE
  8
0
 10
903.195608
 20
489.485989
 30
0.0
 11
903.209451
 21
489.499832
 31
0.0
  0
LINE
  8
0
 10
903.209451
 20
489.499832
 30
0.0
 11
903.223295
 21
489.517136
 31
0.0
  0
LINE
  8
0
 10
903.223295
 20
489.517136
 30
0.0
 11
903.236644
 21
489.534441
 31
0.0
  0
LINE
  8
0
 10
903.236644
 20
489.534441
 30
0.0
 11
903.250488
 21
489.551745
 31
0.0
  0
LINE
  8
0
 10
903.250488
 20
489.551745
 30
0.0
 11
903.264331
 21
489.56905
 31
0.0
  0
LINE
  8
0
 10
903.264331
 20
489.56905
 30
0.0
 11
903.274714
 21
489.586354
 31
0.0
  0
LINE
  8
0
 10
903.274714
 20
489.586354
 30
0.0
 11
903.285096
 21
489.607119
 31
0.0
  0
LINE
  8
0
 10
903.285096
 20
489.607119
 30
0.0
 11
903.29894
 21
489.624424
 31
0.0
  0
LINE
  8
0
 10
903.29894
 20
489.624424
 30
0.0
 11
903.309322
 21
489.645189
 31
0.0
  0
LINE
  8
0
 10
903.309322
 20
489.645189
 30
0.0
 11
903.316244
 21
489.661999
 31
0.0
  0
LINE
  8
0
 10
903.316244
 20
489.661999
 30
0.0
 11
903.326627
 21
489.682764
 31
0.0
  0
LINE
  8
0
 10
903.326627
 20
489.682764
 30
0.0
 11
903.337009
 21
489.703529
 31
0.0
  0
LINE
  8
0
 10
903.337009
 20
489.703529
 30
0.0
 11
903.343931
 21
489.724295
 31
0.0
  0
LINE
  8
0
 10
903.343931
 20
489.724295
 30
0.0
 11
903.350853
 21
489.74506
 31
0.0
  0
LINE
  8
0
 10
903.350853
 20
489.74506
 30
0.0
 11
903.357775
 21
489.762364
 31
0.0
  0
LINE
  8
0
 10
903.357775
 20
489.762364
 30
0.0
 11
903.364696
 21
489.78313
 31
0.0
  0
LINE
  8
0
 10
903.364696
 20
489.78313
 30
0.0
 11
903.371618
 21
489.807356
 31
0.0
  0
LINE
  8
0
 10
903.371618
 20
489.807356
 30
0.0
 11
903.423531
 21
490.004131
 31
0.0
  0
LINE
  8
0
 10
903.423531
 20
490.004131
 30
0.0
 11
903.426992
 21
490.011053
 31
0.0
  0
LINE
  8
0
 10
903.426992
 20
490.011053
 30
0.0
 11
903.454679
 21
490.114879
 31
0.0
  0
LINE
  8
0
 10
903.454679
 20
490.114879
 30
0.0
 11
903.482366
 21
490.215245
 31
0.0
  0
LINE
  8
0
 10
903.482366
 20
490.215245
 30
0.0
 11
903.506592
 21
490.315116
 31
0.0
  0
LINE
  8
0
 10
903.506592
 20
490.315116
 30
0.0
 11
903.534279
 21
490.408559
 31
0.0
  0
LINE
  8
0
 10
903.534279
 20
490.408559
 30
0.0
 11
903.55455
 21
490.49162
 31
0.0
  0
LINE
  8
0
 10
903.55455
 20
490.49162
 30
0.0
 11
903.575316
 21
490.57122
 31
0.0
  0
LINE
  8
0
 10
903.575316
 20
490.57122
 30
0.0
 11
903.59262
 21
490.636977
 31
0.0
  0
LINE
  8
0
 10
903.59262
 20
490.636977
 30
0.0
 11
903.609924
 21
490.691857
 31
0.0
  0
LINE
  8
0
 10
903.609924
 20
490.691857
 30
0.0
 11
903.620307
 21
490.736848
 31
0.0
  0
LINE
  8
0
 10
903.620307
 20
490.736848
 30
0.0
 11
903.627229
 21
490.767996
 31
0.0
  0
LINE
  8
0
 10
903.627229
 20
490.767996
 30
0.0
 11
903.63415
 21
490.788761
 31
0.0
  0
LINE
  8
0
 10
902.618136
 20
489.226917
 30
0.0
 11
899.594813
 21
489.226917
 31
0.0
  0
LINE
  8
0
 10
899.017341
 20
489.482528
 30
0.0
 11
899.000037
 21
489.503293
 31
0.0
  0
LINE
  8
0
 10
899.000037
 20
489.503293
 30
0.0
 11
898.986193
 21
489.524058
 31
0.0
  0
LINE
  8
0
 10
898.986193
 20
489.524058
 30
0.0
 11
898.969383
 21
489.544823
 31
0.0
  0
LINE
  8
0
 10
898.969383
 20
489.544823
 30
0.0
 11
898.95554
 21
489.565589
 31
0.0
  0
LINE
  8
0
 10
898.95554
 20
489.565589
 30
0.0
 11
898.938236
 21
489.586354
 31
0.0
  0
LINE
  8
0
 10
898.938236
 20
489.586354
 30
0.0
 11
898.924392
 21
489.61058
 31
0.0
  0
LINE
  8
0
 10
898.924392
 20
489.61058
 30
0.0
 11
898.914009
 21
489.631345
 31
0.0
  0
LINE
  8
0
 10
898.914009
 20
489.631345
 30
0.0
 11
898.900166
 21
489.655077
 31
0.0
  0
LINE
  8
0
 10
898.900166
 20
489.655077
 30
0.0
 11
898.889783
 21
489.675842
 31
0.0
  0
LINE
  8
0
 10
898.889783
 20
489.675842
 30
0.0
 11
898.879401
 21
489.700068
 31
0.0
  0
LINE
  8
0
 10
898.879401
 20
489.700068
 30
0.0
 11
898.869018
 21
489.724295
 31
0.0
  0
LINE
  8
0
 10
898.869018
 20
489.724295
 30
0.0
 11
898.858635
 21
489.748521
 31
0.0
  0
LINE
  8
0
 10
898.858635
 20
489.748521
 30
0.0
 11
898.851714
 21
489.776208
 31
0.0
  0
LINE
  8
0
 10
898.851714
 20
489.776208
 30
0.0
 11
898.844792
 21
489.800434
 31
0.0
  0
LINE
  8
0
 10
898.844792
 20
489.800434
 30
0.0
 11
898.83787
 21
489.82466
 31
0.0
  0
LINE
  8
0
 10
898.83787
 20
489.82466
 30
0.0
 11
898.830948
 21
489.848886
 31
0.0
  0
LINE
  8
0
 10
898.830948
 20
489.848886
 30
0.0
 11
898.827488
 21
489.876573
 31
0.0
  0
LINE
  8
0
 10
898.827488
 20
489.876573
 30
0.0
 11
898.824027
 21
489.900799
 31
0.0
  0
LINE
  8
0
 10
898.824027
 20
489.900799
 30
0.0
 11
898.820566
 21
489.928486
 31
0.0
  0
LINE
  8
0
 10
898.820566
 20
489.928486
 30
0.0
 11
898.817105
 21
489.952712
 31
0.0
  0
LINE
  8
0
 10
898.817105
 20
489.952712
 30
0.0
 11
898.817105
 21
489.980399
 31
0.0
  0
LINE
  8
0
 10
898.817105
 20
489.980399
 30
0.0
 11
898.817105
 21
490.004131
 31
0.0
  0
LINE
  8
0
 10
898.817105
 20
490.004131
 30
0.0
 11
898.817105
 21
490.007592
 31
0.0
  0
LINE
  8
0
 10
898.817105
 20
490.007592
 30
0.0
 11
898.817105
 21
490.011053
 31
0.0
  0
LINE
  8
0
 10
898.817105
 20
490.011053
 30
0.0
 11
898.817105
 21
490.111418
 31
0.0
  0
LINE
  8
0
 10
898.817105
 20
490.111418
 30
0.0
 11
898.817105
 21
490.211784
 31
0.0
  0
LINE
  8
0
 10
898.817105
 20
490.211784
 30
0.0
 11
898.817105
 21
490.308688
 31
0.0
  0
LINE
  8
0
 10
898.817105
 20
490.308688
 30
0.0
 11
898.817105
 21
490.398177
 31
0.0
  0
LINE
  8
0
 10
898.817105
 20
490.398177
 30
0.0
 11
898.817105
 21
490.484699
 31
0.0
  0
LINE
  8
0
 10
898.817105
 20
490.484699
 30
0.0
 11
898.817105
 21
490.560838
 31
0.0
  0
LINE
  8
0
 10
898.817105
 20
490.560838
 30
0.0
 11
898.817105
 21
490.626595
 31
0.0
  0
LINE
  8
0
 10
898.817105
 20
490.626595
 30
0.0
 11
898.817105
 21
490.684935
 31
0.0
  0
LINE
  8
0
 10
898.817105
 20
490.684935
 30
0.0
 11
898.817105
 21
490.729926
 31
0.0
  0
LINE
  8
0
 10
898.817105
 20
490.729926
 30
0.0
 11
898.817105
 21
490.761074
 31
0.0
  0
LINE
  8
0
 10
898.817105
 20
490.761074
 30
0.0
 11
898.817105
 21
490.78184
 31
0.0
  0
LINE
  8
0
 10
898.817105
 20
490.78184
 30
0.0
 11
898.817105
 21
490.788761
 31
0.0
  0
LINE
  8
0
 10
898.817105
 20
490.788761
 30
0.0
 11
898.817105
 21
491.252024
 31
0.0
  0
LINE
  8
0
 10
903.63415
 20
490.788761
 30
0.0
 11
904.363407
 21
493.501594
 31
0.0
  0
LINE
  8
0
 10
904.380711
 20
493.550046
 30
0.0
 11
904.411859
 21
493.591082
 31
0.0
  0
LINE
  8
0
 10
904.411859
 20
493.591082
 30
0.0
 11
904.453389
 21
493.62223
 31
0.0
  0
LINE
  8
0
 10
904.549799
 20
493.646456
 30
0.0
 11
907.898445
 21
493.646456
 31
0.0
  0
LINE
  8
0
 10
908.368629
 20
494.752454
 30
0.0
 11
865.166015
 21
494.752454
 31
0.0
  0
LINE
  8
0
 10
907.898445
 20
493.646456
 30
0.0
 11
907.953819
 21
493.639535
 31
0.0
  0
LINE
  8
0
 10
907.953819
 20
493.639535
 30
0.0
 11
908.002271
 21
493.618769
 31
0.0
  0
LINE
  8
0
 10
908.002271
 20
493.618769
 30
0.0
 11
908.043801
 21
493.584161
 31
0.0
  0
LINE
  8
0
 10
908.043801
 20
493.584161
 30
0.0
 11
908.074949
 21
493.539664
 31
0.0
  0
LINE
  8
0
 10
908.074949
 20
493.539664
 30
0.0
 11
908.092254
 21
493.48775
 31
0.0
  0
LINE
  8
0
 10
908.368629
 20
494.752454
 30
0.0
 11
908.482344
 21
494.745532
 31
0.0
  0
LINE
  8
0
 10
908.482344
 20
494.745532
 30
0.0
 11
908.593092
 21
494.724767
 31
0.0
  0
LINE
  8
0
 10
908.593092
 20
494.724767
 30
0.0
 11
908.70384
 21
494.693619
 31
0.0
  0
LINE
  8
0
 10
908.70384
 20
494.693619
 30
0.0
 11
908.807172
 21
494.648627
 31
0.0
  0
LINE
  8
0
 10
908.807172
 20
494.648627
 30
0.0
 11
908.904076
 21
494.593253
 31
0.0
  0
LINE
  8
0
 10
908.904076
 20
494.593253
 30
0.0
 11
908.99752
 21
494.52453
 31
0.0
  0
LINE
  8
0
 10
908.99752
 20
494.52453
 30
0.0
 11
909.07712
 21
494.44493
 31
0.0
  0
LINE
  8
0
 10
909.07712
 20
494.44493
 30
0.0
 11
909.152765
 21
494.358408
 31
0.0
  0
LINE
  8
0
 10
909.152765
 20
494.358408
 30
0.0
 11
909.215061
 21
494.264964
 31
0.0
  0
LINE
  8
0
 10
909.215061
 20
494.264964
 30
0.0
 11
909.263513
 21
494.165093
 31
0.0
  0
LINE
  8
0
 10
909.263513
 20
494.165093
 30
0.0
 11
909.305044
 21
494.057806
 31
0.0
  0
LINE
  8
0
 10
909.305044
 20
494.057806
 30
0.0
 11
909.32927
 21
493.947058
 31
0.0
  0
LINE
  8
0
 10
908.092254
 20
493.48775
 30
0.0
 11
908.461579
 21
491.389965
 31
0.0
  0
LINE
  8
0
 10
909.740125
 20
491.617888
 30
0.0
 11
909.32927
 21
493.947058
 31
0.0
  0
LINE
  8
0
 10
909.284278
 20
492.126143
 30
0.0
 11
909.194295
 21
492.146908
 31
0.0
  0
LINE
  8
0
 10
909.194295
 20
492.146908
 30
0.0
 11
909.100852
 21
492.15383
 31
0.0
  0
LINE
  8
0
 10
909.100852
 20
492.15383
 30
0.0
 11
909.007903
 21
492.146908
 31
0.0
  0
LINE
  8
0
 10
909.007903
 20
492.146908
 30
0.0
 11
908.91792
 21
492.126143
 31
0.0
  0
LINE
  8
0
 10
908.91792
 20
492.126143
 30
0.0
 11
908.831398
 21
492.094995
 31
0.0
  0
LINE
  8
0
 10
908.831398
 20
492.094995
 30
0.0
 11
908.748337
 21
492.050004
 31
0.0
  0
LINE
  8
0
 10
908.748337
 20
492.050004
 30
0.0
 11
908.676153
 21
491.99463
 31
0.0
  0
LINE
  8
0
 10
908.676153
 20
491.99463
 30
0.0
 11
908.610396
 21
491.929367
 31
0.0
  0
LINE
  8
0
 10
908.610396
 20
491.929367
 30
0.0
 11
908.555022
 21
491.853228
 31
0.0
  0
LINE
  8
0
 10
908.555022
 20
491.853228
 30
0.0
 11
908.510031
 21
491.773628
 31
0.0
  0
LINE
  8
0
 10
908.510031
 20
491.773628
 30
0.0
 11
908.475422
 21
491.687106
 31
0.0
  0
LINE
  8
0
 10
908.475422
 20
491.687106
 30
0.0
 11
908.458118
 21
491.594157
 31
0.0
  0
LINE
  8
0
 10
908.458118
 20
491.594157
 30
0.0
 11
908.451196
 21
491.504174
 31
0.0
  0
LINE
  8
0
 10
908.451196
 20
491.504174
 30
0.0
 11
908.458118
 21
491.41073
 31
0.0
  0
LINE
  8
0
 10
908.458118
 20
491.41073
 30
0.0
 11
908.475422
 21
491.320747
 31
0.0
  0
LINE
  8
0
 10
908.475422
 20
491.320747
 30
0.0
 11
908.510031
 21
491.231259
 31
0.0
  0
LINE
  8
0
 10
908.510031
 20
491.231259
 30
0.0
 11
908.555022
 21
491.151659
 31
0.0
  0
LINE
  8
0
 10
908.555022
 20
491.151659
 30
0.0
 11
908.610396
 21
491.07552
 31
0.0
  0
LINE
  8
0
 10
908.610396
 20
491.07552
 30
0.0
 11
908.676153
 21
491.009763
 31
0.0
  0
LINE
  8
0
 10
908.676153
 20
491.009763
 30
0.0
 11
908.748337
 21
490.954883
 31
0.0
  0
LINE
  8
0
 10
908.748337
 20
490.954883
 30
0.0
 11
908.831398
 21
490.909892
 31
0.0
  0
LINE
  8
0
 10
908.831398
 20
490.909892
 30
0.0
 11
908.91792
 21
490.878744
 31
0.0
  0
LINE
  8
0
 10
908.91792
 20
490.878744
 30
0.0
 11
909.007903
 21
490.857979
 31
0.0
  0
LINE
  8
0
 10
909.007903
 20
490.857979
 30
0.0
 11
909.100852
 21
490.851057
 31
0.0
  0
LINE
  8
0
 10
909.100852
 20
490.851057
 30
0.0
 11
909.194295
 21
490.857979
 31
0.0
  0
LINE
  8
0
 10
909.194295
 20
490.857979
 30
0.0
 11
909.284278
 21
490.878744
 31
0.0
  0
LINE
  8
0
 10
909.284278
 20
490.878744
 30
0.0
 11
909.3708
 21
490.909892
 31
0.0
  0
LINE
  8
0
 10
909.3708
 20
490.909892
 30
0.0
 11
909.453367
 21
490.954883
 31
0.0
  0
LINE
  8
0
 10
909.453367
 20
490.954883
 30
0.0
 11
909.526045
 21
491.009763
 31
0.0
  0
LINE
  8
0
 10
909.526045
 20
491.009763
 30
0.0
 11
909.591802
 21
491.07552
 31
0.0
  0
LINE
  8
0
 10
909.591802
 20
491.07552
 30
0.0
 11
909.647176
 21
491.151659
 31
0.0
  0
LINE
  8
0
 10
909.647176
 20
491.151659
 30
0.0
 11
909.692167
 21
491.231259
 31
0.0
  0
LINE
  8
0
 10
909.692167
 20
491.231259
 30
0.0
 11
909.723315
 21
491.320747
 31
0.0
  0
LINE
  8
0
 10
909.723315
 20
491.320747
 30
0.0
 11
909.743586
 21
491.41073
 31
0.0
  0
LINE
  8
0
 10
909.743586
 20
491.41073
 30
0.0
 11
909.750508
 21
491.504174
 31
0.0
  0
LINE
  8
0
 10
909.750508
 20
491.504174
 30
0.0
 11
909.743586
 21
491.594157
 31
0.0
  0
LINE
  8
0
 10
909.743586
 20
491.594157
 30
0.0
 11
909.723315
 21
491.687106
 31
0.0
  0
LINE
  8
0
 10
909.723315
 20
491.687106
 30
0.0
 11
909.692167
 21
491.773628
 31
0.0
  0
LINE
  8
0
 10
909.692167
 20
491.773628
 30
0.0
 11
909.647176
 21
491.853228
 31
0.0
  0
LINE
  8
0
 10
909.647176
 20
491.853228
 30
0.0
 11
909.591802
 21
491.929367
 31
0.0
  0
LINE
  8
0
 10
909.591802
 20
491.929367
 30
0.0
 11
909.526045
 21
491.99463
 31
0.0
  0
LINE
  8
0
 10
909.526045
 20
491.99463
 30
0.0
 11
909.453367
 21
492.050004
 31
0.0
  0
LINE
  8
0
 10
909.453367
 20
492.050004
 30
0.0
 11
909.3708
 21
492.094995
 31
0.0
  0
LINE
  8
0
 10
909.3708
 20
492.094995
 30
0.0
 11
909.284278
 21
492.126143
 31
0.0
  0
LINE
  8
0
 10
809.837974
 20
497.022788
 30
0.0
 11
809.672346
 21
497.015867
 31
0.0
  0
LINE
  8
0
 10
809.672346
 20
497.015867
 30
0.0
 11
809.509685
 21
496.995101
 31
0.0
  0
LINE
  8
0
 10
809.509685
 20
496.995101
 30
0.0
 11
809.347518
 21
496.960493
 31
0.0
  0
LINE
  8
0
 10
809.347518
 20
496.960493
 30
0.0
 11
809.188318
 21
496.91204
 31
0.0
  0
LINE
  8
0
 10
809.188318
 20
496.91204
 30
0.0
 11
809.036533
 21
496.853206
 31
0.0
  0
LINE
  8
0
 10
809.036533
 20
496.853206
 30
0.0
 11
808.887716
 21
496.780527
 31
0.0
  0
LINE
  8
0
 10
808.887716
 20
496.780527
 30
0.0
 11
808.74582
 21
496.69796
 31
0.0
  0
LINE
  8
0
 10
808.74582
 20
496.69796
 30
0.0
 11
808.61134
 21
496.601056
 31
0.0
  0
LINE
  8
0
 10
808.61134
 20
496.601056
 30
0.0
 11
808.483288
 21
496.493769
 31
0.0
  0
LINE
  8
0
 10
808.483288
 20
496.493769
 30
0.0
 11
808.366112
 21
496.376593
 31
0.0
  0
LINE
  8
0
 10
808.366112
 20
496.376593
 30
0.0
 11
808.258825
 21
496.248541
 31
0.0
  0
LINE
  8
0
 10
808.258825
 20
496.248541
 30
0.0
 11
808.165381
 21
496.117522
 31
0.0
  0
LINE
  8
0
 10
808.165381
 20
496.117522
 30
0.0
 11
808.07886
 21
495.972165
 31
0.0
  0
LINE
  8
0
 10
808.07886
 20
495.972165
 30
0.0
 11
808.006676
 21
495.823348
 31
0.0
  0
LINE
  8
0
 10
808.006676
 20
495.823348
 30
0.0
 11
807.947841
 21
495.671563
 31
0.0
  0
LINE
  8
0
 10
807.947841
 20
495.671563
 30
0.0
 11
807.899388
 21
495.512363
 31
0.0
  0
LINE
  8
0
 10
809.537372
 20
494.123563
 30
0.0
 11
809.544293
 21
494.24766
 31
0.0
  0
LINE
  8
0
 10
809.544293
 20
494.24766
 30
0.0
 11
809.565059
 21
494.372252
 31
0.0
  0
LINE
  8
0
 10
809.565059
 20
494.372252
 30
0.0
 11
809.596207
 21
494.493382
 31
0.0
  0
LINE
  8
0
 10
809.596207
 20
494.493382
 30
0.0
 11
809.641198
 21
494.610558
 31
0.0
  0
LINE
  8
0
 10
809.641198
 20
494.610558
 30
0.0
 11
809.699539
 21
494.721306
 31
0.0
  0
LINE
  8
0
 10
809.699539
 20
494.721306
 30
0.0
 11
809.768756
 21
494.828098
 31
0.0
  0
LINE
  8
0
 10
809.768756
 20
494.828098
 30
0.0
 11
809.848356
 21
494.925003
 31
0.0
  0
LINE
  8
0
 10
809.848356
 20
494.925003
 30
0.0
 11
809.934878
 21
495.014986
 31
0.0
  0
LINE
  8
0
 10
809.934878
 20
495.014986
 30
0.0
 11
810.034749
 21
495.094586
 31
0.0
  0
LINE
  8
0
 10
810.034749
 20
495.094586
 30
0.0
 11
810.138575
 21
495.159848
 31
0.0
  0
LINE
  8
0
 10
810.138575
 20
495.159848
 30
0.0
 11
810.249323
 21
495.218683
 31
0.0
  0
LINE
  8
0
 10
810.249323
 20
495.218683
 30
0.0
 11
810.366499
 21
495.263674
 31
0.0
  0
LINE
  8
0
 10
810.366499
 20
495.263674
 30
0.0
 11
810.487629
 21
495.294822
 31
0.0
  0
LINE
  8
0
 10
810.487629
 20
495.294822
 30
0.0
 11
810.612221
 21
495.315588
 31
0.0
  0
LINE
  8
0
 10
810.612221
 20
495.315588
 30
0.0
 11
810.739779
 21
495.322509
 31
0.0
  0
LINE
  8
0
 10
809.537372
 20
490.474316
 30
0.0
 11
809.537372
 21
494.123563
 31
0.0
  0
LINE
  8
0
 10
810.840144
 20
489.724295
 30
0.0
 11
809.537372
 21
490.474316
 31
0.0
  0
LINE
  8
0
 10
807.837093
 20
489.520597
 30
0.0
 11
807.844014
 21
489.357936
 31
0.0
  0
LINE
  8
0
 10
807.844014
 20
489.357936
 30
0.0
 11
807.86478
 21
489.192308
 31
0.0
  0
LINE
  8
0
 10
807.86478
 20
489.192308
 30
0.0
 11
807.899388
 21
489.029647
 31
0.0
  0
LINE
  8
0
 10
807.899388
 20
489.029647
 30
0.0
 11
807.947841
 21
488.874402
 31
0.0
  0
LINE
  8
0
 10
807.947841
 20
488.874402
 30
0.0
 11
808.006676
 21
488.718663
 31
0.0
  0
LINE
  8
0
 10
808.006676
 20
488.718663
 30
0.0
 11
808.07886
 21
488.57034
 31
0.0
  0
LINE
  8
0
 10
808.07886
 20
488.57034
 30
0.0
 11
808.165381
 21
488.428444
 31
0.0
  0
LINE
  8
0
 10
808.165381
 20
488.428444
 30
0.0
 11
808.258825
 21
488.293469
 31
0.0
  0
LINE
  8
0
 10
808.258825
 20
488.293469
 30
0.0
 11
808.366112
 21
488.165911
 31
0.0
  0
LINE
  8
0
 10
808.366112
 20
488.165911
 30
0.0
 11
808.483288
 21
488.051702
 31
0.0
  0
LINE
  8
0
 10
808.483288
 20
488.051702
 30
0.0
 11
808.61134
 21
487.94491
 31
0.0
  0
LINE
  8
0
 10
808.61134
 20
487.94491
 30
0.0
 11
808.74582
 21
487.848005
 31
0.0
  0
LINE
  8
0
 10
808.74582
 20
487.848005
 30
0.0
 11
808.887716
 21
487.761483
 31
0.0
  0
LINE
  8
0
 10
808.887716
 20
487.761483
 30
0.0
 11
809.036533
 21
487.688805
 31
0.0
  0
LINE
  8
0
 10
809.036533
 20
487.688805
 30
0.0
 11
809.188318
 21
487.630464
 31
0.0
  0
LINE
  8
0
 10
809.188318
 20
487.630464
 30
0.0
 11
809.347518
 21
487.582012
 31
0.0
  0
LINE
  8
0
 10
809.347518
 20
487.582012
 30
0.0
 11
809.509685
 21
487.550864
 31
0.0
  0
LINE
  8
0
 10
809.509685
 20
487.550864
 30
0.0
 11
809.672346
 21
487.530099
 31
0.0
  0
LINE
  8
0
 10
809.672346
 20
487.530099
 30
0.0
 11
809.837974
 21
487.523177
 31
0.0
  0
LINE
  8
0
 10
809.837974
 20
487.523177
 30
0.0
 11
810.760544
 21
487.951831
 31
0.0
  0
LINE
  8
0
 10
810.760544
 20
487.951831
 30
0.0
 11
810.86091
 21
488.006711
 31
0.0
  0
LINE
  8
0
 10
810.86091
 20
488.006711
 30
0.0
 11
810.957814
 21
488.072468
 31
0.0
  0
LINE
  8
0
 10
810.957814
 20
488.072468
 30
0.0
 11
811.043842
 21
488.148607
 31
0.0
  0
LINE
  8
0
 10
811.043842
 20
488.148607
 30
0.0
 11
811.119981
 21
488.235129
 31
0.0
  0
LINE
  8
0
 10
811.119981
 20
488.235129
 30
0.0
 11
811.185738
 21
488.328078
 31
0.0
  0
LINE
  8
0
 10
811.185738
 20
488.328078
 30
0.0
 11
811.241112
 21
488.428444
 31
0.0
  0
LINE
  8
0
 10
811.241112
 20
488.428444
 30
0.0
 11
811.286103
 21
488.535731
 31
0.0
  0
LINE
  8
0
 10
811.286103
 20
488.535731
 30
0.0
 11
811.316757
 21
488.642524
 31
0.0
  0
LINE
  8
0
 10
811.316757
 20
488.642524
 30
0.0
 11
811.334061
 21
488.756732
 31
0.0
  0
LINE
  8
0
 10
811.334061
 20
488.756732
 30
0.0
 11
811.337522
 21
488.870941
 31
0.0
  0
LINE
  8
0
 10
811.337522
 20
488.870941
 30
0.0
 11
811.3306
 21
488.988117
 31
0.0
  0
LINE
  8
0
 10
811.3306
 20
488.988117
 30
0.0
 11
811.310329
 21
489.098865
 31
0.0
  0
LINE
  8
0
 10
811.310329
 20
489.098865
 30
0.0
 11
811.27572
 21
489.209613
 31
0.0
  0
LINE
  8
0
 10
811.27572
 20
489.209613
 30
0.0
 11
811.227268
 21
489.312945
 31
0.0
  0
LINE
  8
0
 10
811.227268
 20
489.312945
 30
0.0
 11
811.171894
 21
489.41331
 31
0.0
  0
LINE
  8
0
 10
811.171894
 20
489.41331
 30
0.0
 11
811.102677
 21
489.503293
 31
0.0
  0
LINE
  8
0
 10
811.102677
 20
489.503293
 30
0.0
 11
811.023077
 21
489.589815
 31
0.0
  0
LINE
  8
0
 10
811.023077
 20
489.589815
 30
0.0
 11
810.933588
 21
489.661999
 31
0.0
  0
LINE
  8
0
 10
810.933588
 20
489.661999
 30
0.0
 11
810.840144
 21
489.724295
 31
0.0
  0
LINE
  8
0
 10
807.837093
 20
495.021908
 30
0.0
 11
807.837093
 21
489.520597
 31
0.0
  0
LINE
  8
0
 10
807.899388
 20
495.512363
 30
0.0
 11
807.86478
 21
495.350196
 31
0.0
  0
LINE
  8
0
 10
807.86478
 20
495.350196
 30
0.0
 11
807.844014
 21
495.187535
 31
0.0
  0
LINE
  8
0
 10
807.844014
 20
495.187535
 30
0.0
 11
807.837093
 21
495.021908
 31
0.0
  0
LINE
  8
0
 10
810.739779
 20
495.322509
 30
0.0
 11
914.937867
 21
495.322509
 31
0.0
  0
LINE
  8
0
 10
917.837093
 20
489.520597
 30
0.0
 11
917.837093
 21
495.021908
 31
0.0
  0
LINE
  8
0
 10
917.837093
 20
495.021908
 30
0.0
 11
917.830171
 21
495.187535
 31
0.0
  0
LINE
  8
0
 10
917.830171
 20
495.187535
 30
0.0
 11
917.809406
 21
495.350196
 31
0.0
  0
LINE
  8
0
 10
917.809406
 20
495.350196
 30
0.0
 11
917.778258
 21
495.512363
 31
0.0
  0
LINE
  8
0
 10
917.778258
 20
495.512363
 30
0.0
 11
917.729805
 21
495.671563
 31
0.0
  0
LINE
  8
0
 10
917.729805
 20
495.671563
 30
0.0
 11
917.670971
 21
495.823348
 31
0.0
  0
LINE
  8
0
 10
917.670971
 20
495.823348
 30
0.0
 11
917.598292
 21
495.972165
 31
0.0
  0
LINE
  8
0
 10
917.598292
 20
495.972165
 30
0.0
 11
917.512265
 21
496.117522
 31
0.0
  0
LINE
  8
0
 10
917.512265
 20
496.117522
 30
0.0
 11
917.41536
 21
496.248541
 31
0.0
  0
LINE
  8
0
 10
917.41536
 20
496.248541
 30
0.0
 11
917.308073
 21
496.376593
 31
0.0
  0
LINE
  8
0
 10
917.308073
 20
496.376593
 30
0.0
 11
917.194358
 21
496.493769
 31
0.0
  0
LINE
  8
0
 10
917.194358
 20
496.493769
 30
0.0
 11
917.066306
 21
496.601056
 31
0.0
  0
LINE
  8
0
 10
917.066306
 20
496.601056
 30
0.0
 11
916.931332
 21
496.69796
 31
0.0
  0
LINE
  8
0
 10
916.931332
 20
496.69796
 30
0.0
 11
916.78993
 21
496.780527
 31
0.0
  0
LINE
  8
0
 10
916.78993
 20
496.780527
 30
0.0
 11
916.641113
 21
496.853206
 31
0.0
  0
LINE
  8
0
 10
916.641113
 20
496.853206
 30
0.0
 11
916.485868
 21
496.91204
 31
0.0
  0
LINE
  8
0
 10
916.485868
 20
496.91204
 30
0.0
 11
916.330128
 21
496.960493
 31
0.0
  0
LINE
  8
0
 10
916.330128
 20
496.960493
 30
0.0
 11
916.167961
 21
496.995101
 31
0.0
  0
LINE
  8
0
 10
916.167961
 20
496.995101
 30
0.0
 11
916.001839
 21
497.015867
 31
0.0
  0
LINE
  8
0
 10
916.001839
 20
497.015867
 30
0.0
 11
915.839673
 21
497.022788
 31
0.0
  0
LINE
  8
0
 10
914.937867
 20
495.322509
 30
0.0
 11
915.061964
 21
495.315588
 31
0.0
  0
LINE
  8
0
 10
915.061964
 20
495.315588
 30
0.0
 11
915.186556
 21
495.294822
 31
0.0
  0
LINE
  8
0
 10
915.186556
 20
495.294822
 30
0.0
 11
915.307192
 21
495.263674
 31
0.0
  0
LINE
  8
0
 10
915.307192
 20
495.263674
 30
0.0
 11
915.424862
 21
495.218683
 31
0.0
  0
LINE
  8
0
 10
915.424862
 20
495.218683
 30
0.0
 11
915.539071
 21
495.159848
 31
0.0
  0
LINE
  8
0
 10
915.539071
 20
495.159848
 30
0.0
 11
915.642403
 21
495.094586
 31
0.0
  0
LINE
  8
0
 10
915.642403
 20
495.094586
 30
0.0
 11
915.739307
 21
495.014986
 31
0.0
  0
LINE
  8
0
 10
915.739307
 20
495.014986
 30
0.0
 11
915.82929
 21
494.925003
 31
0.0
  0
LINE
  8
0
 10
915.82929
 20
494.925003
 30
0.0
 11
915.90889
 21
494.828098
 31
0.0
  0
LINE
  8
0
 10
915.90889
 20
494.828098
 30
0.0
 11
915.977613
 21
494.721306
 31
0.0
  0
LINE
  8
0
 10
915.977613
 20
494.721306
 30
0.0
 11
916.032987
 21
494.610558
 31
0.0
  0
LINE
  8
0
 10
916.032987
 20
494.610558
 30
0.0
 11
916.077979
 21
494.493382
 31
0.0
  0
LINE
  8
0
 10
916.077979
 20
494.493382
 30
0.0
 11
916.112587
 21
494.372252
 31
0.0
  0
LINE
  8
0
 10
916.112587
 20
494.372252
 30
0.0
 11
916.129892
 21
494.24766
 31
0.0
  0
LINE
  8
0
 10
916.129892
 20
494.24766
 30
0.0
 11
916.136813
 21
494.123563
 31
0.0
  0
LINE
  8
0
 10
916.136813
 20
494.123563
 30
0.0
 11
916.136813
 21
490.474316
 31
0.0
  0
LINE
  8
0
 10
916.136813
 20
490.474316
 30
0.0
 11
914.837502
 21
489.724295
 31
0.0
  0
LINE
  8
0
 10
914.837502
 20
489.724295
 30
0.0
 11
914.740597
 21
489.661999
 31
0.0
  0
LINE
  8
0
 10
914.740597
 20
489.661999
 30
0.0
 11
914.654075
 21
489.589815
 31
0.0
  0
LINE
  8
0
 10
914.654075
 20
489.589815
 30
0.0
 11
914.574969
 21
489.503293
 31
0.0
  0
LINE
  8
0
 10
914.574969
 20
489.503293
 30
0.0
 11
914.505752
 21
489.41331
 31
0.0
  0
LINE
  8
0
 10
914.505752
 20
489.41331
 30
0.0
 11
914.446917
 21
489.312945
 31
0.0
  0
LINE
  8
0
 10
914.446917
 20
489.312945
 30
0.0
 11
914.401926
 21
489.209613
 31
0.0
  0
LINE
  8
0
 10
914.401926
 20
489.209613
 30
0.0
 11
914.367317
 21
489.098865
 31
0.0
  0
LINE
  8
0
 10
914.367317
 20
489.098865
 30
0.0
 11
914.346552
 21
488.988117
 31
0.0
  0
LINE
  8
0
 10
914.346552
 20
488.988117
 30
0.0
 11
914.33963
 21
488.870941
 31
0.0
  0
LINE
  8
0
 10
914.33963
 20
488.870941
 30
0.0
 11
914.343091
 21
488.756732
 31
0.0
  0
LINE
  8
0
 10
914.343091
 20
488.756732
 30
0.0
 11
914.360395
 21
488.642524
 31
0.0
  0
LINE
  8
0
 10
914.360395
 20
488.642524
 30
0.0
 11
914.391543
 21
488.535731
 31
0.0
  0
LINE
  8
0
 10
914.391543
 20
488.535731
 30
0.0
 11
914.436534
 21
488.428444
 31
0.0
  0
LINE
  8
0
 10
914.436534
 20
488.428444
 30
0.0
 11
914.491908
 21
488.328078
 31
0.0
  0
LINE
  8
0
 10
914.491908
 20
488.328078
 30
0.0
 11
914.557665
 21
488.235129
 31
0.0
  0
LINE
  8
0
 10
914.557665
 20
488.235129
 30
0.0
 11
914.63331
 21
488.148607
 31
0.0
  0
LINE
  8
0
 10
914.63331
 20
488.148607
 30
0.0
 11
914.719832
 21
488.072468
 31
0.0
  0
LINE
  8
0
 10
914.719832
 20
488.072468
 30
0.0
 11
914.813275
 21
488.006711
 31
0.0
  0
LINE
  8
0
 10
914.813275
 20
488.006711
 30
0.0
 11
914.917102
 21
487.951831
 31
0.0
  0
LINE
  8
0
 10
914.917102
 20
487.951831
 30
0.0
 11
915.839673
 21
487.523177
 31
0.0
  0
LINE
  8
0
 10
915.839673
 20
487.523177
 30
0.0
 11
916.001839
 21
487.530099
 31
0.0
  0
LINE
  8
0
 10
916.001839
 20
487.530099
 30
0.0
 11
916.167961
 21
487.550864
 31
0.0
  0
LINE
  8
0
 10
916.167961
 20
487.550864
 30
0.0
 11
916.330128
 21
487.582012
 31
0.0
  0
LINE
  8
0
 10
916.330128
 20
487.582012
 30
0.0
 11
916.485868
 21
487.630464
 31
0.0
  0
LINE
  8
0
 10
916.485868
 20
487.630464
 30
0.0
 11
916.641113
 21
487.688805
 31
0.0
  0
LINE
  8
0
 10
916.641113
 20
487.688805
 30
0.0
 11
916.78993
 21
487.761483
 31
0.0
  0
LINE
  8
0
 10
916.78993
 20
487.761483
 30
0.0
 11
916.931332
 21
487.848005
 31
0.0
  0
LINE
  8
0
 10
916.931332
 20
487.848005
 30
0.0
 11
917.066306
 21
487.94491
 31
0.0
  0
LINE
  8
0
 10
917.066306
 20
487.94491
 30
0.0
 11
917.194358
 21
488.051702
 31
0.0
  0
LINE
  8
0
 10
917.194358
 20
488.051702
 30
0.0
 11
917.308073
 21
488.165911
 31
0.0
  0
LINE
  8
0
 10
917.308073
 20
488.165911
 30
0.0
 11
917.41536
 21
488.293469
 31
0.0
  0
LINE
  8
0
 10
917.41536
 20
488.293469
 30
0.0
 11
917.512265
 21
488.428444
 31
0.0
  0
LINE
  8
0
 10
917.512265
 20
488.428444
 30
0.0
 11
917.598292
 21
488.57034
 31
0.0
  0
LINE
  8
0
 10
917.598292
 20
488.57034
 30
0.0
 11
917.670971
 21
488.718663
 31
0.0
  0
LINE
  8
0
 10
917.670971
 20
488.718663
 30
0.0
 11
917.729805
 21
488.874402
 31
0.0
  0
LINE
  8
0
 10
917.729805
 20
488.874402
 30
0.0
 11
917.778258
 21
489.029647
 31
0.0
  0
LINE
  8
0
 10
917.778258
 20
489.029647
 30
0.0
 11
917.809406
 21
489.192308
 31
0.0
  0
LINE
  8
0
 10
917.809406
 20
489.192308
 30
0.0
 11
917.830171
 21
489.357936
 31
0.0
  0
LINE
  8
0
 10
917.830171
 20
489.357936
 30
0.0
 11
917.837093
 21
489.520597
 31
0.0
  0
LINE
  8
0
 10
915.839673
 20
497.022788
 30
0.0
 11
809.837974
 21
497.022788
 31
0.0
  0
LINE
  8
0
 10
861.368445
 20
492.094995
 30
0.0
 11
861.281923
 21
492.126143
 31
0.0
  0
LINE
  8
0
 10
861.451012
 20
492.050004
 30
0.0
 11
861.368445
 21
492.094995
 31
0.0
  0
LINE
  8
0
 10
861.52369
 20
491.99463
 30
0.0
 11
861.451012
 21
492.050004
 31
0.0
  0
LINE
  8
0
 10
861.589447
 20
491.929367
 30
0.0
 11
861.52369
 21
491.99463
 31
0.0
  0
LINE
  8
0
 10
861.644821
 20
491.853228
 30
0.0
 11
861.589447
 21
491.929367
 31
0.0
  0
LINE
  8
0
 10
861.689812
 20
491.773628
 30
0.0
 11
861.644821
 21
491.853228
 31
0.0
  0
LINE
  8
0
 10
861.72096
 20
491.687106
 30
0.0
 11
861.689812
 21
491.773628
 31
0.0
  0
LINE
  8
0
 10
861.741231
 20
491.594157
 30
0.0
 11
861.72096
 21
491.687106
 31
0.0
  0
LINE
  8
0
 10
861.748153
 20
491.504174
 30
0.0
 11
861.741231
 21
491.594157
 31
0.0
  0
LINE
  8
0
 10
861.741231
 20
491.41073
 30
0.0
 11
861.748153
 21
491.504174
 31
0.0
  0
LINE
  8
0
 10
861.72096
 20
491.320747
 30
0.0
 11
861.741231
 21
491.41073
 31
0.0
  0
LINE
  8
0
 10
861.689812
 20
491.231259
 30
0.0
 11
861.72096
 21
491.320747
 31
0.0
  0
LINE
  8
0
 10
861.644821
 20
491.151659
 30
0.0
 11
861.689812
 21
491.231259
 31
0.0
  0
LINE
  8
0
 10
861.589447
 20
491.07552
 30
0.0
 11
861.644821
 21
491.151659
 31
0.0
  0
LINE
  8
0
 10
861.52369
 20
491.009763
 30
0.0
 11
861.589447
 21
491.07552
 31
0.0
  0
LINE
  8
0
 10
861.451012
 20
490.954883
 30
0.0
 11
861.52369
 21
491.009763
 31
0.0
  0
LINE
  8
0
 10
861.368445
 20
490.909892
 30
0.0
 11
861.451012
 21
490.954883
 31
0.0
  0
LINE
  8
0
 10
861.281923
 20
490.878744
 30
0.0
 11
861.368445
 21
490.909892
 31
0.0
  0
LINE
  8
0
 10
861.19194
 20
490.857979
 30
0.0
 11
861.281923
 21
490.878744
 31
0.0
  0
LINE
  8
0
 10
861.098497
 20
490.851057
 30
0.0
 11
861.19194
 21
490.857979
 31
0.0
  0
LINE
  8
0
 10
861.005547
 20
490.857979
 30
0.0
 11
861.098497
 21
490.851057
 31
0.0
  0
LINE
  8
0
 10
860.915565
 20
490.878744
 30
0.0
 11
861.005547
 21
490.857979
 31
0.0
  0
LINE
  8
0
 10
860.829043
 20
490.909892
 30
0.0
 11
860.915565
 21
490.878744
 31
0.0
  0
LINE
  8
0
 10
860.745982
 20
490.954883
 30
0.0
 11
860.829043
 21
490.909892
 31
0.0
  0
LINE
  8
0
 10
860.673798
 20
491.009763
 30
0.0
 11
860.745982
 21
490.954883
 31
0.0
  0
LINE
  8
0
 10
860.608041
 20
491.07552
 30
0.0
 11
860.673798
 21
491.009763
 31
0.0
  0
LINE
  8
0
 10
860.552667
 20
491.151659
 30
0.0
 11
860.608041
 21
491.07552
 31
0.0
  0
LINE
  8
0
 10
860.507676
 20
491.231259
 30
0.0
 11
860.552667
 21
491.151659
 31
0.0
  0
LINE
  8
0
 10
860.473067
 20
491.320747
 30
0.0
 11
860.507676
 21
491.231259
 31
0.0
  0
LINE
  8
0
 10
860.455762
 20
491.41073
 30
0.0
 11
860.473067
 21
491.320747
 31
0.0
  0
LINE
  8
0
 10
860.448841
 20
491.504174
 30
0.0
 11
860.455762
 21
491.41073
 31
0.0
  0
LINE
  8
0
 10
860.455762
 20
491.594157
 30
0.0
 11
860.448841
 21
491.504174
 31
0.0
  0
LINE
  8
0
 10
860.473067
 20
491.687106
 30
0.0
 11
860.455762
 21
491.594157
 31
0.0
  0
LINE
  8
0
 10
860.507676
 20
491.773628
 30
0.0
 11
860.473067
 21
491.687106
 31
0.0
  0
LINE
  8
0
 10
860.552667
 20
491.853228
 30
0.0
 11
860.507676
 21
491.773628
 31
0.0
  0
LINE
  8
0
 10
860.608041
 20
491.929367
 30
0.0
 11
860.552667
 21
491.853228
 31
0.0
  0
LINE
  8
0
 10
860.673798
 20
491.99463
 30
0.0
 11
860.608041
 21
491.929367
 31
0.0
  0
LINE
  8
0
 10
860.745982
 20
492.050004
 30
0.0
 11
860.673798
 21
491.99463
 31
0.0
  0
LINE
  8
0
 10
860.829043
 20
492.094995
 30
0.0
 11
860.745982
 21
492.050004
 31
0.0
  0
LINE
  8
0
 10
860.915565
 20
492.126143
 30
0.0
 11
860.829043
 21
492.094995
 31
0.0
  0
LINE
  8
0
 10
861.005547
 20
492.146908
 30
0.0
 11
860.915565
 21
492.126143
 31
0.0
  0
LINE
  8
0
 10
861.098497
 20
492.15383
 30
0.0
 11
861.005547
 21
492.146908
 31
0.0
  0
LINE
  8
0
 10
861.19194
 20
492.146908
 30
0.0
 11
861.098497
 21
492.15383
 31
0.0
  0
LINE
  8
0
 10
861.281923
 20
492.126143
 30
0.0
 11
861.19194
 21
492.146908
 31
0.0
  0
LINE
  8
0
 10
861.73777
 20
491.617888
 30
0.0
 11
861.326914
 21
493.947058
 31
0.0
  0
LINE
  8
0
 10
860.089898
 20
493.48775
 30
0.0
 11
860.459223
 21
491.389965
 31
0.0
  0
LINE
  8
0
 10
861.302688
 20
494.057806
 30
0.0
 11
861.326914
 21
493.947058
 31
0.0
  0
LINE
  8
0
 10
861.261158
 20
494.165093
 30
0.0
 11
861.302688
 21
494.057806
 31
0.0
  0
LINE
  8
0
 10
861.212706
 20
494.264964
 30
0.0
 11
861.261158
 21
494.165093
 31
0.0
  0
LINE
  8
0
 10
861.15041
 20
494.358408
 30
0.0
 11
861.212706
 21
494.264964
 31
0.0
  0
LINE
  8
0
 10
861.074765
 20
494.44493
 30
0.0
 11
861.15041
 21
494.358408
 31
0.0
  0
LINE
  8
0
 10
860.995165
 20
494.52453
 30
0.0
 11
861.074765
 21
494.44493
 31
0.0
  0
LINE
  8
0
 10
860.901721
 20
494.593253
 30
0.0
 11
860.995165
 21
494.52453
 31
0.0
  0
LINE
  8
0
 10
860.804817
 20
494.648627
 30
0.0
 11
860.901721
 21
494.593253
 31
0.0
  0
LINE
  8
0
 10
860.701485
 20
494.693619
 30
0.0
 11
860.804817
 21
494.648627
 31
0.0
  0
LINE
  8
0
 10
860.590737
 20
494.724767
 30
0.0
 11
860.701485
 21
494.693619
 31
0.0
  0
LINE
  8
0
 10
860.479989
 20
494.745532
 30
0.0
 11
860.590737
 21
494.724767
 31
0.0
  0
LINE
  8
0
 10
860.366274
 20
494.752454
 30
0.0
 11
860.479989
 21
494.745532
 31
0.0
  0
LINE
  8
0
 10
860.072594
 20
493.539664
 30
0.0
 11
860.089898
 21
493.48775
 31
0.0
  0
LINE
  8
0
 10
860.041446
 20
493.584161
 30
0.0
 11
860.072594
 21
493.539664
 31
0.0
  0
LINE
  8
0
 10
859.999916
 20
493.618769
 30
0.0
 11
860.041446
 21
493.584161
 31
0.0
  0
LINE
  8
0
 10
859.951463
 20
493.639535
 30
0.0
 11
859.999916
 21
493.618769
 31
0.0
  0
LINE
  8
0
 10
859.896089
 20
493.646456
 30
0.0
 11
859.951463
 21
493.639535
 31
0.0
  0
LINE
  8
0
 10
860.366274
 20
494.752454
 30
0.0
 11
817.16366
 21
494.752454
 31
0.0
  0
LINE
  8
0
 10
856.547444
 20
493.646456
 30
0.0
 11
859.896089
 21
493.646456
 31
0.0
  0
LINE
  8
0
 10
856.409504
 20
493.591082
 30
0.0
 11
856.451034
 21
493.62223
 31
0.0
  0
LINE
  8
0
 10
856.378356
 20
493.550046
 30
0.0
 11
856.409504
 21
493.591082
 31
0.0
  0
LINE
  8
0
 10
855.631795
 20
490.788761
 30
0.0
 11
856.361051
 21
493.501594
 31
0.0
  0
LINE
  8
0
 10
850.81475
 20
490.788761
 30
0.0
 11
850.81475
 21
491.252024
 31
0.0
  0
LINE
  8
0
 10
850.81475
 20
490.78184
 30
0.0
 11
850.81475
 21
490.788761
 31
0.0
  0
LINE
  8
0
 10
850.81475
 20
490.761074
 30
0.0
 11
850.81475
 21
490.78184
 31
0.0
  0
LINE
  8
0
 10
850.81475
 20
490.729926
 30
0.0
 11
850.81475
 21
490.761074
 31
0.0
  0
LINE
  8
0
 10
850.81475
 20
490.684935
 30
0.0
 11
850.81475
 21
490.729926
 31
0.0
  0
LINE
  8
0
 10
850.81475
 20
490.626595
 30
0.0
 11
850.81475
 21
490.684935
 31
0.0
  0
LINE
  8
0
 10
850.81475
 20
490.560838
 30
0.0
 11
850.81475
 21
490.626595
 31
0.0
  0
LINE
  8
0
 10
850.81475
 20
490.484699
 30
0.0
 11
850.81475
 21
490.560838
 31
0.0
  0
LINE
  8
0
 10
850.81475
 20
490.398177
 30
0.0
 11
850.81475
 21
490.484699
 31
0.0
  0
LINE
  8
0
 10
850.81475
 20
490.308688
 30
0.0
 11
850.81475
 21
490.398177
 31
0.0
  0
LINE
  8
0
 10
850.81475
 20
490.211784
 30
0.0
 11
850.81475
 21
490.308688
 31
0.0
  0
LINE
  8
0
 10
850.81475
 20
490.111418
 30
0.0
 11
850.81475
 21
490.211784
 31
0.0
  0
LINE
  8
0
 10
850.81475
 20
490.011053
 30
0.0
 11
850.81475
 21
490.111418
 31
0.0
  0
LINE
  8
0
 10
850.81475
 20
490.007592
 30
0.0
 11
850.81475
 21
490.011053
 31
0.0
  0
LINE
  8
0
 10
850.81475
 20
490.004131
 30
0.0
 11
850.81475
 21
490.007592
 31
0.0
  0
LINE
  8
0
 10
850.81475
 20
489.980399
 30
0.0
 11
850.81475
 21
490.004131
 31
0.0
  0
LINE
  8
0
 10
850.81475
 20
489.952712
 30
0.0
 11
850.81475
 21
489.980399
 31
0.0
  0
LINE
  8
0
 10
850.818211
 20
489.928486
 30
0.0
 11
850.81475
 21
489.952712
 31
0.0
  0
LINE
  8
0
 10
850.821671
 20
489.900799
 30
0.0
 11
850.818211
 21
489.928486
 31
0.0
  0
LINE
  8
0
 10
850.825132
 20
489.876573
 30
0.0
 11
850.821671
 21
489.900799
 31
0.0
  0
LINE
  8
0
 10
850.828593
 20
489.848886
 30
0.0
 11
850.825132
 21
489.876573
 31
0.0
  0
LINE
  8
0
 10
850.835515
 20
489.82466
 30
0.0
 11
850.828593
 21
489.848886
 31
0.0
  0
LINE
  8
0
 10
850.842437
 20
489.800434
 30
0.0
 11
850.835515
 21
489.82466
 31
0.0
  0
LINE
  8
0
 10
850.849358
 20
489.776208
 30
0.0
 11
850.842437
 21
489.800434
 31
0.0
  0
LINE
  8
0
 10
850.85628
 20
489.748521
 30
0.0
 11
850.849358
 21
489.776208
 31
0.0
  0
LINE
  8
0
 10
850.866663
 20
489.724295
 30
0.0
 11
850.85628
 21
489.748521
 31
0.0
  0
LINE
  8
0
 10
850.877046
 20
489.700068
 30
0.0
 11
850.866663
 21
489.724295
 31
0.0
  0
LINE
  8
0
 10
850.887428
 20
489.675842
 30
0.0
 11
850.877046
 21
489.700068
 31
0.0
  0
LINE
  8
0
 10
850.897811
 20
489.655077
 30
0.0
 11
850.887428
 21
489.675842
 31
0.0
  0
LINE
  8
0
 10
850.911654
 20
489.631345
 30
0.0
 11
850.897811
 21
489.655077
 31
0.0
  0
LINE
  8
0
 10
850.922037
 20
489.61058
 30
0.0
 11
850.911654
 21
489.631345
 31
0.0
  0
LINE
  8
0
 10
850.93588
 20
489.586354
 30
0.0
 11
850.922037
 21
489.61058
 31
0.0
  0
LINE
  8
0
 10
850.953185
 20
489.565589
 30
0.0
 11
850.93588
 21
489.586354
 31
0.0
  0
LINE
  8
0
 10
850.967028
 20
489.544823
 30
0.0
 11
850.953185
 21
489.565589
 31
0.0
  0
LINE
  8
0
 10
850.983838
 20
489.524058
 30
0.0
 11
850.967028
 21
489.544823
 31
0.0
  0
LINE
  8
0
 10
850.997682
 20
489.503293
 30
0.0
 11
850.983838
 21
489.524058
 31
0.0
  0
LINE
  8
0
 10
851.014986
 20
489.482528
 30
0.0
 11
850.997682
 21
489.503293
 31
0.0
  0
LINE
  8
0
 10
854.615781
 20
489.226917
 30
0.0
 11
851.592458
 21
489.226917
 31
0.0
  0
LINE
  8
0
 10
855.624873
 20
490.767996
 30
0.0
 11
855.631795
 21
490.788761
 31
0.0
  0
LINE
  8
0
 10
855.617952
 20
490.736848
 30
0.0
 11
855.624873
 21
490.767996
 31
0.0
  0
LINE
  8
0
 10
855.607569
 20
490.691857
 30
0.0
 11
855.617952
 21
490.736848
 31
0.0
  0
LINE
  8
0
 10
855.590265
 20
490.636977
 30
0.0
 11
855.607569
 21
490.691857
 31
0.0
  0
LINE
  8
0
 10
855.57296
 20
490.57122
 30
0.0
 11
855.590265
 21
490.636977
 31
0.0
  0
LINE
  8
0
 10
855.552195
 20
490.49162
 30
0.0
 11
855.57296
 21
490.57122
 31
0.0
  0
LINE
  8
0
 10
855.531924
 20
490.408559
 30
0.0
 11
855.552195
 21
490.49162
 31
0.0
  0
LINE
  8
0
 10
855.504237
 20
490.315116
 30
0.0
 11
855.531924
 21
490.408559
 31
0.0
  0
LINE
  8
0
 10
855.480011
 20
490.215245
 30
0.0
 11
855.504237
 21
490.315116
 31
0.0
  0
LINE
  8
0
 10
855.452324
 20
490.114879
 30
0.0
 11
855.480011
 21
490.215245
 31
0.0
  0
LINE
  8
0
 10
855.424637
 20
490.011053
 30
0.0
 11
855.452324
 21
490.114879
 31
0.0
  0
LINE
  8
0
 10
855.421176
 20
490.004131
 30
0.0
 11
855.424637
 21
490.011053
 31
0.0
  0
LINE
  8
0
 10
855.369263
 20
489.807356
 30
0.0
 11
855.421176
 21
490.004131
 31
0.0
  0
LINE
  8
0
 10
855.362341
 20
489.78313
 30
0.0
 11
855.369263
 21
489.807356
 31
0.0
  0
LINE
  8
0
 10
855.35542
 20
489.762364
 30
0.0
 11
855.362341
 21
489.78313
 31
0.0
  0
LINE
  8
0
 10
855.348498
 20
489.74506
 30
0.0
 11
855.35542
 21
489.762364
 31
0.0
  0
LINE
  8
0
 10
855.341576
 20
489.724295
 30
0.0
 11
855.348498
 21
489.74506
 31
0.0
  0
LINE
  8
0
 10
855.334654
 20
489.703529
 30
0.0
 11
855.341576
 21
489.724295
 31
0.0
  0
LINE
  8
0
 10
855.324272
 20
489.682764
 30
0.0
 11
855.334654
 21
489.703529
 31
0.0
  0
LINE
  8
0
 10
855.313889
 20
489.661999
 30
0.0
 11
855.324272
 21
489.682764
 31
0.0
  0
LINE
  8
0
 10
855.306967
 20
489.645189
 30
0.0
 11
855.313889
 21
489.661999
 31
0.0
  0
LINE
  8
0
 10
855.296585
 20
489.624424
 30
0.0
 11
855.306967
 21
489.645189
 31
0.0
  0
LINE
  8
0
 10
855.282741
 20
489.607119
 30
0.0
 11
855.296585
 21
489.624424
 31
0.0
  0
LINE
  8
0
 10
855.272358
 20
489.586354
 30
0.0
 11
855.282741
 21
489.607119
 31
0.0
  0
LINE
  8
0
 10
855.261976
 20
489.56905
 30
0.0
 11
855.272358
 21
489.586354
 31
0.0
  0
LINE
  8
0
 10
855.248132
 20
489.551745
 30
0.0
 11
855.261976
 21
489.56905
 31
0.0
  0
LINE
  8
0
 10
855.234289
 20
489.534441
 30
0.0
 11
855.248132
 21
489.551745
 31
0.0
  0
LINE
  8
0
 10
855.22094
 20
489.517136
 30
0.0
 11
855.234289
 21
489.534441
 31
0.0
  0
LINE
  8
0
 10
855.207096
 20
489.499832
 30
0.0
 11
855.22094
 21
489.517136
 31
0.0
  0
LINE
  8
0
 10
855.193253
 20
489.485989
 30
0.0
 11
855.207096
 21
489.499832
 31
0.0
  0
LINE
  8
0
 10
855.179409
 20
489.468684
 30
0.0
 11
855.193253
 21
489.485989
 31
0.0
  0
LINE
  8
0
 10
855.165566
 20
489.45138
 30
0.0
 11
855.179409
 21
489.468684
 31
0.0
  0
LINE
  8
0
 10
855.148261
 20
489.437536
 30
0.0
 11
855.165566
 21
489.45138
 31
0.0
  0
LINE
  8
0
 10
855.130957
 20
489.423693
 30
0.0
 11
855.148261
 21
489.437536
 31
0.0
  0
LINE
  8
0
 10
855.117113
 20
489.409849
 30
0.0
 11
855.130957
 21
489.423693
 31
0.0
  0
LINE
  8
0
 10
855.099809
 20
489.396006
 30
0.0
 11
855.117113
 21
489.409849
 31
0.0
  0
LINE
  8
0
 10
855.082505
 20
489.382162
 30
0.0
 11
855.099809
 21
489.396006
 31
0.0
  0
LINE
  8
0
 10
855.0652
 20
489.368319
 30
0.0
 11
855.082505
 21
489.382162
 31
0.0
  0
LINE
  8
0
 10
855.044435
 20
489.357936
 30
0.0
 11
855.0652
 21
489.368319
 31
0.0
  0
LINE
  8
0
 10
855.027131
 20
489.344093
 30
0.0
 11
855.044435
 21
489.357936
 31
0.0
  0
LINE
  8
0
 10
855.009826
 20
489.334204
 30
0.0
 11
855.027131
 21
489.344093
 31
0.0
  0
LINE
  8
0
 10
854.989061
 20
489.323822
 30
0.0
 11
855.009826
 21
489.334204
 31
0.0
  0
LINE
  8
0
 10
854.971757
 20
489.313439
 30
0.0
 11
854.989061
 21
489.323822
 31
0.0
  0
LINE
  8
0
 10
854.950991
 20
489.303057
 30
0.0
 11
854.971757
 21
489.313439
 31
0.0
  0
LINE
  8
0
 10
854.930226
 20
489.296135
 30
0.0
 11
854.950991
 21
489.303057
 31
0.0
  0
LINE
  8
0
 10
854.912922
 20
489.285752
 30
0.0
 11
854.930226
 21
489.296135
 31
0.0
  0
LINE
  8
0
 10
854.892156
 20
489.27883
 30
0.0
 11
854.912922
 21
489.285752
 31
0.0
  0
LINE
  8
0
 10
854.871886
 20
489.271909
 30
0.0
 11
854.892156
 21
489.27883
 31
0.0
  0
LINE
  8
0
 10
854.85112
 20
489.264987
 30
0.0
 11
854.871886
 21
489.271909
 31
0.0
  0
LINE
  8
0
 10
854.830355
 20
489.258065
 30
0.0
 11
854.85112
 21
489.264987
 31
0.0
  0
LINE
  8
0
 10
854.80959
 20
489.251143
 30
0.0
 11
854.830355
 21
489.258065
 31
0.0
  0
LINE
  8
0
 10
854.788825
 20
489.247682
 30
0.0
 11
854.80959
 21
489.251143
 31
0.0
  0
LINE
  8
0
 10
854.768059
 20
489.244222
 30
0.0
 11
854.788825
 21
489.247682
 31
0.0
  0
LINE
  8
0
 10
854.743833
 20
489.2373
 30
0.0
 11
854.768059
 21
489.244222
 31
0.0
  0
LINE
  8
0
 10
854.723068
 20
489.233839
 30
0.0
 11
854.743833
 21
489.2373
 31
0.0
  0
LINE
  8
0
 10
854.702303
 20
489.233839
 30
0.0
 11
854.723068
 21
489.233839
 31
0.0
  0
LINE
  8
0
 10
854.681537
 20
489.230378
 30
0.0
 11
854.702303
 21
489.233839
 31
0.0
  0
LINE
  8
0
 10
854.657311
 20
489.230378
 30
0.0
 11
854.681537
 21
489.230378
 31
0.0
  0
LINE
  8
0
 10
854.615781
 20
489.226917
 30
0.0
 11
854.657311
 21
489.230378
 31
0.0
  0
LINE
  8
0
 10
851.592458
 20
489.226917
 30
0.0
 11
854.615781
 21
489.226917
 31
0.0
  0
LINE
  8
0
 10
851.568232
 20
489.226917
 30
0.0
 11
851.592458
 21
489.226917
 31
0.0
  0
LINE
  8
0
 10
851.540545
 20
489.230378
 30
0.0
 11
851.568232
 21
489.226917
 31
0.0
  0
LINE
  8
0
 10
851.516319
 20
489.230378
 30
0.0
 11
851.540545
 21
489.230378
 31
0.0
  0
LINE
  8
0
 10
851.488632
 20
489.233839
 30
0.0
 11
851.516319
 21
489.230378
 31
0.0
  0
LINE
  8
0
 10
851.464406
 20
489.2373
 30
0.0
 11
851.488632
 21
489.233839
 31
0.0
  0
LINE
  8
0
 10
851.436719
 20
489.244222
 30
0.0
 11
851.464406
 21
489.2373
 31
0.0
  0
LINE
  8
0
 10
851.412493
 20
489.247682
 30
0.0
 11
851.436719
 21
489.244222
 31
0.0
  0
LINE
  8
0
 10
851.388266
 20
489.254604
 30
0.0
 11
851.412493
 21
489.247682
 31
0.0
  0
LINE
  8
0
 10
851.360579
 20
489.261526
 30
0.0
 11
851.388266
 21
489.254604
 31
0.0
  0
LINE
  8
0
 10
851.336353
 20
489.271909
 30
0.0
 11
851.360579
 21
489.261526
 31
0.0
  0
LINE
  8
0
 10
851.312127
 20
489.27883
 30
0.0
 11
851.336353
 21
489.271909
 31
0.0
  0
LINE
  8
0
 10
851.288395
 20
489.289213
 30
0.0
 11
851.312127
 21
489.27883
 31
0.0
  0
LINE
  8
0
 10
851.264169
 20
489.299596
 30
0.0
 11
851.288395
 21
489.289213
 31
0.0
  0
LINE
  8
0
 10
851.243404
 20
489.309978
 30
0.0
 11
851.264169
 21
489.299596
 31
0.0
  0
LINE
  8
0
 10
851.219178
 20
489.323822
 30
0.0
 11
851.243404
 21
489.309978
 31
0.0
  0
LINE
  8
0
 10
851.194952
 20
489.337171
 30
0.0
 11
851.219178
 21
489.323822
 31
0.0
  0
LINE
  8
0
 10
851.174186
 20
489.351014
 30
0.0
 11
851.194952
 21
489.337171
 31
0.0
  0
LINE
  8
0
 10
851.153421
 20
489.364858
 30
0.0
 11
851.174186
 21
489.351014
 31
0.0
  0
LINE
  8
0
 10
851.132656
 20
489.378701
 30
0.0
 11
851.153421
 21
489.364858
 31
0.0
  0
LINE
  8
0
 10
851.111891
 20
489.396006
 30
0.0
 11
851.132656
 21
489.378701
 31
0.0
  0
LINE
  8
0
 10
851.091125
 20
489.409849
 30
0.0
 11
851.111891
 21
489.396006
 31
0.0
  0
LINE
  8
0
 10
851.07036
 20
489.427154
 30
0.0
 11
851.091125
 21
489.409849
 31
0.0
  0
LINE
  8
0
 10
851.053056
 20
489.447919
 30
0.0
 11
851.07036
 21
489.427154
 31
0.0
  0
LINE
  8
0
 10
851.032291
 20
489.465223
 30
0.0
 11
851.053056
 21
489.447919
 31
0.0
  0
LINE
  8
0
 10
851.014986
 20
489.482528
 30
0.0
 11
851.032291
 21
489.465223
 31
0.0
  0
LINE
  8
0
 10
850.81475
 20
490.788761
 30
0.0
 11
855.631795
 21
490.788761
 31
0.0
  0
LINE
  8
0
 10
850.81475
 20
491.252024
 30
0.0
 11
826.718645
 21
491.252024
 31
0.0
  0
LINE
  8
0
 10
826.718645
 20
490.004131
 30
0.0
 11
826.718645
 21
490.007592
 31
0.0
  0
LINE
  8
0
 10
825.940937
 20
489.226917
 30
0.0
 11
825.937476
 21
489.226917
 31
0.0
  0
LINE
  8
0
 10
825.965163
 20
489.226917
 30
0.0
 11
825.940937
 21
489.226917
 31
0.0
  0
LINE
  8
0
 10
825.989389
 20
489.230378
 30
0.0
 11
825.965163
 21
489.226917
 31
0.0
  0
LINE
  8
0
 10
826.017076
 20
489.230378
 30
0.0
 11
825.989389
 21
489.230378
 31
0.0
  0
LINE
  8
0
 10
826.041302
 20
489.233839
 30
0.0
 11
826.017076
 21
489.230378
 31
0.0
  0
LINE
  8
0
 10
826.068989
 20
489.2373
 30
0.0
 11
826.041302
 21
489.233839
 31
0.0
  0
LINE
  8
0
 10
826.093215
 20
489.244222
 30
0.0
 11
826.068989
 21
489.2373
 31
0.0
  0
LINE
  8
0
 10
826.117442
 20
489.247682
 30
0.0
 11
826.093215
 21
489.244222
 31
0.0
  0
LINE
  8
0
 10
826.145129
 20
489.254604
 30
0.0
 11
826.117442
 21
489.247682
 31
0.0
  0
LINE
  8
0
 10
826.169355
 20
489.261526
 30
0.0
 11
826.145129
 21
489.254604
 31
0.0
  0
LINE
  8
0
 10
826.193581
 20
489.271909
 30
0.0
 11
826.169355
 21
489.261526
 31
0.0
  0
LINE
  8
0
 10
826.217313
 20
489.27883
 30
0.0
 11
826.193581
 21
489.271909
 31
0.0
  0
LINE
  8
0
 10
826.241539
 20
489.289213
 30
0.0
 11
826.217313
 21
489.27883
 31
0.0
  0
LINE
  8
0
 10
826.265765
 20
489.299596
 30
0.0
 11
826.241539
 21
489.289213
 31
0.0
  0
LINE
  8
0
 10
826.289991
 20
489.309978
 30
0.0
 11
826.265765
 21
489.299596
 31
0.0
  0
LINE
  8
0
 10
826.310756
 20
489.323822
 30
0.0
 11
826.289991
 21
489.309978
 31
0.0
  0
LINE
  8
0
 10
826.334982
 20
489.337171
 30
0.0
 11
826.310756
 21
489.323822
 31
0.0
  0
LINE
  8
0
 10
826.355748
 20
489.351014
 30
0.0
 11
826.334982
 21
489.337171
 31
0.0
  0
LINE
  8
0
 10
826.379974
 20
489.364858
 30
0.0
 11
826.355748
 21
489.351014
 31
0.0
  0
LINE
  8
0
 10
826.400739
 20
489.378701
 30
0.0
 11
826.379974
 21
489.364858
 31
0.0
  0
LINE
  8
0
 10
826.421504
 20
489.396006
 30
0.0
 11
826.400739
 21
489.378701
 31
0.0
  0
LINE
  8
0
 10
826.438809
 20
489.409849
 30
0.0
 11
826.421504
 21
489.396006
 31
0.0
  0
LINE
  8
0
 10
826.459574
 20
489.427154
 30
0.0
 11
826.438809
 21
489.409849
 31
0.0
  0
LINE
  8
0
 10
826.480339
 20
489.444458
 30
0.0
 11
826.459574
 21
489.427154
 31
0.0
  0
LINE
  8
0
 10
826.497644
 20
489.465223
 30
0.0
 11
826.480339
 21
489.444458
 31
0.0
  0
LINE
  8
0
 10
826.514948
 20
489.482528
 30
0.0
 11
826.497644
 21
489.465223
 31
0.0
  0
LINE
  8
0
 10
826.532252
 20
489.503293
 30
0.0
 11
826.514948
 21
489.482528
 31
0.0
  0
LINE
  8
0
 10
826.549062
 20
489.524058
 30
0.0
 11
826.532252
 21
489.503293
 31
0.0
  0
LINE
  8
0
 10
826.562906
 20
489.544823
 30
0.0
 11
826.549062
 21
489.524058
 31
0.0
  0
LINE
  8
0
 10
826.58021
 20
489.565589
 30
0.0
 11
826.562906
 21
489.544823
 31
0.0
  0
LINE
  8
0
 10
826.594054
 20
489.586354
 30
0.0
 11
826.58021
 21
489.565589
 31
0.0
  0
LINE
  8
0
 10
826.607897
 20
489.607119
 30
0.0
 11
826.594054
 21
489.586354
 31
0.0
  0
LINE
  8
0
 10
826.621741
 20
489.631345
 30
0.0
 11
826.607897
 21
489.607119
 31
0.0
  0
LINE
  8
0
 10
826.632123
 20
489.655077
 30
0.0
 11
826.621741
 21
489.631345
 31
0.0
  0
LINE
  8
0
 10
826.645967
 20
489.675842
 30
0.0
 11
826.632123
 21
489.655077
 31
0.0
  0
LINE
  8
0
 10
826.656349
 20
489.700068
 30
0.0
 11
826.645967
 21
489.675842
 31
0.0
  0
LINE
  8
0
 10
826.663271
 20
489.724295
 30
0.0
 11
826.656349
 21
489.700068
 31
0.0
  0
LINE
  8
0
 10
826.673654
 20
489.748521
 30
0.0
 11
826.663271
 21
489.724295
 31
0.0
  0
LINE
  8
0
 10
826.680576
 20
489.772747
 30
0.0
 11
826.673654
 21
489.748521
 31
0.0
  0
LINE
  8
0
 10
826.690958
 20
489.800434
 30
0.0
 11
826.680576
 21
489.772747
 31
0.0
  0
LINE
  8
0
 10
826.694419
 20
489.82466
 30
0.0
 11
826.690958
 21
489.800434
 31
0.0
  0
LINE
  8
0
 10
826.701341
 20
489.848886
 30
0.0
 11
826.694419
 21
489.82466
 31
0.0
  0
LINE
  8
0
 10
826.704802
 20
489.876573
 30
0.0
 11
826.701341
 21
489.848886
 31
0.0
  0
LINE
  8
0
 10
826.711723
 20
489.900799
 30
0.0
 11
826.704802
 21
489.876573
 31
0.0
  0
LINE
  8
0
 10
826.715184
 20
489.928486
 30
0.0
 11
826.711723
 21
489.900799
 31
0.0
  0
LINE
  8
0
 10
826.715184
 20
489.952712
 30
0.0
 11
826.715184
 21
489.928486
 31
0.0
  0
LINE
  8
0
 10
826.718645
 20
489.980399
 30
0.0
 11
826.715184
 21
489.952712
 31
0.0
  0
LINE
  8
0
 10
826.718645
 20
490.004131
 30
0.0
 11
826.718645
 21
489.980399
 31
0.0
  0
LINE
  8
0
 10
821.9016
 20
490.78184
 30
0.0
 11
821.9016
 21
490.788761
 31
0.0
  0
LINE
  8
0
 10
821.908521
 20
490.761074
 30
0.0
 11
821.9016
 21
490.78184
 31
0.0
  0
LINE
  8
0
 10
821.915443
 20
490.726466
 30
0.0
 11
821.908521
 21
490.761074
 31
0.0
  0
LINE
  8
0
 10
821.929287
 20
490.678013
 30
0.0
 11
821.915443
 21
490.726466
 31
0.0
  0
LINE
  8
0
 10
821.946591
 20
490.619673
 30
0.0
 11
821.929287
 21
490.678013
 31
0.0
  0
LINE
  8
0
 10
821.963896
 20
490.550455
 30
0.0
 11
821.946591
 21
490.619673
 31
0.0
  0
LINE
  8
0
 10
821.984166
 20
490.470855
 30
0.0
 11
821.963896
 21
490.550455
 31
0.0
  0
LINE
  8
0
 10
822.008393
 20
490.380872
 30
0.0
 11
821.984166
 21
490.470855
 31
0.0
  0
LINE
  8
0
 10
822.032619
 20
490.287923
 30
0.0
 11
822.008393
 21
490.380872
 31
0.0
  0
LINE
  8
0
 10
822.060306
 20
490.187558
 30
0.0
 11
822.032619
 21
490.287923
 31
0.0
  0
LINE
  8
0
 10
822.108758
 20
490.014514
 30
0.0
 11
822.060306
 21
490.187558
 31
0.0
  0
LINE
  8
0
 10
822.910692
 20
489.226917
 30
0.0
 11
822.914153
 21
489.226917
 31
0.0
  0
LINE
  8
0
 10
822.869162
 20
489.230378
 30
0.0
 11
822.910692
 21
489.226917
 31
0.0
  0
LINE
  8
0
 10
822.848397
 20
489.230378
 30
0.0
 11
822.869162
 21
489.230378
 31
0.0
  0
LINE
  8
0
 10
822.827631
 20
489.233839
 30
0.0
 11
822.848397
 21
489.230378
 31
0.0
  0
LINE
  8
0
 10
822.803405
 20
489.2373
 30
0.0
 11
822.827631
 21
489.233839
 31
0.0
  0
LINE
  8
0
 10
822.78264
 20
489.240761
 30
0.0
 11
822.803405
 21
489.2373
 31
0.0
  0
LINE
  8
0
 10
822.761875
 20
489.244222
 30
0.0
 11
822.78264
 21
489.240761
 31
0.0
  0
LINE
  8
0
 10
822.741109
 20
489.247682
 30
0.0
 11
822.761875
 21
489.244222
 31
0.0
  0
LINE
  8
0
 10
822.720344
 20
489.254604
 30
0.0
 11
822.741109
 21
489.247682
 31
0.0
  0
LINE
  8
0
 10
822.699579
 20
489.258065
 30
0.0
 11
822.720344
 21
489.254604
 31
0.0
  0
LINE
  8
0
 10
822.678814
 20
489.264987
 30
0.0
 11
822.699579
 21
489.258065
 31
0.0
  0
LINE
  8
0
 10
822.658048
 20
489.271909
 30
0.0
 11
822.678814
 21
489.264987
 31
0.0
  0
LINE
  8
0
 10
822.637283
 20
489.27883
 30
0.0
 11
822.658048
 21
489.271909
 31
0.0
  0
LINE
  8
0
 10
822.616518
 20
489.285752
 30
0.0
 11
822.637283
 21
489.27883
 31
0.0
  0
LINE
  8
0
 10
822.596247
 20
489.296135
 30
0.0
 11
822.616518
 21
489.285752
 31
0.0
  0
LINE
  8
0
 10
822.578943
 20
489.306517
 30
0.0
 11
822.596247
 21
489.296135
 31
0.0
  0
LINE
  8
0
 10
822.558177
 20
489.313439
 30
0.0
 11
822.578943
 21
489.306517
 31
0.0
  0
LINE
  8
0
 10
822.540873
 20
489.323822
 30
0.0
 11
822.558177
 21
489.313439
 31
0.0
  0
LINE
  8
0
 10
822.520108
 20
489.334204
 30
0.0
 11
822.540873
 21
489.323822
 31
0.0
  0
LINE
  8
0
 10
822.502803
 20
489.347553
 30
0.0
 11
822.520108
 21
489.334204
 31
0.0
  0
LINE
  8
0
 10
822.485499
 20
489.357936
 30
0.0
 11
822.502803
 21
489.347553
 31
0.0
  0
LINE
  8
0
 10
822.464734
 20
489.37178
 30
0.0
 11
822.485499
 21
489.357936
 31
0.0
  0
LINE
  8
0
 10
822.447429
 20
489.382162
 30
0.0
 11
822.464734
 21
489.37178
 31
0.0
  0
LINE
  8
0
 10
822.430125
 20
489.396006
 30
0.0
 11
822.447429
 21
489.382162
 31
0.0
  0
LINE
  8
0
 10
822.416282
 20
489.409849
 30
0.0
 11
822.430125
 21
489.396006
 31
0.0
  0
LINE
  8
0
 10
822.398977
 20
489.423693
 30
0.0
 11
822.416282
 21
489.409849
 31
0.0
  0
LINE
  8
0
 10
822.381673
 20
489.437536
 30
0.0
 11
822.398977
 21
489.423693
 31
0.0
  0
LINE
  8
0
 10
822.367829
 20
489.454841
 30
0.0
 11
822.381673
 21
489.437536
 31
0.0
  0
LINE
  8
0
 10
822.350525
 20
489.468684
 30
0.0
 11
822.367829
 21
489.454841
 31
0.0
  0
LINE
  8
0
 10
822.336681
 20
489.485989
 30
0.0
 11
822.350525
 21
489.468684
 31
0.0
  0
LINE
  8
0
 10
822.322838
 20
489.503293
 30
0.0
 11
822.336681
 21
489.485989
 31
0.0
  0
LINE
  8
0
 10
822.308994
 20
489.517136
 30
0.0
 11
822.322838
 21
489.503293
 31
0.0
  0
LINE
  8
0
 10
822.295645
 20
489.534441
 30
0.0
 11
822.308994
 21
489.517136
 31
0.0
  0
LINE
  8
0
 10
822.281802
 20
489.551745
 30
0.0
 11
822.295645
 21
489.534441
 31
0.0
  0
LINE
  8
0
 10
822.271419
 20
489.56905
 30
0.0
 11
822.281802
 21
489.551745
 31
0.0
  0
LINE
  8
0
 10
822.257576
 20
489.589815
 30
0.0
 11
822.271419
 21
489.56905
 31
0.0
  0
LINE
  8
0
 10
822.247193
 20
489.607119
 30
0.0
 11
822.257576
 21
489.589815
 31
0.0
  0
LINE
  8
0
 10
822.23681
 20
489.624424
 30
0.0
 11
822.247193
 21
489.607119
 31
0.0
  0
LINE
  8
0
 10
822.226428
 20
489.645189
 30
0.0
 11
822.23681
 21
489.624424
 31
0.0
  0
LINE
  8
0
 10
822.216045
 20
489.66546
 30
0.0
 11
822.226428
 21
489.645189
 31
0.0
  0
LINE
  8
0
 10
822.205662
 20
489.682764
 30
0.0
 11
822.216045
 21
489.66546
 31
0.0
  0
LINE
  8
0
 10
822.198741
 20
489.703529
 30
0.0
 11
822.205662
 21
489.682764
 31
0.0
  0
LINE
  8
0
 10
822.188358
 20
489.724295
 30
0.0
 11
822.198741
 21
489.703529
 31
0.0
  0
LINE
  8
0
 10
822.181436
 20
489.74506
 30
0.0
 11
822.188358
 21
489.724295
 31
0.0
  0
LINE
  8
0
 10
822.174515
 20
489.765825
 30
0.0
 11
822.181436
 21
489.74506
 31
0.0
  0
LINE
  8
0
 10
822.167593
 20
489.78313
 30
0.0
 11
822.174515
 21
489.765825
 31
0.0
  0
LINE
  8
0
 10
822.164132
 20
489.807356
 30
0.0
 11
822.167593
 21
489.78313
 31
0.0
  0
LINE
  8
0
 10
822.108758
 20
490.00067
 30
0.0
 11
822.164132
 21
489.807356
 31
0.0
  0
LINE
  8
0
 10
822.108758
 20
490.004131
 30
0.0
 11
822.108758
 21
490.00067
 31
0.0
  0
LINE
  8
0
 10
822.108758
 20
490.011053
 30
0.0
 11
822.108758
 21
490.004131
 31
0.0
  0
LINE
  8
0
 10
826.718645
 20
490.011053
 30
0.0
 11
826.718645
 21
490.007592
 31
0.0
  0
LINE
  8
0
 10
826.718645
 20
490.111418
 30
0.0
 11
826.718645
 21
490.011053
 31
0.0
  0
LINE
  8
0
 10
826.718645
 20
490.211784
 30
0.0
 11
826.718645
 21
490.111418
 31
0.0
  0
LINE
  8
0
 10
826.718645
 20
490.308688
 30
0.0
 11
826.718645
 21
490.211784
 31
0.0
  0
LINE
  8
0
 10
826.718645
 20
490.398177
 30
0.0
 11
826.718645
 21
490.308688
 31
0.0
  0
LINE
  8
0
 10
826.718645
 20
490.484699
 30
0.0
 11
826.718645
 21
490.398177
 31
0.0
  0
LINE
  8
0
 10
826.718645
 20
490.560838
 30
0.0
 11
826.718645
 21
490.484699
 31
0.0
  0
LINE
  8
0
 10
826.718645
 20
490.626595
 30
0.0
 11
826.718645
 21
490.560838
 31
0.0
  0
LINE
  8
0
 10
826.718645
 20
490.684935
 30
0.0
 11
826.718645
 21
490.626595
 31
0.0
  0
LINE
  8
0
 10
826.718645
 20
490.729926
 30
0.0
 11
826.718645
 21
490.684935
 31
0.0
  0
LINE
  8
0
 10
826.718645
 20
490.761074
 30
0.0
 11
826.718645
 21
490.729926
 31
0.0
  0
LINE
  8
0
 10
826.718645
 20
490.78184
 30
0.0
 11
826.718645
 21
490.761074
 31
0.0
  0
LINE
  8
0
 10
826.718645
 20
490.788761
 30
0.0
 11
826.718645
 21
490.78184
 31
0.0
  0
LINE
  8
0
 10
826.718645
 20
491.252024
 30
0.0
 11
826.718645
 21
490.788761
 31
0.0
  0
LINE
  8
0
 10
822.917614
 20
489.226917
 30
0.0
 11
825.937476
 21
489.226917
 31
0.0
  0
LINE
  8
0
 10
825.940937
 20
489.226917
 30
0.0
 11
822.917614
 21
489.226917
 31
0.0
  0
LINE
  8
0
 10
821.9016
 20
490.788761
 30
0.0
 11
826.718645
 21
490.788761
 31
0.0
  0
LINE
  8
0
 10
821.9016
 20
490.788761
 30
0.0
 11
821.172344
 21
493.501594
 31
0.0
  0
LINE
  8
0
 10
821.151578
 20
493.550046
 30
0.0
 11
821.172344
 21
493.501594
 31
0.0
  0
LINE
  8
0
 10
821.120431
 20
493.591082
 30
0.0
 11
821.151578
 21
493.550046
 31
0.0
  0
LINE
  8
0
 10
821.082361
 20
493.62223
 30
0.0
 11
821.120431
 21
493.591082
 31
0.0
  0
LINE
  8
0
 10
821.033909
 20
493.639535
 30
0.0
 11
821.082361
 21
493.62223
 31
0.0
  0
LINE
  8
0
 10
820.98249
 20
493.646456
 30
0.0
 11
821.033909
 21
493.639535
 31
0.0
  0
LINE
  8
0
 10
817.633845
 20
493.646456
 30
0.0
 11
820.98249
 21
493.646456
 31
0.0
  0
LINE
  8
0
 10
816.230707
 20
494.057806
 30
0.0
 11
816.20302
 21
493.947058
 31
0.0
  0
LINE
  8
0
 10
816.268776
 20
494.165093
 30
0.0
 11
816.230707
 21
494.057806
 31
0.0
  0
LINE
  8
0
 10
816.320689
 20
494.264964
 30
0.0
 11
816.268776
 21
494.165093
 31
0.0
  0
LINE
  8
0
 10
816.382985
 20
494.358408
 30
0.0
 11
816.320689
 21
494.264964
 31
0.0
  0
LINE
  8
0
 10
816.455169
 20
494.44493
 30
0.0
 11
816.382985
 21
494.358408
 31
0.0
  0
LINE
  8
0
 10
816.53823
 20
494.52453
 30
0.0
 11
816.455169
 21
494.44493
 31
0.0
  0
LINE
  8
0
 10
816.628213
 20
494.593253
 30
0.0
 11
816.53823
 21
494.52453
 31
0.0
  0
LINE
  8
0
 10
816.728578
 20
494.648627
 30
0.0
 11
816.628213
 21
494.593253
 31
0.0
  0
LINE
  8
0
 10
816.83191
 20
494.693619
 30
0.0
 11
816.728578
 21
494.648627
 31
0.0
  0
LINE
  8
0
 10
816.939197
 20
494.724767
 30
0.0
 11
816.83191
 21
494.693619
 31
0.0
  0
LINE
  8
0
 10
817.049945
 20
494.745532
 30
0.0
 11
816.939197
 21
494.724767
 31
0.0
  0
LINE
  8
0
 10
817.16366
 20
494.752454
 30
0.0
 11
817.049945
 21
494.745532
 31
0.0
  0
LINE
  8
0
 10
817.581932
 20
493.639535
 30
0.0
 11
817.633845
 21
493.646456
 31
0.0
  0
LINE
  8
0
 10
817.533479
 20
493.618769
 30
0.0
 11
817.581932
 21
493.639535
 31
0.0
  0
LINE
  8
0
 10
817.491949
 20
493.584161
 30
0.0
 11
817.533479
 21
493.618769
 31
0.0
  0
LINE
  8
0
 10
817.460801
 20
493.539664
 30
0.0
 11
817.491949
 21
493.584161
 31
0.0
  0
LINE
  8
0
 10
817.443497
 20
493.48775
 30
0.0
 11
817.460801
 21
493.539664
 31
0.0
  0
LINE
  8
0
 10
815.79167
 20
491.614428
 30
0.0
 11
816.20302
 21
493.947058
 31
0.0
  0
LINE
  8
0
 10
817.443497
 20
493.48775
 30
0.0
 11
817.074172
 21
491.389965
 31
0.0
  0
LINE
  8
0
 10
817.077633
 20
491.41073
 30
0.0
 11
817.084554
 21
491.504174
 31
0.0
  0
LINE
  8
0
 10
817.056867
 20
491.320747
 30
0.0
 11
817.077633
 21
491.41073
 31
0.0
  0
LINE
  8
0
 10
817.025719
 20
491.231259
 30
0.0
 11
817.056867
 21
491.320747
 31
0.0
  0
LINE
  8
0
 10
816.980728
 20
491.151659
 30
0.0
 11
817.025719
 21
491.231259
 31
0.0
  0
LINE
  8
0
 10
816.925354
 20
491.07552
 30
0.0
 11
816.980728
 21
491.151659
 31
0.0
  0
LINE
  8
0
 10
816.859597
 20
491.009763
 30
0.0
 11
816.925354
 21
491.07552
 31
0.0
  0
LINE
  8
0
 10
816.783458
 20
490.954883
 30
0.0
 11
816.859597
 21
491.009763
 31
0.0
  0
LINE
  8
0
 10
816.704352
 20
490.909892
 30
0.0
 11
816.783458
 21
490.954883
 31
0.0
  0
LINE
  8
0
 10
816.61783
 20
490.878744
 30
0.0
 11
816.704352
 21
490.909892
 31
0.0
  0
LINE
  8
0
 10
816.524387
 20
490.857979
 30
0.0
 11
816.61783
 21
490.878744
 31
0.0
  0
LINE
  8
0
 10
816.434404
 20
490.851057
 30
0.0
 11
816.524387
 21
490.857979
 31
0.0
  0
LINE
  8
0
 10
816.341455
 20
490.857979
 30
0.0
 11
816.434404
 21
490.851057
 31
0.0
  0
LINE
  8
0
 10
816.251472
 20
490.878744
 30
0.0
 11
816.341455
 21
490.857979
 31
0.0
  0
LINE
  8
0
 10
816.16495
 20
490.909892
 30
0.0
 11
816.251472
 21
490.878744
 31
0.0
  0
LINE
  8
0
 10
816.082383
 20
490.954883
 30
0.0
 11
816.16495
 21
490.909892
 31
0.0
  0
LINE
  8
0
 10
816.006244
 20
491.009763
 30
0.0
 11
816.082383
 21
490.954883
 31
0.0
  0
LINE
  8
0
 10
815.943948
 20
491.07552
 30
0.0
 11
816.006244
 21
491.009763
 31
0.0
  0
LINE
  8
0
 10
815.885113
 20
491.151659
 30
0.0
 11
815.943948
 21
491.07552
 31
0.0
  0
LINE
  8
0
 10
815.843583
 20
491.231259
 30
0.0
 11
815.885113
 21
491.151659
 31
0.0
  0
LINE
  8
0
 10
815.808974
 20
491.320747
 30
0.0
 11
815.843583
 21
491.231259
 31
0.0
  0
LINE
  8
0
 10
815.788209
 20
491.41073
 30
0.0
 11
815.808974
 21
491.320747
 31
0.0
  0
LINE
  8
0
 10
815.785242
 20
491.504174
 30
0.0
 11
815.788209
 21
491.41073
 31
0.0
  0
LINE
  8
0
 10
815.788209
 20
491.594157
 30
0.0
 11
815.785242
 21
491.504174
 31
0.0
  0
LINE
  8
0
 10
815.808974
 20
491.687106
 30
0.0
 11
815.788209
 21
491.594157
 31
0.0
  0
LINE
  8
0
 10
815.843583
 20
491.773628
 30
0.0
 11
815.808974
 21
491.687106
 31
0.0
  0
LINE
  8
0
 10
815.885113
 20
491.853228
 30
0.0
 11
815.843583
 21
491.773628
 31
0.0
  0
LINE
  8
0
 10
815.943948
 20
491.929367
 30
0.0
 11
815.885113
 21
491.853228
 31
0.0
  0
LINE
  8
0
 10
816.006244
 20
491.99463
 30
0.0
 11
815.943948
 21
491.929367
 31
0.0
  0
LINE
  8
0
 10
816.082383
 20
492.050004
 30
0.0
 11
816.006244
 21
491.99463
 31
0.0
  0
LINE
  8
0
 10
816.16495
 20
492.094995
 30
0.0
 11
816.082383
 21
492.050004
 31
0.0
  0
LINE
  8
0
 10
816.251472
 20
492.126143
 30
0.0
 11
816.16495
 21
492.094995
 31
0.0
  0
LINE
  8
0
 10
816.341455
 20
492.146908
 30
0.0
 11
816.251472
 21
492.126143
 31
0.0
  0
LINE
  8
0
 10
816.434404
 20
492.15383
 30
0.0
 11
816.341455
 21
492.146908
 31
0.0
  0
LINE
  8
0
 10
816.524387
 20
492.146908
 30
0.0
 11
816.434404
 21
492.15383
 31
0.0
  0
LINE
  8
0
 10
816.61783
 20
492.126143
 30
0.0
 11
816.524387
 21
492.146908
 31
0.0
  0
LINE
  8
0
 10
816.704352
 20
492.094995
 30
0.0
 11
816.61783
 21
492.126143
 31
0.0
  0
LINE
  8
0
 10
816.783458
 20
492.050004
 30
0.0
 11
816.704352
 21
492.094995
 31
0.0
  0
LINE
  8
0
 10
816.859597
 20
491.99463
 30
0.0
 11
816.783458
 21
492.050004
 31
0.0
  0
LINE
  8
0
 10
816.925354
 20
491.929367
 30
0.0
 11
816.859597
 21
491.99463
 31
0.0
  0
LINE
  8
0
 10
816.980728
 20
491.853228
 30
0.0
 11
816.925354
 21
491.929367
 31
0.0
  0
LINE
  8
0
 10
817.025719
 20
491.773628
 30
0.0
 11
816.980728
 21
491.853228
 31
0.0
  0
LINE
  8
0
 10
817.056867
 20
491.687106
 30
0.0
 11
817.025719
 21
491.773628
 31
0.0
  0
LINE
  8
0
 10
817.077633
 20
491.594157
 30
0.0
 11
817.056867
 21
491.687106
 31
0.0
  0
LINE
  8
0
 10
817.084554
 20
491.504174
 30
0.0
 11
817.077633
 21
491.594157
 31
0.0
  0
LINE
  8
0
 10
856.496025
 20
493.639535
 30
0.0
 11
856.547444
 21
493.646456
 31
0.0
  0
LINE
  8
0
 10
856.451034
 20
493.62223
 30
0.0
 11
856.496025
 21
493.639535
 31
0.0
  0
LINE
  8
0
 10
856.361051
 20
493.501594
 30
0.0
 11
856.378356
 21
493.550046
 31
0.0
  0
ENDSEC
  0
EOF
