  0
SECTION
  2
HEADER
  9
$ACADVER
  1
AC1009
  9
$INSBASE
 10
0.0
 20
0.0
 30
0.0
  9
$EXTMIN
 10
789.539252
 20
417.047374
 30
0.0
  9
$EXTMAX
 10
945.016592
 20
497.04451
 30
0.0
  9
$LIMMIN
 10
835.039764
 20
279.722317
  9
$LIMMAX
 10
955.039764
 20
456.864907
  9
$ORTHOMODE
 70
     1
  9
$REGENMODE
 70
     1
  9
$FILLMODE
 70
     1
  9
$QTEXTMODE
 70
     0
  9
$MIRRTEXT
 70
     1
  9
$DRAGMODE
 70
     2
  9
$LTSCALE
 40
1.0
  9
$OSMODE
 70
     0
  9
$ATTMODE
 70
     1
  9
$TEXTSIZE
 40
3.5
  9
$TRACEWID
 40
0.5
  9
$TEXTSTYLE
  7
STANDARD
  9
$CLAYER
  8
0
  9
$CELTYPE
  6
BYLAYER
  9
$CECOLOR
 62
   256
  9
$DIMSCALE
 40
1.0
  9
$DIMASZ
 40
0.18
  9
$DIMEXO
 40
0.0625
  9
$DIMDLI
 40
0.38
  9
$DIMRND
 40
0.0
  9
$DIMDLE
 40
0.0
  9
$DIMEXE
 40
0.18
  9
$DIMTP
 40
0.0
  9
$DIMTM
 40
0.0
  9
$DIMTXT
 40
0.18
  9
$DIMCEN
 40
0.09
  9
$DIMTSZ
 40
0.0
  9
$DIMTOL
 70
     0
  9
$DIMLIM
 70
     0
  9
$DIMTIH
 70
     1
  9
$DIMTOH
 70
     1
  9
$DIMSE1
 70
     0
  9
$DIMSE2
 70
     0
  9
$DIMTAD
 70
     0
  9
$DIMZIN
 70
     0
  9
$DIMBLK
  1

  9
$DIMASO
 70
     1
  9
$DIMSHO
 70
     1
  9
$DIMPOST
  1

  9
$DIMAPOST
  1

  9
$DIMALT
 70
     0
  9
$DIMALTD
 70
     2
  9
$DIMALTF
 40
25.4
  9
$DIMLFAC
 40
1.0
  9
$DIMTOFL
 70
     0
  9
$DIMTVP
 40
0.0
  9
$DIMTIX
 70
     0
  9
$DIMSOXD
 70
     0
  9
$DIMSAH
 70
     0
  9
$DIMBLK1
  1

  9
$DIMBLK2
  1

  9
$DIMSTYLE
  2
*UNNAMED
  9
$DIMCLRD
 70
     0
  9
$DIMCLRE
 70
     0
  9
$DIMCLRT
 70
     0
  9
$DIMTFAC
 40
1.0
  9
$DIMGAP
 40
0.09
  9
$LUNITS
 70
     2
  9
$LUPREC
 70
     4
  9
$SKETCHINC
 40
0.1
  9
$FILLETRAD
 40
2.0
  9
$AUNITS
 70
     0
  9
$AUPREC
 70
     0
  9
$MENU
  1
ACAD
  9
$ELEVATION
 40
0.0
  9
$PELEVATION
 40
0.0
  9
$THICKNESS
 40
0.0
  9
$LIMCHECK
 70
     0
  9
$BLIPMODE
 70
     1
  9
$CHAMFERA
 40
0.0
  9
$CHAMFERB
 40
0.0
  9
$SKPOLY
 70
     0
  9
$TDCREATE
 40
2450953.682361458
  9
$TDUPDATE
 40
2450953.682746065
  9
$TDINDWG
 40
0.0002262731
  9
$TDUSRTIMER
 40
0.0002262731
  9
$USRTIMER
 70
     1
  9
$ANGBASE
 50
0.0
  9
$ANGDIR
 70
     0
  9
$PDMODE
 70
     0
  9
$PDSIZE
 40
0.0
  9
$PLINEWID
 40
0.0
  9
$COORDS
 70
     2
  9
$SPLFRAME
 70
     0
  9
$SPLINETYPE
 70
     6
  9
$SPLINESEGS
 70
     8
  9
$ATTDIA
 70
     0
  9
$ATTREQ
 70
     1
  9
$HANDLING
 70
     0
  9
$HANDSEED
  5
0
  9
$SURFTAB1
 70
     6
  9
$SURFTAB2
 70
     6
  9
$SURFTYPE
 70
     6
  9
$SURFU
 70
     6
  9
$SURFV
 70
     6
  9
$UCSNAME
  2

  9
$UCSORG
 10
0.0
 20
0.0
 30
0.0
  9
$UCSXDIR
 10
1.0
 20
0.0
 30
0.0
  9
$UCSYDIR
 10
0.0
 20
1.0
 30
0.0
  9
$PUCSNAME
  2

  9
$PUCSORG
 10
0.0
 20
0.0
 30
0.0
  9
$PUCSXDIR
 10
1.0
 20
0.0
 30
0.0
  9
$PUCSYDIR
 10
0.0
 20
1.0
 30
0.0
  9
$USERI1
 70
     0
  9
$USERI2
 70
     0
  9
$USERI3
 70
     0
  9
$USERI4
 70
     0
  9
$USERI5
 70
     0
  9
$USERR1
 40
0.0
  9
$USERR2
 40
0.0
  9
$USERR3
 40
0.0
  9
$USERR4
 40
0.0
  9
$USERR5
 40
0.0
  9
$WORLDVIEW
 70
     1
  9
$SHADEDGE
 70
     3
  9
$SHADEDIF
 70
    70
  9
$TILEMODE
 70
     1
  9
$MAXACTVP
 70
    16
  9
$PINSBASE
 10
0.0
 20
0.0
 30
0.0
  9
$PLIMCHECK
 70
     0
  9
$PEXTMIN
 10
1.000000E+20
 20
1.000000E+20
 30
1.000000E+20
  9
$PEXTMAX
 10
-1.000000E+20
 20
-1.000000E+20
 30
-1.000000E+20
  9
$PLIMMIN
 10
0.0
 20
0.0
  9
$PLIMMAX
 10
420.0
 20
297.0
  9
$UNITMODE
 70
     0
  9
$VISRETAIN
 70
     0
  9
$PLINEGEN
 70
     0
  9
$PSLTSCALE
 70
     1
  9
$TREEDEPTH
 70
  3020
  9
$DWGCODEPAGE
  3
iso8859-1
  0
ENDSEC
  0
SECTION
  2
TABLES
  0
TABLE
  2
VPORT
 70
     2
  0
VPORT
  2
*ACTIVE
 70
     0
 10
0.0
 20
0.0
 11
1.0
 21
1.0
 12
920.263499
 22
441.795975
 13
0.0
 23
0.0
 14
1.0
 24
1.0
 15
0.0
 25
0.0
 16
0.0
 26
0.0
 36
1.0
 17
0.0
 27
0.0
 37
0.0
 40
181.398653
 41
1.748359
 42
50.0
 43
0.0
 44
0.0
 50
0.0
 51
0.0
 71
     0
 72
   100
 73
     1
 74
     0
 75
     0
 76
     0
 77
     0
 78
     0
  0
ENDTAB
  0
TABLE
  2
LTYPE
 70
     1
  0
LTYPE
  2
CONTINUOUS
 70
    64
  3
Solid line
 72
    65
 73
     0
 40
0.0
  0
ENDTAB
  0
TABLE
  2
LAYER
 70
     2
  0
LAYER
  2
0
 70
    64
 62
     7
  6
CONTINUOUS
  0
LAYER
  2
CAPA_1
 70
    64
 62
     2
  6
CONTINUOUS
  0
ENDTAB
  0
TABLE
  2
STYLE
 70
     1
  0
STYLE
  2
STANDARD
 70
    64
 40
0.0
 41
1.0
 50
0.0
 71
     0
 42
3.5
  3
txt
  4

  0
ENDTAB
  0
TABLE
  2
VIEW
 70
     0
  0
ENDTAB
  0
TABLE
  2
UCS
 70
     0
  0
ENDTAB
  0
TABLE
  2
APPID
 70
     1
  0
APPID
  2
ACAD
 70
    64
  0
ENDTAB
  0
TABLE
  2
DIMSTYLE
 70
     0
  0
ENDTAB
  0
ENDSEC
  0
SECTION
  2
BLOCKS
  0
ENDSEC
  0
SECTION
  2
ENTITIES
  0
LINE
  8
0
 10
909.539252
 20
437.047374
 30
0.0
 11
889.539252
 21
437.047374
 31
0.0
  0
LINE
  8
0
 10
809.539252
 20
437.047374
 30
0.0
 11
809.539252
 21
457.047374
 31
0.0
  0
LINE
  8
0
 10
809.539252
 20
437.047374
 30
0.0
 11
789.539252
 21
437.047374
 31
0.0
  0
LINE
  8
0
 10
809.539252
 20
457.047374
 30
0.0
 11
919.539252
 21
457.047374
 31
0.0
  0
LINE
  8
0
 10
889.539252
 20
437.047374
 30
0.0
 11
809.539252
 21
437.047374
 31
0.0
  0
LINE
  8
0
 10
919.539252
 20
437.254363
 30
0.0
 11
919.539252
 21
457.047374
 31
0.0
  0
LINE
  8
0
 10
931.997207
 20
437.047374
 30
0.0
 11
851.997207
 21
437.047374
 31
0.0
  0
LINE
  8
0
 10
945.006336
 20
437.047374
 30
0.0
 11
931.997207
 21
437.047374
 31
0.0
  0
LINE
  8
0
 10
851.997207
 20
437.047374
 30
0.0
 11
831.997207
 21
437.047374
 31
0.0
  0
LINE
  8
0
 10
945.016592
 20
420.71018
 30
0.0
 11
941.353787
 21
417.047374
 31
0.0
  0
LINE
  8
0
 10
945.016592
 20
427.781248
 30
0.0
 11
934.282719
 21
417.047374
 31
0.0
  0
LINE
  8
0
 10
945.016592
 20
434.852316
 30
0.0
 11
927.211651
 21
417.047374
 31
0.0
  0
LINE
  8
0
 10
940.140583
 20
437.047374
 30
0.0
 11
920.140583
 21
417.047374
 31
0.0
  0
LINE
  8
0
 10
933.069515
 20
437.047374
 30
0.0
 11
913.069515
 21
417.047374
 31
0.0
  0
LINE
  8
0
 10
925.998448
 20
437.047374
 30
0.0
 11
905.998448
 21
417.047374
 31
0.0
  0
LINE
  8
0
 10
918.92738
 20
437.047374
 30
0.0
 11
898.92738
 21
417.047374
 31
0.0
  0
LINE
  8
0
 10
911.856312
 20
437.047374
 30
0.0
 11
891.856312
 21
417.047374
 31
0.0
  0
LINE
  8
0
 10
904.663243
 20
437.047374
 30
0.0
 11
884.663243
 21
417.047374
 31
0.0
  0
LINE
  8
0
 10
897.592175
 20
437.047374
 30
0.0
 11
877.592175
 21
417.047374
 31
0.0
  0
LINE
  8
0
 10
890.521107
 20
437.047374
 30
0.0
 11
870.521107
 21
417.047374
 31
0.0
  0
LINE
  8
0
 10
883.450039
 20
437.047374
 30
0.0
 11
863.450039
 21
417.047374
 31
0.0
  0
LINE
  8
0
 10
876.378972
 20
437.047374
 30
0.0
 11
856.378972
 21
417.047374
 31
0.0
  0
LINE
  8
0
 10
869.307904
 20
437.047374
 30
0.0
 11
849.307904
 21
417.047374
 31
0.0
  0
LINE
  8
0
 10
862.236836
 20
437.047374
 30
0.0
 11
842.236836
 21
417.047374
 31
0.0
  0
LINE
  8
0
 10
855.165768
 20
437.047374
 30
0.0
 11
835.165768
 21
417.047374
 31
0.0
  0
LINE
  8
0
 10
848.0947
 20
437.047374
 30
0.0
 11
828.0947
 21
417.047374
 31
0.0
  0
LINE
  8
0
 10
841.023633
 20
437.047374
 30
0.0
 11
821.023633
 21
417.047374
 31
0.0
  0
LINE
  8
0
 10
833.952565
 20
437.047374
 30
0.0
 11
813.952565
 21
417.047374
 31
0.0
  0
LINE
  8
0
 10
826.881497
 20
437.047374
 30
0.0
 11
806.881497
 21
417.047374
 31
0.0
  0
LINE
  8
0
 10
819.810429
 20
437.047374
 30
0.0
 11
799.810429
 21
417.047374
 31
0.0
  0
LINE
  8
0
 10
812.739361
 20
437.047374
 30
0.0
 11
792.739361
 21
417.047374
 31
0.0
  0
LINE
  8
0
 10
805.668294
 20
437.047374
 30
0.0
 11
789.539252
 21
420.918333
 31
0.0
  0
LINE
  8
0
 10
798.597226
 20
437.047374
 30
0.0
 11
789.539252
 21
427.989401
 31
0.0
  0
LINE
  8
0
 10
791.526158
 20
437.047374
 30
0.0
 11
789.539252
 21
435.060469
 31
0.0
  0
LINE
  8
0
 10
817.23782
 20
489.569093
 30
0.0
 11
817.23782
 21
492.269809
 31
0.0
  0
LINE
  8
0
 10
817.23782
 20
492.269809
 30
0.0
 11
821.340445
 21
492.269809
 31
0.0
  0
LINE
  8
0
 10
821.340445
 20
492.269809
 30
0.0
 11
821.340445
 21
489.569093
 31
0.0
  0
LINE
  8
0
 10
821.340445
 20
489.569093
 30
0.0
 11
817.23782
 21
489.569093
 31
0.0
  0
LINE
  8
0
 10
907.738059
 20
489.569093
 30
0.0
 11
911.83782
 21
489.569093
 31
0.0
  0
LINE
  8
0
 10
911.83782
 20
489.569093
 30
0.0
 11
911.83782
 21
492.269809
 31
0.0
  0
LINE
  8
0
 10
911.83782
 20
492.269809
 30
0.0
 11
907.738059
 21
492.269809
 31
0.0
  0
LINE
  8
0
 10
907.738059
 20
492.269809
 30
0.0
 11
907.738059
 21
489.569093
 31
0.0
  0
LINE
  8
0
 10
917.538059
 20
457.047374
 30
0.0
 11
917.705123
 21
457.054057
 31
0.0
  0
LINE
  8
0
 10
917.705123
 20
457.054057
 30
0.0
 11
917.634647
 21
457.050712
 31
0.0
  0
LINE
  8
0
 10
917.634647
 20
457.050712
 30
0.0
 11
917.621591
 21
457.050716
 31
0.0
  0
LINE
  8
0
 10
917.621591
 20
457.050716
 30
0.0
 11
918.342355
 21
457.214439
 31
0.0
  0
LINE
  8
0
 10
918.342355
 20
457.214439
 30
0.0
 11
918.491758
 21
457.28747
 31
0.0
  0
LINE
  8
0
 10
918.491758
 20
457.28747
 30
0.0
 11
918.634479
 21
457.371002
 31
0.0
  0
LINE
  8
0
 10
918.634479
 20
457.371002
 30
0.0
 11
918.766698
 21
457.468377
 31
0.0
  0
LINE
  8
0
 10
918.766698
 20
457.468377
 30
0.0
 11
918.895577
 21
457.576253
 31
0.0
  0
LINE
  8
0
 10
918.895577
 20
457.576253
 30
0.0
 11
919.010135
 21
457.691289
 31
0.0
  0
LINE
  8
0
 10
919.010135
 20
457.691289
 30
0.0
 11
919.118011
 21
457.816348
 31
0.0
  0
LINE
  8
0
 10
919.118011
 20
457.816348
 30
0.0
 11
919.212044
 21
457.951909
 31
0.0
  0
LINE
  8
0
 10
919.212044
 20
457.951909
 30
0.0
 11
919.299395
 21
458.09463
 31
0.0
  0
LINE
  8
0
 10
919.299395
 20
458.09463
 30
0.0
 11
919.372426
 21
458.241169
 31
0.0
  0
LINE
  8
0
 10
919.372426
 20
458.241169
 30
0.0
 11
919.431615
 21
458.397732
 31
0.0
  0
LINE
  8
0
 10
919.431615
 20
458.397732
 30
0.0
 11
919.476484
 21
458.554296
 31
0.0
  0
LINE
  8
0
 10
919.476484
 20
458.554296
 30
0.0
 11
919.511328
 21
458.717541
 31
0.0
  0
LINE
  8
0
 10
919.511328
 20
458.717541
 30
0.0
 11
919.532331
 21
458.881265
 31
0.0
  0
LINE
  8
0
 10
919.532331
 20
458.881265
 30
0.0
 11
919.539491
 21
459.044988
 31
0.0
  0
LINE
  8
0
 10
919.539491
 20
459.044988
 30
0.0
 11
919.532331
 21
458.881265
 31
0.0
  0
LINE
  8
0
 10
919.532331
 20
458.881265
 30
0.0
 11
919.511328
 21
458.717541
 31
0.0
  0
LINE
  8
0
 10
919.511328
 20
458.717541
 30
0.0
 11
919.476484
 21
458.554296
 31
0.0
  0
LINE
  8
0
 10
919.476484
 20
458.554296
 30
0.0
 11
919.431615
 21
458.397732
 31
0.0
  0
LINE
  8
0
 10
919.431615
 20
458.397732
 30
0.0
 11
919.372426
 21
458.241169
 31
0.0
  0
LINE
  8
0
 10
919.372426
 20
458.241169
 30
0.0
 11
919.299395
 21
458.09463
 31
0.0
  0
LINE
  8
0
 10
919.299395
 20
458.09463
 30
0.0
 11
919.212044
 21
457.951909
 31
0.0
  0
LINE
  8
0
 10
919.212044
 20
457.951909
 30
0.0
 11
919.118011
 21
457.816348
 31
0.0
  0
LINE
  8
0
 10
919.118011
 20
457.816348
 30
0.0
 11
919.010135
 21
457.691289
 31
0.0
  0
LINE
  8
0
 10
919.010135
 20
457.691289
 30
0.0
 11
918.895577
 21
457.576253
 31
0.0
  0
LINE
  8
0
 10
918.895577
 20
457.576253
 30
0.0
 11
918.766698
 21
457.468377
 31
0.0
  0
LINE
  8
0
 10
918.766698
 20
457.468377
 30
0.0
 11
918.634479
 21
457.371002
 31
0.0
  0
LINE
  8
0
 10
918.634479
 20
457.371002
 30
0.0
 11
918.491758
 21
457.28747
 31
0.0
  0
LINE
  8
0
 10
918.491758
 20
457.28747
 30
0.0
 11
918.342355
 21
457.214439
 31
0.0
  0
LINE
  8
0
 10
918.342355
 20
457.214439
 30
0.0
 11
917.621591
 21
457.050716
 31
0.0
  0
LINE
  8
0
 10
917.621591
 20
457.050716
 30
0.0
 11
917.634647
 21
457.050712
 31
0.0
  0
LINE
  8
0
 10
917.634647
 20
457.050712
 30
0.0
 11
917.705123
 21
457.054057
 31
0.0
  0
LINE
  8
0
 10
917.705123
 20
457.054057
 30
0.0
 11
917.538059
 21
457.047374
 31
0.0
  0
LINE
  8
0
 10
917.538059
 20
457.047374
 30
0.0
 11
811.540445
 21
457.047374
 31
0.0
  0
LINE
  8
0
 10
811.540445
 20
457.047374
 30
0.0
 11
811.373381
 21
457.054057
 31
0.0
  0
LINE
  8
0
 10
811.373381
 20
457.054057
 30
0.0
 11
811.210135
 21
457.071718
 31
0.0
  0
LINE
  8
0
 10
811.210135
 20
457.071718
 30
0.0
 11
811.049753
 21
457.106563
 31
0.0
  0
LINE
  8
0
 10
811.049753
 20
457.106563
 30
0.0
 11
810.889849
 21
457.15525
 31
0.0
  0
LINE
  8
0
 10
810.889849
 20
457.15525
 30
0.0
 11
810.736627
 21
457.214439
 31
0.0
  0
LINE
  8
0
 10
810.736627
 20
457.214439
 30
0.0
 11
810.587223
 21
457.28747
 31
0.0
  0
LINE
  8
0
 10
810.587223
 20
457.28747
 30
0.0
 11
810.444503
 21
457.371002
 31
0.0
  0
LINE
  8
0
 10
810.444503
 20
457.371002
 30
0.0
 11
810.312283
 21
457.468377
 31
0.0
  0
LINE
  8
0
 10
810.312283
 20
457.468377
 30
0.0
 11
810.183405
 21
457.576253
 31
0.0
  0
LINE
  8
0
 10
810.183405
 20
457.576253
 30
0.0
 11
810.068369
 21
457.691289
 31
0.0
  0
LINE
  8
0
 10
810.068369
 20
457.691289
 30
0.0
 11
809.960493
 21
457.816348
 31
0.0
  0
LINE
  8
0
 10
809.960493
 20
457.816348
 30
0.0
 11
809.86646
 21
457.951909
 31
0.0
  0
LINE
  8
0
 10
809.86646
 20
457.951909
 30
0.0
 11
809.779586
 21
458.09463
 31
0.0
  0
LINE
  8
0
 10
809.779586
 20
458.09463
 30
0.0
 11
809.706555
 21
458.241169
 31
0.0
  0
LINE
  8
0
 10
809.706555
 20
458.241169
 30
0.0
 11
809.647367
 21
458.397732
 31
0.0
  0
LINE
  8
0
 10
809.647367
 20
458.397732
 30
0.0
 11
809.602021
 21
458.554296
 31
0.0
  0
LINE
  8
0
 10
809.602021
 20
458.554296
 30
0.0
 11
809.567176
 21
458.717541
 31
0.0
  0
LINE
  8
0
 10
809.567176
 20
458.717541
 30
0.0
 11
809.546651
 21
458.881265
 31
0.0
  0
LINE
  8
0
 10
809.546651
 20
458.881265
 30
0.0
 11
809.539491
 21
459.044988
 31
0.0
  0
LINE
  8
0
 10
809.539491
 20
459.044988
 30
0.0
 11
809.539491
 21
485.069331
 31
0.0
  0
LINE
  8
0
 10
809.539491
 20
485.069331
 30
0.0
 11
809.546651
 21
485.232577
 31
0.0
  0
LINE
  8
0
 10
809.546651
 20
485.232577
 30
0.0
 11
809.563834
 21
485.392959
 31
0.0
  0
LINE
  8
0
 10
809.563834
 20
485.392959
 30
0.0
 11
809.598679
 21
485.552864
 31
0.0
  0
LINE
  8
0
 10
809.598679
 20
485.552864
 30
0.0
 11
809.644025
 21
485.706086
 31
0.0
  0
LINE
  8
0
 10
809.644025
 20
485.706086
 30
0.0
 11
809.699873
 21
485.859308
 31
0.0
  0
LINE
  8
0
 10
809.699873
 20
485.859308
 30
0.0
 11
809.772904
 21
486.00537
 31
0.0
  0
LINE
  8
0
 10
809.772904
 20
486.00537
 30
0.0
 11
809.852617
 21
486.144749
 31
0.0
  0
LINE
  8
0
 10
809.852617
 20
486.144749
 30
0.0
 11
809.946651
 21
486.276969
 31
0.0
  0
LINE
  8
0
 10
809.946651
 20
486.276969
 30
0.0
 11
810.047844
 21
486.402028
 31
0.0
  0
LINE
  8
0
 10
810.047844
 20
486.402028
 30
0.0
 11
810.162402
 21
486.520405
 31
0.0
  0
LINE
  8
0
 10
810.162402
 20
486.520405
 30
0.0
 11
810.284121
 21
486.62494
 31
0.0
  0
LINE
  8
0
 10
810.284121
 20
486.62494
 30
0.0
 11
810.412999
 21
486.722315
 31
0.0
  0
LINE
  8
0
 10
810.412999
 20
486.722315
 30
0.0
 11
810.54856
 21
486.809188
 31
0.0
  0
LINE
  8
0
 10
810.54856
 20
486.809188
 30
0.0
 11
810.695099
 21
486.882219
 31
0.0
  0
LINE
  8
0
 10
810.695099
 20
486.882219
 30
0.0
 11
815.640207
 21
489.189618
 31
0.0
  0
LINE
  8
0
 10
815.640207
 20
489.189618
 30
0.0
 11
815.640207
 21
493.745226
 31
0.0
  0
LINE
  8
0
 10
815.640207
 20
493.745226
 30
0.0
 11
814.401066
 21
493.745226
 31
0.0
  0
LINE
  8
0
 10
814.401066
 20
493.745226
 30
0.0
 11
812.838775
 21
492.182458
 31
0.0
  0
LINE
  8
0
 10
812.838775
 20
492.182458
 30
0.0
 11
812.838775
 21
491.145704
 31
0.0
  0
LINE
  8
0
 10
812.838775
 20
491.145704
 30
0.0
 11
812.831615
 21
491.041169
 31
0.0
  0
LINE
  8
0
 10
812.831615
 20
491.041169
 30
0.0
 11
812.81109
 21
490.936635
 31
0.0
  0
LINE
  8
0
 10
812.81109
 20
490.936635
 30
0.0
 11
812.779586
 21
490.83926
 31
0.0
  0
LINE
  8
0
 10
812.779586
 20
490.83926
 30
0.0
 11
812.730899
 21
490.745226
 31
0.0
  0
LINE
  8
0
 10
812.730899
 20
490.745226
 30
0.0
 11
812.675052
 21
490.658353
 31
0.0
  0
LINE
  8
0
 10
812.675052
 20
490.658353
 30
0.0
 11
812.605362
 21
490.578162
 31
0.0
  0
LINE
  8
0
 10
812.605362
 20
490.578162
 30
0.0
 11
812.525648
 21
490.508472
 31
0.0
  0
LINE
  8
0
 10
812.525648
 20
490.508472
 30
0.0
 11
812.438297
 21
490.453102
 31
0.0
  0
LINE
  8
0
 10
812.438297
 20
490.453102
 30
0.0
 11
812.344741
 21
490.404415
 31
0.0
  0
LINE
  8
0
 10
812.344741
 20
490.404415
 30
0.0
 11
812.246889
 21
490.372911
 31
0.0
  0
LINE
  8
0
 10
812.246889
 20
490.372911
 30
0.0
 11
812.142832
 21
490.351909
 31
0.0
  0
LINE
  8
0
 10
812.142832
 20
490.351909
 30
0.0
 11
812.038297
 21
490.345226
 31
0.0
  0
LINE
  8
0
 10
812.038297
 20
490.345226
 30
0.0
 11
811.933763
 21
490.351909
 31
0.0
  0
LINE
  8
0
 10
811.933763
 20
490.351909
 30
0.0
 11
811.833047
 21
490.372911
 31
0.0
  0
LINE
  8
0
 10
811.833047
 20
490.372911
 30
0.0
 11
811.731853
 21
490.404415
 31
0.0
  0
LINE
  8
0
 10
811.731853
 20
490.404415
 30
0.0
 11
811.63782
 21
490.453102
 31
0.0
  0
LINE
  8
0
 10
811.63782
 20
490.453102
 30
0.0
 11
811.550947
 21
490.508472
 31
0.0
  0
LINE
  8
0
 10
811.550947
 20
490.508472
 30
0.0
 11
811.474574
 21
490.578162
 31
0.0
  0
LINE
  8
0
 10
811.474574
 20
490.578162
 30
0.0
 11
811.404884
 21
490.658353
 31
0.0
  0
LINE
  8
0
 10
811.404884
 20
490.658353
 30
0.0
 11
811.345696
 21
490.745226
 31
0.0
  0
LINE
  8
0
 10
811.345696
 20
490.745226
 30
0.0
 11
811.30035
 21
490.83926
 31
0.0
  0
LINE
  8
0
 10
811.30035
 20
490.83926
 30
0.0
 11
811.265505
 21
490.936635
 31
0.0
  0
LINE
  8
0
 10
811.265505
 20
490.936635
 30
0.0
 11
811.24498
 21
491.041169
 31
0.0
  0
LINE
  8
0
 10
811.24498
 20
491.041169
 30
0.0
 11
811.23782
 21
491.145704
 31
0.0
  0
LINE
  8
0
 10
811.23782
 20
491.145704
 30
0.0
 11
811.23782
 21
492.429713
 31
0.0
  0
LINE
  8
0
 10
811.23782
 20
492.429713
 30
0.0
 11
811.24498
 21
492.540931
 31
0.0
  0
LINE
  8
0
 10
811.24498
 20
492.540931
 30
0.0
 11
811.265505
 21
492.652625
 31
0.0
  0
LINE
  8
0
 10
811.265505
 20
492.652625
 30
0.0
 11
811.297009
 21
492.760501
 31
0.0
  0
LINE
  8
0
 10
811.297009
 20
492.760501
 30
0.0
 11
811.339013
 21
492.864558
 31
0.0
  0
LINE
  8
0
 10
811.339013
 20
492.864558
 30
0.0
 11
811.391042
 21
492.961933
 31
0.0
  0
LINE
  8
0
 10
811.391042
 20
492.961933
 30
0.0
 11
811.456913
 21
493.052625
 31
0.0
  0
LINE
  8
0
 10
811.456913
 20
493.052625
 30
0.0
 11
811.533763
 21
493.136157
 31
0.0
  0
LINE
  8
0
 10
811.533763
 20
493.136157
 30
0.0
 11
813.447844
 21
495.050238
 31
0.0
  0
LINE
  8
0
 10
813.447844
 20
495.050238
 30
0.0
 11
813.531376
 21
495.126611
 31
0.0
  0
LINE
  8
0
 10
813.531376
 20
495.126611
 30
0.0
 11
813.621591
 21
495.189618
 31
0.0
  0
LINE
  8
0
 10
813.621591
 20
495.189618
 30
0.0
 11
813.718966
 21
495.244988
 31
0.0
  0
LINE
  8
0
 10
813.718966
 20
495.244988
 30
0.0
 11
813.8235
 21
495.286993
 31
0.0
  0
LINE
  8
0
 10
813.8235
 20
495.286993
 30
0.0
 11
813.931376
 21
495.318019
 31
0.0
  0
LINE
  8
0
 10
813.931376
 20
495.318019
 30
0.0
 11
814.043071
 21
495.339021
 31
0.0
  0
LINE
  8
0
 10
814.043071
 20
495.339021
 30
0.0
 11
814.154288
 21
495.342362
 31
0.0
  0
LINE
  8
0
 10
814.154288
 20
495.342362
 30
0.0
 11
816.238775
 21
495.342362
 31
0.0
  0
LINE
  8
0
 10
816.238775
 20
495.342362
 30
0.0
 11
816.349992
 21
495.339021
 31
0.0
  0
LINE
  8
0
 10
816.349992
 20
495.339021
 30
0.0
 11
816.461686
 21
495.318019
 31
0.0
  0
LINE
  8
0
 10
816.461686
 20
495.318019
 30
0.0
 11
816.569562
 21
495.286993
 31
0.0
  0
LINE
  8
0
 10
816.569562
 20
495.286993
 30
0.0
 11
816.67362
 21
495.244988
 31
0.0
  0
LINE
  8
0
 10
816.67362
 20
495.244988
 30
0.0
 11
816.771472
 21
495.189618
 31
0.0
  0
LINE
  8
0
 10
816.771472
 20
495.189618
 30
0.0
 11
816.861686
 21
495.126611
 31
0.0
  0
LINE
  8
0
 10
816.861686
 20
495.126611
 30
0.0
 11
816.945219
 21
495.050238
 31
0.0
  0
LINE
  8
0
 10
816.945219
 20
495.050238
 30
0.0
 11
817.022068
 21
494.966706
 31
0.0
  0
LINE
  8
0
 10
817.022068
 20
494.966706
 30
0.0
 11
817.084598
 21
494.876014
 31
0.0
  0
LINE
  8
0
 10
817.084598
 20
494.876014
 30
0.0
 11
817.139968
 21
494.778639
 31
0.0
  0
LINE
  8
0
 10
817.139968
 20
494.778639
 30
0.0
 11
817.181973
 21
494.674582
 31
0.0
  0
LINE
  8
0
 10
817.181973
 20
494.674582
 30
0.0
 11
817.213476
 21
494.566706
 31
0.0
  0
LINE
  8
0
 10
817.213476
 20
494.566706
 30
0.0
 11
817.234001
 21
494.455012
 31
0.0
  0
LINE
  8
0
 10
817.234001
 20
494.455012
 30
0.0
 11
817.23782
 21
494.343794
 31
0.0
  0
LINE
  8
0
 10
817.23782
 20
494.343794
 30
0.0
 11
817.23782
 21
493.668377
 31
0.0
  0
LINE
  8
0
 10
817.23782
 20
493.668377
 30
0.0
 11
821.740923
 21
493.668377
 31
0.0
  0
LINE
  8
0
 10
821.740923
 20
493.668377
 30
0.0
 11
821.85214
 21
493.661694
 31
0.0
  0
LINE
  8
0
 10
821.85214
 20
493.661694
 30
0.0
 11
821.960016
 21
493.644033
 31
0.0
  0
LINE
  8
0
 10
821.960016
 20
493.644033
 30
0.0
 11
822.067892
 21
493.613007
 31
0.0
  0
LINE
  8
0
 10
822.067892
 20
493.613007
 30
0.0
 11
822.172426
 21
493.571002
 31
0.0
  0
LINE
  8
0
 10
822.172426
 20
493.571002
 30
0.0
 11
822.269801
 21
493.515632
 31
0.0
  0
LINE
  8
0
 10
822.269801
 20
493.515632
 30
0.0
 11
822.363834
 21
493.452625
 31
0.0
  0
LINE
  8
0
 10
822.363834
 20
493.452625
 30
0.0
 11
822.447367
 21
493.376253
 31
0.0
  0
LINE
  8
0
 10
822.447367
 20
493.376253
 30
0.0
 11
822.520398
 21
493.29272
 31
0.0
  0
LINE
  8
0
 10
822.520398
 20
493.29272
 30
0.0
 11
822.586746
 21
493.202028
 31
0.0
  0
LINE
  8
0
 10
822.586746
 20
493.202028
 30
0.0
 11
822.638775
 21
493.104654
 31
0.0
  0
LINE
  8
0
 10
822.638775
 20
493.104654
 30
0.0
 11
822.684121
 21
493.000596
 31
0.0
  0
LINE
  8
0
 10
822.684121
 20
493.000596
 30
0.0
 11
822.715147
 21
492.89272
 31
0.0
  0
LINE
  8
0
 10
822.715147
 20
492.89272
 30
0.0
 11
822.732808
 21
492.781026
 31
0.0
  0
LINE
  8
0
 10
822.732808
 20
492.781026
 30
0.0
 11
822.739491
 21
492.669809
 31
0.0
  0
LINE
  8
0
 10
822.739491
 20
492.669809
 30
0.0
 11
822.739491
 21
489.168615
 31
0.0
  0
LINE
  8
0
 10
822.739491
 20
489.168615
 30
0.0
 11
822.732808
 21
489.057398
 31
0.0
  0
LINE
  8
0
 10
822.732808
 20
489.057398
 30
0.0
 11
822.715147
 21
488.946181
 31
0.0
  0
LINE
  8
0
 10
822.715147
 20
488.946181
 30
0.0
 11
822.684121
 21
488.838305
 31
0.0
  0
LINE
  8
0
 10
822.684121
 20
488.838305
 30
0.0
 11
822.638775
 21
488.737112
 31
0.0
  0
LINE
  8
0
 10
822.638775
 20
488.737112
 30
0.0
 11
822.586746
 21
488.636396
 31
0.0
  0
LINE
  8
0
 10
822.586746
 20
488.636396
 30
0.0
 11
822.520398
 21
488.545704
 31
0.0
  0
LINE
  8
0
 10
822.520398
 20
488.545704
 30
0.0
 11
822.447367
 21
488.462172
 31
0.0
  0
LINE
  8
0
 10
822.447367
 20
488.462172
 30
0.0
 11
822.363834
 21
488.389141
 31
0.0
  0
LINE
  8
0
 10
822.363834
 20
488.389141
 30
0.0
 11
822.269801
 21
488.323269
 31
0.0
  0
LINE
  8
0
 10
822.269801
 20
488.323269
 30
0.0
 11
822.172426
 21
488.267422
 31
0.0
  0
LINE
  8
0
 10
822.172426
 20
488.267422
 30
0.0
 11
822.067892
 21
488.225895
 31
0.0
  0
LINE
  8
0
 10
822.067892
 20
488.225895
 30
0.0
 11
821.960016
 21
488.194391
 31
0.0
  0
LINE
  8
0
 10
821.960016
 20
488.194391
 30
0.0
 11
821.85214
 21
488.17673
 31
0.0
  0
LINE
  8
0
 10
821.85214
 20
488.17673
 30
0.0
 11
821.740923
 21
488.170047
 31
0.0
  0
LINE
  8
0
 10
821.740923
 20
488.170047
 30
0.0
 11
817.23782
 21
488.170047
 31
0.0
  0
LINE
  8
0
 10
817.23782
 20
488.170047
 30
0.0
 11
811.739013
 21
485.60537
 31
0.0
  0
LINE
  8
0
 10
811.739013
 20
485.60537
 30
0.0
 11
811.739013
 21
459.246897
 31
0.0
  0
LINE
  8
0
 10
811.739013
 20
459.246897
 30
0.0
 11
917.339968
 21
459.246897
 31
0.0
  0
LINE
  8
0
 10
917.339968
 20
459.246897
 30
0.0
 11
917.339968
 21
485.60537
 31
0.0
  0
LINE
  8
0
 10
917.339968
 20
485.60537
 30
0.0
 11
911.83782
 21
488.170047
 31
0.0
  0
LINE
  8
0
 10
911.83782
 20
488.170047
 30
0.0
 11
907.338059
 21
488.170047
 31
0.0
  0
LINE
  8
0
 10
907.338059
 20
488.170047
 30
0.0
 11
907.226842
 21
488.17673
 31
0.0
  0
LINE
  8
0
 10
907.226842
 20
488.17673
 30
0.0
 11
907.115147
 21
488.194391
 31
0.0
  0
LINE
  8
0
 10
907.115147
 20
488.194391
 30
0.0
 11
907.007271
 21
488.225895
 31
0.0
  0
LINE
  8
0
 10
907.007271
 20
488.225895
 30
0.0
 11
906.906555
 21
488.267422
 31
0.0
  0
LINE
  8
0
 10
906.906555
 20
488.267422
 30
0.0
 11
906.80918
 21
488.323269
 31
0.0
  0
LINE
  8
0
 10
906.80918
 20
488.323269
 30
0.0
 11
906.715147
 21
488.389141
 31
0.0
  0
LINE
  8
0
 10
906.715147
 20
488.389141
 30
0.0
 11
906.631615
 21
488.462172
 31
0.0
  0
LINE
  8
0
 10
906.631615
 20
488.462172
 30
0.0
 11
906.558584
 21
488.545704
 31
0.0
  0
LINE
  8
0
 10
906.558584
 20
488.545704
 30
0.0
 11
906.492235
 21
488.636396
 31
0.0
  0
LINE
  8
0
 10
906.492235
 20
488.636396
 30
0.0
 11
906.436865
 21
488.737112
 31
0.0
  0
LINE
  8
0
 10
906.436865
 20
488.737112
 30
0.0
 11
906.394861
 21
488.838305
 31
0.0
  0
LINE
  8
0
 10
906.394861
 20
488.838305
 30
0.0
 11
906.363357
 21
488.946181
 31
0.0
  0
LINE
  8
0
 10
906.363357
 20
488.946181
 30
0.0
 11
906.346173
 21
489.057398
 31
0.0
  0
LINE
  8
0
 10
906.346173
 20
489.057398
 30
0.0
 11
906.339013
 21
489.168615
 31
0.0
  0
LINE
  8
0
 10
906.339013
 20
489.168615
 30
0.0
 11
906.339013
 21
492.669809
 31
0.0
  0
LINE
  8
0
 10
906.339013
 20
492.669809
 30
0.0
 11
906.346173
 21
492.781026
 31
0.0
  0
LINE
  8
0
 10
906.346173
 20
492.781026
 30
0.0
 11
906.363357
 21
492.89272
 31
0.0
  0
LINE
  8
0
 10
906.363357
 20
492.89272
 30
0.0
 11
906.394861
 21
493.000596
 31
0.0
  0
LINE
  8
0
 10
906.394861
 20
493.000596
 30
0.0
 11
906.436865
 21
493.104654
 31
0.0
  0
LINE
  8
0
 10
906.436865
 20
493.104654
 30
0.0
 11
906.492235
 21
493.202028
 31
0.0
  0
LINE
  8
0
 10
906.492235
 20
493.202028
 30
0.0
 11
906.558584
 21
493.29272
 31
0.0
  0
LINE
  8
0
 10
906.558584
 20
493.29272
 30
0.0
 11
906.631615
 21
493.376253
 31
0.0
  0
LINE
  8
0
 10
906.631615
 20
493.376253
 30
0.0
 11
906.715147
 21
493.452625
 31
0.0
  0
LINE
  8
0
 10
906.715147
 20
493.452625
 30
0.0
 11
906.80918
 21
493.515632
 31
0.0
  0
LINE
  8
0
 10
906.80918
 20
493.515632
 30
0.0
 11
906.906555
 21
493.571002
 31
0.0
  0
LINE
  8
0
 10
906.906555
 20
493.571002
 30
0.0
 11
907.007271
 21
493.613007
 31
0.0
  0
LINE
  8
0
 10
907.007271
 20
493.613007
 30
0.0
 11
907.115147
 21
493.644033
 31
0.0
  0
LINE
  8
0
 10
907.115147
 20
493.644033
 30
0.0
 11
907.226842
 21
493.661694
 31
0.0
  0
LINE
  8
0
 10
907.226842
 20
493.661694
 30
0.0
 11
907.338059
 21
493.668377
 31
0.0
  0
LINE
  8
0
 10
907.338059
 20
493.668377
 30
0.0
 11
911.83782
 21
493.668377
 31
0.0
  0
LINE
  8
0
 10
911.83782
 20
493.668377
 30
0.0
 11
911.83782
 21
494.343794
 31
0.0
  0
LINE
  8
0
 10
911.83782
 20
494.343794
 30
0.0
 11
911.84498
 21
494.455012
 31
0.0
  0
LINE
  8
0
 10
911.84498
 20
494.455012
 30
0.0
 11
911.865505
 21
494.566706
 31
0.0
  0
LINE
  8
0
 10
911.865505
 20
494.566706
 30
0.0
 11
911.897009
 21
494.674582
 31
0.0
  0
LINE
  8
0
 10
911.897009
 20
494.674582
 30
0.0
 11
911.938536
 21
494.778639
 31
0.0
  0
LINE
  8
0
 10
911.938536
 20
494.778639
 30
0.0
 11
911.991042
 21
494.876014
 31
0.0
  0
LINE
  8
0
 10
911.991042
 20
494.876014
 30
0.0
 11
912.056913
 21
494.966706
 31
0.0
  0
LINE
  8
0
 10
912.056913
 20
494.966706
 30
0.0
 11
912.133763
 21
495.050238
 31
0.0
  0
LINE
  8
0
 10
912.133763
 20
495.050238
 30
0.0
 11
912.217295
 21
495.126611
 31
0.0
  0
LINE
  8
0
 10
912.217295
 20
495.126611
 30
0.0
 11
912.30751
 21
495.189618
 31
0.0
  0
LINE
  8
0
 10
912.30751
 20
495.189618
 30
0.0
 11
912.404884
 21
495.244988
 31
0.0
  0
LINE
  8
0
 10
912.404884
 20
495.244988
 30
0.0
 11
912.509419
 21
495.286993
 31
0.0
  0
LINE
  8
0
 10
912.509419
 20
495.286993
 30
0.0
 11
912.617295
 21
495.318019
 31
0.0
  0
LINE
  8
0
 10
912.617295
 20
495.318019
 30
0.0
 11
912.728512
 21
495.339021
 31
0.0
  0
LINE
  8
0
 10
912.728512
 20
495.339021
 30
0.0
 11
912.840207
 21
495.342362
 31
0.0
  0
LINE
  8
0
 10
912.840207
 20
495.342362
 30
0.0
 11
914.924694
 21
495.342362
 31
0.0
  0
LINE
  8
0
 10
914.924694
 20
495.342362
 30
0.0
 11
915.035911
 21
495.339021
 31
0.0
  0
LINE
  8
0
 10
915.035911
 20
495.339021
 30
0.0
 11
915.147605
 21
495.318019
 31
0.0
  0
LINE
  8
0
 10
915.147605
 20
495.318019
 30
0.0
 11
915.255481
 21
495.286993
 31
0.0
  0
LINE
  8
0
 10
915.255481
 20
495.286993
 30
0.0
 11
915.359538
 21
495.244988
 31
0.0
  0
LINE
  8
0
 10
915.359538
 20
495.244988
 30
0.0
 11
915.456913
 21
495.189618
 31
0.0
  0
LINE
  8
0
 10
915.456913
 20
495.189618
 30
0.0
 11
915.547605
 21
495.126611
 31
0.0
  0
LINE
  8
0
 10
915.547605
 20
495.126611
 30
0.0
 11
915.631137
 21
495.050238
 31
0.0
  0
LINE
  8
0
 10
915.631137
 20
495.050238
 30
0.0
 11
917.545219
 21
493.136157
 31
0.0
  0
LINE
  8
0
 10
917.545219
 20
493.136157
 30
0.0
 11
917.621591
 21
493.052625
 31
0.0
  0
LINE
  8
0
 10
917.621591
 20
493.052625
 30
0.0
 11
917.684598
 21
492.961933
 31
0.0
  0
LINE
  8
0
 10
917.684598
 20
492.961933
 30
0.0
 11
917.739968
 21
492.864558
 31
0.0
  0
LINE
  8
0
 10
917.739968
 20
492.864558
 30
0.0
 11
917.781973
 21
492.760501
 31
0.0
  0
LINE
  8
0
 10
917.781973
 20
492.760501
 30
0.0
 11
917.812999
 21
492.652625
 31
0.0
  0
LINE
  8
0
 10
917.812999
 20
492.652625
 30
0.0
 11
917.834001
 21
492.540931
 31
0.0
  0
LINE
  8
0
 10
917.834001
 20
492.540931
 30
0.0
 11
917.841161
 21
492.429713
 31
0.0
  0
LINE
  8
0
 10
917.841161
 20
492.429713
 30
0.0
 11
917.841161
 21
491.145704
 31
0.0
  0
LINE
  8
0
 10
917.841161
 20
491.145704
 30
0.0
 11
917.834001
 21
491.041169
 31
0.0
  0
LINE
  8
0
 10
917.834001
 20
491.041169
 30
0.0
 11
917.812999
 21
490.936635
 31
0.0
  0
LINE
  8
0
 10
917.812999
 20
490.936635
 30
0.0
 11
917.778154
 21
490.83926
 31
0.0
  0
LINE
  8
0
 10
917.778154
 20
490.83926
 30
0.0
 11
917.733285
 21
490.745226
 31
0.0
  0
LINE
  8
0
 10
917.733285
 20
490.745226
 30
0.0
 11
917.674097
 21
490.658353
 31
0.0
  0
LINE
  8
0
 10
917.674097
 20
490.658353
 30
0.0
 11
917.604407
 21
490.578162
 31
0.0
  0
LINE
  8
0
 10
917.604407
 20
490.578162
 30
0.0
 11
917.528035
 21
490.508472
 31
0.0
  0
LINE
  8
0
 10
917.528035
 20
490.508472
 30
0.0
 11
917.440684
 21
490.453102
 31
0.0
  0
LINE
  8
0
 10
917.440684
 20
490.453102
 30
0.0
 11
917.346651
 21
490.404415
 31
0.0
  0
LINE
  8
0
 10
917.346651
 20
490.404415
 30
0.0
 11
917.245935
 21
490.372911
 31
0.0
  0
LINE
  8
0
 10
917.245935
 20
490.372911
 30
0.0
 11
917.145219
 21
490.351909
 31
0.0
  0
LINE
  8
0
 10
917.145219
 20
490.351909
 30
0.0
 11
917.040684
 21
490.345226
 31
0.0
  0
LINE
  8
0
 10
917.040684
 20
490.345226
 30
0.0
 11
916.936149
 21
490.351909
 31
0.0
  0
LINE
  8
0
 10
916.936149
 20
490.351909
 30
0.0
 11
916.831615
 21
490.372911
 31
0.0
  0
LINE
  8
0
 10
916.831615
 20
490.372911
 30
0.0
 11
916.73424
 21
490.404415
 31
0.0
  0
LINE
  8
0
 10
916.73424
 20
490.404415
 30
0.0
 11
916.640207
 21
490.453102
 31
0.0
  0
LINE
  8
0
 10
916.640207
 20
490.453102
 30
0.0
 11
916.553333
 21
490.508472
 31
0.0
  0
LINE
  8
0
 10
916.553333
 20
490.508472
 30
0.0
 11
916.473142
 21
490.578162
 31
0.0
  0
LINE
  8
0
 10
916.473142
 20
490.578162
 30
0.0
 11
916.40393
 21
490.658353
 31
0.0
  0
LINE
  8
0
 10
916.40393
 20
490.658353
 30
0.0
 11
916.348083
 21
490.745226
 31
0.0
  0
LINE
  8
0
 10
916.348083
 20
490.745226
 30
0.0
 11
916.299395
 21
490.83926
 31
0.0
  0
LINE
  8
0
 10
916.299395
 20
490.83926
 30
0.0
 11
916.267892
 21
490.936635
 31
0.0
  0
LINE
  8
0
 10
916.267892
 20
490.936635
 30
0.0
 11
916.246889
 21
491.041169
 31
0.0
  0
LINE
  8
0
 10
916.246889
 20
491.041169
 30
0.0
 11
916.240207
 21
491.145704
 31
0.0
  0
LINE
  8
0
 10
916.240207
 20
491.145704
 30
0.0
 11
916.240207
 21
492.182458
 31
0.0
  0
LINE
  8
0
 10
916.240207
 20
492.182458
 30
0.0
 11
914.677438
 21
493.745226
 31
0.0
  0
LINE
  8
0
 10
914.677438
 20
493.745226
 30
0.0
 11
913.438775
 21
493.745226
 31
0.0
  0
LINE
  8
0
 10
913.438775
 20
493.745226
 30
0.0
 11
913.438775
 21
489.189618
 31
0.0
  0
LINE
  8
0
 10
913.438775
 20
489.189618
 30
0.0
 11
918.383882
 21
486.882219
 31
0.0
  0
LINE
  8
0
 10
918.383882
 20
486.882219
 30
0.0
 11
918.529944
 21
486.809188
 31
0.0
  0
LINE
  8
0
 10
918.529944
 20
486.809188
 30
0.0
 11
918.665982
 21
486.722315
 31
0.0
  0
LINE
  8
0
 10
918.665982
 20
486.722315
 30
0.0
 11
918.794383
 21
486.62494
 31
0.0
  0
LINE
  8
0
 10
918.794383
 20
486.62494
 30
0.0
 11
918.916579
 21
486.520405
 31
0.0
  0
LINE
  8
0
 10
918.916579
 20
486.520405
 30
0.0
 11
919.031137
 21
486.402028
 31
0.0
  0
LINE
  8
0
 10
919.031137
 20
486.402028
 30
0.0
 11
919.132331
 21
486.276969
 31
0.0
  0
LINE
  8
0
 10
919.132331
 20
486.276969
 30
0.0
 11
919.225887
 21
486.144749
 31
0.0
  0
LINE
  8
0
 10
919.225887
 20
486.144749
 30
0.0
 11
919.306078
 21
486.00537
 31
0.0
  0
LINE
  8
0
 10
919.306078
 20
486.00537
 30
0.0
 11
919.375768
 21
485.859308
 31
0.0
  0
LINE
  8
0
 10
919.375768
 20
485.859308
 30
0.0
 11
919.434956
 21
485.706086
 31
0.0
  0
LINE
  8
0
 10
919.434956
 20
485.706086
 30
0.0
 11
919.480302
 21
485.552864
 31
0.0
  0
LINE
  8
0
 10
919.480302
 20
485.552864
 30
0.0
 11
919.511328
 21
485.392959
 31
0.0
  0
LINE
  8
0
 10
919.511328
 20
485.392959
 30
0.0
 11
919.532331
 21
485.232577
 31
0.0
  0
LINE
  8
0
 10
919.532331
 20
485.232577
 30
0.0
 11
919.539491
 21
485.069331
 31
0.0
  0
LINE
  8
0
 10
919.539491
 20
485.069331
 30
0.0
 11
919.539491
 21
459.044988
 31
0.0
  0
TEXT
  8
CAPA_1
 62
     2
 10
819.250919
 20
459.246897
 30
0.0
 40
10.10358
  1
 
 50
270.0
 41
0.192496
  0
LINE
  8
0
 10
812.636866
 20
489.68365
 30
0.0
 11
812.72374
 21
489.610619
 31
0.0
  0
LINE
  8
0
 10
812.72374
 20
489.610619
 30
0.0
 11
812.803931
 21
489.527087
 31
0.0
  0
LINE
  8
0
 10
812.974336
 20
489.231622
 30
0.0
 11
813.009181
 21
489.123746
 31
0.0
  0
LINE
  8
0
 10
813.009181
 20
489.123746
 30
0.0
 11
813.030184
 21
489.00871
 31
0.0
  0
LINE
  8
0
 10
811.237821
 20
490.498448
 30
0.0
 11
812.539491
 21
489.746658
 31
0.0
  0
LINE
  8
0
 10
812.539491
 20
489.746658
 30
0.0
 11
812.636866
 21
489.68365
 31
0.0
  0
LINE
  8
0
 10
809.539491
 20
495.043078
 30
0.0
 11
809.539491
 21
489.544748
 31
0.0
  0
LINE
  8
0
 10
809.539491
 20
489.544748
 30
0.0
 11
809.546651
 21
489.381025
 31
0.0
  0
LINE
  8
0
 10
809.602021
 20
489.054056
 30
0.0
 11
809.647367
 21
488.893674
 31
0.0
  0
LINE
  8
0
 10
809.647367
 20
488.893674
 30
0.0
 11
809.706556
 21
488.74093
 31
0.0
  0
LINE
  8
0
 10
810.183405
 20
488.072672
 30
0.0
 11
810.312284
 21
487.964796
 31
0.0
  0
LINE
  8
0
 10
810.312284
 20
487.964796
 30
0.0
 11
810.444503
 21
487.870763
 31
0.0
  0
LINE
  8
0
 10
810.889849
 20
487.65167
 30
0.0
 11
811.049754
 21
487.606324
 31
0.0
  0
LINE
  8
0
 10
811.049754
 20
487.606324
 30
0.0
 11
811.210136
 21
487.571479
 31
0.0
  0
LINE
  8
0
 10
811.540446
 20
487.543794
 30
0.0
 11
812.462642
 21
487.975297
 31
0.0
  0
LINE
  8
0
 10
809.960494
 20
488.316109
 30
0.0
 11
810.06837
 21
488.191049
 31
0.0
  0
LINE
  8
0
 10
809.546651
 20
489.381025
 30
0.0
 11
809.567176
 21
489.213961
 31
0.0
  0
LINE
  8
0
 10
809.567176
 20
489.213961
 30
0.0
 11
809.602021
 21
489.054056
 31
0.0
  0
LINE
  8
0
 10
809.706556
 20
488.74093
 30
0.0
 11
809.779587
 21
488.591049
 31
0.0
  0
LINE
  8
0
 10
809.779587
 20
488.591049
 30
0.0
 11
809.86646
 21
488.452147
 31
0.0
  0
LINE
  8
0
 10
809.86646
 20
488.452147
 30
0.0
 11
809.960494
 21
488.316109
 31
0.0
  0
LINE
  8
0
 10
810.06837
 20
488.191049
 30
0.0
 11
810.183405
 21
488.072672
 31
0.0
  0
LINE
  8
0
 10
810.444503
 20
487.870763
 30
0.0
 11
810.587224
 21
487.78723
 31
0.0
  0
LINE
  8
0
 10
810.587224
 20
487.78723
 30
0.0
 11
810.736627
 21
487.714199
 31
0.0
  0
LINE
  8
0
 10
810.736627
 20
487.714199
 30
0.0
 11
810.889849
 21
487.65167
 31
0.0
  0
LINE
  8
0
 10
811.210136
 20
487.571479
 30
0.0
 11
811.373382
 21
487.550476
 31
0.0
  0
LINE
  8
0
 10
811.373382
 20
487.550476
 30
0.0
 11
811.540446
 21
487.543794
 31
0.0
  0
LINE
  8
0
 10
812.803931
 20
489.527087
 30
0.0
 11
812.869802
 21
489.436872
 31
0.0
  0
LINE
  8
0
 10
812.869802
 20
489.436872
 30
0.0
 11
812.92899
 21
489.335679
 31
0.0
  0
LINE
  8
0
 10
812.92899
 20
489.335679
 30
0.0
 11
812.974336
 21
489.231622
 31
0.0
  0
LINE
  8
0
 10
813.030184
 20
489.00871
 30
0.0
 11
813.040685
 21
488.893674
 31
0.0
  0
LINE
  8
0
 10
813.040685
 20
488.893674
 30
0.0
 11
813.033525
 21
488.779116
 31
0.0
  0
LINE
  8
0
 10
813.033525
 20
488.779116
 30
0.0
 11
813.016341
 21
488.667899
 31
0.0
  0
LINE
  8
0
 10
813.016341
 20
488.667899
 30
0.0
 11
812.984837
 21
488.556204
 31
0.0
  0
LINE
  8
0
 10
812.984837
 20
488.556204
 30
0.0
 11
812.94331
 21
488.452147
 31
0.0
  0
LINE
  8
0
 10
812.94331
 20
488.452147
 30
0.0
 11
812.887463
 21
488.350954
 31
0.0
  0
LINE
  8
0
 10
812.887463
 20
488.350954
 30
0.0
 11
812.821114
 21
488.25692
 31
0.0
  0
LINE
  8
0
 10
812.821114
 20
488.25692
 30
0.0
 11
812.744742
 21
488.170047
 31
0.0
  0
LINE
  8
0
 10
812.744742
 20
488.170047
 30
0.0
 11
812.657868
 21
488.093674
 31
0.0
  0
LINE
  8
0
 10
812.657868
 20
488.093674
 30
0.0
 11
812.563835
 21
488.030667
 31
0.0
  0
LINE
  8
0
 10
812.563835
 20
488.030667
 30
0.0
 11
812.462642
 21
487.975297
 31
0.0
  0
LINE
  8
0
 10
811.237821
 20
494.145226
 30
0.0
 11
811.237821
 21
490.498448
 31
0.0
  0
LINE
  8
0
 10
811.540446
 20
497.04451
 30
0.0
 11
811.373382
 21
497.03735
 31
0.0
  0
LINE
  8
0
 10
811.373382
 20
497.03735
 30
0.0
 11
811.210136
 21
497.016347
 31
0.0
  0
LINE
  8
0
 10
811.210136
 20
497.016347
 30
0.0
 11
811.049754
 21
496.981503
 31
0.0
  0
LINE
  8
0
 10
811.049754
 20
496.981503
 30
0.0
 11
810.889849
 21
496.936634
 31
0.0
  0
LINE
  8
0
 10
810.889849
 20
496.936634
 30
0.0
 11
810.736627
 21
496.877445
 31
0.0
  0
LINE
  8
0
 10
810.736627
 20
496.877445
 30
0.0
 11
810.587224
 21
496.804414
 31
0.0
  0
LINE
  8
0
 10
810.587224
 20
496.804414
 30
0.0
 11
810.444503
 21
496.717063
 31
0.0
  0
LINE
  8
0
 10
810.444503
 20
496.717063
 30
0.0
 11
810.312284
 21
496.62303
 31
0.0
  0
LINE
  8
0
 10
810.312284
 20
496.62303
 30
0.0
 11
810.183405
 21
496.515154
 31
0.0
  0
LINE
  8
0
 10
810.183405
 20
496.515154
 30
0.0
 11
810.06837
 21
496.400596
 31
0.0
  0
LINE
  8
0
 10
810.06837
 20
496.400596
 30
0.0
 11
809.960494
 21
496.271717
 31
0.0
  0
LINE
  8
0
 10
809.960494
 20
496.271717
 30
0.0
 11
809.86646
 21
496.139498
 31
0.0
  0
LINE
  8
0
 10
809.86646
 20
496.139498
 30
0.0
 11
809.779587
 21
495.996777
 31
0.0
  0
LINE
  8
0
 10
809.779587
 20
495.996777
 30
0.0
 11
809.706556
 21
495.847374
 31
0.0
  0
LINE
  8
0
 10
809.706556
 20
495.847374
 30
0.0
 11
809.647367
 21
495.694152
 31
0.0
  0
LINE
  8
0
 10
809.647367
 20
495.694152
 30
0.0
 11
809.602021
 21
495.53377
 31
0.0
  0
LINE
  8
0
 10
809.602021
 20
495.53377
 30
0.0
 11
809.567176
 21
495.373865
 31
0.0
  0
LINE
  8
0
 10
809.567176
 20
495.373865
 30
0.0
 11
809.546651
 21
495.210142
 31
0.0
  0
LINE
  8
0
 10
809.546651
 20
495.210142
 30
0.0
 11
809.539491
 21
495.043078
 31
0.0
  0
LINE
  8
0
 10
811.637821
 20
495.036395
 30
0.0
 11
811.547606
 21
494.945703
 31
0.0
  0
LINE
  8
0
 10
811.547606
 20
494.945703
 30
0.0
 11
811.467415
 21
494.848328
 31
0.0
  0
LINE
  8
0
 10
811.467415
 20
494.848328
 30
0.0
 11
811.401544
 21
494.743794
 31
0.0
  0
LINE
  8
0
 10
811.401544
 20
494.743794
 30
0.0
 11
811.342355
 21
494.632577
 31
0.0
  0
LINE
  8
0
 10
811.342355
 20
494.632577
 30
0.0
 11
811.297009
 21
494.514199
 31
0.0
  0
LINE
  8
0
 10
811.297009
 20
494.514199
 30
0.0
 11
811.265506
 21
494.392481
 31
0.0
  0
LINE
  8
0
 10
811.265506
 20
494.392481
 30
0.0
 11
811.244981
 21
494.270763
 31
0.0
  0
LINE
  8
0
 10
811.244981
 20
494.270763
 30
0.0
 11
811.237821
 21
494.145226
 31
0.0
  0
LINE
  8
0
 10
812.438298
 20
495.342362
 30
0.0
 11
812.313238
 21
495.33902
 31
0.0
  0
LINE
  8
0
 10
812.313238
 20
495.33902
 30
0.0
 11
812.19152
 21
495.318018
 31
0.0
  0
LINE
  8
0
 10
812.19152
 20
495.318018
 30
0.0
 11
812.069802
 21
495.286992
 31
0.0
  0
LINE
  8
0
 10
812.069802
 20
495.286992
 30
0.0
 11
811.951425
 21
495.241646
 31
0.0
  0
LINE
  8
0
 10
811.951425
 20
495.241646
 30
0.0
 11
811.83973
 21
495.182457
 31
0.0
  0
LINE
  8
0
 10
811.83973
 20
495.182457
 30
0.0
 11
811.735673
 21
495.116109
 31
0.0
  0
LINE
  8
0
 10
811.735673
 20
495.116109
 30
0.0
 11
811.637821
 21
495.036395
 31
0.0
  0
LINE
  8
0
 10
916.640207
 20
495.342362
 30
0.0
 11
812.438298
 21
495.342362
 31
0.0
  0
LINE
  8
0
 10
811.540446
 20
497.04451
 30
0.0
 11
917.538059
 21
497.04451
 31
0.0
  0
LINE
  8
0
 10
917.538059
 20
497.04451
 30
0.0
 11
917.705124
 21
497.03735
 31
0.0
  0
LINE
  8
0
 10
917.705124
 20
497.03735
 30
0.0
 11
917.868847
 21
497.016347
 31
0.0
  0
LINE
  8
0
 10
917.868847
 20
497.016347
 30
0.0
 11
918.028752
 21
496.981503
 31
0.0
  0
LINE
  8
0
 10
918.028752
 20
496.981503
 30
0.0
 11
918.189133
 21
496.936634
 31
0.0
  0
LINE
  8
0
 10
918.189133
 20
496.936634
 30
0.0
 11
918.342355
 21
496.877445
 31
0.0
  0
LINE
  8
0
 10
918.342355
 20
496.877445
 30
0.0
 11
918.491759
 21
496.804414
 31
0.0
  0
LINE
  8
0
 10
918.491759
 20
496.804414
 30
0.0
 11
918.634479
 21
496.717063
 31
0.0
  0
LINE
  8
0
 10
918.634479
 20
496.717063
 30
0.0
 11
918.766699
 21
496.62303
 31
0.0
  0
LINE
  8
0
 10
918.766699
 20
496.62303
 30
0.0
 11
918.895577
 21
496.515154
 31
0.0
  0
LINE
  8
0
 10
918.895577
 20
496.515154
 30
0.0
 11
919.010136
 21
496.400596
 31
0.0
  0
LINE
  8
0
 10
919.010136
 20
496.400596
 30
0.0
 11
919.118012
 21
496.271717
 31
0.0
  0
LINE
  8
0
 10
919.118012
 20
496.271717
 30
0.0
 11
919.212045
 21
496.139498
 31
0.0
  0
LINE
  8
0
 10
919.212045
 20
496.139498
 30
0.0
 11
919.299396
 21
495.996777
 31
0.0
  0
LINE
  8
0
 10
919.299396
 20
495.996777
 30
0.0
 11
919.372427
 21
495.847374
 31
0.0
  0
LINE
  8
0
 10
919.372427
 20
495.847374
 30
0.0
 11
919.431615
 21
495.694152
 31
0.0
  0
LINE
  8
0
 10
919.431615
 20
495.694152
 30
0.0
 11
919.476484
 21
495.53377
 31
0.0
  0
LINE
  8
0
 10
919.476484
 20
495.53377
 30
0.0
 11
919.511329
 21
495.373865
 31
0.0
  0
LINE
  8
0
 10
919.511329
 20
495.373865
 30
0.0
 11
919.532331
 21
495.210142
 31
0.0
  0
LINE
  8
0
 10
919.532331
 20
495.210142
 30
0.0
 11
919.539491
 21
495.043078
 31
0.0
  0
LINE
  8
0
 10
917.841162
 20
494.145226
 30
0.0
 11
917.834002
 21
494.270763
 31
0.0
  0
LINE
  8
0
 10
917.834002
 20
494.270763
 30
0.0
 11
917.813
 21
494.392481
 31
0.0
  0
LINE
  8
0
 10
917.813
 20
494.392481
 30
0.0
 11
917.781973
 21
494.514199
 31
0.0
  0
LINE
  8
0
 10
917.781973
 20
494.514199
 30
0.0
 11
917.736627
 21
494.632577
 31
0.0
  0
LINE
  8
0
 10
917.736627
 20
494.632577
 30
0.0
 11
917.677439
 21
494.743794
 31
0.0
  0
LINE
  8
0
 10
917.677439
 20
494.743794
 30
0.0
 11
917.611568
 21
494.848328
 31
0.0
  0
LINE
  8
0
 10
917.611568
 20
494.848328
 30
0.0
 11
917.531377
 21
494.945703
 31
0.0
  0
LINE
  8
0
 10
917.531377
 20
494.945703
 30
0.0
 11
917.440685
 21
495.036395
 31
0.0
  0
LINE
  8
0
 10
917.440685
 20
495.036395
 30
0.0
 11
917.34331
 21
495.116109
 31
0.0
  0
LINE
  8
0
 10
917.34331
 20
495.116109
 30
0.0
 11
917.238775
 21
495.182457
 31
0.0
  0
LINE
  8
0
 10
917.238775
 20
495.182457
 30
0.0
 11
917.127558
 21
495.241646
 31
0.0
  0
LINE
  8
0
 10
917.127558
 20
495.241646
 30
0.0
 11
917.009181
 21
495.286992
 31
0.0
  0
LINE
  8
0
 10
917.009181
 20
495.286992
 30
0.0
 11
916.887463
 21
495.318018
 31
0.0
  0
LINE
  8
0
 10
916.887463
 20
495.318018
 30
0.0
 11
916.765744
 21
495.33902
 31
0.0
  0
LINE
  8
0
 10
916.765744
 20
495.33902
 30
0.0
 11
916.640207
 21
495.342362
 31
0.0
  0
LINE
  8
0
 10
917.841162
 20
490.498448
 30
0.0
 11
917.841162
 21
494.145226
 31
0.0
  0
LINE
  8
0
 10
919.539491
 20
495.043078
 30
0.0
 11
919.539491
 21
489.544748
 31
0.0
  0
LINE
  8
0
 10
919.539491
 20
489.544748
 30
0.0
 11
919.532331
 21
489.381025
 31
0.0
  0
LINE
  8
0
 10
919.532331
 20
489.381025
 30
0.0
 11
919.511329
 21
489.213961
 31
0.0
  0
LINE
  8
0
 10
919.511329
 20
489.213961
 30
0.0
 11
919.476484
 21
489.054056
 31
0.0
  0
LINE
  8
0
 10
919.476484
 20
489.054056
 30
0.0
 11
919.431615
 21
488.893674
 31
0.0
  0
LINE
  8
0
 10
919.431615
 20
488.893674
 30
0.0
 11
919.372427
 21
488.74093
 31
0.0
  0
LINE
  8
0
 10
919.372427
 20
488.74093
 30
0.0
 11
919.299396
 21
488.591049
 31
0.0
  0
LINE
  8
0
 10
919.299396
 20
488.591049
 30
0.0
 11
919.212045
 21
488.452147
 31
0.0
  0
LINE
  8
0
 10
919.212045
 20
488.452147
 30
0.0
 11
919.118012
 21
488.316109
 31
0.0
  0
LINE
  8
0
 10
919.118012
 20
488.316109
 30
0.0
 11
919.010136
 21
488.191049
 31
0.0
  0
LINE
  8
0
 10
919.010136
 20
488.191049
 30
0.0
 11
918.895577
 21
488.072672
 31
0.0
  0
LINE
  8
0
 10
918.895577
 20
488.072672
 30
0.0
 11
918.766699
 21
487.964796
 31
0.0
  0
LINE
  8
0
 10
918.766699
 20
487.964796
 30
0.0
 11
918.634479
 21
487.870763
 31
0.0
  0
LINE
  8
0
 10
918.634479
 20
487.870763
 30
0.0
 11
918.491759
 21
487.78723
 31
0.0
  0
LINE
  8
0
 10
918.491759
 20
487.78723
 30
0.0
 11
918.342355
 21
487.714199
 31
0.0
  0
LINE
  8
0
 10
918.342355
 20
487.714199
 30
0.0
 11
918.189133
 21
487.65167
 31
0.0
  0
LINE
  8
0
 10
918.189133
 20
487.65167
 30
0.0
 11
918.028752
 21
487.606324
 31
0.0
  0
LINE
  8
0
 10
918.028752
 20
487.606324
 30
0.0
 11
917.868847
 21
487.571479
 31
0.0
  0
LINE
  8
0
 10
917.868847
 20
487.571479
 30
0.0
 11
917.705124
 21
487.550476
 31
0.0
  0
LINE
  8
0
 10
917.705124
 20
487.550476
 30
0.0
 11
917.538059
 21
487.543794
 31
0.0
  0
LINE
  8
0
 10
917.538059
 20
487.543794
 30
0.0
 11
916.615864
 21
487.975297
 31
0.0
  0
LINE
  8
0
 10
916.615864
 20
487.975297
 30
0.0
 11
916.515148
 21
488.030667
 31
0.0
  0
LINE
  8
0
 10
916.515148
 20
488.030667
 30
0.0
 11
916.421114
 21
488.093674
 31
0.0
  0
LINE
  8
0
 10
916.421114
 20
488.093674
 30
0.0
 11
916.334241
 21
488.170047
 31
0.0
  0
LINE
  8
0
 10
916.334241
 20
488.170047
 30
0.0
 11
916.257391
 21
488.25692
 31
0.0
  0
LINE
  8
0
 10
916.257391
 20
488.25692
 30
0.0
 11
916.19152
 21
488.350954
 31
0.0
  0
LINE
  8
0
 10
916.19152
 20
488.350954
 30
0.0
 11
916.135673
 21
488.452147
 31
0.0
  0
LINE
  8
0
 10
916.135673
 20
488.452147
 30
0.0
 11
916.094145
 21
488.556204
 31
0.0
  0
LINE
  8
0
 10
916.094145
 20
488.556204
 30
0.0
 11
916.062642
 21
488.667899
 31
0.0
  0
LINE
  8
0
 10
916.062642
 20
488.667899
 30
0.0
 11
916.045458
 21
488.779116
 31
0.0
  0
LINE
  8
0
 10
916.045458
 20
488.779116
 30
0.0
 11
916.038298
 21
488.893674
 31
0.0
  0
LINE
  8
0
 10
916.038298
 20
488.893674
 30
0.0
 11
916.048799
 21
489.00871
 31
0.0
  0
LINE
  8
0
 10
916.048799
 20
489.00871
 30
0.0
 11
916.069802
 21
489.123746
 31
0.0
  0
LINE
  8
0
 10
916.069802
 20
489.123746
 30
0.0
 11
916.104647
 21
489.231622
 31
0.0
  0
LINE
  8
0
 10
916.104647
 20
489.231622
 30
0.0
 11
916.149515
 21
489.335679
 31
0.0
  0
LINE
  8
0
 10
916.149515
 20
489.335679
 30
0.0
 11
916.208704
 21
489.436872
 31
0.0
  0
LINE
  8
0
 10
916.208704
 20
489.436872
 30
0.0
 11
916.275052
 21
489.527087
 31
0.0
  0
LINE
  8
0
 10
916.275052
 20
489.527087
 30
0.0
 11
916.355243
 21
489.610619
 31
0.0
  0
LINE
  8
0
 10
916.355243
 20
489.610619
 30
0.0
 11
916.442117
 21
489.68365
 31
0.0
  0
LINE
  8
0
 10
916.539491
 20
489.746658
 30
0.0
 11
917.841162
 21
490.498448
 31
0.0
  0
LINE
  8
0
 10
916.442117
 20
489.68365
 30
0.0
 11
916.539491
 21
489.746658
 31
0.0
  0
LINE
  8
0
 10
910.309896
 20
491.267422
 30
0.0
 11
910.376245
 21
491.204893
 31
0.0
  0
LINE
  8
0
 10
910.376245
 20
491.204893
 30
0.0
 11
910.449276
 21
491.149045
 31
0.0
  0
LINE
  8
0
 10
910.449276
 20
491.149045
 30
0.0
 11
910.532808
 21
491.103699
 31
0.0
  0
LINE
  8
0
 10
910.532808
 20
491.103699
 30
0.0
 11
910.619681
 21
491.072196
 31
0.0
  0
LINE
  8
0
 10
910.619681
 20
491.072196
 30
0.0
 11
910.710373
 21
491.051671
 31
0.0
  0
LINE
  8
0
 10
910.710373
 20
491.051671
 30
0.0
 11
910.800588
 21
491.044511
 31
0.0
  0
LINE
  8
0
 10
910.800588
 20
491.044511
 30
0.0
 11
910.894622
 21
491.051671
 31
0.0
  0
LINE
  8
0
 10
910.894622
 20
491.051671
 30
0.0
 11
910.985314
 21
491.072196
 31
0.0
  0
LINE
  8
0
 10
910.985314
 20
491.072196
 30
0.0
 11
911.072187
 21
491.103699
 31
0.0
  0
LINE
  8
0
 10
911.072187
 20
491.103699
 30
0.0
 11
911.152378
 21
491.149045
 31
0.0
  0
LINE
  8
0
 10
911.152378
 20
491.149045
 30
0.0
 11
911.228751
 21
491.204893
 31
0.0
  0
LINE
  8
0
 10
911.228751
 20
491.204893
 30
0.0
 11
911.29128
 21
491.267422
 31
0.0
  0
LINE
  8
0
 10
911.29128
 20
491.267422
 30
0.0
 11
911.347128
 21
491.343795
 31
0.0
  0
LINE
  8
0
 10
911.347128
 20
491.343795
 30
0.0
 11
911.392474
 21
491.423986
 31
0.0
  0
LINE
  8
0
 10
911.392474
 20
491.423986
 30
0.0
 11
911.427319
 21
491.510859
 31
0.0
  0
LINE
  8
0
 10
911.427319
 20
491.510859
 30
0.0
 11
911.444502
 21
491.601551
 31
0.0
  0
LINE
  8
0
 10
911.444502
 20
491.601551
 30
0.0
 11
911.451662
 21
491.695585
 31
0.0
  0
LINE
  8
0
 10
911.451662
 20
491.695585
 30
0.0
 11
911.444502
 21
491.785799
 31
0.0
  0
LINE
  8
0
 10
911.444502
 20
491.785799
 30
0.0
 11
911.427319
 21
491.876492
 31
0.0
  0
LINE
  8
0
 10
911.427319
 20
491.876492
 30
0.0
 11
911.392474
 21
491.963365
 31
0.0
  0
LINE
  8
0
 10
911.392474
 20
491.963365
 30
0.0
 11
911.347128
 21
492.046897
 31
0.0
  0
LINE
  8
0
 10
911.347128
 20
492.046897
 30
0.0
 11
911.29128
 21
492.119928
 31
0.0
  0
LINE
  8
0
 10
911.29128
 20
492.119928
 30
0.0
 11
911.228751
 21
492.186277
 31
0.0
  0
LINE
  8
0
 10
911.228751
 20
492.186277
 30
0.0
 11
911.152378
 21
492.241647
 31
0.0
  0
LINE
  8
0
 10
911.152378
 20
492.241647
 30
0.0
 11
911.072187
 21
492.286993
 31
0.0
  0
LINE
  8
0
 10
911.072187
 20
492.286993
 30
0.0
 11
910.985314
 21
492.318496
 31
0.0
  0
LINE
  8
0
 10
910.985314
 20
492.318496
 30
0.0
 11
910.894622
 21
492.339021
 31
0.0
  0
LINE
  8
0
 10
910.894622
 20
492.339021
 30
0.0
 11
910.800588
 21
492.34284
 31
0.0
  0
LINE
  8
0
 10
910.800588
 20
492.34284
 30
0.0
 11
910.710373
 21
492.339021
 31
0.0
  0
LINE
  8
0
 10
910.710373
 20
492.339021
 30
0.0
 11
910.619681
 21
492.318496
 31
0.0
  0
LINE
  8
0
 10
910.619681
 20
492.318496
 30
0.0
 11
910.532808
 21
492.286993
 31
0.0
  0
LINE
  8
0
 10
910.532808
 20
492.286993
 30
0.0
 11
910.449276
 21
492.241647
 31
0.0
  0
LINE
  8
0
 10
910.449276
 20
492.241647
 30
0.0
 11
910.376245
 21
492.186277
 31
0.0
  0
LINE
  8
0
 10
910.376245
 20
492.186277
 30
0.0
 11
910.309896
 21
492.119928
 31
0.0
  0
LINE
  8
0
 10
910.309896
 20
492.119928
 30
0.0
 11
910.254526
 21
492.046897
 31
0.0
  0
LINE
  8
0
 10
910.254526
 20
492.046897
 30
0.0
 11
910.20918
 21
491.963365
 31
0.0
  0
LINE
  8
0
 10
910.20918
 20
491.963365
 30
0.0
 11
910.177677
 21
491.876492
 31
0.0
  0
LINE
  8
0
 10
910.177677
 20
491.876492
 30
0.0
 11
910.156674
 21
491.785799
 31
0.0
  0
LINE
  8
0
 10
910.156674
 20
491.785799
 30
0.0
 11
910.153333
 21
491.695585
 31
0.0
  0
LINE
  8
0
 10
910.153333
 20
491.695585
 30
0.0
 11
910.156674
 21
491.601551
 31
0.0
  0
LINE
  8
0
 10
910.156674
 20
491.601551
 30
0.0
 11
910.177677
 21
491.510859
 31
0.0
  0
LINE
  8
0
 10
910.177677
 20
491.510859
 30
0.0
 11
910.20918
 21
491.423986
 31
0.0
  0
LINE
  8
0
 10
910.20918
 20
491.423986
 30
0.0
 11
910.254526
 21
491.343795
 31
0.0
  0
LINE
  8
0
 10
910.254526
 20
491.343795
 30
0.0
 11
910.309896
 21
491.267422
 31
0.0
  0
LINE
  8
0
 10
911.441161
 20
491.806802
 30
0.0
 11
911.03066
 21
494.138544
 31
0.0
  0
LINE
  8
0
 10
909.791519
 20
493.678878
 30
0.0
 11
910.160493
 21
491.580549
 31
0.0
  0
LINE
  8
0
 10
905.65023
 20
493.83926
 30
0.0
 11
909.603452
 21
493.83926
 31
0.0
  0
LINE
  8
0
 10
910.853094
 20
494.552387
 30
0.0
 11
910.915624
 21
494.455012
 31
0.0
  0
LINE
  8
0
 10
910.915624
 20
494.455012
 30
0.0
 11
910.964311
 21
494.354296
 31
0.0
  0
LINE
  8
0
 10
909.791519
 20
493.678878
 30
0.0
 11
909.774335
 21
493.731384
 31
0.0
  0
LINE
  8
0
 10
909.774335
 20
493.731384
 30
0.0
 11
909.746173
 21
493.77673
 31
0.0
  0
LINE
  8
0
 10
909.746173
 20
493.77673
 30
0.0
 11
909.704646
 21
493.811098
 31
0.0
  0
LINE
  8
0
 10
909.704646
 20
493.811098
 30
0.0
 11
909.65214
 21
493.8321
 31
0.0
  0
LINE
  8
0
 10
909.65214
 20
493.8321
 30
0.0
 11
909.600111
 21
493.83926
 31
0.0
  0
LINE
  8
0
 10
910.069801
 20
494.945704
 30
0.0
 11
910.184836
 21
494.939021
 31
0.0
  0
LINE
  8
0
 10
910.184836
 20
494.939021
 30
0.0
 11
910.296054
 21
494.918019
 31
0.0
  0
LINE
  8
0
 10
910.296054
 20
494.918019
 30
0.0
 11
910.40393
 21
494.886515
 31
0.0
  0
LINE
  8
0
 10
910.40393
 20
494.886515
 30
0.0
 11
910.508464
 21
494.841169
 31
0.0
  0
LINE
  8
0
 10
910.508464
 20
494.841169
 30
0.0
 11
910.605839
 21
494.782458
 31
0.0
  0
LINE
  8
0
 10
910.605839
 20
494.782458
 30
0.0
 11
910.696531
 21
494.71611
 31
0.0
  0
LINE
  8
0
 10
910.696531
 20
494.71611
 30
0.0
 11
910.780063
 21
494.639737
 31
0.0
  0
LINE
  8
0
 10
910.780063
 20
494.639737
 30
0.0
 11
910.853094
 21
494.552387
 31
0.0
  0
LINE
  8
0
 10
910.964311
 20
494.354296
 30
0.0
 11
911.005839
 21
494.249761
 31
0.0
  0
LINE
  8
0
 10
911.005839
 20
494.249761
 30
0.0
 11
911.03066
 21
494.138544
 31
0.0
  0
LINE
  8
0
 10
910.069801
 20
494.945704
 30
0.0
 11
818.866459
 21
494.945704
 31
0.0
  0
LINE
  8
0
 10
897.81634
 20
490.97864
 30
0.0
 11
904.734717
 21
490.97864
 31
0.0
  0
LINE
  8
0
 10
898.004407
 20
489.694153
 30
0.0
 11
897.986746
 21
489.715155
 31
0.0
  0
LINE
  8
0
 10
897.986746
 20
489.715155
 30
0.0
 11
897.969562
 21
489.736157
 31
0.0
  0
LINE
  8
0
 10
897.969562
 20
489.736157
 30
0.0
 11
897.955719
 21
489.75716
 31
0.0
  0
LINE
  8
0
 10
897.955719
 20
489.75716
 30
0.0
 11
897.941877
 21
489.777685
 31
0.0
  0
LINE
  8
0
 10
897.941877
 20
489.777685
 30
0.0
 11
897.927557
 21
489.802029
 31
0.0
  0
LINE
  8
0
 10
897.927557
 20
489.802029
 30
0.0
 11
897.913715
 21
489.823031
 31
0.0
  0
LINE
  8
0
 10
897.913715
 20
489.823031
 30
0.0
 11
897.903214
 21
489.847375
 31
0.0
  0
LINE
  8
0
 10
897.903214
 20
489.847375
 30
0.0
 11
897.889371
 21
489.868377
 31
0.0
  0
LINE
  8
0
 10
897.889371
 20
489.868377
 30
0.0
 11
897.87887
 21
489.892721
 31
0.0
  0
LINE
  8
0
 10
897.87887
 20
489.892721
 30
0.0
 11
897.872187
 21
489.917064
 31
0.0
  0
LINE
  8
0
 10
897.872187
 20
489.917064
 30
0.0
 11
897.861686
 21
489.941408
 31
0.0
  0
LINE
  8
0
 10
897.861686
 20
489.941408
 30
0.0
 11
897.854526
 21
489.965752
 31
0.0
  0
LINE
  8
0
 10
897.854526
 20
489.965752
 30
0.0
 11
897.844025
 21
489.990095
 31
0.0
  0
LINE
  8
0
 10
897.844025
 20
489.990095
 30
0.0
 11
897.840684
 21
490.01778
 31
0.0
  0
LINE
  8
0
 10
897.840684
 20
490.01778
 30
0.0
 11
897.834001
 21
490.042124
 31
0.0
  0
LINE
  8
0
 10
897.834001
 20
490.042124
 30
0.0
 11
897.830183
 21
490.066468
 31
0.0
  0
LINE
  8
0
 10
897.830183
 20
490.066468
 30
0.0
 11
897.8235
 21
490.09463
 31
0.0
  0
LINE
  8
0
 10
897.8235
 20
490.09463
 30
0.0
 11
897.8235
 21
490.118974
 31
0.0
  0
LINE
  8
0
 10
897.8235
 20
490.118974
 30
0.0
 11
897.819681
 21
490.143317
 31
0.0
  0
LINE
  8
0
 10
897.819681
 20
490.143317
 30
0.0
 11
897.81634
 21
490.171002
 31
0.0
  0
LINE
  8
0
 10
897.81634
 20
490.171002
 30
0.0
 11
897.81634
 21
490.195346
 31
0.0
  0
LINE
  8
0
 10
897.81634
 20
490.195346
 30
0.0
 11
897.81634
 21
490.199165
 31
0.0
  0
LINE
  8
0
 10
897.81634
 20
490.199165
 30
0.0
 11
897.81634
 21
490.202506
 31
0.0
  0
LINE
  8
0
 10
897.81634
 20
490.202506
 30
0.0
 11
897.81634
 21
490.303222
 31
0.0
  0
LINE
  8
0
 10
897.81634
 20
490.303222
 30
0.0
 11
897.81634
 21
490.404415
 31
0.0
  0
LINE
  8
0
 10
897.81634
 20
490.404415
 30
0.0
 11
897.81634
 21
490.498449
 31
0.0
  0
LINE
  8
0
 10
897.81634
 20
490.498449
 30
0.0
 11
897.81634
 21
490.592005
 31
0.0
  0
LINE
  8
0
 10
897.81634
 20
490.592005
 30
0.0
 11
897.81634
 21
490.675537
 31
0.0
  0
LINE
  8
0
 10
897.81634
 20
490.675537
 30
0.0
 11
897.81634
 21
490.752387
 31
0.0
  0
LINE
  8
0
 10
897.81634
 20
490.752387
 30
0.0
 11
897.81634
 21
490.818258
 31
0.0
  0
LINE
  8
0
 10
897.81634
 20
490.818258
 30
0.0
 11
897.81634
 21
490.874105
 31
0.0
  0
LINE
  8
0
 10
897.81634
 20
490.874105
 30
0.0
 11
897.81634
 21
490.919451
 31
0.0
  0
LINE
  8
0
 10
897.81634
 20
490.919451
 30
0.0
 11
897.81634
 21
490.954296
 31
0.0
  0
LINE
  8
0
 10
897.81634
 20
490.954296
 30
0.0
 11
897.81634
 21
490.97148
 31
0.0
  0
LINE
  8
0
 10
897.81634
 20
490.97148
 30
0.0
 11
897.81634
 21
490.97864
 31
0.0
  0
LINE
  8
0
 10
897.81634
 20
490.97864
 30
0.0
 11
904.734717
 21
490.97864
 31
0.0
  0
LINE
  8
0
 10
904.734717
 20
490.97864
 30
0.0
 11
904.731376
 21
490.957637
 31
0.0
  0
LINE
  8
0
 10
904.731376
 20
490.957637
 30
0.0
 11
904.720875
 21
490.929952
 31
0.0
  0
LINE
  8
0
 10
904.720875
 20
490.929952
 30
0.0
 11
904.710373
 21
490.884606
 31
0.0
  0
LINE
  8
0
 10
904.710373
 20
490.884606
 30
0.0
 11
904.696531
 21
490.828759
 31
0.0
  0
LINE
  8
0
 10
904.696531
 20
490.828759
 30
0.0
 11
904.675529
 21
490.762888
 31
0.0
  0
LINE
  8
0
 10
904.675529
 20
490.762888
 30
0.0
 11
904.658345
 21
490.686038
 31
0.0
  0
LINE
  8
0
 10
904.658345
 20
490.686038
 30
0.0
 11
904.634001
 21
490.599165
 31
0.0
  0
LINE
  8
0
 10
904.634001
 20
490.599165
 30
0.0
 11
904.609657
 21
490.508472
 31
0.0
  0
LINE
  8
0
 10
904.609657
 20
490.508472
 30
0.0
 11
904.581972
 21
490.407757
 31
0.0
  0
LINE
  8
0
 10
904.581972
 20
490.407757
 30
0.0
 11
904.55381
 21
490.306563
 31
0.0
  0
LINE
  8
0
 10
904.55381
 20
490.306563
 30
0.0
 11
904.526125
 21
490.202506
 31
0.0
  0
LINE
  8
0
 10
904.526125
 20
490.202506
 30
0.0
 11
904.526125
 21
490.195346
 31
0.0
  0
LINE
  8
0
 10
904.526125
 20
490.195346
 30
0.0
 11
904.474097
 21
489.997255
 31
0.0
  0
LINE
  8
0
 10
904.474097
 20
489.997255
 30
0.0
 11
904.466937
 21
489.976253
 31
0.0
  0
LINE
  8
0
 10
904.466937
 20
489.976253
 30
0.0
 11
904.459777
 21
489.955251
 31
0.0
  0
LINE
  8
0
 10
904.459777
 20
489.955251
 30
0.0
 11
904.453094
 21
489.934248
 31
0.0
  0
LINE
  8
0
 10
904.453094
 20
489.934248
 30
0.0
 11
904.445934
 21
489.917064
 31
0.0
  0
LINE
  8
0
 10
904.445934
 20
489.917064
 30
0.0
 11
904.435433
 21
489.896062
 31
0.0
  0
LINE
  8
0
 10
904.435433
 20
489.896062
 30
0.0
 11
904.428751
 21
489.87506
 31
0.0
  0
LINE
  8
0
 10
904.428751
 20
489.87506
 30
0.0
 11
904.418249
 21
489.854535
 31
0.0
  0
LINE
  8
0
 10
904.418249
 20
489.854535
 30
0.0
 11
904.411089
 21
489.836873
 31
0.0
  0
LINE
  8
0
 10
904.411089
 20
489.836873
 30
0.0
 11
904.400588
 21
489.815871
 31
0.0
  0
LINE
  8
0
 10
904.400588
 20
489.815871
 30
0.0
 11
904.386746
 21
489.798687
 31
0.0
  0
LINE
  8
0
 10
904.386746
 20
489.798687
 30
0.0
 11
904.376245
 21
489.781504
 31
0.0
  0
LINE
  8
0
 10
904.376245
 20
489.781504
 30
0.0
 11
904.366221
 21
489.763842
 31
0.0
  0
LINE
  8
0
 10
904.366221
 20
489.763842
 30
0.0
 11
904.351901
 21
489.746659
 31
0.0
  0
LINE
  8
0
 10
904.351901
 20
489.746659
 30
0.0
 11
904.338058
 21
489.728998
 31
0.0
  0
LINE
  8
0
 10
904.338058
 20
489.728998
 30
0.0
 11
904.327557
 21
489.711814
 31
0.0
  0
LINE
  8
0
 10
904.327557
 20
489.711814
 30
0.0
 11
904.313715
 21
489.694153
 31
0.0
  0
LINE
  8
0
 10
904.313715
 20
489.694153
 30
0.0
 11
904.299872
 21
489.676969
 31
0.0
  0
LINE
  8
0
 10
904.299872
 20
489.676969
 30
0.0
 11
904.282688
 21
489.663126
 31
0.0
  0
LINE
  8
0
 10
904.282688
 20
489.663126
 30
0.0
 11
904.268369
 21
489.645465
 31
0.0
  0
LINE
  8
0
 10
904.268369
 20
489.645465
 30
0.0
 11
904.254526
 21
489.631623
 31
0.0
  0
LINE
  8
0
 10
904.254526
 20
489.631623
 30
0.0
 11
904.237342
 21
489.61778
 31
0.0
  0
LINE
  8
0
 10
904.237342
 20
489.61778
 30
0.0
 11
904.219681
 21
489.603938
 31
0.0
  0
LINE
  8
0
 10
904.219681
 20
489.603938
 30
0.0
 11
904.202498
 21
489.590095
 31
0.0
  0
LINE
  8
0
 10
904.202498
 20
489.590095
 30
0.0
 11
904.188655
 21
489.575776
 31
0.0
  0
LINE
  8
0
 10
904.188655
 20
489.575776
 30
0.0
 11
904.167653
 21
489.561933
 31
0.0
  0
LINE
  8
0
 10
904.167653
 20
489.561933
 30
0.0
 11
904.149992
 21
489.551432
 31
0.0
  0
LINE
  8
0
 10
904.149992
 20
489.551432
 30
0.0
 11
904.132808
 21
489.537589
 31
0.0
  0
LINE
  8
0
 10
904.132808
 20
489.537589
 30
0.0
 11
904.115624
 21
489.527088
 31
0.0
  0
LINE
  8
0
 10
904.115624
 20
489.527088
 30
0.0
 11
904.094622
 21
489.516587
 31
0.0
  0
LINE
  8
0
 10
904.094622
 20
489.516587
 30
0.0
 11
904.076961
 21
489.506563
 31
0.0
  0
LINE
  8
0
 10
904.076961
 20
489.506563
 30
0.0
 11
904.056435
 21
489.496062
 31
0.0
  0
LINE
  8
0
 10
904.056435
 20
489.496062
 30
0.0
 11
904.038774
 21
489.488902
 31
0.0
  0
LINE
  8
0
 10
904.038774
 20
489.488902
 30
0.0
 11
904.017772
 21
489.478401
 31
0.0
  0
LINE
  8
0
 10
904.017772
 20
489.478401
 30
0.0
 11
903.997247
 21
489.471718
 31
0.0
  0
LINE
  8
0
 10
903.997247
 20
489.471718
 30
0.0
 11
903.976245
 21
489.464558
 31
0.0
  0
LINE
  8
0
 10
903.976245
 20
489.464558
 30
0.0
 11
903.958583
 21
489.457876
 31
0.0
  0
LINE
  8
0
 10
903.958583
 20
489.457876
 30
0.0
 11
903.938058
 21
489.450716
 31
0.0
  0
LINE
  8
0
 10
903.938058
 20
489.450716
 30
0.0
 11
903.917056
 21
489.443556
 31
0.0
  0
LINE
  8
0
 10
903.917056
 20
489.443556
 30
0.0
 11
903.896054
 21
489.440215
 31
0.0
  0
LINE
  8
0
 10
903.896054
 20
489.440215
 30
0.0
 11
903.87171
 21
489.433055
 31
0.0
  0
LINE
  8
0
 10
903.87171
 20
489.433055
 30
0.0
 11
903.850708
 21
489.429714
 31
0.0
  0
LINE
  8
0
 10
903.850708
 20
489.429714
 30
0.0
 11
903.830183
 21
489.426372
 31
0.0
  0
LINE
  8
0
 10
903.830183
 20
489.426372
 30
0.0
 11
903.80918
 21
489.426372
 31
0.0
  0
LINE
  8
0
 10
903.80918
 20
489.426372
 30
0.0
 11
903.788178
 21
489.423031
 31
0.0
  0
LINE
  8
0
 10
903.788178
 20
489.423031
 30
0.0
 11
903.767175
 21
489.419212
 31
0.0
  0
LINE
  8
0
 10
903.767175
 20
489.419212
 30
0.0
 11
903.74665
 21
489.419212
 31
0.0
  0
LINE
  8
0
 10
903.74665
 20
489.419212
 30
0.0
 11
903.722307
 21
489.419212
 31
0.0
  0
LINE
  8
0
 10
903.722307
 20
489.419212
 30
0.0
 11
903.718488
 21
489.419212
 31
0.0
  0
LINE
  8
0
 10
903.718488
 20
489.419212
 30
0.0
 11
898.595815
 21
489.419212
 31
0.0
  0
LINE
  8
0
 10
898.595815
 20
489.419212
 30
0.0
 11
903.718488
 21
489.419212
 31
0.0
  0
LINE
  8
0
 10
898.595815
 20
489.419212
 30
0.0
 11
898.547128
 21
489.423031
 31
0.0
  0
LINE
  8
0
 10
898.547128
 20
489.423031
 30
0.0
 11
898.519443
 21
489.423031
 31
0.0
  0
LINE
  8
0
 10
898.519443
 20
489.423031
 30
0.0
 11
898.495099
 21
489.426372
 31
0.0
  0
LINE
  8
0
 10
898.495099
 20
489.426372
 30
0.0
 11
898.467414
 21
489.429714
 31
0.0
  0
LINE
  8
0
 10
898.467414
 20
489.429714
 30
0.0
 11
898.442593
 21
489.436873
 31
0.0
  0
LINE
  8
0
 10
898.442593
 20
489.436873
 30
0.0
 11
898.418249
 21
489.440215
 31
0.0
  0
LINE
  8
0
 10
898.418249
 20
489.440215
 30
0.0
 11
898.390564
 21
489.447375
 31
0.0
  0
LINE
  8
0
 10
898.390564
 20
489.447375
 30
0.0
 11
898.366221
 21
489.454057
 31
0.0
  0
LINE
  8
0
 10
898.366221
 20
489.454057
 30
0.0
 11
898.341877
 21
489.461217
 31
0.0
  0
LINE
  8
0
 10
898.341877
 20
489.461217
 30
0.0
 11
898.317533
 21
489.471718
 31
0.0
  0
LINE
  8
0
 10
898.317533
 20
489.471718
 30
0.0
 11
898.29319
 21
489.48222
 31
0.0
  0
LINE
  8
0
 10
898.29319
 20
489.48222
 30
0.0
 11
898.268846
 21
489.492243
 31
0.0
  0
LINE
  8
0
 10
898.268846
 20
489.492243
 30
0.0
 11
898.247844
 21
489.502745
 31
0.0
  0
LINE
  8
0
 10
898.247844
 20
489.502745
 30
0.0
 11
898.2235
 21
489.516587
 31
0.0
  0
LINE
  8
0
 10
898.2235
 20
489.516587
 30
0.0
 11
898.199156
 21
489.527088
 31
0.0
  0
LINE
  8
0
 10
898.199156
 20
489.527088
 30
0.0
 11
898.178154
 21
489.540931
 31
0.0
  0
LINE
  8
0
 10
898.178154
 20
489.540931
 30
0.0
 11
898.157629
 21
489.555251
 31
0.0
  0
LINE
  8
0
 10
898.157629
 20
489.555251
 30
0.0
 11
898.136626
 21
489.572434
 31
0.0
  0
LINE
  8
0
 10
898.136626
 20
489.572434
 30
0.0
 11
898.115624
 21
489.586277
 31
0.0
  0
LINE
  8
0
 10
898.115624
 20
489.586277
 30
0.0
 11
898.094622
 21
489.603938
 31
0.0
  0
LINE
  8
0
 10
898.094622
 20
489.603938
 30
0.0
 11
898.074097
 21
489.621122
 31
0.0
  0
LINE
  8
0
 10
898.074097
 20
489.621122
 30
0.0
 11
898.056435
 21
489.638783
 31
0.0
  0
LINE
  8
0
 10
898.056435
 20
489.638783
 30
0.0
 11
898.039252
 21
489.655967
 31
0.0
  0
LINE
  8
0
 10
898.039252
 20
489.655967
 30
0.0
 11
898.021591
 21
489.676969
 31
0.0
  0
LINE
  8
0
 10
898.021591
 20
489.676969
 30
0.0
 11
898.004407
 21
489.694153
 31
0.0
  0
LINE
  8
0
 10
897.81634
 20
490.195346
 30
0.0
 11
897.81634
 21
490.199165
 31
0.0
  0
LINE
  8
0
 10
897.81634
 20
490.97864
 30
0.0
 11
897.81634
 21
491.444988
 31
0.0
  0
LINE
  8
0
 10
904.734717
 20
490.97864
 30
0.0
 11
905.462163
 21
493.696539
 31
0.0
  0
LINE
  8
0
 10
897.81634
 20
491.444988
 30
0.0
 11
831.11992
 21
491.444988
 31
0.0
  0
LINE
  8
0
 10
905.65023
 20
493.83926
 30
0.0
 11
905.601543
 21
493.8321
 31
0.0
  0
LINE
  8
0
 10
905.601543
 20
493.8321
 30
0.0
 11
905.552856
 21
493.814916
 31
0.0
  0
LINE
  8
0
 10
905.552856
 20
493.814916
 30
0.0
 11
905.514669
 21
493.783413
 31
0.0
  0
LINE
  8
0
 10
905.514669
 20
493.783413
 30
0.0
 11
905.483166
 21
493.741885
 31
0.0
  0
LINE
  8
0
 10
905.483166
 20
493.741885
 30
0.0
 11
905.462163
 21
493.696539
 31
0.0
  0
LINE
  8
0
 10
824.204884
 20
490.97864
 30
0.0
 11
831.11992
 21
490.97864
 31
0.0
  0
LINE
  8
0
 10
831.11992
 20
490.97864
 30
0.0
 11
824.204884
 21
490.97864
 31
0.0
  0
LINE
  8
0
 10
825.221113
 20
489.419212
 30
0.0
 11
830.340445
 21
489.419212
 31
0.0
  0
LINE
  8
0
 10
830.340445
 20
489.419212
 30
0.0
 11
825.221113
 21
489.419212
 31
0.0
  0
LINE
  8
0
 10
831.11992
 20
491.444988
 30
0.0
 11
831.11992
 21
490.97864
 31
0.0
  0
LINE
  8
0
 10
831.11992
 20
490.97864
 30
0.0
 11
831.11992
 21
490.97148
 31
0.0
  0
LINE
  8
0
 10
831.11992
 20
490.97148
 30
0.0
 11
831.11992
 21
490.954296
 31
0.0
  0
LINE
  8
0
 10
831.11992
 20
490.954296
 30
0.0
 11
831.11992
 21
490.919451
 31
0.0
  0
LINE
  8
0
 10
831.11992
 20
490.919451
 30
0.0
 11
831.11992
 21
490.874105
 31
0.0
  0
LINE
  8
0
 10
831.11992
 20
490.874105
 30
0.0
 11
831.11992
 21
490.818258
 31
0.0
  0
LINE
  8
0
 10
831.11992
 20
490.818258
 30
0.0
 11
831.11992
 21
490.752387
 31
0.0
  0
LINE
  8
0
 10
831.11992
 20
490.752387
 30
0.0
 11
831.11992
 21
490.675537
 31
0.0
  0
LINE
  8
0
 10
831.11992
 20
490.675537
 30
0.0
 11
831.11992
 21
490.592005
 31
0.0
  0
LINE
  8
0
 10
831.11992
 20
490.592005
 30
0.0
 11
831.11992
 21
490.498449
 31
0.0
  0
LINE
  8
0
 10
831.11992
 20
490.498449
 30
0.0
 11
831.11992
 21
490.404415
 31
0.0
  0
LINE
  8
0
 10
831.11992
 20
490.404415
 30
0.0
 11
831.11992
 21
490.303222
 31
0.0
  0
LINE
  8
0
 10
831.11992
 20
490.303222
 30
0.0
 11
831.11992
 21
490.202506
 31
0.0
  0
LINE
  8
0
 10
824.413476
 20
490.199165
 30
0.0
 11
824.465982
 21
489.997255
 31
0.0
  0
LINE
  8
0
 10
824.465982
 20
489.997255
 30
0.0
 11
824.472665
 21
489.976253
 31
0.0
  0
LINE
  8
0
 10
824.472665
 20
489.976253
 30
0.0
 11
824.479825
 21
489.955251
 31
0.0
  0
LINE
  8
0
 10
824.479825
 20
489.955251
 30
0.0
 11
824.486507
 21
489.934248
 31
0.0
  0
LINE
  8
0
 10
824.486507
 20
489.934248
 30
0.0
 11
824.493667
 21
489.913723
 31
0.0
  0
LINE
  8
0
 10
824.493667
 20
489.913723
 30
0.0
 11
824.500827
 21
489.896062
 31
0.0
  0
LINE
  8
0
 10
824.500827
 20
489.896062
 30
0.0
 11
824.510851
 21
489.87506
 31
0.0
  0
LINE
  8
0
 10
824.510851
 20
489.87506
 30
0.0
 11
824.518011
 21
489.854535
 31
0.0
  0
LINE
  8
0
 10
824.518011
 20
489.854535
 30
0.0
 11
824.528512
 21
489.836873
 31
0.0
  0
LINE
  8
0
 10
824.528512
 20
489.836873
 30
0.0
 11
824.539013
 21
489.815871
 31
0.0
  0
LINE
  8
0
 10
824.539013
 20
489.815871
 30
0.0
 11
824.549514
 21
489.798687
 31
0.0
  0
LINE
  8
0
 10
824.549514
 20
489.798687
 30
0.0
 11
824.563357
 21
489.781504
 31
0.0
  0
LINE
  8
0
 10
824.563357
 20
489.781504
 30
0.0
 11
824.573858
 21
489.760501
 31
0.0
  0
LINE
  8
0
 10
824.573858
 20
489.760501
 30
0.0
 11
824.5877
 21
489.74284
 31
0.0
  0
LINE
  8
0
 10
824.5877
 20
489.74284
 30
0.0
 11
824.598202
 21
489.725656
 31
0.0
  0
LINE
  8
0
 10
824.598202
 20
489.725656
 30
0.0
 11
824.612044
 21
489.707995
 31
0.0
  0
LINE
  8
0
 10
824.612044
 20
489.707995
 30
0.0
 11
824.625887
 21
489.694153
 31
0.0
  0
LINE
  8
0
 10
824.625887
 20
489.694153
 30
0.0
 11
824.639729
 21
489.676969
 31
0.0
  0
LINE
  8
0
 10
824.639729
 20
489.676969
 30
0.0
 11
824.65739
 21
489.659308
 31
0.0
  0
LINE
  8
0
 10
824.65739
 20
489.659308
 30
0.0
 11
824.671233
 21
489.645465
 31
0.0
  0
LINE
  8
0
 10
824.671233
 20
489.645465
 30
0.0
 11
824.685075
 21
489.628282
 31
0.0
  0
LINE
  8
0
 10
824.685075
 20
489.628282
 30
0.0
 11
824.702259
 21
489.614439
 31
0.0
  0
LINE
  8
0
 10
824.702259
 20
489.614439
 30
0.0
 11
824.71992
 21
489.600119
 31
0.0
  0
LINE
  8
0
 10
824.71992
 20
489.600119
 30
0.0
 11
824.737104
 21
489.586277
 31
0.0
  0
LINE
  8
0
 10
824.737104
 20
489.586277
 30
0.0
 11
824.754765
 21
489.572434
 31
0.0
  0
LINE
  8
0
 10
824.754765
 20
489.572434
 30
0.0
 11
824.771949
 21
489.561933
 31
0.0
  0
LINE
  8
0
 10
824.771949
 20
489.561933
 30
0.0
 11
824.78961
 21
489.548091
 31
0.0
  0
LINE
  8
0
 10
824.78961
 20
489.548091
 30
0.0
 11
824.806793
 21
489.537589
 31
0.0
  0
LINE
  8
0
 10
824.806793
 20
489.537589
 30
0.0
 11
824.824455
 21
489.527088
 31
0.0
  0
LINE
  8
0
 10
824.824455
 20
489.527088
 30
0.0
 11
824.84498
 21
489.516587
 31
0.0
  0
LINE
  8
0
 10
824.84498
 20
489.516587
 30
0.0
 11
824.862641
 21
489.506563
 31
0.0
  0
LINE
  8
0
 10
824.862641
 20
489.506563
 30
0.0
 11
824.883643
 21
489.496062
 31
0.0
  0
LINE
  8
0
 10
824.883643
 20
489.496062
 30
0.0
 11
824.904168
 21
489.485561
 31
0.0
  0
LINE
  8
0
 10
824.904168
 20
489.485561
 30
0.0
 11
824.921829
 21
489.478401
 31
0.0
  0
LINE
  8
0
 10
824.921829
 20
489.478401
 30
0.0
 11
824.942354
 21
489.471718
 31
0.0
  0
LINE
  8
0
 10
824.942354
 20
489.471718
 30
0.0
 11
824.963357
 21
489.461217
 31
0.0
  0
LINE
  8
0
 10
824.963357
 20
489.461217
 30
0.0
 11
824.984359
 21
489.454057
 31
0.0
  0
LINE
  8
0
 10
824.984359
 20
489.454057
 30
0.0
 11
825.005362
 21
489.450716
 31
0.0
  0
LINE
  8
0
 10
825.005362
 20
489.450716
 30
0.0
 11
825.025887
 21
489.443556
 31
0.0
  0
LINE
  8
0
 10
825.025887
 20
489.443556
 30
0.0
 11
825.046889
 21
489.440215
 31
0.0
  0
LINE
  8
0
 10
825.046889
 20
489.440215
 30
0.0
 11
825.067891
 21
489.433055
 31
0.0
  0
LINE
  8
0
 10
825.067891
 20
489.433055
 30
0.0
 11
825.092235
 21
489.429714
 31
0.0
  0
LINE
  8
0
 10
825.092235
 20
489.429714
 30
0.0
 11
825.109419
 21
489.426372
 31
0.0
  0
LINE
  8
0
 10
825.109419
 20
489.426372
 30
0.0
 11
825.130421
 21
489.423031
 31
0.0
  0
LINE
  8
0
 10
825.130421
 20
489.423031
 30
0.0
 11
825.154765
 21
489.423031
 31
0.0
  0
LINE
  8
0
 10
825.154765
 20
489.423031
 30
0.0
 11
825.175767
 21
489.419212
 31
0.0
  0
LINE
  8
0
 10
825.175767
 20
489.419212
 30
0.0
 11
825.213953
 21
489.419212
 31
0.0
  0
LINE
  8
0
 10
825.213953
 20
489.419212
 30
0.0
 11
825.217772
 21
489.419212
 31
0.0
  0
LINE
  8
0
 10
824.413476
 20
490.195346
 30
0.0
 11
824.410135
 21
490.202506
 31
0.0
  0
LINE
  8
0
 10
824.410135
 20
490.202506
 30
0.0
 11
824.364789
 21
490.380072
 31
0.0
  0
LINE
  8
0
 10
824.364789
 20
490.380072
 30
0.0
 11
824.337104
 21
490.480788
 31
0.0
  0
LINE
  8
0
 10
824.337104
 20
490.480788
 30
0.0
 11
824.31276
 21
490.574821
 31
0.0
  0
LINE
  8
0
 10
824.31276
 20
490.574821
 30
0.0
 11
824.288416
 21
490.661694
 31
0.0
  0
LINE
  8
0
 10
824.288416
 20
490.661694
 30
0.0
 11
824.267414
 21
490.741885
 31
0.0
  0
LINE
  8
0
 10
824.267414
 20
490.741885
 30
0.0
 11
824.246412
 21
490.811575
 31
0.0
  0
LINE
  8
0
 10
824.246412
 20
490.811575
 30
0.0
 11
824.232569
 21
490.870764
 31
0.0
  0
LINE
  8
0
 10
824.232569
 20
490.870764
 30
0.0
 11
824.218727
 21
490.919451
 31
0.0
  0
LINE
  8
0
 10
824.218727
 20
490.919451
 30
0.0
 11
824.211567
 21
490.950477
 31
0.0
  0
LINE
  8
0
 10
824.211567
 20
490.950477
 30
0.0
 11
824.204884
 21
490.97148
 31
0.0
  0
LINE
  8
0
 10
824.204884
 20
490.97148
 30
0.0
 11
824.204884
 21
490.97864
 31
0.0
  0
LINE
  8
0
 10
824.204884
 20
490.97864
 30
0.0
 11
823.474097
 21
493.696539
 31
0.0
  0
LINE
  8
0
 10
831.123261
 20
490.195346
 30
0.0
 11
831.11992
 21
490.171002
 31
0.0
  0
LINE
  8
0
 10
831.11992
 20
490.171002
 30
0.0
 11
831.11992
 21
490.143317
 31
0.0
  0
LINE
  8
0
 10
831.11992
 20
490.143317
 30
0.0
 11
831.116101
 21
490.118974
 31
0.0
  0
LINE
  8
0
 10
831.116101
 20
490.118974
 30
0.0
 11
831.11276
 21
490.09463
 31
0.0
  0
LINE
  8
0
 10
831.11276
 20
490.09463
 30
0.0
 11
831.109419
 21
490.066468
 31
0.0
  0
LINE
  8
0
 10
831.109419
 20
490.066468
 30
0.0
 11
831.106077
 21
490.042124
 31
0.0
  0
LINE
  8
0
 10
831.106077
 20
490.042124
 30
0.0
 11
831.098918
 21
490.01778
 31
0.0
  0
LINE
  8
0
 10
831.098918
 20
490.01778
 30
0.0
 11
831.091758
 21
489.990095
 31
0.0
  0
LINE
  8
0
 10
831.091758
 20
489.990095
 30
0.0
 11
831.085075
 21
489.965752
 31
0.0
  0
LINE
  8
0
 10
831.085075
 20
489.965752
 30
0.0
 11
831.077915
 21
489.941408
 31
0.0
  0
LINE
  8
0
 10
831.077915
 20
489.941408
 30
0.0
 11
831.067414
 21
489.917064
 31
0.0
  0
LINE
  8
0
 10
831.067414
 20
489.917064
 30
0.0
 11
831.060731
 21
489.892721
 31
0.0
  0
LINE
  8
0
 10
831.060731
 20
489.892721
 30
0.0
 11
831.046889
 21
489.868377
 31
0.0
  0
LINE
  8
0
 10
831.046889
 20
489.868377
 30
0.0
 11
831.036388
 21
489.847375
 31
0.0
  0
LINE
  8
0
 10
831.036388
 20
489.847375
 30
0.0
 11
831.025887
 21
489.823031
 31
0.0
  0
LINE
  8
0
 10
831.025887
 20
489.823031
 30
0.0
 11
831.012044
 21
489.802029
 31
0.0
  0
LINE
  8
0
 10
831.012044
 20
489.802029
 30
0.0
 11
830.998202
 21
489.777685
 31
0.0
  0
LINE
  8
0
 10
830.998202
 20
489.777685
 30
0.0
 11
830.983882
 21
489.75716
 31
0.0
  0
LINE
  8
0
 10
830.983882
 20
489.75716
 30
0.0
 11
830.970039
 21
489.736157
 31
0.0
  0
LINE
  8
0
 10
830.970039
 20
489.736157
 30
0.0
 11
830.952856
 21
489.715155
 31
0.0
  0
LINE
  8
0
 10
830.952856
 20
489.715155
 30
0.0
 11
830.935194
 21
489.694153
 31
0.0
  0
LINE
  8
0
 10
830.935194
 20
489.694153
 30
0.0
 11
830.918011
 21
489.676969
 31
0.0
  0
LINE
  8
0
 10
830.918011
 20
489.676969
 30
0.0
 11
830.90035
 21
489.655967
 31
0.0
  0
LINE
  8
0
 10
830.90035
 20
489.655967
 30
0.0
 11
830.883166
 21
489.638783
 31
0.0
  0
LINE
  8
0
 10
830.883166
 20
489.638783
 30
0.0
 11
830.865982
 21
489.621122
 31
0.0
  0
LINE
  8
0
 10
830.865982
 20
489.621122
 30
0.0
 11
830.84498
 21
489.603938
 31
0.0
  0
LINE
  8
0
 10
830.84498
 20
489.603938
 30
0.0
 11
830.823977
 21
489.586277
 31
0.0
  0
LINE
  8
0
 10
830.823977
 20
489.586277
 30
0.0
 11
830.802975
 21
489.572434
 31
0.0
  0
LINE
  8
0
 10
830.802975
 20
489.572434
 30
0.0
 11
830.78245
 21
489.555251
 31
0.0
  0
LINE
  8
0
 10
830.78245
 20
489.555251
 30
0.0
 11
830.761447
 21
489.540931
 31
0.0
  0
LINE
  8
0
 10
830.761447
 20
489.540931
 30
0.0
 11
830.740445
 21
489.527088
 31
0.0
  0
LINE
  8
0
 10
830.740445
 20
489.527088
 30
0.0
 11
830.716101
 21
489.516587
 31
0.0
  0
LINE
  8
0
 10
830.716101
 20
489.516587
 30
0.0
 11
830.691758
 21
489.502745
 31
0.0
  0
LINE
  8
0
 10
830.691758
 20
489.502745
 30
0.0
 11
830.670755
 21
489.492243
 31
0.0
  0
LINE
  8
0
 10
830.670755
 20
489.492243
 30
0.0
 11
830.646412
 21
489.48222
 31
0.0
  0
LINE
  8
0
 10
830.646412
 20
489.48222
 30
0.0
 11
830.622068
 21
489.471718
 31
0.0
  0
LINE
  8
0
 10
830.622068
 20
489.471718
 30
0.0
 11
830.597724
 21
489.461217
 31
0.0
  0
LINE
  8
0
 10
830.597724
 20
489.461217
 30
0.0
 11
830.573381
 21
489.454057
 31
0.0
  0
LINE
  8
0
 10
830.573381
 20
489.454057
 30
0.0
 11
830.549037
 21
489.447375
 31
0.0
  0
LINE
  8
0
 10
830.549037
 20
489.447375
 30
0.0
 11
830.524693
 21
489.440215
 31
0.0
  0
LINE
  8
0
 10
830.524693
 20
489.440215
 30
0.0
 11
830.50035
 21
489.436873
 31
0.0
  0
LINE
  8
0
 10
830.50035
 20
489.436873
 30
0.0
 11
830.472665
 21
489.429714
 31
0.0
  0
LINE
  8
0
 10
830.472665
 20
489.429714
 30
0.0
 11
830.448321
 21
489.426372
 31
0.0
  0
LINE
  8
0
 10
830.448321
 20
489.426372
 30
0.0
 11
830.423977
 21
489.423031
 31
0.0
  0
LINE
  8
0
 10
830.423977
 20
489.423031
 30
0.0
 11
830.399634
 21
489.423031
 31
0.0
  0
LINE
  8
0
 10
830.399634
 20
489.423031
 30
0.0
 11
830.378631
 21
489.419212
 31
0.0
  0
LINE
  8
0
 10
830.378631
 20
489.419212
 30
0.0
 11
830.36813
 21
489.419212
 31
0.0
  0
LINE
  8
0
 10
830.343786
 20
489.419212
 30
0.0
 11
830.340445
 21
489.419212
 31
0.0
  0
LINE
  8
0
 10
831.11992
 20
490.195346
 30
0.0
 11
831.11992
 21
490.199165
 31
0.0
  0
LINE
  8
0
 10
823.28603
 20
493.83926
 30
0.0
 11
823.338058
 21
493.8321
 31
0.0
  0
LINE
  8
0
 10
823.338058
 20
493.8321
 30
0.0
 11
823.383404
 21
493.814916
 31
0.0
  0
LINE
  8
0
 10
823.383404
 20
493.814916
 30
0.0
 11
823.425409
 21
493.783413
 31
0.0
  0
LINE
  8
0
 10
823.425409
 20
493.783413
 30
0.0
 11
823.456435
 21
493.741885
 31
0.0
  0
LINE
  8
0
 10
823.456435
 20
493.741885
 30
0.0
 11
823.474097
 21
493.696539
 31
0.0
  0
LINE
  8
0
 10
819.336149
 20
493.83926
 30
0.0
 11
823.28603
 21
493.83926
 31
0.0
  0
LINE
  8
0
 10
817.495099
 20
491.806802
 30
0.0
 11
817.909419
 21
494.138544
 31
0.0
  0
LINE
  8
0
 10
818.786268
 20
491.695585
 30
0.0
 11
818.779109
 21
491.785799
 31
0.0
  0
LINE
  8
0
 10
818.779109
 20
491.785799
 30
0.0
 11
818.761925
 21
491.876492
 31
0.0
  0
LINE
  8
0
 10
818.761925
 20
491.876492
 30
0.0
 11
818.72708
 21
491.963365
 31
0.0
  0
LINE
  8
0
 10
818.72708
 20
491.963365
 30
0.0
 11
818.685552
 21
492.046897
 31
0.0
  0
LINE
  8
0
 10
818.685552
 20
492.046897
 30
0.0
 11
818.629705
 21
492.119928
 31
0.0
  0
LINE
  8
0
 10
818.629705
 20
492.119928
 30
0.0
 11
818.563357
 21
492.186277
 31
0.0
  0
LINE
  8
0
 10
818.563357
 20
492.186277
 30
0.0
 11
818.486984
 21
492.241647
 31
0.0
  0
LINE
  8
0
 10
818.486984
 20
492.241647
 30
0.0
 11
818.406793
 21
492.286993
 31
0.0
  0
LINE
  8
0
 10
818.406793
 20
492.286993
 30
0.0
 11
818.31992
 21
492.318496
 31
0.0
  0
LINE
  8
0
 10
818.31992
 20
492.318496
 30
0.0
 11
818.229228
 21
492.339021
 31
0.0
  0
LINE
  8
0
 10
818.229228
 20
492.339021
 30
0.0
 11
818.135672
 21
492.34284
 31
0.0
  0
LINE
  8
0
 10
818.135672
 20
492.34284
 30
0.0
 11
818.04498
 21
492.339021
 31
0.0
  0
LINE
  8
0
 10
818.04498
 20
492.339021
 30
0.0
 11
817.954288
 21
492.318496
 31
0.0
  0
LINE
  8
0
 10
817.954288
 20
492.318496
 30
0.0
 11
817.867414
 21
492.286993
 31
0.0
  0
LINE
  8
0
 10
817.867414
 20
492.286993
 30
0.0
 11
817.783882
 21
492.241647
 31
0.0
  0
LINE
  8
0
 10
817.783882
 20
492.241647
 30
0.0
 11
817.710851
 21
492.186277
 31
0.0
  0
LINE
  8
0
 10
817.710851
 20
492.186277
 30
0.0
 11
817.64498
 21
492.119928
 31
0.0
  0
LINE
  8
0
 10
817.64498
 20
492.119928
 30
0.0
 11
817.589132
 21
492.046897
 31
0.0
  0
LINE
  8
0
 10
817.589132
 20
492.046897
 30
0.0
 11
817.543786
 21
491.963365
 31
0.0
  0
LINE
  8
0
 10
817.543786
 20
491.963365
 30
0.0
 11
817.51276
 21
491.876492
 31
0.0
  0
LINE
  8
0
 10
817.51276
 20
491.876492
 30
0.0
 11
817.495099
 21
491.785799
 31
0.0
  0
LINE
  8
0
 10
817.495099
 20
491.785799
 30
0.0
 11
817.487939
 21
491.695585
 31
0.0
  0
LINE
  8
0
 10
817.487939
 20
491.695585
 30
0.0
 11
817.495099
 21
491.601551
 31
0.0
  0
LINE
  8
0
 10
817.495099
 20
491.601551
 30
0.0
 11
817.51276
 21
491.510859
 31
0.0
  0
LINE
  8
0
 10
817.51276
 20
491.510859
 30
0.0
 11
817.543786
 21
491.423986
 31
0.0
  0
LINE
  8
0
 10
817.543786
 20
491.423986
 30
0.0
 11
817.589132
 21
491.343795
 31
0.0
  0
LINE
  8
0
 10
817.589132
 20
491.343795
 30
0.0
 11
817.64498
 21
491.267422
 31
0.0
  0
LINE
  8
0
 10
817.64498
 20
491.267422
 30
0.0
 11
817.710851
 21
491.204893
 31
0.0
  0
LINE
  8
0
 10
817.710851
 20
491.204893
 30
0.0
 11
817.783882
 21
491.149045
 31
0.0
  0
LINE
  8
0
 10
817.783882
 20
491.149045
 30
0.0
 11
817.867414
 21
491.103699
 31
0.0
  0
LINE
  8
0
 10
817.867414
 20
491.103699
 30
0.0
 11
817.954288
 21
491.072196
 31
0.0
  0
LINE
  8
0
 10
817.954288
 20
491.072196
 30
0.0
 11
818.04498
 21
491.051671
 31
0.0
  0
LINE
  8
0
 10
818.04498
 20
491.051671
 30
0.0
 11
818.135672
 21
491.044511
 31
0.0
  0
LINE
  8
0
 10
818.135672
 20
491.044511
 30
0.0
 11
818.229228
 21
491.051671
 31
0.0
  0
LINE
  8
0
 10
818.229228
 20
491.051671
 30
0.0
 11
818.31992
 21
491.072196
 31
0.0
  0
LINE
  8
0
 10
818.31992
 20
491.072196
 30
0.0
 11
818.406793
 21
491.103699
 31
0.0
  0
LINE
  8
0
 10
818.406793
 20
491.103699
 30
0.0
 11
818.486984
 21
491.149045
 31
0.0
  0
LINE
  8
0
 10
818.486984
 20
491.149045
 30
0.0
 11
818.563357
 21
491.204893
 31
0.0
  0
LINE
  8
0
 10
818.563357
 20
491.204893
 30
0.0
 11
818.629705
 21
491.267422
 31
0.0
  0
LINE
  8
0
 10
818.629705
 20
491.267422
 30
0.0
 11
818.685552
 21
491.343795
 31
0.0
  0
LINE
  8
0
 10
818.685552
 20
491.343795
 30
0.0
 11
818.72708
 21
491.423986
 31
0.0
  0
LINE
  8
0
 10
818.72708
 20
491.423986
 30
0.0
 11
818.761925
 21
491.510859
 31
0.0
  0
LINE
  8
0
 10
818.761925
 20
491.510859
 30
0.0
 11
818.779109
 21
491.601551
 31
0.0
  0
LINE
  8
0
 10
818.779109
 20
491.601551
 30
0.0
 11
818.786268
 21
491.695585
 31
0.0
  0
LINE
  8
0
 10
819.148082
 20
493.678878
 30
0.0
 11
818.775767
 21
491.580549
 31
0.0
  0
LINE
  8
0
 10
819.148082
 20
493.678878
 30
0.0
 11
819.161925
 21
493.731384
 31
0.0
  0
LINE
  8
0
 10
819.161925
 20
493.731384
 30
0.0
 11
819.193428
 21
493.77673
 31
0.0
  0
LINE
  8
0
 10
819.193428
 20
493.77673
 30
0.0
 11
819.234956
 21
493.811098
 31
0.0
  0
LINE
  8
0
 10
819.234956
 20
493.811098
 30
0.0
 11
819.28412
 21
493.8321
 31
0.0
  0
LINE
  8
0
 10
819.28412
 20
493.8321
 30
0.0
 11
819.33949
 21
493.83926
 31
0.0
  0
LINE
  8
0
 10
818.866459
 20
494.945704
 30
0.0
 11
818.751424
 21
494.939021
 31
0.0
  0
LINE
  8
0
 10
818.751424
 20
494.939021
 30
0.0
 11
818.640206
 21
494.918019
 31
0.0
  0
LINE
  8
0
 10
818.640206
 20
494.918019
 30
0.0
 11
818.53233
 21
494.886515
 31
0.0
  0
LINE
  8
0
 10
818.53233
 20
494.886515
 30
0.0
 11
818.427796
 21
494.841169
 31
0.0
  0
LINE
  8
0
 10
818.427796
 20
494.841169
 30
0.0
 11
818.330421
 21
494.782458
 31
0.0
  0
LINE
  8
0
 10
818.330421
 20
494.782458
 30
0.0
 11
818.239729
 21
494.71611
 31
0.0
  0
LINE
  8
0
 10
818.086507
 20
494.552387
 30
0.0
 11
818.023977
 21
494.455012
 31
0.0
  0
LINE
  8
0
 10
818.023977
 20
494.455012
 30
0.0
 11
817.971949
 21
494.354296
 31
0.0
  0
LINE
  8
0
 10
817.971949
 20
494.354296
 30
0.0
 11
817.933762
 21
494.249761
 31
0.0
  0
LINE
  8
0
 10
817.933762
 20
494.249761
 30
0.0
 11
817.909419
 21
494.138544
 31
0.0
  0
LINE
  8
0
 10
818.239729
 20
494.71611
 30
0.0
 11
818.160015
 21
494.635919
 31
0.0
  0
LINE
  8
0
 10
818.160015
 20
494.635919
 30
0.0
 11
818.086507
 21
494.552387
 31
0.0
  0
ENDSEC
  0
EOF
