  0
SECTION
  2
HEADER
  9
$ACADVER
  1
AC1009
  9
$INSBASE
 10
0.0
 20
0.0
 30
0.0
  9
$EXTMIN
 10
-194.92659
 20
-72.708747
 30
0.0
  9
$EXTMAX
 10
-44.92659
 20
-13.0
 30
0.0
  9
$LIMMIN
 10
-194.92659
 20
-72.708747
  9
$LIMMAX
 10
-44.92659
 20
-13.0
  9
$ORTHOMODE
 70
     0
  9
$REGENMODE
 70
     1
  9
$FILLMODE
 70
     1
  9
$QTEXTMODE
 70
     0
  9
$MIRRTEXT
 70
     1
  9
$DRAGMODE
 70
     2
  9
$LTSCALE
 40
1.0
  9
$OSMODE
 70
     0
  9
$ATTMODE
 70
     1
  9
$TEXTSIZE
 40
3.5
  9
$TRACEWID
 40
0.5
  9
$TEXTSTYLE
  7
STANDARD
  9
$CLAYER
  8
0
  9
$CELTYPE
  6
BYLAYER
  9
$CECOLOR
 62
   256
  9
$DIMSCALE
 40
1.0
  9
$DIMASZ
 40
0.18
  9
$DIMEXO
 40
0.0625
  9
$DIMDLI
 40
0.38
  9
$DIMRND
 40
0.0
  9
$DIMDLE
 40
0.0
  9
$DIMEXE
 40
0.18
  9
$DIMTP
 40
0.0
  9
$DIMTM
 40
0.0
  9
$DIMTXT
 40
0.18
  9
$DIMCEN
 40
0.09
  9
$DIMTSZ
 40
0.0
  9
$DIMTOL
 70
     0
  9
$DIMLIM
 70
     0
  9
$DIMTIH
 70
     1
  9
$DIMTOH
 70
     1
  9
$DIMSE1
 70
     0
  9
$DIMSE2
 70
     0
  9
$DIMTAD
 70
     0
  9
$DIMZIN
 70
     0
  9
$DIMBLK
  1

  9
$DIMASO
 70
     1
  9
$DIMSHO
 70
     1
  9
$DIMPOST
  1

  9
$DIMAPOST
  1

  9
$DIMALT
 70
     0
  9
$DIMALTD
 70
     2
  9
$DIMALTF
 40
25.4
  9
$DIMLFAC
 40
1.0
  9
$DIMTOFL
 70
     0
  9
$DIMTVP
 40
0.0
  9
$DIMTIX
 70
     0
  9
$DIMSOXD
 70
     0
  9
$DIMSAH
 70
     0
  9
$DIMBLK1
  1

  9
$DIMBLK2
  1

  9
$DIMSTYLE
  2
*UNNAMED
  9
$DIMCLRD
 70
     0
  9
$DIMCLRE
 70
     0
  9
$DIMCLRT
 70
     0
  9
$DIMTFAC
 40
1.0
  9
$DIMGAP
 40
0.09
  9
$LUNITS
 70
     2
  9
$LUPREC
 70
     4
  9
$SKETCHINC
 40
0.1
  9
$FILLETRAD
 40
2.0
  9
$AUNITS
 70
     0
  9
$AUPREC
 70
     0
  9
$MENU
  1
ACAD
  9
$ELEVATION
 40
0.0
  9
$PELEVATION
 40
0.0
  9
$THICKNESS
 40
0.0
  9
$LIMCHECK
 70
     0
  9
$BLIPMODE
 70
     1
  9
$CHAMFERA
 40
0.0
  9
$CHAMFERB
 40
0.0
  9
$SKPOLY
 70
     0
  9
$TDCREATE
 40
2450953.680705440
  9
$TDUPDATE
 40
2450953.681220370
  9
$TDINDWG
 40
0.0003350694
  9
$TDUSRTIMER
 40
0.0003350694
  9
$USRTIMER
 70
     1
  9
$ANGBASE
 50
0.0
  9
$ANGDIR
 70
     0
  9
$PDMODE
 70
     0
  9
$PDSIZE
 40
0.0
  9
$PLINEWID
 40
0.0
  9
$COORDS
 70
     2
  9
$SPLFRAME
 70
     0
  9
$SPLINETYPE
 70
     6
  9
$SPLINESEGS
 70
     8
  9
$ATTDIA
 70
     0
  9
$ATTREQ
 70
     1
  9
$HANDLING
 70
     0
  9
$HANDSEED
  5
0
  9
$SURFTAB1
 70
     6
  9
$SURFTAB2
 70
     6
  9
$SURFTYPE
 70
     6
  9
$SURFU
 70
     6
  9
$SURFV
 70
     6
  9
$UCSNAME
  2

  9
$UCSORG
 10
0.0
 20
0.0
 30
0.0
  9
$UCSXDIR
 10
1.0
 20
0.0
 30
0.0
  9
$UCSYDIR
 10
0.0
 20
1.0
 30
0.0
  9
$PUCSNAME
  2

  9
$PUCSORG
 10
0.0
 20
0.0
 30
0.0
  9
$PUCSXDIR
 10
1.0
 20
0.0
 30
0.0
  9
$PUCSYDIR
 10
0.0
 20
1.0
 30
0.0
  9
$USERI1
 70
     0
  9
$USERI2
 70
     0
  9
$USERI3
 70
     0
  9
$USERI4
 70
     0
  9
$USERI5
 70
     0
  9
$USERR1
 40
0.0
  9
$USERR2
 40
0.0
  9
$USERR3
 40
0.0
  9
$USERR4
 40
0.0
  9
$USERR5
 40
0.0
  9
$WORLDVIEW
 70
     1
  9
$SHADEDGE
 70
     3
  9
$SHADEDIF
 70
    70
  9
$TILEMODE
 70
     1
  9
$MAXACTVP
 70
    16
  9
$PINSBASE
 10
0.0
 20
0.0
 30
0.0
  9
$PLIMCHECK
 70
     0
  9
$PEXTMIN
 10
1.000000E+20
 20
1.000000E+20
 30
1.000000E+20
  9
$PEXTMAX
 10
-1.000000E+20
 20
-1.000000E+20
 30
-1.000000E+20
  9
$PLIMMIN
 10
0.0
 20
0.0
  9
$PLIMMAX
 10
420.0
 20
297.0
  9
$UNITMODE
 70
     0
  9
$VISRETAIN
 70
     0
  9
$PLINEGEN
 70
     0
  9
$PSLTSCALE
 70
     1
  9
$TREEDEPTH
 70
  3020
  9
$DWGCODEPAGE
  3
iso8859-1
  0
ENDSEC
  0
SECTION
  2
TABLES
  0
TABLE
  2
VPORT
 70
     2
  0
VPORT
  2
*ACTIVE
 70
     0
 10
0.0
 20
0.0
 11
1.0
 21
1.0
 12
-103.201203
 22
-27.641853
 13
0.0
 23
0.0
 14
1.0
 24
1.0
 15
0.0
 25
0.0
 16
0.0
 26
0.0
 36
1.0
 17
0.0
 27
0.0
 37
0.0
 40
138.126249
 41
1.748359
 42
50.0
 43
0.0
 44
0.0
 50
0.0
 51
0.0
 71
     0
 72
   100
 73
     1
 74
     0
 75
     0
 76
     0
 77
     0
 78
     0
  0
ENDTAB
  0
TABLE
  2
LTYPE
 70
     1
  0
LTYPE
  2
CONTINUOUS
 70
    64
  3
Solid line
 72
    65
 73
     0
 40
0.0
  0
ENDTAB
  0
TABLE
  2
LAYER
 70
     1
  0
LAYER
  2
0
 70
    64
 62
     7
  6
CONTINUOUS
  0
ENDTAB
  0
TABLE
  2
STYLE
 70
     1
  0
STYLE
  2
STANDARD
 70
     0
 40
0.0
 41
1.0
 50
0.0
 71
     0
 42
3.5
  3
txt
  4

  0
ENDTAB
  0
TABLE
  2
VIEW
 70
     0
  0
ENDTAB
  0
TABLE
  2
UCS
 70
     0
  0
ENDTAB
  0
TABLE
  2
APPID
 70
     1
  0
APPID
  2
ACAD
 70
    64
  0
ENDTAB
  0
TABLE
  2
DIMSTYLE
 70
     0
  0
ENDTAB
  0
ENDSEC
  0
SECTION
  2
BLOCKS
  0
ENDSEC
  0
SECTION
  2
ENTITIES
  0
LINE
  8
0
 10
-44.92659
 20
-32.804054
 30
0.0
 11
-194.92659
 21
-32.804054
 31
0.0
  0
LINE
  8
0
 10
-122.468841
 20
-34.907573
 30
0.0
 11
-122.468841
 21
-49.908494
 31
0.0
  0
LINE
  8
0
 10
-78.167646
 20
-67.932738
 30
0.0
 11
-78.167646
 21
-65.234243
 31
0.0
  0
LINE
  8
0
 10
-74.069474
 20
-67.932738
 30
0.0
 11
-78.167646
 21
-67.932738
 31
0.0
  0
LINE
  8
0
 10
-74.069474
 20
-65.234243
 30
0.0
 11
-74.069474
 21
-67.932738
 31
0.0
  0
LINE
  8
0
 10
-78.167646
 20
-65.234243
 30
0.0
 11
-74.069474
 21
-65.234243
 31
0.0
  0
LINE
  8
0
 10
-116.566563
 20
-65.234243
 30
0.0
 11
-120.668691
 21
-65.234243
 31
0.0
  0
LINE
  8
0
 10
-116.566563
 20
-67.932738
 30
0.0
 11
-116.566563
 21
-65.234243
 31
0.0
  0
LINE
  8
0
 10
-120.668691
 20
-67.932738
 30
0.0
 11
-116.566563
 21
-67.932738
 31
0.0
  0
LINE
  8
0
 10
-120.668691
 20
-65.234243
 30
0.0
 11
-120.668691
 21
-67.932738
 31
0.0
  0
LINE
  8
0
 10
-174.531298
 20
-32.716343
 30
0.0
 11
-174.369132
 21
-32.709422
 31
0.0
  0
LINE
  8
0
 10
-174.697421
 20
-32.737109
 30
0.0
 11
-174.531298
 21
-32.716343
 31
0.0
  0
LINE
  8
0
 10
-174.859587
 20
-32.771717
 30
0.0
 11
-174.697421
 21
-32.737109
 31
0.0
  0
LINE
  8
0
 10
-175.015327
 20
-32.816709
 30
0.0
 11
-174.859587
 21
-32.771717
 31
0.0
  0
LINE
  8
0
 10
-175.170572
 20
-32.879005
 30
0.0
 11
-175.015327
 21
-32.816709
 31
0.0
  0
LINE
  8
0
 10
-175.319389
 20
-32.951683
 30
0.0
 11
-175.170572
 21
-32.879005
 31
0.0
  0
LINE
  8
0
 10
-175.460791
 20
-33.03425
 30
0.0
 11
-175.319389
 21
-32.951683
 31
0.0
  0
LINE
  8
0
 10
-175.595765
 20
-33.131154
 30
0.0
 11
-175.460791
 21
-33.03425
 31
0.0
  0
LINE
  8
0
 10
-175.723818
 20
-33.238441
 30
0.0
 11
-175.595765
 21
-33.131154
 31
0.0
  0
LINE
  8
0
 10
-175.837532
 20
-33.355617
 30
0.0
 11
-175.723818
 21
-33.238441
 31
0.0
  0
LINE
  8
0
 10
-175.944819
 20
-33.480208
 30
0.0
 11
-175.837532
 21
-33.355617
 31
0.0
  0
LINE
  8
0
 10
-176.041724
 20
-33.615182
 30
0.0
 11
-175.944819
 21
-33.480208
 31
0.0
  0
LINE
  8
0
 10
-176.127751
 20
-33.756584
 30
0.0
 11
-176.041724
 21
-33.615182
 31
0.0
  0
LINE
  8
0
 10
-176.20043
 20
-33.905402
 30
0.0
 11
-176.127751
 21
-33.756584
 31
0.0
  0
LINE
  8
0
 10
-176.259265
 20
-34.060647
 30
0.0
 11
-176.20043
 21
-33.905402
 31
0.0
  0
LINE
  8
0
 10
-176.307717
 20
-34.219847
 30
0.0
 11
-176.259265
 21
-34.060647
 31
0.0
  0
LINE
  8
0
 10
-176.338865
 20
-34.378553
 30
0.0
 11
-176.307717
 21
-34.219847
 31
0.0
  0
LINE
  8
0
 10
-176.35963
 20
-34.544675
 30
0.0
 11
-176.338865
 21
-34.378553
 31
0.0
  0
LINE
  8
0
 10
-176.366552
 20
-34.710303
 30
0.0
 11
-176.35963
 21
-34.544675
 31
0.0
  0
LINE
  8
0
 10
-168.667091
 20
-65.234243
 30
0.0
 11
-168.667091
 21
-67.932738
 31
0.0
  0
LINE
  8
0
 10
-164.568919
 20
-65.234243
 30
0.0
 11
-168.667091
 21
-65.234243
 31
0.0
  0
LINE
  8
0
 10
-164.568919
 20
-67.932738
 30
0.0
 11
-164.568919
 21
-65.234243
 31
0.0
  0
LINE
  8
0
 10
-168.667091
 20
-67.932738
 30
0.0
 11
-164.568919
 21
-67.932738
 31
0.0
  0
LINE
  8
0
 10
-168.667091
 20
-70.006297
 30
0.0
 11
-168.667091
 21
-69.332415
 31
0.0
  0
LINE
  8
0
 10
-168.674012
 20
-70.120506
 30
0.0
 11
-168.667091
 21
-70.006297
 31
0.0
  0
LINE
  8
0
 10
-168.691317
 20
-70.23076
 30
0.0
 11
-168.674012
 21
-70.120506
 31
0.0
  0
LINE
  8
0
 10
-168.722465
 20
-70.338047
 30
0.0
 11
-168.691317
 21
-70.23076
 31
0.0
  0
LINE
  8
0
 10
-168.767456
 20
-70.441873
 30
0.0
 11
-168.722465
 21
-70.338047
 31
0.0
  0
LINE
  8
0
 10
-168.819369
 20
-70.538284
 30
0.0
 11
-168.767456
 21
-70.441873
 31
0.0
  0
LINE
  8
0
 10
-168.885126
 20
-70.631727
 30
0.0
 11
-168.819369
 21
-70.538284
 31
0.0
  0
LINE
  8
0
 10
-168.960771
 20
-70.714788
 30
0.0
 11
-168.885126
 21
-70.631727
 31
0.0
  0
LINE
  8
0
 10
-169.043832
 20
-70.790927
 30
0.0
 11
-168.960771
 21
-70.714788
 31
0.0
  0
LINE
  8
0
 10
-169.133815
 20
-70.852729
 30
0.0
 11
-169.043832
 21
-70.790927
 31
0.0
  0
LINE
  8
0
 10
-169.23418
 20
-70.908103
 30
0.0
 11
-169.133815
 21
-70.852729
 31
0.0
  0
LINE
  8
0
 10
-169.337512
 20
-70.953094
 30
0.0
 11
-169.23418
 21
-70.908103
 31
0.0
  0
LINE
  8
0
 10
-169.444799
 20
-70.984242
 30
0.0
 11
-169.337512
 21
-70.953094
 31
0.0
  0
LINE
  8
0
 10
-169.555547
 20
-71.001547
 30
0.0
 11
-169.444799
 21
-70.984242
 31
0.0
  0
LINE
  8
0
 10
-169.665801
 20
-71.008468
 30
0.0
 11
-169.555547
 21
-71.001547
 31
0.0
  0
LINE
  8
0
 10
-171.753204
 20
-71.008468
 30
0.0
 11
-169.665801
 21
-71.008468
 31
0.0
  0
LINE
  8
0
 10
-171.863457
 20
-71.001547
 30
0.0
 11
-171.753204
 21
-71.008468
 31
0.0
  0
LINE
  8
0
 10
-171.974205
 20
-70.984242
 30
0.0
 11
-171.863457
 21
-71.001547
 31
0.0
  0
LINE
  8
0
 10
-172.084953
 20
-70.953094
 30
0.0
 11
-171.974205
 21
-70.984242
 31
0.0
  0
LINE
  8
0
 10
-172.188285
 20
-70.908103
 30
0.0
 11
-172.084953
 21
-70.953094
 31
0.0
  0
LINE
  8
0
 10
-172.28519
 20
-70.852729
 30
0.0
 11
-172.188285
 21
-70.908103
 31
0.0
  0
LINE
  8
0
 10
-172.375172
 20
-70.790927
 30
0.0
 11
-172.28519
 21
-70.852729
 31
0.0
  0
LINE
  8
0
 10
-172.461694
 20
-70.714788
 30
0.0
 11
-172.375172
 21
-70.790927
 31
0.0
  0
LINE
  8
0
 10
-174.376053
 20
-68.800429
 30
0.0
 11
-172.461694
 21
-70.714788
 31
0.0
  0
LINE
  8
0
 10
-174.448732
 20
-68.717368
 30
0.0
 11
-174.376053
 21
-68.800429
 31
0.0
  0
LINE
  8
0
 10
-174.513994
 20
-68.623924
 30
0.0
 11
-174.448732
 21
-68.717368
 31
0.0
  0
LINE
  8
0
 10
-174.569368
 20
-68.527514
 30
0.0
 11
-174.513994
 21
-68.623924
 31
0.0
  0
LINE
  8
0
 10
-174.610899
 20
-68.423688
 30
0.0
 11
-174.569368
 21
-68.527514
 31
0.0
  0
LINE
  8
0
 10
-174.642046
 20
-68.316401
 30
0.0
 11
-174.610899
 21
-68.423688
 31
0.0
  0
LINE
  8
0
 10
-174.662812
 20
-68.206147
 30
0.0
 11
-174.642046
 21
-68.316401
 31
0.0
  0
LINE
  8
0
 10
-174.666273
 20
-68.095399
 30
0.0
 11
-174.662812
 21
-68.206147
 31
0.0
  0
LINE
  8
0
 10
-174.666273
 20
-66.80647
 30
0.0
 11
-174.666273
 21
-68.095399
 31
0.0
  0
LINE
  8
0
 10
-174.659351
 20
-66.702644
 30
0.0
 11
-174.666273
 21
-66.80647
 31
0.0
  0
LINE
  8
0
 10
-174.638586
 20
-66.602773
 30
0.0
 11
-174.659351
 21
-66.702644
 31
0.0
  0
LINE
  8
0
 10
-174.607438
 20
-66.502407
 30
0.0
 11
-174.638586
 21
-66.602773
 31
0.0
  0
LINE
  8
0
 10
-174.558985
 20
-66.408964
 30
0.0
 11
-174.607438
 21
-66.502407
 31
0.0
  0
LINE
  8
0
 10
-174.503611
 20
-66.322442
 30
0.0
 11
-174.558985
 21
-66.408964
 31
0.0
  0
LINE
  8
0
 10
-174.434888
 20
-66.243336
 30
0.0
 11
-174.503611
 21
-66.322442
 31
0.0
  0
LINE
  8
0
 10
-174.355288
 20
-66.174118
 30
0.0
 11
-174.434888
 21
-66.243336
 31
0.0
  0
LINE
  8
0
 10
-174.268766
 20
-66.115284
 30
0.0
 11
-174.355288
 21
-66.174118
 31
0.0
  0
LINE
  8
0
 10
-174.171862
 20
-66.070292
 30
0.0
 11
-174.268766
 21
-66.115284
 31
0.0
  0
LINE
  8
0
 10
-174.075452
 20
-66.035683
 30
0.0
 11
-174.171862
 21
-66.070292
 31
0.0
  0
LINE
  8
0
 10
-173.971625
 20
-66.014918
 30
0.0
 11
-174.075452
 21
-66.035683
 31
0.0
  0
LINE
  8
0
 10
-173.867799
 20
-66.007996
 30
0.0
 11
-173.971625
 21
-66.014918
 31
0.0
  0
LINE
  8
0
 10
-173.764467
 20
-66.014918
 30
0.0
 11
-173.867799
 21
-66.007996
 31
0.0
  0
LINE
  8
0
 10
-173.660641
 20
-66.035683
 30
0.0
 11
-173.764467
 21
-66.014918
 31
0.0
  0
LINE
  8
0
 10
-173.560275
 20
-66.070292
 30
0.0
 11
-173.660641
 21
-66.035683
 31
0.0
  0
LINE
  8
0
 10
-173.467326
 20
-66.115284
 30
0.0
 11
-173.560275
 21
-66.070292
 31
0.0
  0
LINE
  8
0
 10
-173.380804
 20
-66.174118
 30
0.0
 11
-173.467326
 21
-66.115284
 31
0.0
  0
LINE
  8
0
 10
-173.301204
 20
-66.243336
 30
0.0
 11
-173.380804
 21
-66.174118
 31
0.0
  0
LINE
  8
0
 10
-173.231987
 20
-66.322442
 30
0.0
 11
-173.301204
 21
-66.243336
 31
0.0
  0
LINE
  8
0
 10
-173.173152
 20
-66.408964
 30
0.0
 11
-173.231987
 21
-66.322442
 31
0.0
  0
LINE
  8
0
 10
-173.128655
 20
-66.502407
 30
0.0
 11
-173.173152
 21
-66.408964
 31
0.0
  0
LINE
  8
0
 10
-173.094046
 20
-66.602773
 30
0.0
 11
-173.128655
 21
-66.502407
 31
0.0
  0
LINE
  8
0
 10
-173.073281
 20
-66.702644
 30
0.0
 11
-173.094046
 21
-66.602773
 31
0.0
  0
LINE
  8
0
 10
-173.066359
 20
-66.80647
 30
0.0
 11
-173.073281
 21
-66.702644
 31
0.0
  0
LINE
  8
0
 10
-173.066359
 20
-67.846711
 30
0.0
 11
-173.066359
 21
-66.80647
 31
0.0
  0
LINE
  8
0
 10
-171.504515
 20
-69.408555
 30
0.0
 11
-173.066359
 21
-67.846711
 31
0.0
  0
LINE
  8
0
 10
-170.267004
 20
-69.408555
 30
0.0
 11
-171.504515
 21
-69.408555
 31
0.0
  0
LINE
  8
0
 10
-170.267004
 20
-64.854041
 30
0.0
 11
-170.267004
 21
-69.408555
 31
0.0
  0
LINE
  8
0
 10
-175.212102
 20
-62.545637
 30
0.0
 11
-170.267004
 21
-64.854041
 31
0.0
  0
LINE
  8
0
 10
-175.357459
 20
-62.472958
 30
0.0
 11
-175.212102
 21
-62.545637
 31
0.0
  0
LINE
  8
0
 10
-175.4954
 20
-62.386436
 30
0.0
 11
-175.357459
 21
-62.472958
 31
0.0
  0
LINE
  8
0
 10
-175.623452
 20
-62.290026
 30
0.0
 11
-175.4954
 21
-62.386436
 31
0.0
  0
LINE
  8
0
 10
-175.744583
 20
-62.182739
 30
0.0
 11
-175.623452
 21
-62.290026
 31
0.0
  0
LINE
  8
0
 10
-175.858297
 20
-62.065069
 30
0.0
 11
-175.744583
 21
-62.182739
 31
0.0
  0
LINE
  8
0
 10
-175.962124
 20
-61.940972
 30
0.0
 11
-175.858297
 21
-62.065069
 31
0.0
  0
LINE
  8
0
 10
-176.055567
 20
-61.809459
 30
0.0
 11
-175.962124
 21
-61.940972
 31
0.0
  0
LINE
  8
0
 10
-176.134673
 20
-61.668057
 30
0.0
 11
-176.055567
 21
-61.809459
 31
0.0
  0
LINE
  8
0
 10
-176.203891
 20
-61.522701
 30
0.0
 11
-176.134673
 21
-61.668057
 31
0.0
  0
LINE
  8
0
 10
-176.262725
 20
-61.370916
 30
0.0
 11
-176.203891
 21
-61.522701
 31
0.0
  0
LINE
  8
0
 10
-176.307717
 20
-61.215177
 30
0.0
 11
-176.262725
 21
-61.370916
 31
0.0
  0
LINE
  8
0
 10
-176.342326
 20
-61.055977
 30
0.0
 11
-176.307717
 21
-61.215177
 31
0.0
  0
LINE
  8
0
 10
-176.35963
 20
-60.897271
 30
0.0
 11
-176.342326
 21
-61.055977
 31
0.0
  0
LINE
  8
0
 10
-176.366552
 20
-60.73461
 30
0.0
 11
-176.35963
 21
-60.897271
 31
0.0
  0
LINE
  8
0
 10
-176.366552
 20
-34.710303
 30
0.0
 11
-176.366552
 21
-60.73461
 31
0.0
  0
LINE
  8
0
 10
-176.35963
 20
-34.544675
 30
0.0
 11
-176.366552
 21
-34.710303
 31
0.0
  0
LINE
  8
0
 10
-176.338865
 20
-34.378553
 30
0.0
 11
-176.35963
 21
-34.544675
 31
0.0
  0
LINE
  8
0
 10
-176.307717
 20
-34.219847
 30
0.0
 11
-176.338865
 21
-34.378553
 31
0.0
  0
LINE
  8
0
 10
-176.259265
 20
-34.060647
 30
0.0
 11
-176.307717
 21
-34.219847
 31
0.0
  0
LINE
  8
0
 10
-176.20043
 20
-33.905402
 30
0.0
 11
-176.259265
 21
-34.060647
 31
0.0
  0
LINE
  8
0
 10
-176.127751
 20
-33.756584
 30
0.0
 11
-176.20043
 21
-33.905402
 31
0.0
  0
LINE
  8
0
 10
-176.041724
 20
-33.615182
 30
0.0
 11
-176.127751
 21
-33.756584
 31
0.0
  0
LINE
  8
0
 10
-175.944819
 20
-33.480208
 30
0.0
 11
-176.041724
 21
-33.615182
 31
0.0
  0
LINE
  8
0
 10
-175.837532
 20
-33.355617
 30
0.0
 11
-175.944819
 21
-33.480208
 31
0.0
  0
LINE
  8
0
 10
-175.723818
 20
-33.238441
 30
0.0
 11
-175.837532
 21
-33.355617
 31
0.0
  0
LINE
  8
0
 10
-175.595765
 20
-33.131154
 30
0.0
 11
-175.723818
 21
-33.238441
 31
0.0
  0
LINE
  8
0
 10
-175.460791
 20
-33.03425
 30
0.0
 11
-175.595765
 21
-33.131154
 31
0.0
  0
LINE
  8
0
 10
-175.319389
 20
-32.951683
 30
0.0
 11
-175.460791
 21
-33.03425
 31
0.0
  0
LINE
  8
0
 10
-175.170572
 20
-32.879005
 30
0.0
 11
-175.319389
 21
-32.951683
 31
0.0
  0
LINE
  8
0
 10
-175.015327
 20
-32.816709
 30
0.0
 11
-175.170572
 21
-32.879005
 31
0.0
  0
LINE
  8
0
 10
-174.859587
 20
-32.771717
 30
0.0
 11
-175.015327
 21
-32.816709
 31
0.0
  0
LINE
  8
0
 10
-174.697421
 20
-32.737109
 30
0.0
 11
-174.859587
 21
-32.771717
 31
0.0
  0
LINE
  8
0
 10
-174.531298
 20
-32.716343
 30
0.0
 11
-174.697421
 21
-32.737109
 31
0.0
  0
LINE
  8
0
 10
-174.369132
 20
-32.709422
 30
0.0
 11
-174.531298
 21
-32.716343
 31
0.0
  0
LINE
  8
0
 10
-68.201805
 20
-32.716343
 30
0.0
 11
-68.367433
 21
-32.709422
 31
0.0
  0
LINE
  8
0
 10
-68.039144
 20
-32.737109
 30
0.0
 11
-68.201805
 21
-32.716343
 31
0.0
  0
LINE
  8
0
 10
-67.876977
 20
-32.771717
 30
0.0
 11
-68.039144
 21
-32.737109
 31
0.0
  0
LINE
  8
0
 10
-67.717777
 20
-32.816709
 30
0.0
 11
-67.876977
 21
-32.771717
 31
0.0
  0
LINE
  8
0
 10
-67.565993
 20
-32.879005
 30
0.0
 11
-67.717777
 21
-32.816709
 31
0.0
  0
LINE
  8
0
 10
-67.417175
 20
-32.951683
 30
0.0
 11
-67.565993
 21
-32.879005
 31
0.0
  0
LINE
  8
0
 10
-67.275279
 20
-33.03425
 30
0.0
 11
-67.417175
 21
-32.951683
 31
0.0
  0
LINE
  8
0
 10
-67.140799
 20
-33.131154
 30
0.0
 11
-67.275279
 21
-33.03425
 31
0.0
  0
LINE
  8
0
 10
-67.012747
 20
-33.238441
 30
0.0
 11
-67.140799
 21
-33.131154
 31
0.0
  0
LINE
  8
0
 10
-66.895571
 20
-33.355617
 30
0.0
 11
-67.012747
 21
-33.238441
 31
0.0
  0
LINE
  8
0
 10
-66.788284
 20
-33.480208
 30
0.0
 11
-66.895571
 21
-33.355617
 31
0.0
  0
LINE
  8
0
 10
-66.694841
 20
-33.615182
 30
0.0
 11
-66.788284
 21
-33.480208
 31
0.0
  0
LINE
  8
0
 10
-66.608319
 20
-33.756584
 30
0.0
 11
-66.694841
 21
-33.615182
 31
0.0
  0
LINE
  8
0
 10
-66.536135
 20
-33.905402
 30
0.0
 11
-66.608319
 21
-33.756584
 31
0.0
  0
LINE
  8
0
 10
-66.4773
 20
-34.060647
 30
0.0
 11
-66.536135
 21
-33.905402
 31
0.0
  0
LINE
  8
0
 10
-66.428848
 20
-34.219847
 30
0.0
 11
-66.4773
 21
-34.060647
 31
0.0
  0
LINE
  8
0
 10
-66.394239
 20
-34.378553
 30
0.0
 11
-66.428848
 21
-34.219847
 31
0.0
  0
LINE
  8
0
 10
-66.373473
 20
-34.544675
 30
0.0
 11
-66.394239
 21
-34.378553
 31
0.0
  0
LINE
  8
0
 10
-66.366552
 20
-34.710303
 30
0.0
 11
-66.373473
 21
-34.544675
 31
0.0
  0
LINE
  8
0
 10
-66.366552
 20
-60.73461
 30
0.0
 11
-66.366552
 21
-34.710303
 31
0.0
  0
LINE
  8
0
 10
-66.373473
 20
-60.897271
 30
0.0
 11
-66.366552
 21
-60.73461
 31
0.0
  0
LINE
  8
0
 10
-66.394239
 20
-61.055977
 30
0.0
 11
-66.373473
 21
-60.897271
 31
0.0
  0
LINE
  8
0
 10
-66.425387
 20
-61.215177
 30
0.0
 11
-66.394239
 21
-61.055977
 31
0.0
  0
LINE
  8
0
 10
-66.473839
 20
-61.370916
 30
0.0
 11
-66.425387
 21
-61.215177
 31
0.0
  0
LINE
  8
0
 10
-66.529213
 20
-61.522701
 30
0.0
 11
-66.473839
 21
-61.370916
 31
0.0
  0
LINE
  8
0
 10
-66.601397
 20
-61.668057
 30
0.0
 11
-66.529213
 21
-61.522701
 31
0.0
  0
LINE
  8
0
 10
-66.680997
 20
-61.809459
 30
0.0
 11
-66.601397
 21
-61.668057
 31
0.0
  0
LINE
  8
0
 10
-66.774441
 20
-61.940972
 30
0.0
 11
-66.680997
 21
-61.809459
 31
0.0
  0
LINE
  8
0
 10
-66.878267
 20
-62.065069
 30
0.0
 11
-66.774441
 21
-61.940972
 31
0.0
  0
LINE
  8
0
 10
-66.988521
 20
-62.182739
 30
0.0
 11
-66.878267
 21
-62.065069
 31
0.0
  0
LINE
  8
0
 10
-67.113112
 20
-62.290026
 30
0.0
 11
-66.988521
 21
-62.182739
 31
0.0
  0
LINE
  8
0
 10
-67.241165
 20
-62.386436
 30
0.0
 11
-67.113112
 21
-62.290026
 31
0.0
  0
LINE
  8
0
 10
-67.379105
 20
-62.472958
 30
0.0
 11
-67.241165
 21
-62.386436
 31
0.0
  0
LINE
  8
0
 10
-67.524462
 20
-62.545637
 30
0.0
 11
-67.379105
 21
-62.472958
 31
0.0
  0
LINE
  8
0
 10
-72.469066
 20
-64.854041
 30
0.0
 11
-67.524462
 21
-62.545637
 31
0.0
  0
LINE
  8
0
 10
-72.469066
 20
-69.408555
 30
0.0
 11
-72.469066
 21
-64.854041
 31
0.0
  0
LINE
  8
0
 10
-71.23205
 20
-69.408555
 30
0.0
 11
-72.469066
 21
-69.408555
 31
0.0
  0
LINE
  8
0
 10
-69.666745
 20
-67.846711
 30
0.0
 11
-71.23205
 21
-69.408555
 31
0.0
  0
LINE
  8
0
 10
-69.666745
 20
-66.80647
 30
0.0
 11
-69.666745
 21
-67.846711
 31
0.0
  0
LINE
  8
0
 10
-69.659823
 20
-66.702644
 30
0.0
 11
-69.666745
 21
-66.80647
 31
0.0
  0
LINE
  8
0
 10
-69.642518
 20
-66.602773
 30
0.0
 11
-69.659823
 21
-66.702644
 31
0.0
  0
LINE
  8
0
 10
-69.60791
 20
-66.502407
 30
0.0
 11
-69.642518
 21
-66.602773
 31
0.0
  0
LINE
  8
0
 10
-69.559457
 20
-66.408964
 30
0.0
 11
-69.60791
 21
-66.502407
 31
0.0
  0
LINE
  8
0
 10
-69.504578
 20
-66.322442
 30
0.0
 11
-69.559457
 21
-66.408964
 31
0.0
  0
LINE
  8
0
 10
-69.43536
 20
-66.243336
 30
0.0
 11
-69.504578
 21
-66.322442
 31
0.0
  0
LINE
  8
0
 10
-69.35576
 20
-66.174118
 30
0.0
 11
-69.43536
 21
-66.243336
 31
0.0
  0
LINE
  8
0
 10
-69.269238
 20
-66.115284
 30
0.0
 11
-69.35576
 21
-66.174118
 31
0.0
  0
LINE
  8
0
 10
-69.172828
 20
-66.070292
 30
0.0
 11
-69.269238
 21
-66.115284
 31
0.0
  0
LINE
  8
0
 10
-69.075924
 20
-66.035683
 30
0.0
 11
-69.172828
 21
-66.070292
 31
0.0
  0
LINE
  8
0
 10
-68.972097
 20
-66.014918
 30
0.0
 11
-69.075924
 21
-66.035683
 31
0.0
  0
LINE
  8
0
 10
-68.868765
 20
-66.007996
 30
0.0
 11
-68.972097
 21
-66.014918
 31
0.0
  0
LINE
  8
0
 10
-68.764939
 20
-66.014918
 30
0.0
 11
-68.868765
 21
-66.007996
 31
0.0
  0
LINE
  8
0
 10
-68.661113
 20
-66.035683
 30
0.0
 11
-68.764939
 21
-66.014918
 31
0.0
  0
LINE
  8
0
 10
-68.560747
 20
-66.070292
 30
0.0
 11
-68.661113
 21
-66.035683
 31
0.0
  0
LINE
  8
0
 10
-68.467798
 20
-66.115284
 30
0.0
 11
-68.560747
 21
-66.070292
 31
0.0
  0
LINE
  8
0
 10
-68.381276
 20
-66.174118
 30
0.0
 11
-68.467798
 21
-66.115284
 31
0.0
  0
LINE
  8
0
 10
-68.301676
 20
-66.243336
 30
0.0
 11
-68.381276
 21
-66.174118
 31
0.0
  0
LINE
  8
0
 10
-68.232459
 20
-66.322442
 30
0.0
 11
-68.301676
 21
-66.243336
 31
0.0
  0
LINE
  8
0
 10
-68.174118
 20
-66.408964
 30
0.0
 11
-68.232459
 21
-66.322442
 31
0.0
  0
LINE
  8
0
 10
-68.129127
 20
-66.502407
 30
0.0
 11
-68.174118
 21
-66.408964
 31
0.0
  0
LINE
  8
0
 10
-68.094518
 20
-66.602773
 30
0.0
 11
-68.129127
 21
-66.502407
 31
0.0
  0
LINE
  8
0
 10
-68.073753
 20
-66.702644
 30
0.0
 11
-68.094518
 21
-66.602773
 31
0.0
  0
LINE
  8
0
 10
-68.066831
 20
-66.80647
 30
0.0
 11
-68.073753
 21
-66.702644
 31
0.0
  0
LINE
  8
0
 10
-68.066831
 20
-68.095399
 30
0.0
 11
-68.066831
 21
-66.80647
 31
0.0
  0
LINE
  8
0
 10
-68.073753
 20
-68.206147
 30
0.0
 11
-68.066831
 21
-68.095399
 31
0.0
  0
LINE
  8
0
 10
-68.094518
 20
-68.316401
 30
0.0
 11
-68.073753
 21
-68.206147
 31
0.0
  0
LINE
  8
0
 10
-68.125666
 20
-68.423688
 30
0.0
 11
-68.094518
 21
-68.316401
 31
0.0
  0
LINE
  8
0
 10
-68.167196
 20
-68.527514
 30
0.0
 11
-68.125666
 21
-68.423688
 31
0.0
  0
LINE
  8
0
 10
-68.222076
 20
-68.623924
 30
0.0
 11
-68.167196
 21
-68.527514
 31
0.0
  0
LINE
  8
0
 10
-68.287833
 20
-68.717368
 30
0.0
 11
-68.222076
 21
-68.623924
 31
0.0
  0
LINE
  8
0
 10
-68.360511
 20
-68.800429
 30
0.0
 11
-68.287833
 21
-68.717368
 31
0.0
  0
LINE
  8
0
 10
-70.27487
 20
-70.714788
 30
0.0
 11
-68.360511
 21
-68.800429
 31
0.0
  0
LINE
  8
0
 10
-70.357931
 20
-70.790927
 30
0.0
 11
-70.27487
 21
-70.714788
 31
0.0
  0
LINE
  8
0
 10
-70.451375
 20
-70.852729
 30
0.0
 11
-70.357931
 21
-70.790927
 31
0.0
  0
LINE
  8
0
 10
-70.547785
 20
-70.908103
 30
0.0
 11
-70.451375
 21
-70.852729
 31
0.0
  0
LINE
  8
0
 10
-70.651611
 20
-70.953094
 30
0.0
 11
-70.547785
 21
-70.908103
 31
0.0
  0
LINE
  8
0
 10
-70.758898
 20
-70.984242
 30
0.0
 11
-70.651611
 21
-70.953094
 31
0.0
  0
LINE
  8
0
 10
-70.869152
 20
-71.001547
 30
0.0
 11
-70.758898
 21
-70.984242
 31
0.0
  0
LINE
  8
0
 10
-70.983361
 20
-71.008468
 30
0.0
 11
-70.869152
 21
-71.001547
 31
0.0
  0
LINE
  8
0
 10
-73.067303
 20
-71.008468
 30
0.0
 11
-70.983361
 21
-71.008468
 31
0.0
  0
LINE
  8
0
 10
-73.181017
 20
-71.001547
 30
0.0
 11
-73.067303
 21
-71.008468
 31
0.0
  0
LINE
  8
0
 10
-73.291765
 20
-70.984242
 30
0.0
 11
-73.181017
 21
-71.001547
 31
0.0
  0
LINE
  8
0
 10
-73.399053
 20
-70.953094
 30
0.0
 11
-73.291765
 21
-70.984242
 31
0.0
  0
LINE
  8
0
 10
-73.502384
 20
-70.908103
 30
0.0
 11
-73.399053
 21
-70.953094
 31
0.0
  0
LINE
  8
0
 10
-73.599289
 20
-70.852729
 30
0.0
 11
-73.502384
 21
-70.908103
 31
0.0
  0
LINE
  8
0
 10
-73.692733
 20
-70.790927
 30
0.0
 11
-73.599289
 21
-70.852729
 31
0.0
  0
LINE
  8
0
 10
-73.775299
 20
-70.714788
 30
0.0
 11
-73.692733
 21
-70.790927
 31
0.0
  0
LINE
  8
0
 10
-73.851439
 20
-70.631727
 30
0.0
 11
-73.775299
 21
-70.714788
 31
0.0
  0
LINE
  8
0
 10
-73.913734
 20
-70.538284
 30
0.0
 11
-73.851439
 21
-70.631727
 31
0.0
  0
LINE
  8
0
 10
-73.969108
 20
-70.441873
 30
0.0
 11
-73.913734
 21
-70.538284
 31
0.0
  0
LINE
  8
0
 10
-74.010639
 20
-70.338047
 30
0.0
 11
-73.969108
 21
-70.441873
 31
0.0
  0
LINE
  8
0
 10
-74.041787
 20
-70.23076
 30
0.0
 11
-74.010639
 21
-70.338047
 31
0.0
  0
LINE
  8
0
 10
-74.062552
 20
-70.120506
 30
0.0
 11
-74.041787
 21
-70.23076
 31
0.0
  0
LINE
  8
0
 10
-74.069474
 20
-70.006297
 30
0.0
 11
-74.062552
 21
-70.120506
 31
0.0
  0
LINE
  8
0
 10
-74.069474
 20
-69.332415
 30
0.0
 11
-74.069474
 21
-70.006297
 31
0.0
  0
LINE
  8
0
 10
-78.568613
 20
-69.332415
 30
0.0
 11
-74.069474
 21
-69.332415
 31
0.0
  0
LINE
  8
0
 10
-78.678867
 20
-69.325494
 30
0.0
 11
-78.568613
 21
-69.332415
 31
0.0
  0
LINE
  8
0
 10
-78.789615
 20
-69.308189
 30
0.0
 11
-78.678867
 21
-69.325494
 31
0.0
  0
LINE
  8
0
 10
-78.896902
 20
-69.277041
 30
0.0
 11
-78.789615
 21
-69.308189
 31
0.0
  0
LINE
  8
0
 10
-79.000234
 20
-69.235511
 30
0.0
 11
-78.896902
 21
-69.277041
 31
0.0
  0
LINE
  8
0
 10
-79.100599
 20
-69.180631
 30
0.0
 11
-79.000234
 21
-69.235511
 31
0.0
  0
LINE
  8
0
 10
-79.190582
 20
-69.114875
 30
0.0
 11
-79.100599
 21
-69.180631
 31
0.0
  0
LINE
  8
0
 10
-79.277104
 20
-69.038735
 30
0.0
 11
-79.190582
 21
-69.114875
 31
0.0
  0
LINE
  8
0
 10
-79.349288
 20
-68.955674
 30
0.0
 11
-79.277104
 21
-69.038735
 31
0.0
  0
LINE
  8
0
 10
-79.415044
 20
-68.866186
 30
0.0
 11
-79.349288
 21
-68.955674
 31
0.0
  0
LINE
  8
0
 10
-79.470418
 20
-68.76582
 30
0.0
 11
-79.415044
 21
-68.866186
 31
0.0
  0
LINE
  8
0
 10
-79.511949
 20
-68.661994
 30
0.0
 11
-79.470418
 21
-68.76582
 31
0.0
  0
LINE
  8
0
 10
-79.543097
 20
-68.555201
 30
0.0
 11
-79.511949
 21
-68.661994
 31
0.0
  0
LINE
  8
0
 10
-79.560401
 20
-68.444453
 30
0.0
 11
-79.543097
 21
-68.555201
 31
0.0
  0
LINE
  8
0
 10
-79.567323
 20
-68.333705
 30
0.0
 11
-79.560401
 21
-68.444453
 31
0.0
  0
LINE
  8
0
 10
-79.567323
 20
-64.833276
 30
0.0
 11
-79.567323
 21
-68.333705
 31
0.0
  0
LINE
  8
0
 10
-79.560401
 20
-64.722528
 30
0.0
 11
-79.567323
 21
-64.833276
 31
0.0
  0
LINE
  8
0
 10
-79.543097
 20
-64.612274
 30
0.0
 11
-79.560401
 21
-64.722528
 31
0.0
  0
LINE
  8
0
 10
-79.511949
 20
-64.501526
 30
0.0
 11
-79.543097
 21
-64.612274
 31
0.0
  0
LINE
  8
0
 10
-79.470418
 20
-64.3977
 30
0.0
 11
-79.511949
 21
-64.501526
 31
0.0
  0
LINE
  8
0
 10
-79.415044
 20
-64.30129
 30
0.0
 11
-79.470418
 21
-64.3977
 31
0.0
  0
LINE
  8
0
 10
-79.349288
 20
-64.211307
 30
0.0
 11
-79.415044
 21
-64.30129
 31
0.0
  0
LINE
  8
0
 10
-79.277104
 20
-64.124785
 30
0.0
 11
-79.349288
 21
-64.211307
 31
0.0
  0
LINE
  8
0
 10
-79.190582
 20
-64.052107
 30
0.0
 11
-79.277104
 21
-64.124785
 31
0.0
  0
LINE
  8
0
 10
-79.100599
 20
-63.98635
 30
0.0
 11
-79.190582
 21
-64.052107
 31
0.0
  0
LINE
  8
0
 10
-79.000234
 20
-63.931471
 30
0.0
 11
-79.100599
 21
-63.98635
 31
0.0
  0
LINE
  8
0
 10
-78.896902
 20
-63.88994
 30
0.0
 11
-79.000234
 21
-63.931471
 31
0.0
  0
LINE
  8
0
 10
-78.789615
 20
-63.858792
 30
0.0
 11
-78.896902
 21
-63.88994
 31
0.0
  0
LINE
  8
0
 10
-78.678867
 20
-63.838027
 30
0.0
 11
-78.789615
 21
-63.858792
 31
0.0
  0
LINE
  8
0
 10
-78.568613
 20
-63.834566
 30
0.0
 11
-78.678867
 21
-63.838027
 31
0.0
  0
LINE
  8
0
 10
-74.069474
 20
-63.834566
 30
0.0
 11
-78.568613
 21
-63.834566
 31
0.0
  0
LINE
  8
0
 10
-68.567669
 20
-61.26709
 30
0.0
 11
-74.069474
 21
-63.834566
 31
0.0
  0
LINE
  8
0
 10
-68.567669
 20
-34.907573
 30
0.0
 11
-68.567669
 21
-61.26709
 31
0.0
  0
LINE
  8
0
 10
-120.267723
 20
-34.907573
 30
0.0
 11
-68.567669
 21
-34.907573
 31
0.0
  0
LINE
  8
0
 10
-120.267723
 20
-49.908494
 30
0.0
 11
-120.267723
 21
-34.907573
 31
0.0
  0
LINE
  8
0
 10
-120.668691
 20
-63.834566
 30
0.0
 11
-120.267723
 21
-49.908494
 31
0.0
  0
LINE
  8
0
 10
-116.169057
 20
-63.834566
 30
0.0
 11
-120.668691
 21
-63.834566
 31
0.0
  0
LINE
  8
0
 10
-116.055343
 20
-63.838027
 30
0.0
 11
-116.169057
 21
-63.834566
 31
0.0
  0
LINE
  8
0
 10
-115.944595
 20
-63.858792
 30
0.0
 11
-116.055343
 21
-63.838027
 31
0.0
  0
LINE
  8
0
 10
-115.837307
 20
-63.88994
 30
0.0
 11
-115.944595
 21
-63.858792
 31
0.0
  0
LINE
  8
0
 10
-115.733975
 20
-63.931471
 30
0.0
 11
-115.837307
 21
-63.88994
 31
0.0
  0
LINE
  8
0
 10
-115.637071
 20
-63.98635
 30
0.0
 11
-115.733975
 21
-63.931471
 31
0.0
  0
LINE
  8
0
 10
-115.543627
 20
-64.052107
 30
0.0
 11
-115.637071
 21
-63.98635
 31
0.0
  0
LINE
  8
0
 10
-115.461061
 20
-64.124785
 30
0.0
 11
-115.543627
 21
-64.052107
 31
0.0
  0
LINE
  8
0
 10
-115.384921
 20
-64.211307
 30
0.0
 11
-115.461061
 21
-64.124785
 31
0.0
  0
LINE
  8
0
 10
-115.322626
 20
-64.30129
 30
0.0
 11
-115.384921
 21
-64.211307
 31
0.0
  0
LINE
  8
0
 10
-115.267252
 20
-64.3977
 30
0.0
 11
-115.322626
 21
-64.30129
 31
0.0
  0
LINE
  8
0
 10
-115.22226
 20
-64.501526
 30
0.0
 11
-115.267252
 21
-64.3977
 31
0.0
  0
LINE
  8
0
 10
-115.191112
 20
-64.612274
 30
0.0
 11
-115.22226
 21
-64.501526
 31
0.0
  0
LINE
  8
0
 10
-115.173808
 20
-64.722528
 30
0.0
 11
-115.191112
 21
-64.612274
 31
0.0
  0
LINE
  8
0
 10
-115.166886
 20
-64.833276
 30
0.0
 11
-115.173808
 21
-64.722528
 31
0.0
  0
LINE
  8
0
 10
-115.166886
 20
-68.333705
 30
0.0
 11
-115.166886
 21
-64.833276
 31
0.0
  0
LINE
  8
0
 10
-115.173808
 20
-68.444453
 30
0.0
 11
-115.166886
 21
-68.333705
 31
0.0
  0
LINE
  8
0
 10
-115.191112
 20
-68.555201
 30
0.0
 11
-115.173808
 21
-68.444453
 31
0.0
  0
LINE
  8
0
 10
-115.22226
 20
-68.661994
 30
0.0
 11
-115.191112
 21
-68.555201
 31
0.0
  0
LINE
  8
0
 10
-115.267252
 20
-68.76582
 30
0.0
 11
-115.22226
 21
-68.661994
 31
0.0
  0
LINE
  8
0
 10
-115.322626
 20
-68.866186
 30
0.0
 11
-115.267252
 21
-68.76582
 31
0.0
  0
LINE
  8
0
 10
-115.384921
 20
-68.955674
 30
0.0
 11
-115.322626
 21
-68.866186
 31
0.0
  0
LINE
  8
0
 10
-115.461061
 20
-69.038735
 30
0.0
 11
-115.384921
 21
-68.955674
 31
0.0
  0
LINE
  8
0
 10
-115.543627
 20
-69.114875
 30
0.0
 11
-115.461061
 21
-69.038735
 31
0.0
  0
LINE
  8
0
 10
-115.637071
 20
-69.180631
 30
0.0
 11
-115.543627
 21
-69.114875
 31
0.0
  0
LINE
  8
0
 10
-115.733975
 20
-69.235511
 30
0.0
 11
-115.637071
 21
-69.180631
 31
0.0
  0
LINE
  8
0
 10
-115.837307
 20
-69.277041
 30
0.0
 11
-115.733975
 21
-69.235511
 31
0.0
  0
LINE
  8
0
 10
-115.944595
 20
-69.308189
 30
0.0
 11
-115.837307
 21
-69.277041
 31
0.0
  0
LINE
  8
0
 10
-116.055343
 20
-69.325494
 30
0.0
 11
-115.944595
 21
-69.308189
 31
0.0
  0
LINE
  8
0
 10
-116.169057
 20
-69.332415
 30
0.0
 11
-116.055343
 21
-69.325494
 31
0.0
  0
LINE
  8
0
 10
-120.668691
 20
-69.332415
 30
0.0
 11
-116.169057
 21
-69.332415
 31
0.0
  0
LINE
  8
0
 10
-120.668691
 20
-71.008468
 30
0.0
 11
-120.668691
 21
-69.332415
 31
0.0
  0
LINE
  8
0
 10
-122.067874
 20
-71.008468
 30
0.0
 11
-120.668691
 21
-71.008468
 31
0.0
  0
LINE
  8
0
 10
-122.067874
 20
-69.332415
 30
0.0
 11
-122.067874
 21
-71.008468
 31
0.0
  0
LINE
  8
0
 10
-126.567013
 20
-69.332415
 30
0.0
 11
-122.067874
 21
-69.332415
 31
0.0
  0
LINE
  8
0
 10
-126.681222
 20
-69.325494
 30
0.0
 11
-126.567013
 21
-69.332415
 31
0.0
  0
LINE
  8
0
 10
-126.79197
 20
-69.308189
 30
0.0
 11
-126.681222
 21
-69.325494
 31
0.0
  0
LINE
  8
0
 10
-126.898763
 20
-69.277041
 30
0.0
 11
-126.79197
 21
-69.308189
 31
0.0
  0
LINE
  8
0
 10
-127.002589
 20
-69.235511
 30
0.0
 11
-126.898763
 21
-69.277041
 31
0.0
  0
LINE
  8
0
 10
-127.099493
 20
-69.180631
 30
0.0
 11
-127.002589
 21
-69.235511
 31
0.0
  0
LINE
  8
0
 10
-127.192937
 20
-69.114875
 30
0.0
 11
-127.099493
 21
-69.180631
 31
0.0
  0
LINE
  8
0
 10
-127.275504
 20
-69.038735
 30
0.0
 11
-127.192937
 21
-69.114875
 31
0.0
  0
LINE
  8
0
 10
-127.348182
 20
-68.955674
 30
0.0
 11
-127.275504
 21
-69.038735
 31
0.0
  0
LINE
  8
0
 10
-127.413939
 20
-68.866186
 30
0.0
 11
-127.348182
 21
-68.955674
 31
0.0
  0
LINE
  8
0
 10
-127.469313
 20
-68.76582
 30
0.0
 11
-127.413939
 21
-68.866186
 31
0.0
  0
LINE
  8
0
 10
-127.510843
 20
-68.661994
 30
0.0
 11
-127.469313
 21
-68.76582
 31
0.0
  0
LINE
  8
0
 10
-127.541497
 20
-68.555201
 30
0.0
 11
-127.510843
 21
-68.661994
 31
0.0
  0
LINE
  8
0
 10
-127.562262
 20
-68.444453
 30
0.0
 11
-127.541497
 21
-68.555201
 31
0.0
  0
LINE
  8
0
 10
-127.569184
 20
-68.333705
 30
0.0
 11
-127.562262
 21
-68.444453
 31
0.0
  0
LINE
  8
0
 10
-127.569184
 20
-64.833276
 30
0.0
 11
-127.569184
 21
-68.333705
 31
0.0
  0
LINE
  8
0
 10
-127.562262
 20
-64.722528
 30
0.0
 11
-127.569184
 21
-64.833276
 31
0.0
  0
LINE
  8
0
 10
-127.541497
 20
-64.612274
 30
0.0
 11
-127.562262
 21
-64.722528
 31
0.0
  0
LINE
  8
0
 10
-127.510843
 20
-64.501526
 30
0.0
 11
-127.541497
 21
-64.612274
 31
0.0
  0
LINE
  8
0
 10
-127.469313
 20
-64.3977
 30
0.0
 11
-127.510843
 21
-64.501526
 31
0.0
  0
LINE
  8
0
 10
-127.413939
 20
-64.30129
 30
0.0
 11
-127.469313
 21
-64.3977
 31
0.0
  0
LINE
  8
0
 10
-127.348182
 20
-64.211307
 30
0.0
 11
-127.413939
 21
-64.30129
 31
0.0
  0
LINE
  8
0
 10
-127.275504
 20
-64.124785
 30
0.0
 11
-127.348182
 21
-64.211307
 31
0.0
  0
LINE
  8
0
 10
-127.192937
 20
-64.052107
 30
0.0
 11
-127.275504
 21
-64.124785
 31
0.0
  0
LINE
  8
0
 10
-127.099493
 20
-63.98635
 30
0.0
 11
-127.192937
 21
-64.052107
 31
0.0
  0
LINE
  8
0
 10
-127.002589
 20
-63.931471
 30
0.0
 11
-127.099493
 21
-63.98635
 31
0.0
  0
LINE
  8
0
 10
-126.898763
 20
-63.88994
 30
0.0
 11
-127.002589
 21
-63.931471
 31
0.0
  0
LINE
  8
0
 10
-126.79197
 20
-63.858792
 30
0.0
 11
-126.898763
 21
-63.88994
 31
0.0
  0
LINE
  8
0
 10
-126.681222
 20
-63.838027
 30
0.0
 11
-126.79197
 21
-63.858792
 31
0.0
  0
LINE
  8
0
 10
-126.567013
 20
-63.834566
 30
0.0
 11
-126.681222
 21
-63.838027
 31
0.0
  0
LINE
  8
0
 10
-122.067874
 20
-63.834566
 30
0.0
 11
-126.567013
 21
-63.834566
 31
0.0
  0
LINE
  8
0
 10
-122.468841
 20
-49.908494
 30
0.0
 11
-122.067874
 21
-63.834566
 31
0.0
  0
LINE
  8
0
 10
-174.168401
 20
-34.907573
 30
0.0
 11
-122.468841
 21
-34.907573
 31
0.0
  0
LINE
  8
0
 10
-174.168401
 20
-61.26709
 30
0.0
 11
-174.168401
 21
-34.907573
 31
0.0
  0
LINE
  8
0
 10
-168.667091
 20
-63.834566
 30
0.0
 11
-174.168401
 21
-61.26709
 31
0.0
  0
LINE
  8
0
 10
-164.167951
 20
-63.834566
 30
0.0
 11
-168.667091
 21
-63.834566
 31
0.0
  0
LINE
  8
0
 10
-164.053742
 20
-63.838027
 30
0.0
 11
-164.167951
 21
-63.834566
 31
0.0
  0
LINE
  8
0
 10
-163.943489
 20
-63.858792
 30
0.0
 11
-164.053742
 21
-63.838027
 31
0.0
  0
LINE
  8
0
 10
-163.836202
 20
-63.88994
 30
0.0
 11
-163.943489
 21
-63.858792
 31
0.0
  0
LINE
  8
0
 10
-163.732375
 20
-63.931471
 30
0.0
 11
-163.836202
 21
-63.88994
 31
0.0
  0
LINE
  8
0
 10
-163.635965
 20
-63.98635
 30
0.0
 11
-163.732375
 21
-63.931471
 31
0.0
  0
LINE
  8
0
 10
-163.542522
 20
-64.052107
 30
0.0
 11
-163.635965
 21
-63.98635
 31
0.0
  0
LINE
  8
0
 10
-163.459461
 20
-64.124785
 30
0.0
 11
-163.542522
 21
-64.052107
 31
0.0
  0
LINE
  8
0
 10
-163.386782
 20
-64.211307
 30
0.0
 11
-163.459461
 21
-64.124785
 31
0.0
  0
LINE
  8
0
 10
-163.32152
 20
-64.30129
 30
0.0
 11
-163.386782
 21
-64.211307
 31
0.0
  0
LINE
  8
0
 10
-163.266146
 20
-64.3977
 30
0.0
 11
-163.32152
 21
-64.30129
 31
0.0
  0
LINE
  8
0
 10
-163.224615
 20
-64.501526
 30
0.0
 11
-163.266146
 21
-64.3977
 31
0.0
  0
LINE
  8
0
 10
-163.193467
 20
-64.612274
 30
0.0
 11
-163.224615
 21
-64.501526
 31
0.0
  0
LINE
  8
0
 10
-163.172702
 20
-64.722528
 30
0.0
 11
-163.193467
 21
-64.612274
 31
0.0
  0
LINE
  8
0
 10
-163.16578
 20
-64.833276
 30
0.0
 11
-163.172702
 21
-64.722528
 31
0.0
  0
LINE
  8
0
 10
-163.16578
 20
-68.333705
 30
0.0
 11
-163.16578
 21
-64.833276
 31
0.0
  0
LINE
  8
0
 10
-163.172702
 20
-68.444453
 30
0.0
 11
-163.16578
 21
-68.333705
 31
0.0
  0
LINE
  8
0
 10
-163.193467
 20
-68.555201
 30
0.0
 11
-163.172702
 21
-68.444453
 31
0.0
  0
LINE
  8
0
 10
-163.224615
 20
-68.661994
 30
0.0
 11
-163.193467
 21
-68.555201
 31
0.0
  0
LINE
  8
0
 10
-163.266146
 20
-68.76582
 30
0.0
 11
-163.224615
 21
-68.661994
 31
0.0
  0
LINE
  8
0
 10
-163.32152
 20
-68.866186
 30
0.0
 11
-163.266146
 21
-68.76582
 31
0.0
  0
LINE
  8
0
 10
-163.386782
 20
-68.955674
 30
0.0
 11
-163.32152
 21
-68.866186
 31
0.0
  0
LINE
  8
0
 10
-163.459461
 20
-69.038735
 30
0.0
 11
-163.386782
 21
-68.955674
 31
0.0
  0
LINE
  8
0
 10
-163.542522
 20
-69.114875
 30
0.0
 11
-163.459461
 21
-69.038735
 31
0.0
  0
LINE
  8
0
 10
-163.635965
 20
-69.180631
 30
0.0
 11
-163.542522
 21
-69.114875
 31
0.0
  0
LINE
  8
0
 10
-163.732375
 20
-69.235511
 30
0.0
 11
-163.635965
 21
-69.180631
 31
0.0
  0
LINE
  8
0
 10
-163.836202
 20
-69.277041
 30
0.0
 11
-163.732375
 21
-69.235511
 31
0.0
  0
LINE
  8
0
 10
-163.943489
 20
-69.308189
 30
0.0
 11
-163.836202
 21
-69.277041
 31
0.0
  0
LINE
  8
0
 10
-164.053742
 20
-69.325494
 30
0.0
 11
-163.943489
 21
-69.308189
 31
0.0
  0
LINE
  8
0
 10
-164.167951
 20
-69.332415
 30
0.0
 11
-164.053742
 21
-69.325494
 31
0.0
  0
LINE
  8
0
 10
-168.667091
 20
-69.332415
 30
0.0
 11
-164.167951
 21
-69.332415
 31
0.0
  0
LINE
  8
0
 10
-126.16654
 20
-67.932738
 30
0.0
 11
-122.067874
 21
-67.932738
 31
0.0
  0
LINE
  8
0
 10
-126.16654
 20
-65.234243
 30
0.0
 11
-126.16654
 21
-67.932738
 31
0.0
  0
LINE
  8
0
 10
-122.067874
 20
-65.234243
 30
0.0
 11
-126.16654
 21
-65.234243
 31
0.0
  0
LINE
  8
0
 10
-122.067874
 20
-67.932738
 30
0.0
 11
-122.067874
 21
-65.234243
 31
0.0
  0
LINE
  8
0
 10
-114.89051
 20
-69.187553
 30
0.0
 11
-114.907815
 21
-69.236005
 31
0.0
  0
LINE
  8
0
 10
-114.980493
 20
-69.308189
 30
0.0
 11
-115.025485
 21
-69.325494
 31
0.0
  0
LINE
  8
0
 10
-115.025485
 20
-69.325494
 30
0.0
 11
-115.076903
 21
-69.332415
 31
0.0
  0
LINE
  8
0
 10
-75.614013
 20
-67.190133
 30
0.0
 11
-75.607092
 21
-67.280116
 31
0.0
  0
LINE
  8
0
 10
-75.607092
 20
-67.280116
 30
0.0
 11
-75.586326
 21
-67.373065
 31
0.0
  0
LINE
  8
0
 10
-75.586326
 20
-67.373065
 30
0.0
 11
-75.555178
 21
-67.459587
 31
0.0
  0
LINE
  8
0
 10
-75.555178
 20
-67.459587
 30
0.0
 11
-75.510187
 21
-67.539187
 31
0.0
  0
LINE
  8
0
 10
-75.510187
 20
-67.539187
 30
0.0
 11
-75.454813
 21
-67.615326
 31
0.0
  0
LINE
  8
0
 10
-75.454813
 20
-67.615326
 30
0.0
 11
-75.389056
 21
-67.680588
 31
0.0
  0
LINE
  8
0
 10
-75.389056
 20
-67.680588
 30
0.0
 11
-75.312917
 21
-67.735962
 31
0.0
  0
LINE
  8
0
 10
-75.312917
 20
-67.735962
 30
0.0
 11
-75.233811
 21
-67.780954
 31
0.0
  0
LINE
  8
0
 10
-75.233811
 20
-67.780954
 30
0.0
 11
-75.147289
 21
-67.812102
 31
0.0
  0
LINE
  8
0
 10
-75.147289
 20
-67.812102
 30
0.0
 11
-75.053846
 21
-67.832867
 31
0.0
  0
LINE
  8
0
 10
-75.053846
 20
-67.832867
 30
0.0
 11
-74.963863
 21
-67.839789
 31
0.0
  0
LINE
  8
0
 10
-74.963863
 20
-67.839789
 30
0.0
 11
-74.870914
 21
-67.832867
 31
0.0
  0
LINE
  8
0
 10
-74.870914
 20
-67.832867
 30
0.0
 11
-74.780931
 21
-67.812102
 31
0.0
  0
LINE
  8
0
 10
-74.780931
 20
-67.812102
 30
0.0
 11
-74.694409
 21
-67.780954
 31
0.0
  0
LINE
  8
0
 10
-74.694409
 20
-67.780954
 30
0.0
 11
-74.611842
 21
-67.735962
 31
0.0
  0
LINE
  8
0
 10
-74.611842
 20
-67.735962
 30
0.0
 11
-74.535703
 21
-67.680588
 31
0.0
  0
LINE
  8
0
 10
-74.535703
 20
-67.680588
 30
0.0
 11
-74.473407
 21
-67.615326
 31
0.0
  0
LINE
  8
0
 10
-74.473407
 20
-67.615326
 30
0.0
 11
-74.414573
 21
-67.539187
 31
0.0
  0
LINE
  8
0
 10
-74.414573
 20
-67.539187
 30
0.0
 11
-74.373042
 21
-67.459587
 31
0.0
  0
LINE
  8
0
 10
-74.373042
 20
-67.459587
 30
0.0
 11
-74.338433
 21
-67.373065
 31
0.0
  0
LINE
  8
0
 10
-74.338433
 20
-67.373065
 30
0.0
 11
-74.317668
 21
-67.280116
 31
0.0
  0
LINE
  8
0
 10
-74.317668
 20
-67.280116
 30
0.0
 11
-74.314702
 21
-67.190133
 31
0.0
  0
LINE
  8
0
 10
-74.314702
 20
-67.190133
 30
0.0
 11
-74.317668
 21
-67.096689
 31
0.0
  0
LINE
  8
0
 10
-74.317668
 20
-67.096689
 30
0.0
 11
-74.338433
 21
-67.006706
 31
0.0
  0
LINE
  8
0
 10
-74.338433
 20
-67.006706
 30
0.0
 11
-74.373042
 21
-66.917218
 31
0.0
  0
LINE
  8
0
 10
-74.373042
 20
-66.917218
 30
0.0
 11
-74.414573
 21
-66.837618
 31
0.0
  0
LINE
  8
0
 10
-74.414573
 20
-66.837618
 30
0.0
 11
-74.473407
 21
-66.761479
 31
0.0
  0
LINE
  8
0
 10
-74.473407
 20
-66.761479
 30
0.0
 11
-74.535703
 21
-66.695722
 31
0.0
  0
LINE
  8
0
 10
-74.535703
 20
-66.695722
 30
0.0
 11
-74.611842
 21
-66.640842
 31
0.0
  0
LINE
  8
0
 10
-74.611842
 20
-66.640842
 30
0.0
 11
-74.694409
 21
-66.595851
 31
0.0
  0
LINE
  8
0
 10
-74.694409
 20
-66.595851
 30
0.0
 11
-74.780931
 21
-66.564703
 31
0.0
  0
LINE
  8
0
 10
-74.780931
 20
-66.564703
 30
0.0
 11
-74.870914
 21
-66.543938
 31
0.0
  0
LINE
  8
0
 10
-74.870914
 20
-66.543938
 30
0.0
 11
-74.963863
 21
-66.537016
 31
0.0
  0
LINE
  8
0
 10
-74.963863
 20
-66.537016
 30
0.0
 11
-75.053846
 21
-66.543938
 31
0.0
  0
LINE
  8
0
 10
-75.053846
 20
-66.543938
 30
0.0
 11
-75.147289
 21
-66.564703
 31
0.0
  0
LINE
  8
0
 10
-75.147289
 20
-66.564703
 30
0.0
 11
-75.233811
 21
-66.595851
 31
0.0
  0
LINE
  8
0
 10
-75.233811
 20
-66.595851
 30
0.0
 11
-75.312917
 21
-66.640842
 31
0.0
  0
LINE
  8
0
 10
-75.312917
 20
-66.640842
 30
0.0
 11
-75.389056
 21
-66.695722
 31
0.0
  0
LINE
  8
0
 10
-75.389056
 20
-66.695722
 30
0.0
 11
-75.454813
 21
-66.761479
 31
0.0
  0
LINE
  8
0
 10
-75.454813
 20
-66.761479
 30
0.0
 11
-75.510187
 21
-66.837618
 31
0.0
  0
LINE
  8
0
 10
-75.510187
 20
-66.837618
 30
0.0
 11
-75.555178
 21
-66.917218
 31
0.0
  0
LINE
  8
0
 10
-75.555178
 20
-66.917218
 30
0.0
 11
-75.586326
 21
-67.006706
 31
0.0
  0
LINE
  8
0
 10
-75.586326
 20
-67.006706
 30
0.0
 11
-75.607092
 21
-67.096689
 31
0.0
  0
LINE
  8
0
 10
-75.607092
 20
-67.096689
 30
0.0
 11
-75.614013
 21
-67.190133
 31
0.0
  0
LINE
  8
0
 10
-75.972956
 20
-69.173709
 30
0.0
 11
-75.603631
 21
-67.075924
 31
0.0
  0
LINE
  8
0
 10
-74.321129
 20
-67.300386
 30
0.0
 11
-74.732479
 21
-69.633017
 31
0.0
  0
LINE
  8
0
 10
-75.972956
 20
-69.173709
 30
0.0
 11
-75.99026
 21
-69.225623
 31
0.0
  0
LINE
  8
0
 10
-75.99026
 20
-69.225623
 30
0.0
 11
-76.021408
 21
-69.27012
 31
0.0
  0
LINE
  8
0
 10
-76.021408
 20
-69.27012
 30
0.0
 11
-76.062939
 21
-69.304728
 31
0.0
  0
LINE
  8
0
 10
-76.062939
 20
-69.304728
 30
0.0
 11
-76.111391
 21
-69.325494
 31
0.0
  0
LINE
  8
0
 10
-76.111391
 20
-69.325494
 30
0.0
 11
-76.163304
 21
-69.332415
 31
0.0
  0
LINE
  8
0
 10
-75.693119
 20
-70.438413
 30
0.0
 11
-75.579405
 21
-70.431491
 31
0.0
  0
LINE
  8
0
 10
-75.579405
 20
-70.431491
 30
0.0
 11
-75.468657
 21
-70.410726
 31
0.0
  0
LINE
  8
0
 10
-75.468657
 20
-70.410726
 30
0.0
 11
-75.361369
 21
-70.379578
 31
0.0
  0
LINE
  8
0
 10
-75.361369
 20
-70.379578
 30
0.0
 11
-75.258038
 21
-70.334586
 31
0.0
  0
LINE
  8
0
 10
-75.258038
 20
-70.334586
 30
0.0
 11
-75.157672
 21
-70.279212
 31
0.0
  0
LINE
  8
0
 10
-75.157672
 20
-70.279212
 30
0.0
 11
-75.067689
 21
-70.210489
 31
0.0
  0
LINE
  8
0
 10
-75.067689
 20
-70.210489
 30
0.0
 11
-74.984628
 21
-70.130889
 31
0.0
  0
LINE
  8
0
 10
-74.984628
 20
-70.130889
 30
0.0
 11
-74.912444
 21
-70.044367
 31
0.0
  0
LINE
  8
0
 10
-74.912444
 20
-70.044367
 30
0.0
 11
-74.850149
 21
-69.950923
 31
0.0
  0
LINE
  8
0
 10
-74.850149
 20
-69.950923
 30
0.0
 11
-74.798235
 21
-69.851052
 31
0.0
  0
LINE
  8
0
 10
-74.798235
 20
-69.851052
 30
0.0
 11
-74.760166
 21
-69.743765
 31
0.0
  0
LINE
  8
0
 10
-74.760166
 20
-69.743765
 30
0.0
 11
-74.732479
 21
-69.633017
 31
0.0
  0
LINE
  8
0
 10
-76.163304
 20
-69.332415
 30
0.0
 11
-79.511949
 21
-69.332415
 31
0.0
  0
LINE
  8
0
 10
-79.511949
 20
-69.332415
 30
0.0
 11
-79.563368
 21
-69.325494
 31
0.0
  0
LINE
  8
0
 10
-79.563368
 20
-69.325494
 30
0.0
 11
-79.61182
 21
-69.308189
 31
0.0
  0
LINE
  8
0
 10
-79.61182
 20
-69.308189
 30
0.0
 11
-79.64989
 21
-69.277041
 31
0.0
  0
LINE
  8
0
 10
-79.64989
 20
-69.277041
 30
0.0
 11
-79.681038
 21
-69.236005
 31
0.0
  0
LINE
  8
0
 10
-79.681038
 20
-69.236005
 30
0.0
 11
-79.701803
 21
-69.187553
 31
0.0
  0
LINE
  8
0
 10
-80.431059
 20
-66.47472
 30
0.0
 11
-79.701803
 21
-69.187553
 31
0.0
  0
LINE
  8
0
 10
-80.431059
 20
-66.47472
 30
0.0
 11
-85.248104
 21
-66.47472
 31
0.0
  0
LINE
  8
0
 10
-84.470396
 20
-64.912876
 30
0.0
 11
-81.447073
 21
-64.912876
 31
0.0
  0
LINE
  8
0
 10
-81.447073
 20
-64.912876
 30
0.0
 11
-84.466935
 21
-64.912876
 31
0.0
  0
LINE
  8
0
 10
-85.248104
 20
-66.937983
 30
0.0
 11
-85.248104
 21
-66.47472
 31
0.0
  0
LINE
  8
0
 10
-85.248104
 20
-66.47472
 30
0.0
 11
-85.248104
 21
-66.467799
 31
0.0
  0
LINE
  8
0
 10
-85.248104
 20
-66.467799
 30
0.0
 11
-85.248104
 21
-66.447033
 31
0.0
  0
LINE
  8
0
 10
-85.248104
 20
-66.447033
 30
0.0
 11
-85.248104
 21
-66.415885
 31
0.0
  0
LINE
  8
0
 10
-85.248104
 20
-66.415885
 30
0.0
 11
-85.248104
 21
-66.370894
 31
0.0
  0
LINE
  8
0
 10
-85.248104
 20
-66.370894
 30
0.0
 11
-85.248104
 21
-66.312553
 31
0.0
  0
LINE
  8
0
 10
-85.248104
 20
-66.312553
 30
0.0
 11
-85.248104
 21
-66.246797
 31
0.0
  0
LINE
  8
0
 10
-85.248104
 20
-66.246797
 30
0.0
 11
-85.248104
 21
-66.170658
 31
0.0
  0
LINE
  8
0
 10
-85.248104
 20
-66.170658
 30
0.0
 11
-85.248104
 21
-66.084136
 31
0.0
  0
LINE
  8
0
 10
-85.248104
 20
-66.084136
 30
0.0
 11
-85.248104
 21
-65.994647
 31
0.0
  0
LINE
  8
0
 10
-85.248104
 20
-65.994647
 30
0.0
 11
-85.248104
 21
-65.897743
 31
0.0
  0
LINE
  8
0
 10
-85.248104
 20
-65.897743
 30
0.0
 11
-85.248104
 21
-65.797377
 31
0.0
  0
LINE
  8
0
 10
-85.248104
 20
-65.797377
 30
0.0
 11
-85.248104
 21
-65.697012
 31
0.0
  0
LINE
  8
0
 10
-85.248104
 20
-65.697012
 30
0.0
 11
-85.248104
 21
-65.693551
 31
0.0
  0
LINE
  8
0
 10
-80.638217
 20
-65.697012
 30
0.0
 11
-80.638217
 21
-65.69009
 31
0.0
  0
LINE
  8
0
 10
-80.638217
 20
-65.69009
 30
0.0
 11
-80.638217
 21
-65.686629
 31
0.0
  0
LINE
  8
0
 10
-80.638217
 20
-65.686629
 30
0.0
 11
-80.693591
 21
-65.493315
 31
0.0
  0
LINE
  8
0
 10
-80.693591
 20
-65.493315
 30
0.0
 11
-80.697052
 21
-65.469088
 31
0.0
  0
LINE
  8
0
 10
-80.697052
 20
-65.469088
 30
0.0
 11
-80.703974
 21
-65.451784
 31
0.0
  0
LINE
  8
0
 10
-80.703974
 20
-65.451784
 30
0.0
 11
-80.710895
 21
-65.431019
 31
0.0
  0
LINE
  8
0
 10
-80.710895
 20
-65.431019
 30
0.0
 11
-80.717817
 21
-65.410254
 31
0.0
  0
LINE
  8
0
 10
-80.717817
 20
-65.410254
 30
0.0
 11
-80.7282
 21
-65.389488
 31
0.0
  0
LINE
  8
0
 10
-80.7282
 20
-65.389488
 30
0.0
 11
-80.735122
 21
-65.368723
 31
0.0
  0
LINE
  8
0
 10
-80.735122
 20
-65.368723
 30
0.0
 11
-80.745504
 21
-65.351419
 31
0.0
  0
LINE
  8
0
 10
-80.745504
 20
-65.351419
 30
0.0
 11
-80.755887
 21
-65.331148
 31
0.0
  0
LINE
  8
0
 10
-80.755887
 20
-65.331148
 30
0.0
 11
-80.766269
 21
-65.310383
 31
0.0
  0
LINE
  8
0
 10
-80.766269
 20
-65.310383
 30
0.0
 11
-80.776652
 21
-65.293078
 31
0.0
  0
LINE
  8
0
 10
-80.776652
 20
-65.293078
 30
0.0
 11
-80.787035
 21
-65.275774
 31
0.0
  0
LINE
  8
0
 10
-80.787035
 20
-65.275774
 30
0.0
 11
-80.800878
 21
-65.255009
 31
0.0
  0
LINE
  8
0
 10
-80.800878
 20
-65.255009
 30
0.0
 11
-80.811261
 21
-65.237704
 31
0.0
  0
LINE
  8
0
 10
-80.811261
 20
-65.237704
 30
0.0
 11
-80.825104
 21
-65.2204
 31
0.0
  0
LINE
  8
0
 10
-80.825104
 20
-65.2204
 30
0.0
 11
-80.838453
 21
-65.203095
 31
0.0
  0
LINE
  8
0
 10
-80.838453
 20
-65.203095
 30
0.0
 11
-80.852297
 21
-65.189252
 31
0.0
  0
LINE
  8
0
 10
-80.852297
 20
-65.189252
 30
0.0
 11
-80.86614
 21
-65.171948
 31
0.0
  0
LINE
  8
0
 10
-80.86614
 20
-65.171948
 30
0.0
 11
-80.879984
 21
-65.154643
 31
0.0
  0
LINE
  8
0
 10
-80.879984
 20
-65.154643
 30
0.0
 11
-80.897288
 21
-65.1408
 31
0.0
  0
LINE
  8
0
 10
-80.897288
 20
-65.1408
 30
0.0
 11
-80.911132
 21
-65.123495
 31
0.0
  0
LINE
  8
0
 10
-80.911132
 20
-65.123495
 30
0.0
 11
-80.928436
 21
-65.109652
 31
0.0
  0
LINE
  8
0
 10
-80.928436
 20
-65.109652
 30
0.0
 11
-80.945741
 21
-65.095808
 31
0.0
  0
LINE
  8
0
 10
-80.945741
 20
-65.095808
 30
0.0
 11
-80.959584
 21
-65.081965
 31
0.0
  0
LINE
  8
0
 10
-80.959584
 20
-65.081965
 30
0.0
 11
-80.976889
 21
-65.068121
 31
0.0
  0
LINE
  8
0
 10
-80.976889
 20
-65.068121
 30
0.0
 11
-80.994193
 21
-65.057739
 31
0.0
  0
LINE
  8
0
 10
-80.994193
 20
-65.057739
 30
0.0
 11
-81.014958
 21
-65.043895
 31
0.0
  0
LINE
  8
0
 10
-81.014958
 20
-65.043895
 30
0.0
 11
-81.032263
 21
-65.033512
 31
0.0
  0
LINE
  8
0
 10
-81.032263
 20
-65.033512
 30
0.0
 11
-81.049567
 21
-65.020163
 31
0.0
  0
LINE
  8
0
 10
-81.049567
 20
-65.020163
 30
0.0
 11
-81.070332
 21
-65.009781
 31
0.0
  0
LINE
  8
0
 10
-81.070332
 20
-65.009781
 30
0.0
 11
-81.087637
 21
-64.999398
 31
0.0
  0
LINE
  8
0
 10
-81.087637
 20
-64.999398
 30
0.0
 11
-81.108402
 21
-64.992476
 31
0.0
  0
LINE
  8
0
 10
-81.108402
 20
-64.992476
 30
0.0
 11
-81.125706
 21
-64.982094
 31
0.0
  0
LINE
  8
0
 10
-81.125706
 20
-64.982094
 30
0.0
 11
-81.145977
 21
-64.971711
 31
0.0
  0
LINE
  8
0
 10
-81.145977
 20
-64.971711
 30
0.0
 11
-81.166742
 21
-64.964789
 31
0.0
  0
LINE
  8
0
 10
-81.166742
 20
-64.964789
 30
0.0
 11
-81.187508
 21
-64.957868
 31
0.0
  0
LINE
  8
0
 10
-81.187508
 20
-64.957868
 30
0.0
 11
-81.208273
 21
-64.950946
 31
0.0
  0
LINE
  8
0
 10
-81.208273
 20
-64.950946
 30
0.0
 11
-81.229038
 21
-64.944024
 31
0.0
  0
LINE
  8
0
 10
-81.229038
 20
-64.944024
 30
0.0
 11
-81.249803
 21
-64.940563
 31
0.0
  0
LINE
  8
0
 10
-81.249803
 20
-64.940563
 30
0.0
 11
-81.270569
 21
-64.933641
 31
0.0
  0
LINE
  8
0
 10
-81.270569
 20
-64.933641
 30
0.0
 11
-81.291334
 21
-64.930181
 31
0.0
  0
LINE
  8
0
 10
-81.291334
 20
-64.930181
 30
0.0
 11
-81.312099
 21
-64.92672
 31
0.0
  0
LINE
  8
0
 10
-81.312099
 20
-64.92672
 30
0.0
 11
-81.332864
 21
-64.923259
 31
0.0
  0
LINE
  8
0
 10
-81.332864
 20
-64.923259
 30
0.0
 11
-81.357091
 21
-64.919798
 31
0.0
  0
LINE
  8
0
 10
-81.357091
 20
-64.919798
 30
0.0
 11
-81.377856
 21
-64.916337
 31
0.0
  0
LINE
  8
0
 10
-81.377856
 20
-64.916337
 30
0.0
 11
-81.398621
 21
-64.916337
 31
0.0
  0
LINE
  8
0
 10
-81.398621
 20
-64.916337
 30
0.0
 11
-81.440152
 21
-64.912876
 31
0.0
  0
LINE
  8
0
 10
-81.440152
 20
-64.912876
 30
0.0
 11
-81.443612
 21
-64.912876
 31
0.0
  0
LINE
  8
0
 10
-80.638217
 20
-65.700473
 30
0.0
 11
-80.589765
 21
-65.873517
 31
0.0
  0
LINE
  8
0
 10
-80.589765
 20
-65.873517
 30
0.0
 11
-80.562078
 21
-65.973882
 31
0.0
  0
LINE
  8
0
 10
-80.562078
 20
-65.973882
 30
0.0
 11
-80.537852
 21
-66.066831
 31
0.0
  0
LINE
  8
0
 10
-80.537852
 20
-66.066831
 30
0.0
 11
-80.513626
 21
-66.156814
 31
0.0
  0
LINE
  8
0
 10
-80.513626
 20
-66.156814
 30
0.0
 11
-80.493355
 21
-66.236414
 31
0.0
  0
LINE
  8
0
 10
-80.493355
 20
-66.236414
 30
0.0
 11
-80.47605
 21
-66.305632
 31
0.0
  0
LINE
  8
0
 10
-80.47605
 20
-66.305632
 30
0.0
 11
-80.458746
 21
-66.363972
 31
0.0
  0
LINE
  8
0
 10
-80.458746
 20
-66.363972
 30
0.0
 11
-80.444902
 21
-66.412424
 31
0.0
  0
LINE
  8
0
 10
-80.444902
 20
-66.412424
 30
0.0
 11
-80.437981
 21
-66.447033
 31
0.0
  0
LINE
  8
0
 10
-80.437981
 20
-66.447033
 30
0.0
 11
-80.431059
 21
-66.467799
 31
0.0
  0
LINE
  8
0
 10
-80.431059
 20
-66.467799
 30
0.0
 11
-80.431059
 21
-66.47472
 31
0.0
  0
LINE
  8
0
 10
-85.248104
 20
-65.69009
 30
0.0
 11
-85.248104
 21
-65.666358
 31
0.0
  0
LINE
  8
0
 10
-85.248104
 20
-65.666358
 30
0.0
 11
-85.244643
 21
-65.638671
 31
0.0
  0
LINE
  8
0
 10
-85.244643
 20
-65.638671
 30
0.0
 11
-85.244643
 21
-65.614445
 31
0.0
  0
LINE
  8
0
 10
-85.244643
 20
-65.614445
 30
0.0
 11
-85.241183
 21
-65.586758
 31
0.0
  0
LINE
  8
0
 10
-85.241183
 20
-65.586758
 30
0.0
 11
-85.234261
 21
-65.562532
 31
0.0
  0
LINE
  8
0
 10
-85.234261
 20
-65.562532
 30
0.0
 11
-85.2308
 21
-65.534845
 31
0.0
  0
LINE
  8
0
 10
-85.2308
 20
-65.534845
 30
0.0
 11
-85.223878
 21
-65.510619
 31
0.0
  0
LINE
  8
0
 10
-85.223878
 20
-65.510619
 30
0.0
 11
-85.220417
 21
-65.486393
 31
0.0
  0
LINE
  8
0
 10
-85.220417
 20
-65.486393
 30
0.0
 11
-85.210035
 21
-65.458706
 31
0.0
  0
LINE
  8
0
 10
-85.210035
 20
-65.458706
 30
0.0
 11
-85.203113
 21
-65.43448
 31
0.0
  0
LINE
  8
0
 10
-85.203113
 20
-65.43448
 30
0.0
 11
-85.19273
 21
-65.410254
 31
0.0
  0
LINE
  8
0
 10
-85.19273
 20
-65.410254
 30
0.0
 11
-85.185809
 21
-65.386027
 31
0.0
  0
LINE
  8
0
 10
-85.185809
 20
-65.386027
 30
0.0
 11
-85.175426
 21
-65.361801
 31
0.0
  0
LINE
  8
0
 10
-85.175426
 20
-65.361801
 30
0.0
 11
-85.161582
 21
-65.341036
 31
0.0
  0
LINE
  8
0
 10
-85.161582
 20
-65.341036
 30
0.0
 11
-85.1512
 21
-65.317304
 31
0.0
  0
LINE
  8
0
 10
-85.1512
 20
-65.317304
 30
0.0
 11
-85.137356
 21
-65.293078
 31
0.0
  0
LINE
  8
0
 10
-85.137356
 20
-65.293078
 30
0.0
 11
-85.123513
 21
-65.272313
 31
0.0
  0
LINE
  8
0
 10
-85.123513
 20
-65.272313
 30
0.0
 11
-85.109669
 21
-65.251548
 31
0.0
  0
LINE
  8
0
 10
-85.109669
 20
-65.251548
 30
0.0
 11
-85.092365
 21
-65.230782
 31
0.0
  0
LINE
  8
0
 10
-85.092365
 20
-65.230782
 30
0.0
 11
-85.078521
 21
-65.210017
 31
0.0
  0
LINE
  8
0
 10
-85.078521
 20
-65.210017
 30
0.0
 11
-85.061711
 21
-65.189252
 31
0.0
  0
LINE
  8
0
 10
-85.061711
 20
-65.189252
 30
0.0
 11
-85.044407
 21
-65.168487
 31
0.0
  0
LINE
  8
0
 10
-85.044407
 20
-65.168487
 30
0.0
 11
-85.027103
 21
-65.151182
 31
0.0
  0
LINE
  8
0
 10
-85.027103
 20
-65.151182
 30
0.0
 11
-85.009798
 21
-65.130417
 31
0.0
  0
LINE
  8
0
 10
-85.009798
 20
-65.130417
 30
0.0
 11
-84.989033
 21
-65.113113
 31
0.0
  0
LINE
  8
0
 10
-84.989033
 20
-65.113113
 30
0.0
 11
-84.968268
 21
-65.095808
 31
0.0
  0
LINE
  8
0
 10
-84.968268
 20
-65.095808
 30
0.0
 11
-84.950963
 21
-65.081965
 31
0.0
  0
LINE
  8
0
 10
-84.950963
 20
-65.081965
 30
0.0
 11
-84.930198
 21
-65.06466
 31
0.0
  0
LINE
  8
0
 10
-84.930198
 20
-65.06466
 30
0.0
 11
-84.909433
 21
-65.050817
 31
0.0
  0
LINE
  8
0
 10
-84.909433
 20
-65.050817
 30
0.0
 11
-84.885207
 21
-65.036973
 31
0.0
  0
LINE
  8
0
 10
-84.885207
 20
-65.036973
 30
0.0
 11
-84.864442
 21
-65.02313
 31
0.0
  0
LINE
  8
0
 10
-84.864442
 20
-65.02313
 30
0.0
 11
-84.840215
 21
-65.009781
 31
0.0
  0
LINE
  8
0
 10
-84.840215
 20
-65.009781
 30
0.0
 11
-84.81945
 21
-64.995937
 31
0.0
  0
LINE
  8
0
 10
-84.81945
 20
-64.995937
 30
0.0
 11
-84.795224
 21
-64.985555
 31
0.0
  0
LINE
  8
0
 10
-84.795224
 20
-64.985555
 30
0.0
 11
-84.770998
 21
-64.975172
 31
0.0
  0
LINE
  8
0
 10
-84.770998
 20
-64.975172
 30
0.0
 11
-84.746772
 21
-64.964789
 31
0.0
  0
LINE
  8
0
 10
-84.746772
 20
-64.964789
 30
0.0
 11
-84.72304
 21
-64.957868
 31
0.0
  0
LINE
  8
0
 10
-84.72304
 20
-64.957868
 30
0.0
 11
-84.698814
 21
-64.947485
 31
0.0
  0
LINE
  8
0
 10
-84.698814
 20
-64.947485
 30
0.0
 11
-84.674588
 21
-64.940563
 31
0.0
  0
LINE
  8
0
 10
-84.674588
 20
-64.940563
 30
0.0
 11
-84.646901
 21
-64.933641
 31
0.0
  0
LINE
  8
0
 10
-84.646901
 20
-64.933641
 30
0.0
 11
-84.622675
 21
-64.930181
 31
0.0
  0
LINE
  8
0
 10
-84.622675
 20
-64.930181
 30
0.0
 11
-84.598448
 21
-64.923259
 31
0.0
  0
LINE
  8
0
 10
-84.598448
 20
-64.923259
 30
0.0
 11
-84.570761
 21
-64.919798
 31
0.0
  0
LINE
  8
0
 10
-84.570761
 20
-64.919798
 30
0.0
 11
-84.546535
 21
-64.916337
 31
0.0
  0
LINE
  8
0
 10
-84.546535
 20
-64.916337
 30
0.0
 11
-84.518848
 21
-64.916337
 31
0.0
  0
LINE
  8
0
 10
-84.518848
 20
-64.916337
 30
0.0
 11
-84.494622
 21
-64.912876
 31
0.0
  0
LINE
  8
0
 10
-84.494622
 20
-64.912876
 30
0.0
 11
-84.470396
 21
-64.912876
 31
0.0
  0
LINE
  8
0
 10
-84.470396
 20
-64.912876
 30
0.0
 11
-84.466935
 21
-64.912876
 31
0.0
  0
LINE
  8
0
 10
-85.248104
 20
-65.69009
 30
0.0
 11
-85.248104
 21
-65.693551
 31
0.0
  0
LINE
  8
0
 10
-109.344209
 20
-66.937983
 30
0.0
 11
-85.248104
 21
-66.937983
 31
0.0
  0
LINE
  8
0
 10
-109.344209
 20
-66.47472
 30
0.0
 11
-114.161254
 21
-66.47472
 31
0.0
  0
LINE
  8
0
 10
-109.544445
 20
-65.168487
 30
0.0
 11
-109.56175
 21
-65.151182
 31
0.0
  0
LINE
  8
0
 10
-109.56175
 20
-65.151182
 30
0.0
 11
-109.582515
 21
-65.133878
 31
0.0
  0
LINE
  8
0
 10
-109.582515
 20
-65.133878
 30
0.0
 11
-109.599819
 21
-65.113113
 31
0.0
  0
LINE
  8
0
 10
-109.599819
 20
-65.113113
 30
0.0
 11
-109.620585
 21
-65.095808
 31
0.0
  0
LINE
  8
0
 10
-109.620585
 20
-65.095808
 30
0.0
 11
-109.64135
 21
-65.081965
 31
0.0
  0
LINE
  8
0
 10
-109.64135
 20
-65.081965
 30
0.0
 11
-109.662115
 21
-65.06466
 31
0.0
  0
LINE
  8
0
 10
-109.662115
 20
-65.06466
 30
0.0
 11
-109.68288
 21
-65.050817
 31
0.0
  0
LINE
  8
0
 10
-109.68288
 20
-65.050817
 30
0.0
 11
-109.703646
 21
-65.036973
 31
0.0
  0
LINE
  8
0
 10
-109.703646
 20
-65.036973
 30
0.0
 11
-109.724411
 21
-65.02313
 31
0.0
  0
LINE
  8
0
 10
-109.724411
 20
-65.02313
 30
0.0
 11
-109.748637
 21
-65.009781
 31
0.0
  0
LINE
  8
0
 10
-109.748637
 20
-65.009781
 30
0.0
 11
-109.772863
 21
-64.995937
 31
0.0
  0
LINE
  8
0
 10
-109.772863
 20
-64.995937
 30
0.0
 11
-109.793628
 21
-64.985555
 31
0.0
  0
LINE
  8
0
 10
-109.793628
 20
-64.985555
 30
0.0
 11
-109.817855
 21
-64.975172
 31
0.0
  0
LINE
  8
0
 10
-109.817855
 20
-64.975172
 30
0.0
 11
-109.841586
 21
-64.964789
 31
0.0
  0
LINE
  8
0
 10
-109.841586
 20
-64.964789
 30
0.0
 11
-109.865812
 21
-64.957868
 31
0.0
  0
LINE
  8
0
 10
-109.865812
 20
-64.957868
 30
0.0
 11
-109.890039
 21
-64.947485
 31
0.0
  0
LINE
  8
0
 10
-109.890039
 20
-64.947485
 30
0.0
 11
-109.917726
 21
-64.940563
 31
0.0
  0
LINE
  8
0
 10
-109.917726
 20
-64.940563
 30
0.0
 11
-109.941952
 21
-64.933641
 31
0.0
  0
LINE
  8
0
 10
-109.941952
 20
-64.933641
 30
0.0
 11
-109.966178
 21
-64.930181
 31
0.0
  0
LINE
  8
0
 10
-109.966178
 20
-64.930181
 30
0.0
 11
-109.993865
 21
-64.923259
 31
0.0
  0
LINE
  8
0
 10
-109.993865
 20
-64.923259
 30
0.0
 11
-110.018091
 21
-64.919798
 31
0.0
  0
LINE
  8
0
 10
-110.018091
 20
-64.919798
 30
0.0
 11
-110.045778
 21
-64.916337
 31
0.0
  0
LINE
  8
0
 10
-110.045778
 20
-64.916337
 30
0.0
 11
-110.070004
 21
-64.916337
 31
0.0
  0
LINE
  8
0
 10
-110.070004
 20
-64.916337
 30
0.0
 11
-110.097691
 21
-64.912876
 31
0.0
  0
LINE
  8
0
 10
-110.097691
 20
-64.912876
 30
0.0
 11
-110.121917
 21
-64.912876
 31
0.0
  0
LINE
  8
0
 10
-110.121917
 20
-64.912876
 30
0.0
 11
-113.14524
 21
-64.912876
 31
0.0
  0
LINE
  8
0
 10
-113.14524
 20
-64.912876
 30
0.0
 11
-113.18677
 21
-64.916337
 31
0.0
  0
LINE
  8
0
 10
-113.18677
 20
-64.916337
 30
0.0
 11
-113.210997
 21
-64.916337
 31
0.0
  0
LINE
  8
0
 10
-113.210997
 20
-64.916337
 30
0.0
 11
-113.231762
 21
-64.919798
 31
0.0
  0
LINE
  8
0
 10
-113.231762
 20
-64.919798
 30
0.0
 11
-113.252527
 21
-64.919798
 31
0.0
  0
LINE
  8
0
 10
-113.252527
 20
-64.919798
 30
0.0
 11
-113.273292
 21
-64.923259
 31
0.0
  0
LINE
  8
0
 10
-113.273292
 20
-64.923259
 30
0.0
 11
-113.297518
 21
-64.930181
 31
0.0
  0
LINE
  8
0
 10
-113.297518
 20
-64.930181
 30
0.0
 11
-113.318284
 21
-64.933641
 31
0.0
  0
LINE
  8
0
 10
-113.318284
 20
-64.933641
 30
0.0
 11
-113.339049
 21
-64.937102
 31
0.0
  0
LINE
  8
0
 10
-113.339049
 20
-64.937102
 30
0.0
 11
-113.359814
 21
-64.944024
 31
0.0
  0
LINE
  8
0
 10
-113.359814
 20
-64.944024
 30
0.0
 11
-113.38058
 21
-64.950946
 31
0.0
  0
LINE
  8
0
 10
-113.38058
 20
-64.950946
 30
0.0
 11
-113.401345
 21
-64.957868
 31
0.0
  0
LINE
  8
0
 10
-113.401345
 20
-64.957868
 30
0.0
 11
-113.421616
 21
-64.964789
 31
0.0
  0
LINE
  8
0
 10
-113.421616
 20
-64.964789
 30
0.0
 11
-113.442381
 21
-64.971711
 31
0.0
  0
LINE
  8
0
 10
-113.442381
 20
-64.971711
 30
0.0
 11
-113.459685
 21
-64.982094
 31
0.0
  0
LINE
  8
0
 10
-113.459685
 20
-64.982094
 30
0.0
 11
-113.480451
 21
-64.989015
 31
0.0
  0
LINE
  8
0
 10
-113.480451
 20
-64.989015
 30
0.0
 11
-113.501216
 21
-64.999398
 31
0.0
  0
LINE
  8
0
 10
-113.501216
 20
-64.999398
 30
0.0
 11
-113.51852
 21
-65.009781
 31
0.0
  0
LINE
  8
0
 10
-113.51852
 20
-65.009781
 30
0.0
 11
-113.539285
 21
-65.020163
 31
0.0
  0
LINE
  8
0
 10
-113.539285
 20
-65.020163
 30
0.0
 11
-113.55659
 21
-65.030052
 31
0.0
  0
LINE
  8
0
 10
-113.55659
 20
-65.030052
 30
0.0
 11
-113.573894
 21
-65.043895
 31
0.0
  0
LINE
  8
0
 10
-113.573894
 20
-65.043895
 30
0.0
 11
-113.594659
 21
-65.054278
 31
0.0
  0
LINE
  8
0
 10
-113.594659
 20
-65.054278
 30
0.0
 11
-113.611964
 21
-65.068121
 31
0.0
  0
LINE
  8
0
 10
-113.611964
 20
-65.068121
 30
0.0
 11
-113.629268
 21
-65.081965
 31
0.0
  0
LINE
  8
0
 10
-113.629268
 20
-65.081965
 30
0.0
 11
-113.646573
 21
-65.095808
 31
0.0
  0
LINE
  8
0
 10
-113.646573
 20
-65.095808
 30
0.0
 11
-113.660416
 21
-65.109652
 31
0.0
  0
LINE
  8
0
 10
-113.660416
 20
-65.109652
 30
0.0
 11
-113.67772
 21
-65.123495
 31
0.0
  0
LINE
  8
0
 10
-113.67772
 20
-65.123495
 30
0.0
 11
-113.695025
 21
-65.137339
 31
0.0
  0
LINE
  8
0
 10
-113.695025
 20
-65.137339
 30
0.0
 11
-113.708868
 21
-65.154643
 31
0.0
  0
LINE
  8
0
 10
-113.708868
 20
-65.154643
 30
0.0
 11
-113.722712
 21
-65.171948
 31
0.0
  0
LINE
  8
0
 10
-113.722712
 20
-65.171948
 30
0.0
 11
-113.736555
 21
-65.185791
 31
0.0
  0
LINE
  8
0
 10
-113.736555
 20
-65.185791
 30
0.0
 11
-113.750399
 21
-65.203095
 31
0.0
  0
LINE
  8
0
 10
-113.750399
 20
-65.203095
 30
0.0
 11
-113.763748
 21
-65.2204
 31
0.0
  0
LINE
  8
0
 10
-113.763748
 20
-65.2204
 30
0.0
 11
-113.777591
 21
-65.237704
 31
0.0
  0
LINE
  8
0
 10
-113.777591
 20
-65.237704
 30
0.0
 11
-113.791435
 21
-65.255009
 31
0.0
  0
LINE
  8
0
 10
-113.791435
 20
-65.255009
 30
0.0
 11
-113.801818
 21
-65.272313
 31
0.0
  0
LINE
  8
0
 10
-113.801818
 20
-65.272313
 30
0.0
 11
-113.8122
 21
-65.293078
 31
0.0
  0
LINE
  8
0
 10
-113.8122
 20
-65.293078
 30
0.0
 11
-113.826044
 21
-65.310383
 31
0.0
  0
LINE
  8
0
 10
-113.826044
 20
-65.310383
 30
0.0
 11
-113.836426
 21
-65.331148
 31
0.0
  0
LINE
  8
0
 10
-113.836426
 20
-65.331148
 30
0.0
 11
-113.843348
 21
-65.347958
 31
0.0
  0
LINE
  8
0
 10
-113.843348
 20
-65.347958
 30
0.0
 11
-113.853731
 21
-65.368723
 31
0.0
  0
LINE
  8
0
 10
-113.853731
 20
-65.368723
 30
0.0
 11
-113.864113
 21
-65.389488
 31
0.0
  0
LINE
  8
0
 10
-113.864113
 20
-65.389488
 30
0.0
 11
-113.871035
 21
-65.410254
 31
0.0
  0
LINE
  8
0
 10
-113.871035
 20
-65.410254
 30
0.0
 11
-113.877957
 21
-65.431019
 31
0.0
  0
LINE
  8
0
 10
-113.877957
 20
-65.431019
 30
0.0
 11
-113.884879
 21
-65.448323
 31
0.0
  0
LINE
  8
0
 10
-113.884879
 20
-65.448323
 30
0.0
 11
-113.8918
 21
-65.469088
 31
0.0
  0
LINE
  8
0
 10
-113.8918
 20
-65.469088
 30
0.0
 11
-113.898722
 21
-65.493315
 31
0.0
  0
LINE
  8
0
 10
-113.898722
 20
-65.493315
 30
0.0
 11
-113.950635
 21
-65.69009
 31
0.0
  0
LINE
  8
0
 10
-113.950635
 20
-65.69009
 30
0.0
 11
-113.954096
 21
-65.697012
 31
0.0
  0
LINE
  8
0
 10
-113.954096
 20
-65.697012
 30
0.0
 11
-113.981783
 21
-65.800838
 31
0.0
  0
LINE
  8
0
 10
-113.981783
 20
-65.800838
 30
0.0
 11
-114.00947
 21
-65.901204
 31
0.0
  0
LINE
  8
0
 10
-114.00947
 20
-65.901204
 30
0.0
 11
-114.033696
 21
-66.001075
 31
0.0
  0
LINE
  8
0
 10
-114.033696
 20
-66.001075
 30
0.0
 11
-114.061383
 21
-66.094518
 31
0.0
  0
LINE
  8
0
 10
-114.061383
 20
-66.094518
 30
0.0
 11
-114.081654
 21
-66.177579
 31
0.0
  0
LINE
  8
0
 10
-114.081654
 20
-66.177579
 30
0.0
 11
-114.102419
 21
-66.257179
 31
0.0
  0
LINE
  8
0
 10
-114.102419
 20
-66.257179
 30
0.0
 11
-114.119724
 21
-66.322936
 31
0.0
  0
LINE
  8
0
 10
-114.119724
 20
-66.322936
 30
0.0
 11
-114.137028
 21
-66.377816
 31
0.0
  0
LINE
  8
0
 10
-114.137028
 20
-66.377816
 30
0.0
 11
-114.147411
 21
-66.422807
 31
0.0
  0
LINE
  8
0
 10
-114.147411
 20
-66.422807
 30
0.0
 11
-114.154333
 21
-66.453955
 31
0.0
  0
LINE
  8
0
 10
-114.154333
 20
-66.453955
 30
0.0
 11
-114.161254
 21
-66.47472
 31
0.0
  0
LINE
  8
0
 10
-113.14524
 20
-64.912876
 30
0.0
 11
-110.121917
 21
-64.912876
 31
0.0
  0
LINE
  8
0
 10
-109.544445
 20
-65.168487
 30
0.0
 11
-109.527141
 21
-65.189252
 31
0.0
  0
LINE
  8
0
 10
-109.527141
 20
-65.189252
 30
0.0
 11
-109.513297
 21
-65.210017
 31
0.0
  0
LINE
  8
0
 10
-109.513297
 20
-65.210017
 30
0.0
 11
-109.496487
 21
-65.230782
 31
0.0
  0
LINE
  8
0
 10
-109.496487
 20
-65.230782
 30
0.0
 11
-109.482644
 21
-65.251548
 31
0.0
  0
LINE
  8
0
 10
-109.482644
 20
-65.251548
 30
0.0
 11
-109.46534
 21
-65.272313
 31
0.0
  0
LINE
  8
0
 10
-109.46534
 20
-65.272313
 30
0.0
 11
-109.451496
 21
-65.296539
 31
0.0
  0
LINE
  8
0
 10
-109.451496
 20
-65.296539
 30
0.0
 11
-109.441113
 21
-65.317304
 31
0.0
  0
LINE
  8
0
 10
-109.441113
 20
-65.317304
 30
0.0
 11
-109.42727
 21
-65.341036
 31
0.0
  0
LINE
  8
0
 10
-109.42727
 20
-65.341036
 30
0.0
 11
-109.416887
 21
-65.361801
 31
0.0
  0
LINE
  8
0
 10
-109.416887
 20
-65.361801
 30
0.0
 11
-109.406505
 21
-65.386027
 31
0.0
  0
LINE
  8
0
 10
-109.406505
 20
-65.386027
 30
0.0
 11
-109.396122
 21
-65.410254
 31
0.0
  0
LINE
  8
0
 10
-109.396122
 20
-65.410254
 30
0.0
 11
-109.385739
 21
-65.43448
 31
0.0
  0
LINE
  8
0
 10
-109.385739
 20
-65.43448
 30
0.0
 11
-109.378818
 21
-65.462167
 31
0.0
  0
LINE
  8
0
 10
-109.378818
 20
-65.462167
 30
0.0
 11
-109.371896
 21
-65.486393
 31
0.0
  0
LINE
  8
0
 10
-109.371896
 20
-65.486393
 30
0.0
 11
-109.364974
 21
-65.510619
 31
0.0
  0
LINE
  8
0
 10
-109.364974
 20
-65.510619
 30
0.0
 11
-109.358052
 21
-65.534845
 31
0.0
  0
LINE
  8
0
 10
-109.358052
 20
-65.534845
 30
0.0
 11
-109.354591
 21
-65.562532
 31
0.0
  0
LINE
  8
0
 10
-109.354591
 20
-65.562532
 30
0.0
 11
-109.351131
 21
-65.586758
 31
0.0
  0
LINE
  8
0
 10
-109.351131
 20
-65.586758
 30
0.0
 11
-109.34767
 21
-65.614445
 31
0.0
  0
LINE
  8
0
 10
-109.34767
 20
-65.614445
 30
0.0
 11
-109.344209
 21
-65.638671
 31
0.0
  0
LINE
  8
0
 10
-109.344209
 20
-65.638671
 30
0.0
 11
-109.344209
 21
-65.666358
 31
0.0
  0
LINE
  8
0
 10
-109.344209
 20
-65.666358
 30
0.0
 11
-109.344209
 21
-65.69009
 31
0.0
  0
LINE
  8
0
 10
-109.344209
 20
-65.69009
 30
0.0
 11
-109.344209
 21
-65.693551
 31
0.0
  0
LINE
  8
0
 10
-109.344209
 20
-65.693551
 30
0.0
 11
-109.344209
 21
-65.697012
 31
0.0
  0
LINE
  8
0
 10
-109.344209
 20
-65.697012
 30
0.0
 11
-109.344209
 21
-65.797377
 31
0.0
  0
LINE
  8
0
 10
-109.344209
 20
-65.797377
 30
0.0
 11
-109.344209
 21
-65.897743
 31
0.0
  0
LINE
  8
0
 10
-109.344209
 20
-65.897743
 30
0.0
 11
-109.344209
 21
-65.994647
 31
0.0
  0
LINE
  8
0
 10
-109.344209
 20
-65.994647
 30
0.0
 11
-109.344209
 21
-66.084136
 31
0.0
  0
LINE
  8
0
 10
-109.344209
 20
-66.084136
 30
0.0
 11
-109.344209
 21
-66.170658
 31
0.0
  0
LINE
  8
0
 10
-109.344209
 20
-66.170658
 30
0.0
 11
-109.344209
 21
-66.246797
 31
0.0
  0
LINE
  8
0
 10
-109.344209
 20
-66.246797
 30
0.0
 11
-109.344209
 21
-66.312553
 31
0.0
  0
LINE
  8
0
 10
-109.344209
 20
-66.312553
 30
0.0
 11
-109.344209
 21
-66.370894
 31
0.0
  0
LINE
  8
0
 10
-109.344209
 20
-66.370894
 30
0.0
 11
-109.344209
 21
-66.415885
 31
0.0
  0
LINE
  8
0
 10
-109.344209
 20
-66.415885
 30
0.0
 11
-109.344209
 21
-66.447033
 31
0.0
  0
LINE
  8
0
 10
-109.344209
 20
-66.447033
 30
0.0
 11
-109.344209
 21
-66.467799
 31
0.0
  0
LINE
  8
0
 10
-109.344209
 20
-66.467799
 30
0.0
 11
-109.344209
 21
-66.47472
 31
0.0
  0
LINE
  8
0
 10
-109.344209
 20
-66.47472
 30
0.0
 11
-109.344209
 21
-66.937983
 31
0.0
  0
LINE
  8
0
 10
-114.161254
 20
-66.47472
 30
0.0
 11
-114.89051
 21
-69.187553
 31
0.0
  0
LINE
  8
0
 10
-114.907815
 20
-69.236005
 30
0.0
 11
-114.938963
 21
-69.277041
 31
0.0
  0
LINE
  8
0
 10
-114.938963
 20
-69.277041
 30
0.0
 11
-114.980493
 21
-69.308189
 31
0.0
  0
LINE
  8
0
 10
-115.076903
 20
-69.332415
 30
0.0
 11
-118.425548
 21
-69.332415
 31
0.0
  0
LINE
  8
0
 10
-118.895733
 20
-70.438413
 30
0.0
 11
-75.693119
 21
-70.438413
 31
0.0
  0
LINE
  8
0
 10
-118.425548
 20
-69.332415
 30
0.0
 11
-118.480922
 21
-69.325494
 31
0.0
  0
LINE
  8
0
 10
-118.480922
 20
-69.325494
 30
0.0
 11
-118.529375
 21
-69.304728
 31
0.0
  0
LINE
  8
0
 10
-118.529375
 20
-69.304728
 30
0.0
 11
-118.570905
 21
-69.27012
 31
0.0
  0
LINE
  8
0
 10
-118.570905
 20
-69.27012
 30
0.0
 11
-118.602053
 21
-69.225623
 31
0.0
  0
LINE
  8
0
 10
-118.602053
 20
-69.225623
 30
0.0
 11
-118.619358
 21
-69.173709
 31
0.0
  0
LINE
  8
0
 10
-118.895733
 20
-70.438413
 30
0.0
 11
-119.009448
 21
-70.431491
 31
0.0
  0
LINE
  8
0
 10
-119.009448
 20
-70.431491
 30
0.0
 11
-119.120196
 21
-70.410726
 31
0.0
  0
LINE
  8
0
 10
-119.120196
 20
-70.410726
 30
0.0
 11
-119.230944
 21
-70.379578
 31
0.0
  0
LINE
  8
0
 10
-119.230944
 20
-70.379578
 30
0.0
 11
-119.334276
 21
-70.334586
 31
0.0
  0
LINE
  8
0
 10
-119.334276
 20
-70.334586
 30
0.0
 11
-119.43118
 21
-70.279212
 31
0.0
  0
LINE
  8
0
 10
-119.43118
 20
-70.279212
 30
0.0
 11
-119.524624
 21
-70.210489
 31
0.0
  0
LINE
  8
0
 10
-119.524624
 20
-70.210489
 30
0.0
 11
-119.604224
 21
-70.130889
 31
0.0
  0
LINE
  8
0
 10
-119.604224
 20
-70.130889
 30
0.0
 11
-119.679869
 21
-70.044367
 31
0.0
  0
LINE
  8
0
 10
-119.679869
 20
-70.044367
 30
0.0
 11
-119.742165
 21
-69.950923
 31
0.0
  0
LINE
  8
0
 10
-119.742165
 20
-69.950923
 30
0.0
 11
-119.790617
 21
-69.851052
 31
0.0
  0
LINE
  8
0
 10
-119.790617
 20
-69.851052
 30
0.0
 11
-119.832147
 21
-69.743765
 31
0.0
  0
LINE
  8
0
 10
-119.832147
 20
-69.743765
 30
0.0
 11
-119.856374
 21
-69.633017
 31
0.0
  0
LINE
  8
0
 10
-118.619358
 20
-69.173709
 30
0.0
 11
-118.988682
 21
-67.075924
 31
0.0
  0
LINE
  8
0
 10
-120.267229
 20
-67.303847
 30
0.0
 11
-119.856374
 21
-69.633017
 31
0.0
  0
LINE
  8
0
 10
-119.811382
 20
-67.812102
 30
0.0
 11
-119.721399
 21
-67.832867
 31
0.0
  0
LINE
  8
0
 10
-119.721399
 20
-67.832867
 30
0.0
 11
-119.627956
 21
-67.839789
 31
0.0
  0
LINE
  8
0
 10
-119.627956
 20
-67.839789
 30
0.0
 11
-119.535007
 21
-67.832867
 31
0.0
  0
LINE
  8
0
 10
-119.535007
 20
-67.832867
 30
0.0
 11
-119.445024
 21
-67.812102
 31
0.0
  0
LINE
  8
0
 10
-119.445024
 20
-67.812102
 30
0.0
 11
-119.358502
 21
-67.780954
 31
0.0
  0
LINE
  8
0
 10
-119.358502
 20
-67.780954
 30
0.0
 11
-119.275441
 21
-67.735962
 31
0.0
  0
LINE
  8
0
 10
-119.275441
 20
-67.735962
 30
0.0
 11
-119.203257
 21
-67.680588
 31
0.0
  0
LINE
  8
0
 10
-119.203257
 20
-67.680588
 30
0.0
 11
-119.1375
 21
-67.615326
 31
0.0
  0
LINE
  8
0
 10
-119.1375
 20
-67.615326
 30
0.0
 11
-119.082126
 21
-67.539187
 31
0.0
  0
LINE
  8
0
 10
-119.082126
 20
-67.539187
 30
0.0
 11
-119.037135
 21
-67.459587
 31
0.0
  0
LINE
  8
0
 10
-119.037135
 20
-67.459587
 30
0.0
 11
-119.002526
 21
-67.373065
 31
0.0
  0
LINE
  8
0
 10
-119.002526
 20
-67.373065
 30
0.0
 11
-118.985222
 21
-67.280116
 31
0.0
  0
LINE
  8
0
 10
-118.985222
 20
-67.280116
 30
0.0
 11
-118.9783
 21
-67.190133
 31
0.0
  0
LINE
  8
0
 10
-118.9783
 20
-67.190133
 30
0.0
 11
-118.985222
 21
-67.096689
 31
0.0
  0
LINE
  8
0
 10
-118.985222
 20
-67.096689
 30
0.0
 11
-119.002526
 21
-67.006706
 31
0.0
  0
LINE
  8
0
 10
-119.002526
 20
-67.006706
 30
0.0
 11
-119.037135
 21
-66.917218
 31
0.0
  0
LINE
  8
0
 10
-119.037135
 20
-66.917218
 30
0.0
 11
-119.082126
 21
-66.837618
 31
0.0
  0
LINE
  8
0
 10
-119.082126
 20
-66.837618
 30
0.0
 11
-119.1375
 21
-66.761479
 31
0.0
  0
LINE
  8
0
 10
-119.1375
 20
-66.761479
 30
0.0
 11
-119.203257
 21
-66.695722
 31
0.0
  0
LINE
  8
0
 10
-119.203257
 20
-66.695722
 30
0.0
 11
-119.275441
 21
-66.640842
 31
0.0
  0
LINE
  8
0
 10
-119.275441
 20
-66.640842
 30
0.0
 11
-119.358502
 21
-66.595851
 31
0.0
  0
LINE
  8
0
 10
-119.358502
 20
-66.595851
 30
0.0
 11
-119.445024
 21
-66.564703
 31
0.0
  0
LINE
  8
0
 10
-119.445024
 20
-66.564703
 30
0.0
 11
-119.535007
 21
-66.543938
 31
0.0
  0
LINE
  8
0
 10
-119.535007
 20
-66.543938
 30
0.0
 11
-119.627956
 21
-66.537016
 31
0.0
  0
LINE
  8
0
 10
-119.627956
 20
-66.537016
 30
0.0
 11
-119.721399
 21
-66.543938
 31
0.0
  0
LINE
  8
0
 10
-119.721399
 20
-66.543938
 30
0.0
 11
-119.811382
 21
-66.564703
 31
0.0
  0
LINE
  8
0
 10
-119.811382
 20
-66.564703
 30
0.0
 11
-119.897904
 21
-66.595851
 31
0.0
  0
LINE
  8
0
 10
-119.897904
 20
-66.595851
 30
0.0
 11
-119.980471
 21
-66.640842
 31
0.0
  0
LINE
  8
0
 10
-119.980471
 20
-66.640842
 30
0.0
 11
-120.053149
 21
-66.695722
 31
0.0
  0
LINE
  8
0
 10
-120.053149
 20
-66.695722
 30
0.0
 11
-120.118906
 21
-66.761479
 31
0.0
  0
LINE
  8
0
 10
-120.118906
 20
-66.761479
 30
0.0
 11
-120.17428
 21
-66.837618
 31
0.0
  0
LINE
  8
0
 10
-120.17428
 20
-66.837618
 30
0.0
 11
-120.219271
 21
-66.917218
 31
0.0
  0
LINE
  8
0
 10
-120.219271
 20
-66.917218
 30
0.0
 11
-120.250419
 21
-67.006706
 31
0.0
  0
LINE
  8
0
 10
-120.250419
 20
-67.006706
 30
0.0
 11
-120.27069
 21
-67.096689
 31
0.0
  0
LINE
  8
0
 10
-120.27069
 20
-67.096689
 30
0.0
 11
-120.277612
 21
-67.190133
 31
0.0
  0
LINE
  8
0
 10
-120.277612
 20
-67.190133
 30
0.0
 11
-120.27069
 21
-67.280116
 31
0.0
  0
LINE
  8
0
 10
-120.27069
 20
-67.280116
 30
0.0
 11
-120.250419
 21
-67.373065
 31
0.0
  0
LINE
  8
0
 10
-120.250419
 20
-67.373065
 30
0.0
 11
-120.219271
 21
-67.459587
 31
0.0
  0
LINE
  8
0
 10
-120.219271
 20
-67.459587
 30
0.0
 11
-120.17428
 21
-67.539187
 31
0.0
  0
LINE
  8
0
 10
-120.17428
 20
-67.539187
 30
0.0
 11
-120.118906
 21
-67.615326
 31
0.0
  0
LINE
  8
0
 10
-120.118906
 20
-67.615326
 30
0.0
 11
-120.053149
 21
-67.680588
 31
0.0
  0
LINE
  8
0
 10
-120.053149
 20
-67.680588
 30
0.0
 11
-119.980471
 21
-67.735962
 31
0.0
  0
LINE
  8
0
 10
-119.980471
 20
-67.735962
 30
0.0
 11
-119.897904
 21
-67.780954
 31
0.0
  0
LINE
  8
0
 10
-119.897904
 20
-67.780954
 30
0.0
 11
-119.811382
 21
-67.812102
 31
0.0
  0
LINE
  8
0
 10
-167.900259
 20
-67.780954
 30
0.0
 11
-167.813737
 21
-67.812102
 31
0.0
  0
LINE
  8
0
 10
-167.982826
 20
-67.735962
 30
0.0
 11
-167.900259
 21
-67.780954
 31
0.0
  0
LINE
  8
0
 10
-168.055504
 20
-67.680588
 30
0.0
 11
-167.982826
 21
-67.735962
 31
0.0
  0
LINE
  8
0
 10
-168.121261
 20
-67.615326
 30
0.0
 11
-168.055504
 21
-67.680588
 31
0.0
  0
LINE
  8
0
 10
-168.176635
 20
-67.539187
 30
0.0
 11
-168.121261
 21
-67.615326
 31
0.0
  0
LINE
  8
0
 10
-168.221626
 20
-67.459587
 30
0.0
 11
-168.176635
 21
-67.539187
 31
0.0
  0
LINE
  8
0
 10
-168.252774
 20
-67.373065
 30
0.0
 11
-168.221626
 21
-67.459587
 31
0.0
  0
LINE
  8
0
 10
-168.273045
 20
-67.280116
 30
0.0
 11
-168.252774
 21
-67.373065
 31
0.0
  0
LINE
  8
0
 10
-168.279967
 20
-67.190133
 30
0.0
 11
-168.273045
 21
-67.280116
 31
0.0
  0
LINE
  8
0
 10
-168.273045
 20
-67.096689
 30
0.0
 11
-168.279967
 21
-67.190133
 31
0.0
  0
LINE
  8
0
 10
-168.252774
 20
-67.006706
 30
0.0
 11
-168.273045
 21
-67.096689
 31
0.0
  0
LINE
  8
0
 10
-168.221626
 20
-66.917218
 30
0.0
 11
-168.252774
 21
-67.006706
 31
0.0
  0
LINE
  8
0
 10
-168.176635
 20
-66.837618
 30
0.0
 11
-168.221626
 21
-66.917218
 31
0.0
  0
LINE
  8
0
 10
-168.121261
 20
-66.761479
 30
0.0
 11
-168.176635
 21
-66.837618
 31
0.0
  0
LINE
  8
0
 10
-168.055504
 20
-66.695722
 30
0.0
 11
-168.121261
 21
-66.761479
 31
0.0
  0
LINE
  8
0
 10
-167.982826
 20
-66.640842
 30
0.0
 11
-168.055504
 21
-66.695722
 31
0.0
  0
LINE
  8
0
 10
-167.900259
 20
-66.595851
 30
0.0
 11
-167.982826
 21
-66.640842
 31
0.0
  0
LINE
  8
0
 10
-167.813737
 20
-66.564703
 30
0.0
 11
-167.900259
 21
-66.595851
 31
0.0
  0
LINE
  8
0
 10
-167.723755
 20
-66.543938
 30
0.0
 11
-167.813737
 21
-66.564703
 31
0.0
  0
LINE
  8
0
 10
-167.630311
 20
-66.537016
 30
0.0
 11
-167.723755
 21
-66.543938
 31
0.0
  0
LINE
  8
0
 10
-167.537362
 20
-66.543938
 30
0.0
 11
-167.630311
 21
-66.537016
 31
0.0
  0
LINE
  8
0
 10
-167.447379
 20
-66.564703
 30
0.0
 11
-167.537362
 21
-66.543938
 31
0.0
  0
LINE
  8
0
 10
-167.360857
 20
-66.595851
 30
0.0
 11
-167.447379
 21
-66.564703
 31
0.0
  0
LINE
  8
0
 10
-167.277796
 20
-66.640842
 30
0.0
 11
-167.360857
 21
-66.595851
 31
0.0
  0
LINE
  8
0
 10
-167.205612
 20
-66.695722
 30
0.0
 11
-167.277796
 21
-66.640842
 31
0.0
  0
LINE
  8
0
 10
-167.139855
 20
-66.761479
 30
0.0
 11
-167.205612
 21
-66.695722
 31
0.0
  0
LINE
  8
0
 10
-167.084481
 20
-66.837618
 30
0.0
 11
-167.139855
 21
-66.761479
 31
0.0
  0
LINE
  8
0
 10
-167.03949
 20
-66.917218
 30
0.0
 11
-167.084481
 21
-66.837618
 31
0.0
  0
LINE
  8
0
 10
-167.004881
 20
-67.006706
 30
0.0
 11
-167.03949
 21
-66.917218
 31
0.0
  0
LINE
  8
0
 10
-166.987577
 20
-67.096689
 30
0.0
 11
-167.004881
 21
-67.006706
 31
0.0
  0
LINE
  8
0
 10
-166.980655
 20
-67.190133
 30
0.0
 11
-166.987577
 21
-67.096689
 31
0.0
  0
LINE
  8
0
 10
-166.987577
 20
-67.280116
 30
0.0
 11
-166.980655
 21
-67.190133
 31
0.0
  0
LINE
  8
0
 10
-167.004881
 20
-67.373065
 30
0.0
 11
-166.987577
 21
-67.280116
 31
0.0
  0
LINE
  8
0
 10
-167.03949
 20
-67.459587
 30
0.0
 11
-167.004881
 21
-67.373065
 31
0.0
  0
LINE
  8
0
 10
-167.084481
 20
-67.539187
 30
0.0
 11
-167.03949
 21
-67.459587
 31
0.0
  0
LINE
  8
0
 10
-167.139855
 20
-67.615326
 30
0.0
 11
-167.084481
 21
-67.539187
 31
0.0
  0
LINE
  8
0
 10
-167.205612
 20
-67.680588
 30
0.0
 11
-167.139855
 21
-67.615326
 31
0.0
  0
LINE
  8
0
 10
-167.277796
 20
-67.735962
 30
0.0
 11
-167.205612
 21
-67.680588
 31
0.0
  0
LINE
  8
0
 10
-167.360857
 20
-67.780954
 30
0.0
 11
-167.277796
 21
-67.735962
 31
0.0
  0
LINE
  8
0
 10
-167.447379
 20
-67.812102
 30
0.0
 11
-167.360857
 21
-67.780954
 31
0.0
  0
LINE
  8
0
 10
-167.537362
 20
-67.832867
 30
0.0
 11
-167.447379
 21
-67.812102
 31
0.0
  0
LINE
  8
0
 10
-167.630311
 20
-67.839789
 30
0.0
 11
-167.537362
 21
-67.832867
 31
0.0
  0
LINE
  8
0
 10
-167.723755
 20
-67.832867
 30
0.0
 11
-167.630311
 21
-67.839789
 31
0.0
  0
LINE
  8
0
 10
-167.813737
 20
-67.812102
 30
0.0
 11
-167.723755
 21
-67.832867
 31
0.0
  0
LINE
  8
0
 10
-168.269584
 20
-67.303847
 30
0.0
 11
-167.858729
 21
-69.633017
 31
0.0
  0
LINE
  8
0
 10
-166.621713
 20
-69.173709
 30
0.0
 11
-166.991038
 21
-67.075924
 31
0.0
  0
LINE
  8
0
 10
-167.834503
 20
-69.743765
 30
0.0
 11
-167.858729
 21
-69.633017
 31
0.0
  0
LINE
  8
0
 10
-167.792972
 20
-69.851052
 30
0.0
 11
-167.834503
 21
-69.743765
 31
0.0
  0
LINE
  8
0
 10
-167.74452
 20
-69.950923
 30
0.0
 11
-167.792972
 21
-69.851052
 31
0.0
  0
LINE
  8
0
 10
-167.682224
 20
-70.044367
 30
0.0
 11
-167.74452
 21
-69.950923
 31
0.0
  0
LINE
  8
0
 10
-167.606579
 20
-70.130889
 30
0.0
 11
-167.682224
 21
-70.044367
 31
0.0
  0
LINE
  8
0
 10
-167.526979
 20
-70.210489
 30
0.0
 11
-167.606579
 21
-70.130889
 31
0.0
  0
LINE
  8
0
 10
-167.433535
 20
-70.279212
 30
0.0
 11
-167.526979
 21
-70.210489
 31
0.0
  0
LINE
  8
0
 10
-167.336631
 20
-70.334586
 30
0.0
 11
-167.433535
 21
-70.279212
 31
0.0
  0
LINE
  8
0
 10
-167.233299
 20
-70.379578
 30
0.0
 11
-167.336631
 21
-70.334586
 31
0.0
  0
LINE
  8
0
 10
-167.122551
 20
-70.410726
 30
0.0
 11
-167.233299
 21
-70.379578
 31
0.0
  0
LINE
  8
0
 10
-167.011803
 20
-70.431491
 30
0.0
 11
-167.122551
 21
-70.410726
 31
0.0
  0
LINE
  8
0
 10
-166.898088
 20
-70.438413
 30
0.0
 11
-167.011803
 21
-70.431491
 31
0.0
  0
LINE
  8
0
 10
-166.604408
 20
-69.225623
 30
0.0
 11
-166.621713
 21
-69.173709
 31
0.0
  0
LINE
  8
0
 10
-166.57326
 20
-69.27012
 30
0.0
 11
-166.604408
 21
-69.225623
 31
0.0
  0
LINE
  8
0
 10
-166.53173
 20
-69.304728
 30
0.0
 11
-166.57326
 21
-69.27012
 31
0.0
  0
LINE
  8
0
 10
-166.483278
 20
-69.325494
 30
0.0
 11
-166.53173
 21
-69.304728
 31
0.0
  0
LINE
  8
0
 10
-166.427904
 20
-69.332415
 30
0.0
 11
-166.483278
 21
-69.325494
 31
0.0
  0
LINE
  8
0
 10
-166.898088
 20
-70.438413
 30
0.0
 11
-123.695474
 21
-70.438413
 31
0.0
  0
LINE
  8
0
 10
-163.079259
 20
-69.332415
 30
0.0
 11
-166.427904
 21
-69.332415
 31
0.0
  0
LINE
  8
0
 10
-162.941318
 20
-69.277041
 30
0.0
 11
-162.982848
 21
-69.308189
 31
0.0
  0
LINE
  8
0
 10
-162.91017
 20
-69.236005
 30
0.0
 11
-162.941318
 21
-69.277041
 31
0.0
  0
LINE
  8
0
 10
-162.16361
 20
-66.47472
 30
0.0
 11
-162.892866
 21
-69.187553
 31
0.0
  0
LINE
  8
0
 10
-157.346564
 20
-66.47472
 30
0.0
 11
-157.346564
 21
-66.937983
 31
0.0
  0
LINE
  8
0
 10
-157.346564
 20
-66.467799
 30
0.0
 11
-157.346564
 21
-66.47472
 31
0.0
  0
LINE
  8
0
 10
-157.346564
 20
-66.447033
 30
0.0
 11
-157.346564
 21
-66.467799
 31
0.0
  0
LINE
  8
0
 10
-157.346564
 20
-66.415885
 30
0.0
 11
-157.346564
 21
-66.447033
 31
0.0
  0
LINE
  8
0
 10
-157.346564
 20
-66.370894
 30
0.0
 11
-157.346564
 21
-66.415885
 31
0.0
  0
LINE
  8
0
 10
-157.346564
 20
-66.312553
 30
0.0
 11
-157.346564
 21
-66.370894
 31
0.0
  0
LINE
  8
0
 10
-157.346564
 20
-66.246797
 30
0.0
 11
-157.346564
 21
-66.312553
 31
0.0
  0
LINE
  8
0
 10
-157.346564
 20
-66.170658
 30
0.0
 11
-157.346564
 21
-66.246797
 31
0.0
  0
LINE
  8
0
 10
-157.346564
 20
-66.084136
 30
0.0
 11
-157.346564
 21
-66.170658
 31
0.0
  0
LINE
  8
0
 10
-157.346564
 20
-65.994647
 30
0.0
 11
-157.346564
 21
-66.084136
 31
0.0
  0
LINE
  8
0
 10
-157.346564
 20
-65.897743
 30
0.0
 11
-157.346564
 21
-65.994647
 31
0.0
  0
LINE
  8
0
 10
-157.346564
 20
-65.797377
 30
0.0
 11
-157.346564
 21
-65.897743
 31
0.0
  0
LINE
  8
0
 10
-157.346564
 20
-65.697012
 30
0.0
 11
-157.346564
 21
-65.797377
 31
0.0
  0
LINE
  8
0
 10
-157.346564
 20
-65.693551
 30
0.0
 11
-157.346564
 21
-65.697012
 31
0.0
  0
LINE
  8
0
 10
-157.346564
 20
-65.69009
 30
0.0
 11
-157.346564
 21
-65.693551
 31
0.0
  0
LINE
  8
0
 10
-157.346564
 20
-65.666358
 30
0.0
 11
-157.346564
 21
-65.69009
 31
0.0
  0
LINE
  8
0
 10
-157.346564
 20
-65.638671
 30
0.0
 11
-157.346564
 21
-65.666358
 31
0.0
  0
LINE
  8
0
 10
-157.350025
 20
-65.614445
 30
0.0
 11
-157.346564
 21
-65.638671
 31
0.0
  0
LINE
  8
0
 10
-157.353486
 20
-65.586758
 30
0.0
 11
-157.350025
 21
-65.614445
 31
0.0
  0
LINE
  8
0
 10
-157.356947
 20
-65.562532
 30
0.0
 11
-157.353486
 21
-65.586758
 31
0.0
  0
LINE
  8
0
 10
-157.360408
 20
-65.534845
 30
0.0
 11
-157.356947
 21
-65.562532
 31
0.0
  0
LINE
  8
0
 10
-157.367329
 20
-65.510619
 30
0.0
 11
-157.360408
 21
-65.534845
 31
0.0
  0
LINE
  8
0
 10
-157.374251
 20
-65.486393
 30
0.0
 11
-157.367329
 21
-65.510619
 31
0.0
  0
LINE
  8
0
 10
-157.381173
 20
-65.462167
 30
0.0
 11
-157.374251
 21
-65.486393
 31
0.0
  0
LINE
  8
0
 10
-157.388095
 20
-65.43448
 30
0.0
 11
-157.381173
 21
-65.462167
 31
0.0
  0
LINE
  8
0
 10
-157.398477
 20
-65.410254
 30
0.0
 11
-157.388095
 21
-65.43448
 31
0.0
  0
LINE
  8
0
 10
-157.40886
 20
-65.386027
 30
0.0
 11
-157.398477
 21
-65.410254
 31
0.0
  0
LINE
  8
0
 10
-157.419242
 20
-65.361801
 30
0.0
 11
-157.40886
 21
-65.386027
 31
0.0
  0
LINE
  8
0
 10
-157.429625
 20
-65.341036
 30
0.0
 11
-157.419242
 21
-65.361801
 31
0.0
  0
LINE
  8
0
 10
-157.443469
 20
-65.317304
 30
0.0
 11
-157.429625
 21
-65.341036
 31
0.0
  0
LINE
  8
0
 10
-157.453851
 20
-65.296539
 30
0.0
 11
-157.443469
 21
-65.317304
 31
0.0
  0
LINE
  8
0
 10
-157.467695
 20
-65.272313
 30
0.0
 11
-157.453851
 21
-65.296539
 31
0.0
  0
LINE
  8
0
 10
-157.484999
 20
-65.251548
 30
0.0
 11
-157.467695
 21
-65.272313
 31
0.0
  0
LINE
  8
0
 10
-157.498843
 20
-65.230782
 30
0.0
 11
-157.484999
 21
-65.251548
 31
0.0
  0
LINE
  8
0
 10
-157.515653
 20
-65.210017
 30
0.0
 11
-157.498843
 21
-65.230782
 31
0.0
  0
LINE
  8
0
 10
-157.529496
 20
-65.189252
 30
0.0
 11
-157.515653
 21
-65.210017
 31
0.0
  0
LINE
  8
0
 10
-157.5468
 20
-65.168487
 30
0.0
 11
-157.529496
 21
-65.189252
 31
0.0
  0
LINE
  8
0
 10
-161.147595
 20
-64.912876
 30
0.0
 11
-158.124272
 21
-64.912876
 31
0.0
  0
LINE
  8
0
 10
-162.156688
 20
-66.453955
 30
0.0
 11
-162.16361
 21
-66.47472
 31
0.0
  0
LINE
  8
0
 10
-162.149766
 20
-66.422807
 30
0.0
 11
-162.156688
 21
-66.453955
 31
0.0
  0
LINE
  8
0
 10
-162.139383
 20
-66.377816
 30
0.0
 11
-162.149766
 21
-66.422807
 31
0.0
  0
LINE
  8
0
 10
-162.122079
 20
-66.322936
 30
0.0
 11
-162.139383
 21
-66.377816
 31
0.0
  0
LINE
  8
0
 10
-162.104775
 20
-66.257179
 30
0.0
 11
-162.122079
 21
-66.322936
 31
0.0
  0
LINE
  8
0
 10
-162.084009
 20
-66.177579
 30
0.0
 11
-162.104775
 21
-66.257179
 31
0.0
  0
LINE
  8
0
 10
-162.063739
 20
-66.094518
 30
0.0
 11
-162.084009
 21
-66.177579
 31
0.0
  0
LINE
  8
0
 10
-162.036052
 20
-66.001075
 30
0.0
 11
-162.063739
 21
-66.094518
 31
0.0
  0
LINE
  8
0
 10
-162.011825
 20
-65.901204
 30
0.0
 11
-162.036052
 21
-66.001075
 31
0.0
  0
LINE
  8
0
 10
-161.984138
 20
-65.800838
 30
0.0
 11
-162.011825
 21
-65.901204
 31
0.0
  0
LINE
  8
0
 10
-161.956451
 20
-65.697012
 30
0.0
 11
-161.984138
 21
-65.800838
 31
0.0
  0
LINE
  8
0
 10
-161.952991
 20
-65.69009
 30
0.0
 11
-161.956451
 21
-65.697012
 31
0.0
  0
LINE
  8
0
 10
-161.901077
 20
-65.493315
 30
0.0
 11
-161.952991
 21
-65.69009
 31
0.0
  0
LINE
  8
0
 10
-161.894156
 20
-65.469088
 30
0.0
 11
-161.901077
 21
-65.493315
 31
0.0
  0
LINE
  8
0
 10
-161.887234
 20
-65.448323
 30
0.0
 11
-161.894156
 21
-65.469088
 31
0.0
  0
LINE
  8
0
 10
-161.880312
 20
-65.431019
 30
0.0
 11
-161.887234
 21
-65.448323
 31
0.0
  0
LINE
  8
0
 10
-161.87339
 20
-65.410254
 30
0.0
 11
-161.880312
 21
-65.431019
 31
0.0
  0
LINE
  8
0
 10
-161.866469
 20
-65.389488
 30
0.0
 11
-161.87339
 21
-65.410254
 31
0.0
  0
LINE
  8
0
 10
-161.856086
 20
-65.368723
 30
0.0
 11
-161.866469
 21
-65.389488
 31
0.0
  0
LINE
  8
0
 10
-161.845703
 20
-65.347958
 30
0.0
 11
-161.856086
 21
-65.368723
 31
0.0
  0
LINE
  8
0
 10
-161.838782
 20
-65.331148
 30
0.0
 11
-161.845703
 21
-65.347958
 31
0.0
  0
LINE
  8
0
 10
-161.828399
 20
-65.310383
 30
0.0
 11
-161.838782
 21
-65.331148
 31
0.0
  0
LINE
  8
0
 10
-161.814555
 20
-65.293078
 30
0.0
 11
-161.828399
 21
-65.310383
 31
0.0
  0
LINE
  8
0
 10
-161.804173
 20
-65.272313
 30
0.0
 11
-161.814555
 21
-65.293078
 31
0.0
  0
LINE
  8
0
 10
-161.79379
 20
-65.255009
 30
0.0
 11
-161.804173
 21
-65.272313
 31
0.0
  0
LINE
  8
0
 10
-161.779947
 20
-65.237704
 30
0.0
 11
-161.79379
 21
-65.255009
 31
0.0
  0
LINE
  8
0
 10
-161.766103
 20
-65.2204
 30
0.0
 11
-161.779947
 21
-65.237704
 31
0.0
  0
LINE
  8
0
 10
-161.752754
 20
-65.203095
 30
0.0
 11
-161.766103
 21
-65.2204
 31
0.0
  0
LINE
  8
0
 10
-161.738911
 20
-65.185791
 30
0.0
 11
-161.752754
 21
-65.203095
 31
0.0
  0
LINE
  8
0
 10
-161.725067
 20
-65.171948
 30
0.0
 11
-161.738911
 21
-65.185791
 31
0.0
  0
LINE
  8
0
 10
-161.711224
 20
-65.154643
 30
0.0
 11
-161.725067
 21
-65.171948
 31
0.0
  0
LINE
  8
0
 10
-161.69738
 20
-65.137339
 30
0.0
 11
-161.711224
 21
-65.154643
 31
0.0
  0
LINE
  8
0
 10
-161.680076
 20
-65.123495
 30
0.0
 11
-161.69738
 21
-65.137339
 31
0.0
  0
LINE
  8
0
 10
-161.662771
 20
-65.109652
 30
0.0
 11
-161.680076
 21
-65.123495
 31
0.0
  0
LINE
  8
0
 10
-161.648928
 20
-65.095808
 30
0.0
 11
-161.662771
 21
-65.109652
 31
0.0
  0
LINE
  8
0
 10
-161.631623
 20
-65.081965
 30
0.0
 11
-161.648928
 21
-65.095808
 31
0.0
  0
LINE
  8
0
 10
-161.614319
 20
-65.068121
 30
0.0
 11
-161.631623
 21
-65.081965
 31
0.0
  0
LINE
  8
0
 10
-161.597015
 20
-65.054278
 30
0.0
 11
-161.614319
 21
-65.068121
 31
0.0
  0
LINE
  8
0
 10
-161.576249
 20
-65.043895
 30
0.0
 11
-161.597015
 21
-65.054278
 31
0.0
  0
LINE
  8
0
 10
-161.558945
 20
-65.030052
 30
0.0
 11
-161.576249
 21
-65.043895
 31
0.0
  0
LINE
  8
0
 10
-161.541641
 20
-65.020163
 30
0.0
 11
-161.558945
 21
-65.030052
 31
0.0
  0
LINE
  8
0
 10
-161.520875
 20
-65.009781
 30
0.0
 11
-161.541641
 21
-65.020163
 31
0.0
  0
LINE
  8
0
 10
-161.503571
 20
-64.999398
 30
0.0
 11
-161.520875
 21
-65.009781
 31
0.0
  0
LINE
  8
0
 10
-161.482806
 20
-64.989015
 30
0.0
 11
-161.503571
 21
-64.999398
 31
0.0
  0
LINE
  8
0
 10
-161.46204
 20
-64.982094
 30
0.0
 11
-161.482806
 21
-64.989015
 31
0.0
  0
LINE
  8
0
 10
-161.444736
 20
-64.971711
 30
0.0
 11
-161.46204
 21
-64.982094
 31
0.0
  0
LINE
  8
0
 10
-161.423971
 20
-64.964789
 30
0.0
 11
-161.444736
 21
-64.971711
 31
0.0
  0
LINE
  8
0
 10
-161.4037
 20
-64.957868
 30
0.0
 11
-161.423971
 21
-64.964789
 31
0.0
  0
LINE
  8
0
 10
-161.382935
 20
-64.950946
 30
0.0
 11
-161.4037
 21
-64.957868
 31
0.0
  0
LINE
  8
0
 10
-161.362169
 20
-64.944024
 30
0.0
 11
-161.382935
 21
-64.950946
 31
0.0
  0
LINE
  8
0
 10
-161.341404
 20
-64.937102
 30
0.0
 11
-161.362169
 21
-64.944024
 31
0.0
  0
LINE
  8
0
 10
-161.320639
 20
-64.933641
 30
0.0
 11
-161.341404
 21
-64.937102
 31
0.0
  0
LINE
  8
0
 10
-161.299874
 20
-64.930181
 30
0.0
 11
-161.320639
 21
-64.933641
 31
0.0
  0
LINE
  8
0
 10
-161.275648
 20
-64.923259
 30
0.0
 11
-161.299874
 21
-64.930181
 31
0.0
  0
LINE
  8
0
 10
-161.254882
 20
-64.919798
 30
0.0
 11
-161.275648
 21
-64.923259
 31
0.0
  0
LINE
  8
0
 10
-161.234117
 20
-64.919798
 30
0.0
 11
-161.254882
 21
-64.919798
 31
0.0
  0
LINE
  8
0
 10
-161.213352
 20
-64.916337
 30
0.0
 11
-161.234117
 21
-64.919798
 31
0.0
  0
LINE
  8
0
 10
-161.189126
 20
-64.916337
 30
0.0
 11
-161.213352
 21
-64.916337
 31
0.0
  0
LINE
  8
0
 10
-161.147595
 20
-64.912876
 30
0.0
 11
-161.189126
 21
-64.916337
 31
0.0
  0
LINE
  8
0
 10
-158.124272
 20
-64.912876
 30
0.0
 11
-161.147595
 21
-64.912876
 31
0.0
  0
LINE
  8
0
 10
-158.100046
 20
-64.912876
 30
0.0
 11
-158.124272
 21
-64.912876
 31
0.0
  0
LINE
  8
0
 10
-158.072359
 20
-64.916337
 30
0.0
 11
-158.100046
 21
-64.912876
 31
0.0
  0
LINE
  8
0
 10
-158.048133
 20
-64.916337
 30
0.0
 11
-158.072359
 21
-64.916337
 31
0.0
  0
LINE
  8
0
 10
-158.020446
 20
-64.919798
 30
0.0
 11
-158.048133
 21
-64.916337
 31
0.0
  0
LINE
  8
0
 10
-157.99622
 20
-64.923259
 30
0.0
 11
-158.020446
 21
-64.919798
 31
0.0
  0
LINE
  8
0
 10
-157.968533
 20
-64.930181
 30
0.0
 11
-157.99622
 21
-64.923259
 31
0.0
  0
LINE
  8
0
 10
-157.944307
 20
-64.933641
 30
0.0
 11
-157.968533
 21
-64.930181
 31
0.0
  0
LINE
  8
0
 10
-157.920081
 20
-64.940563
 30
0.0
 11
-157.944307
 21
-64.933641
 31
0.0
  0
LINE
  8
0
 10
-157.892394
 20
-64.947485
 30
0.0
 11
-157.920081
 21
-64.940563
 31
0.0
  0
LINE
  8
0
 10
-157.868168
 20
-64.957868
 30
0.0
 11
-157.892394
 21
-64.947485
 31
0.0
  0
LINE
  8
0
 10
-157.843941
 20
-64.964789
 30
0.0
 11
-157.868168
 21
-64.957868
 31
0.0
  0
LINE
  8
0
 10
-157.82021
 20
-64.975172
 30
0.0
 11
-157.843941
 21
-64.964789
 31
0.0
  0
LINE
  8
0
 10
-157.795984
 20
-64.985555
 30
0.0
 11
-157.82021
 21
-64.975172
 31
0.0
  0
LINE
  8
0
 10
-157.775218
 20
-64.995937
 30
0.0
 11
-157.795984
 21
-64.985555
 31
0.0
  0
LINE
  8
0
 10
-157.750992
 20
-65.009781
 30
0.0
 11
-157.775218
 21
-64.995937
 31
0.0
  0
LINE
  8
0
 10
-157.726766
 20
-65.02313
 30
0.0
 11
-157.750992
 21
-65.009781
 31
0.0
  0
LINE
  8
0
 10
-157.706001
 20
-65.036973
 30
0.0
 11
-157.726766
 21
-65.02313
 31
0.0
  0
LINE
  8
0
 10
-157.685236
 20
-65.050817
 30
0.0
 11
-157.706001
 21
-65.036973
 31
0.0
  0
LINE
  8
0
 10
-157.66447
 20
-65.06466
 30
0.0
 11
-157.685236
 21
-65.050817
 31
0.0
  0
LINE
  8
0
 10
-157.643705
 20
-65.081965
 30
0.0
 11
-157.66447
 21
-65.06466
 31
0.0
  0
LINE
  8
0
 10
-157.62294
 20
-65.095808
 30
0.0
 11
-157.643705
 21
-65.081965
 31
0.0
  0
LINE
  8
0
 10
-157.602175
 20
-65.113113
 30
0.0
 11
-157.62294
 21
-65.095808
 31
0.0
  0
LINE
  8
0
 10
-157.58487
 20
-65.133878
 30
0.0
 11
-157.602175
 21
-65.113113
 31
0.0
  0
LINE
  8
0
 10
-157.564105
 20
-65.151182
 30
0.0
 11
-157.58487
 21
-65.133878
 31
0.0
  0
LINE
  8
0
 10
-157.5468
 20
-65.168487
 30
0.0
 11
-157.564105
 21
-65.151182
 31
0.0
  0
LINE
  8
0
 10
-157.346564
 20
-66.47472
 30
0.0
 11
-162.16361
 21
-66.47472
 31
0.0
  0
LINE
  8
0
 10
-157.346564
 20
-66.937983
 30
0.0
 11
-133.25046
 21
-66.937983
 31
0.0
  0
LINE
  8
0
 10
-133.25046
 20
-65.69009
 30
0.0
 11
-133.25046
 21
-65.693551
 31
0.0
  0
LINE
  8
0
 10
-132.472751
 20
-64.912876
 30
0.0
 11
-132.46929
 21
-64.912876
 31
0.0
  0
LINE
  8
0
 10
-132.496977
 20
-64.912876
 30
0.0
 11
-132.472751
 21
-64.912876
 31
0.0
  0
LINE
  8
0
 10
-132.521203
 20
-64.916337
 30
0.0
 11
-132.496977
 21
-64.912876
 31
0.0
  0
LINE
  8
0
 10
-132.54889
 20
-64.916337
 30
0.0
 11
-132.521203
 21
-64.916337
 31
0.0
  0
LINE
  8
0
 10
-132.573117
 20
-64.919798
 30
0.0
 11
-132.54889
 21
-64.916337
 31
0.0
  0
LINE
  8
0
 10
-132.600804
 20
-64.923259
 30
0.0
 11
-132.573117
 21
-64.919798
 31
0.0
  0
LINE
  8
0
 10
-132.62503
 20
-64.930181
 30
0.0
 11
-132.600804
 21
-64.923259
 31
0.0
  0
LINE
  8
0
 10
-132.649256
 20
-64.933641
 30
0.0
 11
-132.62503
 21
-64.930181
 31
0.0
  0
LINE
  8
0
 10
-132.676943
 20
-64.940563
 30
0.0
 11
-132.649256
 21
-64.933641
 31
0.0
  0
LINE
  8
0
 10
-132.701169
 20
-64.947485
 30
0.0
 11
-132.676943
 21
-64.940563
 31
0.0
  0
LINE
  8
0
 10
-132.725395
 20
-64.957868
 30
0.0
 11
-132.701169
 21
-64.947485
 31
0.0
  0
LINE
  8
0
 10
-132.749127
 20
-64.964789
 30
0.0
 11
-132.725395
 21
-64.957868
 31
0.0
  0
LINE
  8
0
 10
-132.773353
 20
-64.975172
 30
0.0
 11
-132.749127
 21
-64.964789
 31
0.0
  0
LINE
  8
0
 10
-132.797579
 20
-64.985555
 30
0.0
 11
-132.773353
 21
-64.975172
 31
0.0
  0
LINE
  8
0
 10
-132.821805
 20
-64.995937
 30
0.0
 11
-132.797579
 21
-64.985555
 31
0.0
  0
LINE
  8
0
 10
-132.842571
 20
-65.009781
 30
0.0
 11
-132.821805
 21
-64.995937
 31
0.0
  0
LINE
  8
0
 10
-132.866797
 20
-65.02313
 30
0.0
 11
-132.842571
 21
-65.009781
 31
0.0
  0
LINE
  8
0
 10
-132.887562
 20
-65.036973
 30
0.0
 11
-132.866797
 21
-65.02313
 31
0.0
  0
LINE
  8
0
 10
-132.911788
 20
-65.050817
 30
0.0
 11
-132.887562
 21
-65.036973
 31
0.0
  0
LINE
  8
0
 10
-132.932553
 20
-65.06466
 30
0.0
 11
-132.911788
 21
-65.050817
 31
0.0
  0
LINE
  8
0
 10
-132.953319
 20
-65.081965
 30
0.0
 11
-132.932553
 21
-65.06466
 31
0.0
  0
LINE
  8
0
 10
-132.970623
 20
-65.095808
 30
0.0
 11
-132.953319
 21
-65.081965
 31
0.0
  0
LINE
  8
0
 10
-132.991388
 20
-65.113113
 30
0.0
 11
-132.970623
 21
-65.095808
 31
0.0
  0
LINE
  8
0
 10
-133.012154
 20
-65.130417
 30
0.0
 11
-132.991388
 21
-65.113113
 31
0.0
  0
LINE
  8
0
 10
-133.029458
 20
-65.151182
 30
0.0
 11
-133.012154
 21
-65.130417
 31
0.0
  0
LINE
  8
0
 10
-133.046762
 20
-65.168487
 30
0.0
 11
-133.029458
 21
-65.151182
 31
0.0
  0
LINE
  8
0
 10
-133.064067
 20
-65.189252
 30
0.0
 11
-133.046762
 21
-65.168487
 31
0.0
  0
LINE
  8
0
 10
-133.080877
 20
-65.210017
 30
0.0
 11
-133.064067
 21
-65.189252
 31
0.0
  0
LINE
  8
0
 10
-133.09472
 20
-65.230782
 30
0.0
 11
-133.080877
 21
-65.210017
 31
0.0
  0
LINE
  8
0
 10
-133.112025
 20
-65.251548
 30
0.0
 11
-133.09472
 21
-65.230782
 31
0.0
  0
LINE
  8
0
 10
-133.125868
 20
-65.272313
 30
0.0
 11
-133.112025
 21
-65.251548
 31
0.0
  0
LINE
  8
0
 10
-133.139712
 20
-65.293078
 30
0.0
 11
-133.125868
 21
-65.272313
 31
0.0
  0
LINE
  8
0
 10
-133.153555
 20
-65.317304
 30
0.0
 11
-133.139712
 21
-65.293078
 31
0.0
  0
LINE
  8
0
 10
-133.163938
 20
-65.341036
 30
0.0
 11
-133.153555
 21
-65.317304
 31
0.0
  0
LINE
  8
0
 10
-133.177781
 20
-65.361801
 30
0.0
 11
-133.163938
 21
-65.341036
 31
0.0
  0
LINE
  8
0
 10
-133.188164
 20
-65.386027
 30
0.0
 11
-133.177781
 21
-65.361801
 31
0.0
  0
LINE
  8
0
 10
-133.195086
 20
-65.410254
 30
0.0
 11
-133.188164
 21
-65.386027
 31
0.0
  0
LINE
  8
0
 10
-133.205468
 20
-65.43448
 30
0.0
 11
-133.195086
 21
-65.410254
 31
0.0
  0
LINE
  8
0
 10
-133.21239
 20
-65.458706
 30
0.0
 11
-133.205468
 21
-65.43448
 31
0.0
  0
LINE
  8
0
 10
-133.222773
 20
-65.486393
 30
0.0
 11
-133.21239
 21
-65.458706
 31
0.0
  0
LINE
  8
0
 10
-133.226233
 20
-65.510619
 30
0.0
 11
-133.222773
 21
-65.486393
 31
0.0
  0
LINE
  8
0
 10
-133.233155
 20
-65.534845
 30
0.0
 11
-133.226233
 21
-65.510619
 31
0.0
  0
LINE
  8
0
 10
-133.236616
 20
-65.562532
 30
0.0
 11
-133.233155
 21
-65.534845
 31
0.0
  0
LINE
  8
0
 10
-133.243538
 20
-65.586758
 30
0.0
 11
-133.236616
 21
-65.562532
 31
0.0
  0
LINE
  8
0
 10
-133.246999
 20
-65.614445
 30
0.0
 11
-133.243538
 21
-65.586758
 31
0.0
  0
LINE
  8
0
 10
-133.246999
 20
-65.638671
 30
0.0
 11
-133.246999
 21
-65.614445
 31
0.0
  0
LINE
  8
0
 10
-133.25046
 20
-65.666358
 30
0.0
 11
-133.246999
 21
-65.638671
 31
0.0
  0
LINE
  8
0
 10
-133.25046
 20
-65.69009
 30
0.0
 11
-133.25046
 21
-65.666358
 31
0.0
  0
LINE
  8
0
 10
-128.433414
 20
-66.467799
 30
0.0
 11
-128.433414
 21
-66.47472
 31
0.0
  0
LINE
  8
0
 10
-128.440336
 20
-66.447033
 30
0.0
 11
-128.433414
 21
-66.467799
 31
0.0
  0
LINE
  8
0
 10
-128.447258
 20
-66.412424
 30
0.0
 11
-128.440336
 21
-66.447033
 31
0.0
  0
LINE
  8
0
 10
-128.461101
 20
-66.363972
 30
0.0
 11
-128.447258
 21
-66.412424
 31
0.0
  0
LINE
  8
0
 10
-128.478405
 20
-66.305632
 30
0.0
 11
-128.461101
 21
-66.363972
 31
0.0
  0
LINE
  8
0
 10
-128.49571
 20
-66.236414
 30
0.0
 11
-128.478405
 21
-66.305632
 31
0.0
  0
LINE
  8
0
 10
-128.515981
 20
-66.156814
 30
0.0
 11
-128.49571
 21
-66.236414
 31
0.0
  0
LINE
  8
0
 10
-128.540207
 20
-66.066831
 30
0.0
 11
-128.515981
 21
-66.156814
 31
0.0
  0
LINE
  8
0
 10
-128.564433
 20
-65.973882
 30
0.0
 11
-128.540207
 21
-66.066831
 31
0.0
  0
LINE
  8
0
 10
-128.59212
 20
-65.873517
 30
0.0
 11
-128.564433
 21
-65.973882
 31
0.0
  0
LINE
  8
0
 10
-128.640572
 20
-65.700473
 30
0.0
 11
-128.59212
 21
-65.873517
 31
0.0
  0
LINE
  8
0
 10
-129.442507
 20
-64.912876
 30
0.0
 11
-129.445968
 21
-64.912876
 31
0.0
  0
LINE
  8
0
 10
-129.400976
 20
-64.916337
 30
0.0
 11
-129.442507
 21
-64.912876
 31
0.0
  0
LINE
  8
0
 10
-129.380211
 20
-64.916337
 30
0.0
 11
-129.400976
 21
-64.916337
 31
0.0
  0
LINE
  8
0
 10
-129.359446
 20
-64.919798
 30
0.0
 11
-129.380211
 21
-64.916337
 31
0.0
  0
LINE
  8
0
 10
-129.33522
 20
-64.923259
 30
0.0
 11
-129.359446
 21
-64.919798
 31
0.0
  0
LINE
  8
0
 10
-129.314454
 20
-64.92672
 30
0.0
 11
-129.33522
 21
-64.923259
 31
0.0
  0
LINE
  8
0
 10
-129.293689
 20
-64.930181
 30
0.0
 11
-129.314454
 21
-64.92672
 31
0.0
  0
LINE
  8
0
 10
-129.272924
 20
-64.933641
 30
0.0
 11
-129.293689
 21
-64.930181
 31
0.0
  0
LINE
  8
0
 10
-129.252159
 20
-64.940563
 30
0.0
 11
-129.272924
 21
-64.933641
 31
0.0
  0
LINE
  8
0
 10
-129.231393
 20
-64.944024
 30
0.0
 11
-129.252159
 21
-64.940563
 31
0.0
  0
LINE
  8
0
 10
-129.210628
 20
-64.950946
 30
0.0
 11
-129.231393
 21
-64.944024
 31
0.0
  0
LINE
  8
0
 10
-129.189863
 20
-64.957868
 30
0.0
 11
-129.210628
 21
-64.950946
 31
0.0
  0
LINE
  8
0
 10
-129.169098
 20
-64.964789
 30
0.0
 11
-129.189863
 21
-64.957868
 31
0.0
  0
LINE
  8
0
 10
-129.148332
 20
-64.971711
 30
0.0
 11
-129.169098
 21
-64.964789
 31
0.0
  0
LINE
  8
0
 10
-129.128061
 20
-64.982094
 30
0.0
 11
-129.148332
 21
-64.971711
 31
0.0
  0
LINE
  8
0
 10
-129.110757
 20
-64.992476
 30
0.0
 11
-129.128061
 21
-64.982094
 31
0.0
  0
LINE
  8
0
 10
-129.089992
 20
-64.999398
 30
0.0
 11
-129.110757
 21
-64.992476
 31
0.0
  0
LINE
  8
0
 10
-129.072687
 20
-65.009781
 30
0.0
 11
-129.089992
 21
-64.999398
 31
0.0
  0
LINE
  8
0
 10
-129.051922
 20
-65.020163
 30
0.0
 11
-129.072687
 21
-65.009781
 31
0.0
  0
LINE
  8
0
 10
-129.034618
 20
-65.033512
 30
0.0
 11
-129.051922
 21
-65.020163
 31
0.0
  0
LINE
  8
0
 10
-129.017313
 20
-65.043895
 30
0.0
 11
-129.034618
 21
-65.033512
 31
0.0
  0
LINE
  8
0
 10
-128.996548
 20
-65.057739
 30
0.0
 11
-129.017313
 21
-65.043895
 31
0.0
  0
LINE
  8
0
 10
-128.979244
 20
-65.068121
 30
0.0
 11
-128.996548
 21
-65.057739
 31
0.0
  0
LINE
  8
0
 10
-128.961939
 20
-65.081965
 30
0.0
 11
-128.979244
 21
-65.068121
 31
0.0
  0
LINE
  8
0
 10
-128.948096
 20
-65.095808
 30
0.0
 11
-128.961939
 21
-65.081965
 31
0.0
  0
LINE
  8
0
 10
-128.930791
 20
-65.109652
 30
0.0
 11
-128.948096
 21
-65.095808
 31
0.0
  0
LINE
  8
0
 10
-128.913487
 20
-65.123495
 30
0.0
 11
-128.930791
 21
-65.109652
 31
0.0
  0
LINE
  8
0
 10
-128.899644
 20
-65.1408
 30
0.0
 11
-128.913487
 21
-65.123495
 31
0.0
  0
LINE
  8
0
 10
-128.882339
 20
-65.154643
 30
0.0
 11
-128.899644
 21
-65.1408
 31
0.0
  0
LINE
  8
0
 10
-128.868496
 20
-65.171948
 30
0.0
 11
-128.882339
 21
-65.154643
 31
0.0
  0
LINE
  8
0
 10
-128.854652
 20
-65.189252
 30
0.0
 11
-128.868496
 21
-65.171948
 31
0.0
  0
LINE
  8
0
 10
-128.840809
 20
-65.203095
 30
0.0
 11
-128.854652
 21
-65.189252
 31
0.0
  0
LINE
  8
0
 10
-128.82746
 20
-65.2204
 30
0.0
 11
-128.840809
 21
-65.203095
 31
0.0
  0
LINE
  8
0
 10
-128.813616
 20
-65.237704
 30
0.0
 11
-128.82746
 21
-65.2204
 31
0.0
  0
LINE
  8
0
 10
-128.803233
 20
-65.255009
 30
0.0
 11
-128.813616
 21
-65.237704
 31
0.0
  0
LINE
  8
0
 10
-128.78939
 20
-65.275774
 30
0.0
 11
-128.803233
 21
-65.255009
 31
0.0
  0
LINE
  8
0
 10
-128.779007
 20
-65.293078
 30
0.0
 11
-128.78939
 21
-65.275774
 31
0.0
  0
LINE
  8
0
 10
-128.768625
 20
-65.310383
 30
0.0
 11
-128.779007
 21
-65.293078
 31
0.0
  0
LINE
  8
0
 10
-128.758242
 20
-65.331148
 30
0.0
 11
-128.768625
 21
-65.310383
 31
0.0
  0
LINE
  8
0
 10
-128.747859
 20
-65.351419
 30
0.0
 11
-128.758242
 21
-65.331148
 31
0.0
  0
LINE
  8
0
 10
-128.737477
 20
-65.368723
 30
0.0
 11
-128.747859
 21
-65.351419
 31
0.0
  0
LINE
  8
0
 10
-128.730555
 20
-65.389488
 30
0.0
 11
-128.737477
 21
-65.368723
 31
0.0
  0
LINE
  8
0
 10
-128.720172
 20
-65.410254
 30
0.0
 11
-128.730555
 21
-65.389488
 31
0.0
  0
LINE
  8
0
 10
-128.713251
 20
-65.431019
 30
0.0
 11
-128.720172
 21
-65.410254
 31
0.0
  0
LINE
  8
0
 10
-128.706329
 20
-65.451784
 30
0.0
 11
-128.713251
 21
-65.431019
 31
0.0
  0
LINE
  8
0
 10
-128.699407
 20
-65.469088
 30
0.0
 11
-128.706329
 21
-65.451784
 31
0.0
  0
LINE
  8
0
 10
-128.695946
 20
-65.493315
 30
0.0
 11
-128.699407
 21
-65.469088
 31
0.0
  0
LINE
  8
0
 10
-128.640572
 20
-65.686629
 30
0.0
 11
-128.695946
 21
-65.493315
 31
0.0
  0
LINE
  8
0
 10
-128.640572
 20
-65.69009
 30
0.0
 11
-128.640572
 21
-65.686629
 31
0.0
  0
LINE
  8
0
 10
-128.640572
 20
-65.697012
 30
0.0
 11
-128.640572
 21
-65.69009
 31
0.0
  0
LINE
  8
0
 10
-133.25046
 20
-65.697012
 30
0.0
 11
-133.25046
 21
-65.693551
 31
0.0
  0
LINE
  8
0
 10
-133.25046
 20
-65.797377
 30
0.0
 11
-133.25046
 21
-65.697012
 31
0.0
  0
LINE
  8
0
 10
-133.25046
 20
-65.897743
 30
0.0
 11
-133.25046
 21
-65.797377
 31
0.0
  0
LINE
  8
0
 10
-133.25046
 20
-65.994647
 30
0.0
 11
-133.25046
 21
-65.897743
 31
0.0
  0
LINE
  8
0
 10
-133.25046
 20
-66.084136
 30
0.0
 11
-133.25046
 21
-65.994647
 31
0.0
  0
LINE
  8
0
 10
-133.25046
 20
-66.170658
 30
0.0
 11
-133.25046
 21
-66.084136
 31
0.0
  0
LINE
  8
0
 10
-133.25046
 20
-66.246797
 30
0.0
 11
-133.25046
 21
-66.170658
 31
0.0
  0
LINE
  8
0
 10
-133.25046
 20
-66.312553
 30
0.0
 11
-133.25046
 21
-66.246797
 31
0.0
  0
LINE
  8
0
 10
-133.25046
 20
-66.370894
 30
0.0
 11
-133.25046
 21
-66.312553
 31
0.0
  0
LINE
  8
0
 10
-133.25046
 20
-66.415885
 30
0.0
 11
-133.25046
 21
-66.370894
 31
0.0
  0
LINE
  8
0
 10
-133.25046
 20
-66.447033
 30
0.0
 11
-133.25046
 21
-66.415885
 31
0.0
  0
LINE
  8
0
 10
-133.25046
 20
-66.467799
 30
0.0
 11
-133.25046
 21
-66.447033
 31
0.0
  0
LINE
  8
0
 10
-133.25046
 20
-66.47472
 30
0.0
 11
-133.25046
 21
-66.467799
 31
0.0
  0
LINE
  8
0
 10
-133.25046
 20
-66.937983
 30
0.0
 11
-133.25046
 21
-66.47472
 31
0.0
  0
LINE
  8
0
 10
-129.449428
 20
-64.912876
 30
0.0
 11
-132.46929
 21
-64.912876
 31
0.0
  0
LINE
  8
0
 10
-132.472751
 20
-64.912876
 30
0.0
 11
-129.449428
 21
-64.912876
 31
0.0
  0
LINE
  8
0
 10
-128.433414
 20
-66.47472
 30
0.0
 11
-133.25046
 21
-66.47472
 31
0.0
  0
LINE
  8
0
 10
-128.433414
 20
-66.47472
 30
0.0
 11
-127.704158
 21
-69.187553
 31
0.0
  0
LINE
  8
0
 10
-127.683393
 20
-69.236005
 30
0.0
 11
-127.704158
 21
-69.187553
 31
0.0
  0
LINE
  8
0
 10
-127.652245
 20
-69.277041
 30
0.0
 11
-127.683393
 21
-69.236005
 31
0.0
  0
LINE
  8
0
 10
-127.614175
 20
-69.308189
 30
0.0
 11
-127.652245
 21
-69.277041
 31
0.0
  0
LINE
  8
0
 10
-127.565723
 20
-69.325494
 30
0.0
 11
-127.614175
 21
-69.308189
 31
0.0
  0
LINE
  8
0
 10
-127.514304
 20
-69.332415
 30
0.0
 11
-127.565723
 21
-69.325494
 31
0.0
  0
LINE
  8
0
 10
-124.165659
 20
-69.332415
 30
0.0
 11
-127.514304
 21
-69.332415
 31
0.0
  0
LINE
  8
0
 10
-122.762521
 20
-69.743765
 30
0.0
 11
-122.734834
 21
-69.633017
 31
0.0
  0
LINE
  8
0
 10
-122.800591
 20
-69.851052
 30
0.0
 11
-122.762521
 21
-69.743765
 31
0.0
  0
LINE
  8
0
 10
-122.852504
 20
-69.950923
 30
0.0
 11
-122.800591
 21
-69.851052
 31
0.0
  0
LINE
  8
0
 10
-122.9148
 20
-70.044367
 30
0.0
 11
-122.852504
 21
-69.950923
 31
0.0
  0
LINE
  8
0
 10
-122.986984
 20
-70.130889
 30
0.0
 11
-122.9148
 21
-70.044367
 31
0.0
  0
LINE
  8
0
 10
-123.070045
 20
-70.210489
 30
0.0
 11
-122.986984
 21
-70.130889
 31
0.0
  0
LINE
  8
0
 10
-123.160027
 20
-70.279212
 30
0.0
 11
-123.070045
 21
-70.210489
 31
0.0
  0
LINE
  8
0
 10
-123.260393
 20
-70.334586
 30
0.0
 11
-123.160027
 21
-70.279212
 31
0.0
  0
LINE
  8
0
 10
-123.363725
 20
-70.379578
 30
0.0
 11
-123.260393
 21
-70.334586
 31
0.0
  0
LINE
  8
0
 10
-123.471012
 20
-70.410726
 30
0.0
 11
-123.363725
 21
-70.379578
 31
0.0
  0
LINE
  8
0
 10
-123.58176
 20
-70.431491
 30
0.0
 11
-123.471012
 21
-70.410726
 31
0.0
  0
LINE
  8
0
 10
-123.695474
 20
-70.438413
 30
0.0
 11
-123.58176
 21
-70.431491
 31
0.0
  0
LINE
  8
0
 10
-124.113746
 20
-69.325494
 30
0.0
 11
-124.165659
 21
-69.332415
 31
0.0
  0
LINE
  8
0
 10
-124.065294
 20
-69.304728
 30
0.0
 11
-124.113746
 21
-69.325494
 31
0.0
  0
LINE
  8
0
 10
-124.023763
 20
-69.27012
 30
0.0
 11
-124.065294
 21
-69.304728
 31
0.0
  0
LINE
  8
0
 10
-123.992615
 20
-69.225623
 30
0.0
 11
-124.023763
 21
-69.27012
 31
0.0
  0
LINE
  8
0
 10
-123.975311
 20
-69.173709
 30
0.0
 11
-123.992615
 21
-69.225623
 31
0.0
  0
LINE
  8
0
 10
-122.323484
 20
-67.300386
 30
0.0
 11
-122.734834
 21
-69.633017
 31
0.0
  0
LINE
  8
0
 10
-123.975311
 20
-69.173709
 30
0.0
 11
-123.605986
 21
-67.075924
 31
0.0
  0
LINE
  8
0
 10
-123.609447
 20
-67.096689
 30
0.0
 11
-123.616369
 21
-67.190133
 31
0.0
  0
LINE
  8
0
 10
-123.588682
 20
-67.006706
 30
0.0
 11
-123.609447
 21
-67.096689
 31
0.0
  0
LINE
  8
0
 10
-123.557534
 20
-66.917218
 30
0.0
 11
-123.588682
 21
-67.006706
 31
0.0
  0
LINE
  8
0
 10
-123.512542
 20
-66.837618
 30
0.0
 11
-123.557534
 21
-66.917218
 31
0.0
  0
LINE
  8
0
 10
-123.457168
 20
-66.761479
 30
0.0
 11
-123.512542
 21
-66.837618
 31
0.0
  0
LINE
  8
0
 10
-123.391412
 20
-66.695722
 30
0.0
 11
-123.457168
 21
-66.761479
 31
0.0
  0
LINE
  8
0
 10
-123.315272
 20
-66.640842
 30
0.0
 11
-123.391412
 21
-66.695722
 31
0.0
  0
LINE
  8
0
 10
-123.236167
 20
-66.595851
 30
0.0
 11
-123.315272
 21
-66.640842
 31
0.0
  0
LINE
  8
0
 10
-123.149645
 20
-66.564703
 30
0.0
 11
-123.236167
 21
-66.595851
 31
0.0
  0
LINE
  8
0
 10
-123.056201
 20
-66.543938
 30
0.0
 11
-123.149645
 21
-66.564703
 31
0.0
  0
LINE
  8
0
 10
-122.966218
 20
-66.537016
 30
0.0
 11
-123.056201
 21
-66.543938
 31
0.0
  0
LINE
  8
0
 10
-122.873269
 20
-66.543938
 30
0.0
 11
-122.966218
 21
-66.537016
 31
0.0
  0
LINE
  8
0
 10
-122.783286
 20
-66.564703
 30
0.0
 11
-122.873269
 21
-66.543938
 31
0.0
  0
LINE
  8
0
 10
-122.696764
 20
-66.595851
 30
0.0
 11
-122.783286
 21
-66.564703
 31
0.0
  0
LINE
  8
0
 10
-122.614198
 20
-66.640842
 30
0.0
 11
-122.696764
 21
-66.595851
 31
0.0
  0
LINE
  8
0
 10
-122.538058
 20
-66.695722
 30
0.0
 11
-122.614198
 21
-66.640842
 31
0.0
  0
LINE
  8
0
 10
-122.475763
 20
-66.761479
 30
0.0
 11
-122.538058
 21
-66.695722
 31
0.0
  0
LINE
  8
0
 10
-122.416928
 20
-66.837618
 30
0.0
 11
-122.475763
 21
-66.761479
 31
0.0
  0
LINE
  8
0
 10
-122.375397
 20
-66.917218
 30
0.0
 11
-122.416928
 21
-66.837618
 31
0.0
  0
LINE
  8
0
 10
-122.340788
 20
-67.006706
 30
0.0
 11
-122.375397
 21
-66.917218
 31
0.0
  0
LINE
  8
0
 10
-122.320023
 20
-67.096689
 30
0.0
 11
-122.340788
 21
-67.006706
 31
0.0
  0
LINE
  8
0
 10
-122.317057
 20
-67.190133
 30
0.0
 11
-122.320023
 21
-67.096689
 31
0.0
  0
LINE
  8
0
 10
-122.320023
 20
-67.280116
 30
0.0
 11
-122.317057
 21
-67.190133
 31
0.0
  0
LINE
  8
0
 10
-122.340788
 20
-67.373065
 30
0.0
 11
-122.320023
 21
-67.280116
 31
0.0
  0
LINE
  8
0
 10
-122.375397
 20
-67.459587
 30
0.0
 11
-122.340788
 21
-67.373065
 31
0.0
  0
LINE
  8
0
 10
-122.416928
 20
-67.539187
 30
0.0
 11
-122.375397
 21
-67.459587
 31
0.0
  0
LINE
  8
0
 10
-122.475763
 20
-67.615326
 30
0.0
 11
-122.416928
 21
-67.539187
 31
0.0
  0
LINE
  8
0
 10
-122.538058
 20
-67.680588
 30
0.0
 11
-122.475763
 21
-67.615326
 31
0.0
  0
LINE
  8
0
 10
-122.614198
 20
-67.735962
 30
0.0
 11
-122.538058
 21
-67.680588
 31
0.0
  0
LINE
  8
0
 10
-122.696764
 20
-67.780954
 30
0.0
 11
-122.614198
 21
-67.735962
 31
0.0
  0
LINE
  8
0
 10
-122.783286
 20
-67.812102
 30
0.0
 11
-122.696764
 21
-67.780954
 31
0.0
  0
LINE
  8
0
 10
-122.873269
 20
-67.832867
 30
0.0
 11
-122.783286
 21
-67.812102
 31
0.0
  0
LINE
  8
0
 10
-122.966218
 20
-67.839789
 30
0.0
 11
-122.873269
 21
-67.832867
 31
0.0
  0
LINE
  8
0
 10
-123.056201
 20
-67.832867
 30
0.0
 11
-122.966218
 21
-67.839789
 31
0.0
  0
LINE
  8
0
 10
-123.149645
 20
-67.812102
 30
0.0
 11
-123.056201
 21
-67.832867
 31
0.0
  0
LINE
  8
0
 10
-123.236167
 20
-67.780954
 30
0.0
 11
-123.149645
 21
-67.812102
 31
0.0
  0
LINE
  8
0
 10
-123.315272
 20
-67.735962
 30
0.0
 11
-123.236167
 21
-67.780954
 31
0.0
  0
LINE
  8
0
 10
-123.391412
 20
-67.680588
 30
0.0
 11
-123.315272
 21
-67.735962
 31
0.0
  0
LINE
  8
0
 10
-123.457168
 20
-67.615326
 30
0.0
 11
-123.391412
 21
-67.680588
 31
0.0
  0
LINE
  8
0
 10
-123.512542
 20
-67.539187
 30
0.0
 11
-123.457168
 21
-67.615326
 31
0.0
  0
LINE
  8
0
 10
-123.557534
 20
-67.459587
 30
0.0
 11
-123.512542
 21
-67.539187
 31
0.0
  0
LINE
  8
0
 10
-123.588682
 20
-67.373065
 30
0.0
 11
-123.557534
 21
-67.459587
 31
0.0
  0
LINE
  8
0
 10
-123.609447
 20
-67.280116
 30
0.0
 11
-123.588682
 21
-67.373065
 31
0.0
  0
LINE
  8
0
 10
-123.616369
 20
-67.190133
 30
0.0
 11
-123.609447
 21
-67.280116
 31
0.0
  0
LINE
  8
0
 10
-163.02784
 20
-69.325494
 30
0.0
 11
-163.079259
 21
-69.332415
 31
0.0
  0
LINE
  8
0
 10
-162.982848
 20
-69.308189
 30
0.0
 11
-163.02784
 21
-69.325494
 31
0.0
  0
LINE
  8
0
 10
-162.892866
 20
-69.187553
 30
0.0
 11
-162.91017
 21
-69.236005
 31
0.0
  0
LINE
  8
0
 10
-174.369132
 20
-72.708747
 30
0.0
 11
-68.367433
 21
-72.708747
 31
0.0
  0
LINE
  8
0
 10
-176.35963
 20
-65.043895
 30
0.0
 11
-176.366552
 21
-65.206556
 31
0.0
  0
LINE
  8
0
 10
-176.338865
 20
-64.878267
 30
0.0
 11
-176.35963
 21
-65.043895
 31
0.0
  0
LINE
  8
0
 10
-176.307717
 20
-64.715606
 30
0.0
 11
-176.338865
 21
-64.878267
 31
0.0
  0
LINE
  8
0
 10
-176.259265
 20
-64.560361
 30
0.0
 11
-176.307717
 21
-64.715606
 31
0.0
  0
LINE
  8
0
 10
-176.20043
 20
-64.404622
 30
0.0
 11
-176.259265
 21
-64.560361
 31
0.0
  0
LINE
  8
0
 10
-176.127751
 20
-64.256299
 30
0.0
 11
-176.20043
 21
-64.404622
 31
0.0
  0
LINE
  8
0
 10
-176.041724
 20
-64.114403
 30
0.0
 11
-176.127751
 21
-64.256299
 31
0.0
  0
LINE
  8
0
 10
-175.944819
 20
-63.979428
 30
0.0
 11
-176.041724
 21
-64.114403
 31
0.0
  0
LINE
  8
0
 10
-175.837532
 20
-63.85187
 30
0.0
 11
-175.944819
 21
-63.979428
 31
0.0
  0
LINE
  8
0
 10
-175.723818
 20
-63.737661
 30
0.0
 11
-175.837532
 21
-63.85187
 31
0.0
  0
LINE
  8
0
 10
-175.595765
 20
-63.630869
 30
0.0
 11
-175.723818
 21
-63.737661
 31
0.0
  0
LINE
  8
0
 10
-175.460791
 20
-63.533964
 30
0.0
 11
-175.595765
 21
-63.630869
 31
0.0
  0
LINE
  8
0
 10
-175.319389
 20
-63.447442
 30
0.0
 11
-175.460791
 21
-63.533964
 31
0.0
  0
LINE
  8
0
 10
-175.170572
 20
-63.374764
 30
0.0
 11
-175.319389
 21
-63.447442
 31
0.0
  0
LINE
  8
0
 10
-175.015327
 20
-63.316423
 30
0.0
 11
-175.170572
 21
-63.374764
 31
0.0
  0
LINE
  8
0
 10
-174.859587
 20
-63.267971
 30
0.0
 11
-175.015327
 21
-63.316423
 31
0.0
  0
LINE
  8
0
 10
-174.697421
 20
-63.236823
 30
0.0
 11
-174.859587
 21
-63.267971
 31
0.0
  0
LINE
  8
0
 10
-174.531298
 20
-63.216058
 30
0.0
 11
-174.697421
 21
-63.236823
 31
0.0
  0
LINE
  8
0
 10
-174.369132
 20
-63.209136
 30
0.0
 11
-174.531298
 21
-63.216058
 31
0.0
  0
LINE
  8
0
 10
-173.446561
 20
-63.63779
 30
0.0
 11
-174.369132
 21
-63.209136
 31
0.0
  0
LINE
  8
0
 10
-173.342735
 20
-63.69267
 30
0.0
 11
-173.446561
 21
-63.63779
 31
0.0
  0
LINE
  8
0
 10
-173.249291
 20
-63.758427
 30
0.0
 11
-173.342735
 21
-63.69267
 31
0.0
  0
LINE
  8
0
 10
-173.162769
 20
-63.834566
 30
0.0
 11
-173.249291
 21
-63.758427
 31
0.0
  0
LINE
  8
0
 10
-173.087124
 20
-63.921088
 30
0.0
 11
-173.162769
 21
-63.834566
 31
0.0
  0
LINE
  8
0
 10
-173.021368
 20
-64.014037
 30
0.0
 11
-173.087124
 21
-63.921088
 31
0.0
  0
LINE
  8
0
 10
-172.965994
 20
-64.114403
 30
0.0
 11
-173.021368
 21
-64.014037
 31
0.0
  0
LINE
  8
0
 10
-172.921002
 20
-64.22169
 30
0.0
 11
-172.965994
 21
-64.114403
 31
0.0
  0
LINE
  8
0
 10
-172.889854
 20
-64.328483
 30
0.0
 11
-172.921002
 21
-64.22169
 31
0.0
  0
LINE
  8
0
 10
-172.87255
 20
-64.442691
 30
0.0
 11
-172.889854
 21
-64.328483
 31
0.0
  0
LINE
  8
0
 10
-172.869089
 20
-64.5569
 30
0.0
 11
-172.87255
 21
-64.442691
 31
0.0
  0
LINE
  8
0
 10
-172.876011
 20
-64.674076
 30
0.0
 11
-172.869089
 21
-64.5569
 31
0.0
  0
LINE
  8
0
 10
-172.896776
 20
-64.784824
 30
0.0
 11
-172.876011
 21
-64.674076
 31
0.0
  0
LINE
  8
0
 10
-172.931385
 20
-64.895572
 30
0.0
 11
-172.896776
 21
-64.784824
 31
0.0
  0
LINE
  8
0
 10
-172.976376
 20
-64.998904
 30
0.0
 11
-172.931385
 21
-64.895572
 31
0.0
  0
LINE
  8
0
 10
-173.035211
 20
-65.099269
 30
0.0
 11
-172.976376
 21
-64.998904
 31
0.0
  0
LINE
  8
0
 10
-173.104429
 20
-65.189252
 30
0.0
 11
-173.035211
 21
-65.099269
 31
0.0
  0
LINE
  8
0
 10
-173.183534
 20
-65.275774
 30
0.0
 11
-173.104429
 21
-65.189252
 31
0.0
  0
LINE
  8
0
 10
-173.270056
 20
-65.347958
 30
0.0
 11
-173.183534
 21
-65.275774
 31
0.0
  0
LINE
  8
0
 10
-173.366961
 20
-65.410254
 30
0.0
 11
-173.270056
 21
-65.347958
 31
0.0
  0
LINE
  8
0
 10
-174.666273
 20
-66.160275
 30
0.0
 11
-173.366961
 21
-65.410254
 31
0.0
  0
LINE
  8
0
 10
-174.666273
 20
-69.809522
 30
0.0
 11
-174.666273
 21
-66.160275
 31
0.0
  0
LINE
  8
0
 10
-174.659351
 20
-69.933619
 30
0.0
 11
-174.666273
 21
-69.809522
 31
0.0
  0
LINE
  8
0
 10
-174.642046
 20
-70.058211
 30
0.0
 11
-174.659351
 21
-69.933619
 31
0.0
  0
LINE
  8
0
 10
-174.607438
 20
-70.179341
 30
0.0
 11
-174.642046
 21
-70.058211
 31
0.0
  0
LINE
  8
0
 10
-174.562446
 20
-70.296517
 30
0.0
 11
-174.607438
 21
-70.179341
 31
0.0
  0
LINE
  8
0
 10
-174.507072
 20
-70.407265
 30
0.0
 11
-174.562446
 21
-70.296517
 31
0.0
  0
LINE
  8
0
 10
-174.438349
 20
-70.514057
 30
0.0
 11
-174.507072
 21
-70.407265
 31
0.0
  0
LINE
  8
0
 10
-174.358749
 20
-70.610962
 30
0.0
 11
-174.438349
 21
-70.514057
 31
0.0
  0
LINE
  8
0
 10
-174.268766
 20
-70.700945
 30
0.0
 11
-174.358749
 21
-70.610962
 31
0.0
  0
LINE
  8
0
 10
-174.171862
 20
-70.780545
 30
0.0
 11
-174.268766
 21
-70.700945
 31
0.0
  0
LINE
  8
0
 10
-174.06853
 20
-70.845807
 30
0.0
 11
-174.171862
 21
-70.780545
 31
0.0
  0
LINE
  8
0
 10
-173.954321
 20
-70.904642
 30
0.0
 11
-174.06853
 21
-70.845807
 31
0.0
  0
LINE
  8
0
 10
-173.836651
 20
-70.949633
 30
0.0
 11
-173.954321
 21
-70.904642
 31
0.0
  0
LINE
  8
0
 10
-173.716015
 20
-70.980781
 30
0.0
 11
-173.836651
 21
-70.949633
 31
0.0
  0
LINE
  8
0
 10
-173.591423
 20
-71.001547
 30
0.0
 11
-173.716015
 21
-70.980781
 31
0.0
  0
LINE
  8
0
 10
-173.467326
 20
-71.008468
 30
0.0
 11
-173.591423
 21
-71.001547
 31
0.0
  0
LINE
  8
0
 10
-174.531298
 20
-72.701826
 30
0.0
 11
-174.369132
 21
-72.708747
 31
0.0
  0
LINE
  8
0
 10
-174.697421
 20
-72.68106
 30
0.0
 11
-174.531298
 21
-72.701826
 31
0.0
  0
LINE
  8
0
 10
-174.859587
 20
-72.646452
 30
0.0
 11
-174.697421
 21
-72.68106
 31
0.0
  0
LINE
  8
0
 10
-175.015327
 20
-72.597999
 30
0.0
 11
-174.859587
 21
-72.646452
 31
0.0
  0
LINE
  8
0
 10
-175.170572
 20
-72.539164
 30
0.0
 11
-175.015327
 21
-72.597999
 31
0.0
  0
LINE
  8
0
 10
-175.319389
 20
-72.466486
 30
0.0
 11
-175.170572
 21
-72.539164
 31
0.0
  0
LINE
  8
0
 10
-175.460791
 20
-72.383919
 30
0.0
 11
-175.319389
 21
-72.466486
 31
0.0
  0
LINE
  8
0
 10
-175.595765
 20
-72.287015
 30
0.0
 11
-175.460791
 21
-72.383919
 31
0.0
  0
LINE
  8
0
 10
-175.723818
 20
-72.179728
 30
0.0
 11
-175.595765
 21
-72.287015
 31
0.0
  0
LINE
  8
0
 10
-175.837532
 20
-72.062552
 30
0.0
 11
-175.723818
 21
-72.179728
 31
0.0
  0
LINE
  8
0
 10
-175.944819
 20
-71.9345
 30
0.0
 11
-175.837532
 21
-72.062552
 31
0.0
  0
LINE
  8
0
 10
-176.041724
 20
-71.803481
 30
0.0
 11
-175.944819
 21
-71.9345
 31
0.0
  0
LINE
  8
0
 10
-176.127751
 20
-71.658124
 30
0.0
 11
-176.041724
 21
-71.803481
 31
0.0
  0
LINE
  8
0
 10
-176.20043
 20
-71.509307
 30
0.0
 11
-176.127751
 21
-71.658124
 31
0.0
  0
LINE
  8
0
 10
-176.259265
 20
-71.357522
 30
0.0
 11
-176.20043
 21
-71.509307
 31
0.0
  0
LINE
  8
0
 10
-176.307717
 20
-71.198322
 30
0.0
 11
-176.259265
 21
-71.357522
 31
0.0
  0
LINE
  8
0
 10
-176.338865
 20
-71.036155
 30
0.0
 11
-176.307717
 21
-71.198322
 31
0.0
  0
LINE
  8
0
 10
-176.35963
 20
-70.873494
 30
0.0
 11
-176.338865
 21
-71.036155
 31
0.0
  0
LINE
  8
0
 10
-176.366552
 20
-70.707866
 30
0.0
 11
-176.35963
 21
-70.873494
 31
0.0
  0
LINE
  8
0
 10
-176.366552
 20
-65.206556
 30
0.0
 11
-176.366552
 21
-70.707866
 31
0.0
  0
LINE
  8
0
 10
-69.269238
 20
-71.008468
 30
0.0
 11
-173.467326
 21
-71.008468
 31
0.0
  0
LINE
  8
0
 10
-66.373473
 20
-70.873494
 30
0.0
 11
-66.366552
 21
-70.707866
 31
0.0
  0
LINE
  8
0
 10
-66.394239
 20
-71.036155
 30
0.0
 11
-66.373473
 21
-70.873494
 31
0.0
  0
LINE
  8
0
 10
-66.428848
 20
-71.198322
 30
0.0
 11
-66.394239
 21
-71.036155
 31
0.0
  0
LINE
  8
0
 10
-66.366552
 20
-70.707866
 30
0.0
 11
-66.366552
 21
-65.206556
 31
0.0
  0
LINE
  8
0
 10
-69.463047
 20
-65.347958
 30
0.0
 11
-69.369604
 21
-65.410254
 31
0.0
  0
LINE
  8
0
 10
-69.552536
 20
-65.275774
 30
0.0
 11
-69.463047
 21
-65.347958
 31
0.0
  0
LINE
  8
0
 10
-69.632136
 20
-65.189252
 30
0.0
 11
-69.552536
 21
-65.275774
 31
0.0
  0
LINE
  8
0
 10
-69.701353
 20
-65.099269
 30
0.0
 11
-69.632136
 21
-65.189252
 31
0.0
  0
LINE
  8
0
 10
-69.756727
 20
-64.998904
 30
0.0
 11
-69.701353
 21
-65.099269
 31
0.0
  0
LINE
  8
0
 10
-69.80518
 20
-64.895572
 30
0.0
 11
-69.756727
 21
-64.998904
 31
0.0
  0
LINE
  8
0
 10
-69.839788
 20
-64.784824
 30
0.0
 11
-69.80518
 21
-64.895572
 31
0.0
  0
LINE
  8
0
 10
-69.860059
 20
-64.674076
 30
0.0
 11
-69.839788
 21
-64.784824
 31
0.0
  0
LINE
  8
0
 10
-69.866981
 20
-64.5569
 30
0.0
 11
-69.860059
 21
-64.674076
 31
0.0
  0
LINE
  8
0
 10
-69.86352
 20
-64.442691
 30
0.0
 11
-69.866981
 21
-64.5569
 31
0.0
  0
LINE
  8
0
 10
-69.846216
 20
-64.328483
 30
0.0
 11
-69.86352
 21
-64.442691
 31
0.0
  0
LINE
  8
0
 10
-69.815562
 20
-64.22169
 30
0.0
 11
-69.846216
 21
-64.328483
 31
0.0
  0
LINE
  8
0
 10
-69.770571
 20
-64.114403
 30
0.0
 11
-69.815562
 21
-64.22169
 31
0.0
  0
LINE
  8
0
 10
-69.715197
 20
-64.014037
 30
0.0
 11
-69.770571
 21
-64.114403
 31
0.0
  0
LINE
  8
0
 10
-69.64944
 20
-63.921088
 30
0.0
 11
-69.715197
 21
-64.014037
 31
0.0
  0
LINE
  8
0
 10
-69.573301
 20
-63.834566
 30
0.0
 11
-69.64944
 21
-63.921088
 31
0.0
  0
LINE
  8
0
 10
-69.487273
 20
-63.758427
 30
0.0
 11
-69.573301
 21
-63.834566
 31
0.0
  0
LINE
  8
0
 10
-69.390369
 20
-63.69267
 30
0.0
 11
-69.487273
 21
-63.758427
 31
0.0
  0
LINE
  8
0
 10
-69.290003
 20
-63.63779
 30
0.0
 11
-69.390369
 21
-63.69267
 31
0.0
  0
LINE
  8
0
 10
-68.367433
 20
-63.209136
 30
0.0
 11
-69.290003
 21
-63.63779
 31
0.0
  0
LINE
  8
0
 10
-68.201805
 20
-63.216058
 30
0.0
 11
-68.367433
 21
-63.209136
 31
0.0
  0
LINE
  8
0
 10
-68.039144
 20
-63.236823
 30
0.0
 11
-68.201805
 21
-63.216058
 31
0.0
  0
LINE
  8
0
 10
-67.876977
 20
-63.267971
 30
0.0
 11
-68.039144
 21
-63.236823
 31
0.0
  0
LINE
  8
0
 10
-67.717777
 20
-63.316423
 30
0.0
 11
-67.876977
 21
-63.267971
 31
0.0
  0
LINE
  8
0
 10
-67.565993
 20
-63.374764
 30
0.0
 11
-67.717777
 21
-63.316423
 31
0.0
  0
LINE
  8
0
 10
-67.417175
 20
-63.447442
 30
0.0
 11
-67.565993
 21
-63.374764
 31
0.0
  0
LINE
  8
0
 10
-67.275279
 20
-63.533964
 30
0.0
 11
-67.417175
 21
-63.447442
 31
0.0
  0
LINE
  8
0
 10
-67.140799
 20
-63.630869
 30
0.0
 11
-67.275279
 21
-63.533964
 31
0.0
  0
LINE
  8
0
 10
-67.012747
 20
-63.737661
 30
0.0
 11
-67.140799
 21
-63.630869
 31
0.0
  0
LINE
  8
0
 10
-66.895571
 20
-63.85187
 30
0.0
 11
-67.012747
 21
-63.737661
 31
0.0
  0
LINE
  8
0
 10
-66.788284
 20
-63.979428
 30
0.0
 11
-66.895571
 21
-63.85187
 31
0.0
  0
LINE
  8
0
 10
-66.694841
 20
-64.114403
 30
0.0
 11
-66.788284
 21
-63.979428
 31
0.0
  0
LINE
  8
0
 10
-66.608319
 20
-64.256299
 30
0.0
 11
-66.694841
 21
-64.114403
 31
0.0
  0
LINE
  8
0
 10
-66.536135
 20
-64.404622
 30
0.0
 11
-66.608319
 21
-64.256299
 31
0.0
  0
LINE
  8
0
 10
-66.4773
 20
-64.560361
 30
0.0
 11
-66.536135
 21
-64.404622
 31
0.0
  0
LINE
  8
0
 10
-66.428848
 20
-64.715606
 30
0.0
 11
-66.4773
 21
-64.560361
 31
0.0
  0
LINE
  8
0
 10
-66.394239
 20
-64.878267
 30
0.0
 11
-66.428848
 21
-64.715606
 31
0.0
  0
LINE
  8
0
 10
-66.373473
 20
-65.043895
 30
0.0
 11
-66.394239
 21
-64.878267
 31
0.0
  0
LINE
  8
0
 10
-66.366552
 20
-65.206556
 30
0.0
 11
-66.373473
 21
-65.043895
 31
0.0
  0
LINE
  8
0
 10
-69.369604
 20
-65.410254
 30
0.0
 11
-68.066831
 21
-66.160275
 31
0.0
  0
LINE
  8
0
 10
-68.066831
 20
-66.160275
 30
0.0
 11
-68.066831
 21
-69.809522
 31
0.0
  0
LINE
  8
0
 10
-69.14168
 20
-71.001547
 30
0.0
 11
-69.269238
 21
-71.008468
 31
0.0
  0
LINE
  8
0
 10
-69.017089
 20
-70.980781
 30
0.0
 11
-69.14168
 21
-71.001547
 31
0.0
  0
LINE
  8
0
 10
-68.895958
 20
-70.949633
 30
0.0
 11
-69.017089
 21
-70.980781
 31
0.0
  0
LINE
  8
0
 10
-68.778783
 20
-70.904642
 30
0.0
 11
-68.895958
 21
-70.949633
 31
0.0
  0
LINE
  8
0
 10
-68.668035
 20
-70.845807
 30
0.0
 11
-68.778783
 21
-70.904642
 31
0.0
  0
LINE
  8
0
 10
-68.564208
 20
-70.780545
 30
0.0
 11
-68.668035
 21
-70.845807
 31
0.0
  0
LINE
  8
0
 10
-68.464337
 20
-70.700945
 30
0.0
 11
-68.564208
 21
-70.780545
 31
0.0
  0
LINE
  8
0
 10
-68.377815
 20
-70.610962
 30
0.0
 11
-68.464337
 21
-70.700945
 31
0.0
  0
LINE
  8
0
 10
-68.298215
 20
-70.514057
 30
0.0
 11
-68.377815
 21
-70.610962
 31
0.0
  0
LINE
  8
0
 10
-68.228998
 20
-70.407265
 30
0.0
 11
-68.298215
 21
-70.514057
 31
0.0
  0
LINE
  8
0
 10
-68.170657
 20
-70.296517
 30
0.0
 11
-68.228998
 21
-70.407265
 31
0.0
  0
LINE
  8
0
 10
-68.125666
 20
-70.179341
 30
0.0
 11
-68.170657
 21
-70.296517
 31
0.0
  0
LINE
  8
0
 10
-68.094518
 20
-70.058211
 30
0.0
 11
-68.125666
 21
-70.179341
 31
0.0
  0
LINE
  8
0
 10
-68.073753
 20
-69.933619
 30
0.0
 11
-68.094518
 21
-70.058211
 31
0.0
  0
LINE
  8
0
 10
-68.066831
 20
-69.809522
 30
0.0
 11
-68.073753
 21
-69.933619
 31
0.0
  0
LINE
  8
0
 10
-66.4773
 20
-71.357522
 30
0.0
 11
-66.428848
 21
-71.198322
 31
0.0
  0
LINE
  8
0
 10
-66.536135
 20
-71.509307
 30
0.0
 11
-66.4773
 21
-71.357522
 31
0.0
  0
LINE
  8
0
 10
-66.608319
 20
-71.658124
 30
0.0
 11
-66.536135
 21
-71.509307
 31
0.0
  0
LINE
  8
0
 10
-66.694841
 20
-71.803481
 30
0.0
 11
-66.608319
 21
-71.658124
 31
0.0
  0
LINE
  8
0
 10
-66.788284
 20
-71.9345
 30
0.0
 11
-66.694841
 21
-71.803481
 31
0.0
  0
LINE
  8
0
 10
-66.895571
 20
-72.062552
 30
0.0
 11
-66.788284
 21
-71.9345
 31
0.0
  0
LINE
  8
0
 10
-67.012747
 20
-72.179728
 30
0.0
 11
-66.895571
 21
-72.062552
 31
0.0
  0
LINE
  8
0
 10
-67.140799
 20
-72.287015
 30
0.0
 11
-67.012747
 21
-72.179728
 31
0.0
  0
LINE
  8
0
 10
-67.275279
 20
-72.383919
 30
0.0
 11
-67.140799
 21
-72.287015
 31
0.0
  0
LINE
  8
0
 10
-67.417175
 20
-72.466486
 30
0.0
 11
-67.275279
 21
-72.383919
 31
0.0
  0
LINE
  8
0
 10
-67.565993
 20
-72.539164
 30
0.0
 11
-67.417175
 21
-72.466486
 31
0.0
  0
LINE
  8
0
 10
-67.717777
 20
-72.597999
 30
0.0
 11
-67.565993
 21
-72.539164
 31
0.0
  0
LINE
  8
0
 10
-67.876977
 20
-72.646452
 30
0.0
 11
-67.717777
 21
-72.597999
 31
0.0
  0
LINE
  8
0
 10
-68.039144
 20
-72.68106
 30
0.0
 11
-67.876977
 21
-72.646452
 31
0.0
  0
LINE
  8
0
 10
-68.201805
 20
-72.701826
 30
0.0
 11
-68.039144
 21
-72.68106
 31
0.0
  0
LINE
  8
0
 10
-68.367433
 20
-72.708747
 30
0.0
 11
-68.201805
 21
-72.701826
 31
0.0
  0
LINE
  8
0
 10
-194.92659
 20
-18.149895
 30
0.0
 11
-189.776695
 21
-13.0
 31
0.0
  0
LINE
  8
0
 10
-194.92659
 20
-25.220963
 30
0.0
 11
-182.705627
 21
-13.0
 31
0.0
  0
LINE
  8
0
 10
-194.92659
 20
-32.292031
 30
0.0
 11
-175.63456
 21
-13.0
 31
0.0
  0
LINE
  8
0
 10
-188.367546
 20
-32.804054
 30
0.0
 11
-168.563492
 21
-13.0
 31
0.0
  0
LINE
  8
0
 10
-181.296478
 20
-32.804054
 30
0.0
 11
-161.492424
 21
-13.0
 31
0.0
  0
LINE
  8
0
 10
-174.225411
 20
-32.804054
 30
0.0
 11
-154.421356
 21
-13.0
 31
0.0
  0
LINE
  8
0
 10
-167.154343
 20
-32.804054
 30
0.0
 11
-147.350288
 21
-13.0
 31
0.0
  0
LINE
  8
0
 10
-160.083275
 20
-32.804054
 30
0.0
 11
-140.279221
 21
-13.0
 31
0.0
  0
LINE
  8
0
 10
-153.012207
 20
-32.804054
 30
0.0
 11
-133.208153
 21
-13.0
 31
0.0
  0
LINE
  8
0
 10
-145.941139
 20
-32.804054
 30
0.0
 11
-126.137085
 21
-13.0
 31
0.0
  0
LINE
  8
0
 10
-138.870072
 20
-32.804054
 30
0.0
 11
-119.066017
 21
-13.0
 31
0.0
  0
LINE
  8
0
 10
-131.799004
 20
-32.804054
 30
0.0
 11
-111.994949
 21
-13.0
 31
0.0
  0
LINE
  8
0
 10
-124.727936
 20
-32.804054
 30
0.0
 11
-104.923882
 21
-13.0
 31
0.0
  0
LINE
  8
0
 10
-117.656868
 20
-32.804054
 30
0.0
 11
-97.852814
 21
-13.0
 31
0.0
  0
LINE
  8
0
 10
-110.5858
 20
-32.804054
 30
0.0
 11
-90.781746
 21
-13.0
 31
0.0
  0
LINE
  8
0
 10
-103.514732
 20
-32.804054
 30
0.0
 11
-83.710678
 21
-13.0
 31
0.0
  0
LINE
  8
0
 10
-96.443665
 20
-32.804054
 30
0.0
 11
-76.63961
 21
-13.0
 31
0.0
  0
LINE
  8
0
 10
-89.372597
 20
-32.804054
 30
0.0
 11
-69.568542
 21
-13.0
 31
0.0
  0
LINE
  8
0
 10
-82.301529
 20
-32.804054
 30
0.0
 11
-62.497475
 21
-13.0
 31
0.0
  0
LINE
  8
0
 10
-75.230461
 20
-32.804054
 30
0.0
 11
-55.426407
 21
-13.0
 31
0.0
  0
LINE
  8
0
 10
-68.159393
 20
-32.804054
 30
0.0
 11
-48.355339
 21
-13.0
 31
0.0
  0
LINE
  8
0
 10
-61.088326
 20
-32.804054
 30
0.0
 11
-44.92659
 21
-16.642319
 31
0.0
  0
LINE
  8
0
 10
-54.017258
 20
-32.804054
 30
0.0
 11
-44.92659
 21
-23.713387
 31
0.0
  0
LINE
  8
0
 10
-46.94619
 20
-32.804054
 30
0.0
 11
-44.92659
 21
-30.784455
 31
0.0
  0
ENDSEC
  0
EOF
