  0
SECTION
  2
HEADER
  9
$ACADVER
  1
AC1009
  9
$INSBASE
 10
0.0
 20
0.0
 30
0.0
  9
$EXTMIN
 10
-30.940283
 20
-72.470605
 30
0.0
  9
$EXTMAX
 10
119.059717
 20
-12.473469
 30
0.0
  9
$LIMMIN
 10
-30.940283
 20
-72.470605
  9
$LIMMAX
 10
119.059717
 20
-12.473469
  9
$ORTHOMODE
 70
     0
  9
$REGENMODE
 70
     1
  9
$FILLMODE
 70
     1
  9
$QTEXTMODE
 70
     0
  9
$MIRRTEXT
 70
     1
  9
$DRAGMODE
 70
     2
  9
$LTSCALE
 40
1.0
  9
$OSMODE
 70
     0
  9
$ATTMODE
 70
     1
  9
$TEXTSIZE
 40
3.5
  9
$TRACEWID
 40
0.5
  9
$TEXTSTYLE
  7
STANDARD
  9
$CLAYER
  8
0
  9
$CELTYPE
  6
BYLAYER
  9
$CECOLOR
 62
   256
  9
$DIMSCALE
 40
1.0
  9
$DIMASZ
 40
0.18
  9
$DIMEXO
 40
0.0625
  9
$DIMDLI
 40
0.38
  9
$DIMRND
 40
0.0
  9
$DIMDLE
 40
0.0
  9
$DIMEXE
 40
0.18
  9
$DIMTP
 40
0.0
  9
$DIMTM
 40
0.0
  9
$DIMTXT
 40
0.18
  9
$DIMCEN
 40
0.09
  9
$DIMTSZ
 40
0.0
  9
$DIMTOL
 70
     0
  9
$DIMLIM
 70
     0
  9
$DIMTIH
 70
     1
  9
$DIMTOH
 70
     1
  9
$DIMSE1
 70
     0
  9
$DIMSE2
 70
     0
  9
$DIMTAD
 70
     0
  9
$DIMZIN
 70
     0
  9
$DIMBLK
  1

  9
$DIMASO
 70
     1
  9
$DIMSHO
 70
     1
  9
$DIMPOST
  1

  9
$DIMAPOST
  1

  9
$DIMALT
 70
     0
  9
$DIMALTD
 70
     2
  9
$DIMALTF
 40
25.4
  9
$DIMLFAC
 40
1.0
  9
$DIMTOFL
 70
     0
  9
$DIMTVP
 40
0.0
  9
$DIMTIX
 70
     0
  9
$DIMSOXD
 70
     0
  9
$DIMSAH
 70
     0
  9
$DIMBLK1
  1

  9
$DIMBLK2
  1

  9
$DIMSTYLE
  2
*UNNAMED
  9
$DIMCLRD
 70
     0
  9
$DIMCLRE
 70
     0
  9
$DIMCLRT
 70
     0
  9
$DIMTFAC
 40
1.0
  9
$DIMGAP
 40
0.09
  9
$LUNITS
 70
     2
  9
$LUPREC
 70
     4
  9
$SKETCHINC
 40
0.1
  9
$FILLETRAD
 40
2.0
  9
$AUNITS
 70
     0
  9
$AUPREC
 70
     0
  9
$MENU
  1
ACAD
  9
$ELEVATION
 40
0.0
  9
$PELEVATION
 40
0.0
  9
$THICKNESS
 40
0.0
  9
$LIMCHECK
 70
     0
  9
$BLIPMODE
 70
     1
  9
$CHAMFERA
 40
0.0
  9
$CHAMFERB
 40
0.0
  9
$SKPOLY
 70
     0
  9
$TDCREATE
 40
2450743.664588889
  9
$TDUPDATE
 40
2450953.679068518
  9
$TDINDWG
 40
0.0085056713
  9
$TDUSRTIMER
 40
0.0085056713
  9
$USRTIMER
 70
     1
  9
$ANGBASE
 50
0.0
  9
$ANGDIR
 70
     0
  9
$PDMODE
 70
     0
  9
$PDSIZE
 40
0.0
  9
$PLINEWID
 40
0.0
  9
$COORDS
 70
     2
  9
$SPLFRAME
 70
     0
  9
$SPLINETYPE
 70
     6
  9
$SPLINESEGS
 70
     8
  9
$ATTDIA
 70
     0
  9
$ATTREQ
 70
     1
  9
$HANDLING
 70
     0
  9
$HANDSEED
  5
0
  9
$SURFTAB1
 70
     6
  9
$SURFTAB2
 70
     6
  9
$SURFTYPE
 70
     6
  9
$SURFU
 70
     6
  9
$SURFV
 70
     6
  9
$UCSNAME
  2

  9
$UCSORG
 10
0.0
 20
0.0
 30
0.0
  9
$UCSXDIR
 10
1.0
 20
0.0
 30
0.0
  9
$UCSYDIR
 10
0.0
 20
1.0
 30
0.0
  9
$PUCSNAME
  2

  9
$PUCSORG
 10
0.0
 20
0.0
 30
0.0
  9
$PUCSXDIR
 10
1.0
 20
0.0
 30
0.0
  9
$PUCSYDIR
 10
0.0
 20
1.0
 30
0.0
  9
$USERI1
 70
     0
  9
$USERI2
 70
     0
  9
$USERI3
 70
     0
  9
$USERI4
 70
     0
  9
$USERI5
 70
     0
  9
$USERR1
 40
0.0
  9
$USERR2
 40
0.0
  9
$USERR3
 40
0.0
  9
$USERR4
 40
0.0
  9
$USERR5
 40
0.0
  9
$WORLDVIEW
 70
     1
  9
$SHADEDGE
 70
     3
  9
$SHADEDIF
 70
    70
  9
$TILEMODE
 70
     1
  9
$MAXACTVP
 70
    16
  9
$PINSBASE
 10
0.0
 20
0.0
 30
0.0
  9
$PLIMCHECK
 70
     0
  9
$PEXTMIN
 10
1.000000E+20
 20
1.000000E+20
 30
1.000000E+20
  9
$PEXTMAX
 10
-1.000000E+20
 20
-1.000000E+20
 30
-1.000000E+20
  9
$PLIMMIN
 10
0.0
 20
0.0
  9
$PLIMMAX
 10
420.0
 20
297.0
  9
$UNITMODE
 70
     0
  9
$VISRETAIN
 70
     0
  9
$PLINEGEN
 70
     0
  9
$PSLTSCALE
 70
     1
  9
$TREEDEPTH
 70
  3020
  9
$DWGCODEPAGE
  3
iso8859-1
  0
ENDSEC
  0
SECTION
  2
TABLES
  0
TABLE
  2
VPORT
 70
     2
  0
VPORT
  2
*ACTIVE
 70
     0
 10
0.0
 20
0.0
 11
1.0
 21
1.0
 12
71.326083
 22
-32.104343
 13
0.0
 23
0.0
 14
1.0
 24
1.0
 15
0.0
 25
0.0
 16
0.0
 26
0.0
 36
1.0
 17
0.0
 27
0.0
 37
0.0
 40
146.081164
 41
1.748359
 42
50.0
 43
0.0
 44
0.0
 50
0.0
 51
0.0
 71
     0
 72
   100
 73
     1
 74
     0
 75
     0
 76
     0
 77
     0
 78
     0
  0
ENDTAB
  0
TABLE
  2
LTYPE
 70
     1
  0
LTYPE
  2
CONTINUOUS
 70
    64
  3
Solid line
 72
    65
 73
     0
 40
0.0
  0
ENDTAB
  0
TABLE
  2
LAYER
 70
     2
  0
LAYER
  2
0
 70
    64
 62
     7
  6
CONTINUOUS
  0
LAYER
  2
CAPA_1
 70
    64
 62
     2
  6
CONTINUOUS
  0
ENDTAB
  0
TABLE
  2
STYLE
 70
     1
  0
STYLE
  2
STANDARD
 70
    64
 40
0.0
 41
1.0
 50
0.0
 71
     0
 42
3.5
  3
txt
  4

  0
ENDTAB
  0
TABLE
  2
VIEW
 70
     0
  0
ENDTAB
  0
TABLE
  2
UCS
 70
     0
  0
ENDTAB
  0
TABLE
  2
APPID
 70
     1
  0
APPID
  2
ACAD
 70
    64
  0
ENDTAB
  0
TABLE
  2
DIMSTYLE
 70
     0
  0
ENDTAB
  0
ENDSEC
  0
SECTION
  2
BLOCKS
  0
ENDSEC
  0
SECTION
  2
ENTITIES
  0
LINE
  8
0
 10
-10.940283
 20
-60.495426
 30
0.0
 11
-10.940283
 21
-34.471082
 31
0.0
  0
LINE
  8
0
 10
-10.933123
 20
-60.658672
 30
0.0
 11
-10.940283
 21
-60.495426
 31
0.0
  0
LINE
  8
0
 10
-10.91212
 20
-60.819053
 30
0.0
 11
-10.933123
 21
-60.658672
 31
0.0
  0
LINE
  8
0
 10
-10.881094
 20
-60.978958
 30
0.0
 11
-10.91212
 21
-60.819053
 31
0.0
  0
LINE
  8
0
 10
-10.835748
 20
-61.13218
 30
0.0
 11
-10.881094
 21
-60.978958
 31
0.0
  0
LINE
  8
0
 10
-10.776559
 20
-61.285402
 30
0.0
 11
-10.835748
 21
-61.13218
 31
0.0
  0
LINE
  8
0
 10
-10.70687
 20
-61.431464
 30
0.0
 11
-10.776559
 21
-61.285402
 31
0.0
  0
LINE
  8
0
 10
-10.626679
 20
-61.570843
 30
0.0
 11
-10.70687
 21
-61.431464
 31
0.0
  0
LINE
  8
0
 10
-10.533123
 20
-61.703063
 30
0.0
 11
-10.626679
 21
-61.570843
 31
0.0
  0
LINE
  8
0
 10
-10.431929
 20
-61.828123
 30
0.0
 11
-10.533123
 21
-61.703063
 31
0.0
  0
LINE
  8
0
 10
-10.317371
 20
-61.9465
 30
0.0
 11
-10.431929
 21
-61.828123
 31
0.0
  0
LINE
  8
0
 10
-10.195175
 20
-62.051034
 30
0.0
 11
-10.317371
 21
-61.9465
 31
0.0
  0
LINE
  8
0
 10
-10.066774
 20
-62.148409
 30
0.0
 11
-10.195175
 21
-62.051034
 31
0.0
  0
LINE
  8
0
 10
-9.930736
 20
-62.235283
 30
0.0
 11
-10.066774
 21
-62.148409
 31
0.0
  0
LINE
  8
0
 10
-9.784674
 20
-62.308314
 30
0.0
 11
-9.930736
 21
-62.235283
 31
0.0
  0
LINE
  8
0
 10
-4.839567
 20
-64.615712
 30
0.0
 11
-9.784674
 21
-62.308314
 31
0.0
  0
LINE
  8
0
 10
-4.839567
 20
-69.171321
 30
0.0
 11
-4.839567
 21
-64.615712
 31
0.0
  0
LINE
  8
0
 10
-6.07823
 20
-69.171321
 30
0.0
 11
-4.839567
 21
-69.171321
 31
0.0
  0
LINE
  8
0
 10
-7.640999
 20
-67.608552
 30
0.0
 11
-6.07823
 21
-69.171321
 31
0.0
  0
LINE
  8
0
 10
-7.640999
 20
-66.571798
 30
0.0
 11
-7.640999
 21
-67.608552
 31
0.0
  0
LINE
  8
0
 10
-7.647681
 20
-66.467263
 30
0.0
 11
-7.640999
 21
-66.571798
 31
0.0
  0
LINE
  8
0
 10
-7.668684
 20
-66.362729
 30
0.0
 11
-7.647681
 21
-66.467263
 31
0.0
  0
LINE
  8
0
 10
-7.700187
 20
-66.265354
 30
0.0
 11
-7.668684
 21
-66.362729
 31
0.0
  0
LINE
  8
0
 10
-7.748875
 20
-66.171321
 30
0.0
 11
-7.700187
 21
-66.265354
 31
0.0
  0
LINE
  8
0
 10
-7.804722
 20
-66.084447
 30
0.0
 11
-7.748875
 21
-66.171321
 31
0.0
  0
LINE
  8
0
 10
-7.873934
 20
-66.004256
 30
0.0
 11
-7.804722
 21
-66.084447
 31
0.0
  0
LINE
  8
0
 10
-7.954125
 20
-65.934567
 30
0.0
 11
-7.873934
 21
-66.004256
 31
0.0
  0
LINE
  8
0
 10
-8.040999
 20
-65.879197
 30
0.0
 11
-7.954125
 21
-65.934567
 31
0.0
  0
LINE
  8
0
 10
-8.135032
 20
-65.830509
 30
0.0
 11
-8.040999
 21
-65.879197
 31
0.0
  0
LINE
  8
0
 10
-8.232407
 20
-65.799006
 30
0.0
 11
-8.135032
 21
-65.830509
 31
0.0
  0
LINE
  8
0
 10
-8.336941
 20
-65.778003
 30
0.0
 11
-8.232407
 21
-65.799006
 31
0.0
  0
LINE
  8
0
 10
-8.441476
 20
-65.771321
 30
0.0
 11
-8.336941
 21
-65.778003
 31
0.0
  0
LINE
  8
0
 10
-8.546011
 20
-65.778003
 30
0.0
 11
-8.441476
 21
-65.771321
 31
0.0
  0
LINE
  8
0
 10
-8.646727
 20
-65.799006
 30
0.0
 11
-8.546011
 21
-65.778003
 31
0.0
  0
LINE
  8
0
 10
-8.747443
 20
-65.830509
 30
0.0
 11
-8.646727
 21
-65.799006
 31
0.0
  0
LINE
  8
0
 10
-8.841476
 20
-65.879197
 30
0.0
 11
-8.747443
 21
-65.830509
 31
0.0
  0
LINE
  8
0
 10
-8.928827
 20
-65.934567
 30
0.0
 11
-8.841476
 21
-65.879197
 31
0.0
  0
LINE
  8
0
 10
-9.005199
 20
-66.004256
 30
0.0
 11
-8.928827
 21
-65.934567
 31
0.0
  0
LINE
  8
0
 10
-9.074889
 20
-66.084447
 30
0.0
 11
-9.005199
 21
-66.004256
 31
0.0
  0
LINE
  8
0
 10
-9.134077
 20
-66.171321
 30
0.0
 11
-9.074889
 21
-66.084447
 31
0.0
  0
LINE
  8
0
 10
-9.178946
 20
-66.265354
 30
0.0
 11
-9.134077
 21
-66.171321
 31
0.0
  0
LINE
  8
0
 10
-9.213791
 20
-66.362729
 30
0.0
 11
-9.178946
 21
-66.265354
 31
0.0
  0
LINE
  8
0
 10
-9.234793
 20
-66.467263
 30
0.0
 11
-9.213791
 21
-66.362729
 31
0.0
  0
LINE
  8
0
 10
-9.241953
 20
-66.571798
 30
0.0
 11
-9.234793
 21
-66.467263
 31
0.0
  0
LINE
  8
0
 10
-9.241953
 20
-67.855808
 30
0.0
 11
-9.241953
 21
-66.571798
 31
0.0
  0
LINE
  8
0
 10
-9.234793
 20
-67.967025
 30
0.0
 11
-9.241953
 21
-67.855808
 31
0.0
  0
LINE
  8
0
 10
-9.213791
 20
-68.078719
 30
0.0
 11
-9.234793
 21
-67.967025
 31
0.0
  0
LINE
  8
0
 10
-9.182765
 20
-68.186595
 30
0.0
 11
-9.213791
 21
-68.078719
 31
0.0
  0
LINE
  8
0
 10
-9.14076
 20
-68.290652
 30
0.0
 11
-9.182765
 21
-68.186595
 31
0.0
  0
LINE
  8
0
 10
-9.08539
 20
-68.388027
 30
0.0
 11
-9.14076
 21
-68.290652
 31
0.0
  0
LINE
  8
0
 10
-9.022383
 20
-68.478719
 30
0.0
 11
-9.08539
 21
-68.388027
 31
0.0
  0
LINE
  8
0
 10
-8.946011
 20
-68.562251
 30
0.0
 11
-9.022383
 21
-68.478719
 31
0.0
  0
LINE
  8
0
 10
-7.031929
 20
-70.476333
 30
0.0
 11
-8.946011
 21
-68.562251
 31
0.0
  0
LINE
  8
0
 10
-6.948397
 20
-70.552705
 30
0.0
 11
-7.031929
 21
-70.476333
 31
0.0
  0
LINE
  8
0
 10
-6.857705
 20
-70.615712
 30
0.0
 11
-6.948397
 21
-70.552705
 31
0.0
  0
LINE
  8
0
 10
-6.76033
 20
-70.671082
 30
0.0
 11
-6.857705
 21
-70.615712
 31
0.0
  0
LINE
  8
0
 10
-6.656273
 20
-70.713087
 30
0.0
 11
-6.76033
 21
-70.671082
 31
0.0
  0
LINE
  8
0
 10
-6.548397
 20
-70.744113
 30
0.0
 11
-6.656273
 21
-70.713087
 31
0.0
  0
LINE
  8
0
 10
-6.436703
 20
-70.765115
 30
0.0
 11
-6.548397
 21
-70.744113
 31
0.0
  0
LINE
  8
0
 10
-6.325485
 20
-70.768457
 30
0.0
 11
-6.436703
 21
-70.765115
 31
0.0
  0
LINE
  8
0
 10
-4.240999
 20
-70.768457
 30
0.0
 11
-6.325485
 21
-70.768457
 31
0.0
  0
LINE
  8
0
 10
-4.129304
 20
-70.765115
 30
0.0
 11
-4.240999
 21
-70.768457
 31
0.0
  0
LINE
  8
0
 10
-4.018087
 20
-70.744113
 30
0.0
 11
-4.129304
 21
-70.765115
 31
0.0
  0
LINE
  8
0
 10
-3.910211
 20
-70.713087
 30
0.0
 11
-4.018087
 21
-70.744113
 31
0.0
  0
LINE
  8
0
 10
-3.805676
 20
-70.671082
 30
0.0
 11
-3.910211
 21
-70.713087
 31
0.0
  0
LINE
  8
0
 10
-3.708302
 20
-70.615712
 30
0.0
 11
-3.805676
 21
-70.671082
 31
0.0
  0
LINE
  8
0
 10
-3.618087
 20
-70.552705
 30
0.0
 11
-3.708302
 21
-70.615712
 31
0.0
  0
LINE
  8
0
 10
-3.534555
 20
-70.476333
 30
0.0
 11
-3.618087
 21
-70.552705
 31
0.0
  0
LINE
  8
0
 10
-3.457705
 20
-70.3928
 30
0.0
 11
-3.534555
 21
-70.476333
 31
0.0
  0
LINE
  8
0
 10
-3.391834
 20
-70.302108
 30
0.0
 11
-3.457705
 21
-70.3928
 31
0.0
  0
LINE
  8
0
 10
-3.339328
 20
-70.204734
 30
0.0
 11
-3.391834
 21
-70.302108
 31
0.0
  0
LINE
  8
0
 10
-3.297801
 20
-70.100676
 30
0.0
 11
-3.339328
 21
-70.204734
 31
0.0
  0
LINE
  8
0
 10
-3.266297
 20
-69.9928
 30
0.0
 11
-3.297801
 21
-70.100676
 31
0.0
  0
LINE
  8
0
 10
-3.245772
 20
-69.881106
 30
0.0
 11
-3.266297
 21
-69.9928
 31
0.0
  0
LINE
  8
0
 10
-3.238612
 20
-69.769889
 30
0.0
 11
-3.245772
 21
-69.881106
 31
0.0
  0
LINE
  8
0
 10
-3.238612
 20
-69.094471
 30
0.0
 11
-3.238612
 21
-69.769889
 31
0.0
  0
LINE
  8
0
 10
1.261149
 20
-69.094471
 30
0.0
 11
-3.238612
 21
-69.094471
 31
0.0
  0
LINE
  8
0
 10
1.372367
 20
-69.087788
 30
0.0
 11
1.261149
 21
-69.094471
 31
0.0
  0
LINE
  8
0
 10
1.484061
 20
-69.070127
 30
0.0
 11
1.372367
 21
-69.087788
 31
0.0
  0
LINE
  8
0
 10
1.591937
 20
-69.039101
 30
0.0
 11
1.484061
 21
-69.070127
 31
0.0
  0
LINE
  8
0
 10
1.692653
 20
-68.997096
 30
0.0
 11
1.591937
 21
-69.039101
 31
0.0
  0
LINE
  8
0
 10
1.790028
 20
-68.941726
 30
0.0
 11
1.692653
 21
-68.997096
 31
0.0
  0
LINE
  8
0
 10
1.884061
 20
-68.878719
 30
0.0
 11
1.790028
 21
-68.941726
 31
0.0
  0
LINE
  8
0
 10
1.967593
 20
-68.802347
 30
0.0
 11
1.884061
 21
-68.878719
 31
0.0
  0
LINE
  8
0
 10
2.040624
 20
-68.718815
 30
0.0
 11
1.967593
 21
-68.802347
 31
0.0
  0
LINE
  8
0
 10
2.106973
 20
-68.628123
 30
0.0
 11
2.040624
 21
-68.718815
 31
0.0
  0
LINE
  8
0
 10
2.162343
 20
-68.530748
 30
0.0
 11
2.106973
 21
-68.628123
 31
0.0
  0
LINE
  8
0
 10
2.204347
 20
-68.426691
 30
0.0
 11
2.162343
 21
-68.530748
 31
0.0
  0
LINE
  8
0
 10
2.235851
 20
-68.318815
 30
0.0
 11
2.204347
 21
-68.426691
 31
0.0
  0
LINE
  8
0
 10
2.253035
 20
-68.20712
 30
0.0
 11
2.235851
 21
-68.318815
 31
0.0
  0
LINE
  8
0
 10
2.260195
 20
-68.095903
 30
0.0
 11
2.253035
 21
-68.20712
 31
0.0
  0
LINE
  8
0
 10
2.260195
 20
-64.59471
 30
0.0
 11
2.260195
 21
-68.095903
 31
0.0
  0
LINE
  8
0
 10
2.253035
 20
-64.483493
 30
0.0
 11
2.260195
 21
-64.59471
 31
0.0
  0
LINE
  8
0
 10
2.235851
 20
-64.372275
 30
0.0
 11
2.253035
 21
-64.483493
 31
0.0
  0
LINE
  8
0
 10
2.204347
 20
-64.264399
 30
0.0
 11
2.235851
 21
-64.372275
 31
0.0
  0
LINE
  8
0
 10
2.162343
 20
-64.163206
 30
0.0
 11
2.204347
 21
-64.264399
 31
0.0
  0
LINE
  8
0
 10
2.106973
 20
-64.06249
 30
0.0
 11
2.162343
 21
-64.163206
 31
0.0
  0
LINE
  8
0
 10
2.040624
 20
-63.971798
 30
0.0
 11
2.106973
 21
-64.06249
 31
0.0
  0
LINE
  8
0
 10
1.967593
 20
-63.888266
 30
0.0
 11
2.040624
 21
-63.971798
 31
0.0
  0
LINE
  8
0
 10
1.884061
 20
-63.815235
 30
0.0
 11
1.967593
 21
-63.888266
 31
0.0
  0
LINE
  8
0
 10
1.790028
 20
-63.749364
 30
0.0
 11
1.884061
 21
-63.815235
 31
0.0
  0
LINE
  8
0
 10
1.692653
 20
-63.693516
 30
0.0
 11
1.790028
 21
-63.749364
 31
0.0
  0
LINE
  8
0
 10
1.591937
 20
-63.651989
 30
0.0
 11
1.692653
 21
-63.693516
 31
0.0
  0
LINE
  8
0
 10
1.484061
 20
-63.620485
 30
0.0
 11
1.591937
 21
-63.651989
 31
0.0
  0
LINE
  8
0
 10
1.372367
 20
-63.602824
 30
0.0
 11
1.484061
 21
-63.620485
 31
0.0
  0
LINE
  8
0
 10
1.261149
 20
-63.596142
 30
0.0
 11
1.372367
 21
-63.602824
 31
0.0
  0
LINE
  8
0
 10
-3.238612
 20
-63.596142
 30
0.0
 11
1.261149
 21
-63.596142
 31
0.0
  0
LINE
  8
0
 10
-8.74076
 20
-61.031464
 30
0.0
 11
-3.238612
 21
-63.596142
 31
0.0
  0
LINE
  8
0
 10
-8.74076
 20
-34.672991
 30
0.0
 11
-8.74076
 21
-61.031464
 31
0.0
  0
LINE
  8
0
 10
96.860195
 20
-34.672991
 30
0.0
 11
-8.74076
 21
-34.672991
 31
0.0
  0
LINE
  8
0
 10
96.860195
 20
-61.031464
 30
0.0
 11
96.860195
 21
-34.672991
 31
0.0
  0
LINE
  8
0
 10
91.361388
 20
-63.596142
 30
0.0
 11
96.860195
 21
-61.031464
 31
0.0
  0
LINE
  8
0
 10
86.858285
 20
-63.596142
 30
0.0
 11
91.361388
 21
-63.596142
 31
0.0
  0
LINE
  8
0
 10
86.747068
 20
-63.602824
 30
0.0
 11
86.858285
 21
-63.596142
 31
0.0
  0
LINE
  8
0
 10
86.639192
 20
-63.620485
 30
0.0
 11
86.747068
 21
-63.602824
 31
0.0
  0
LINE
  8
0
 10
86.531316
 20
-63.651989
 30
0.0
 11
86.639192
 21
-63.620485
 31
0.0
  0
LINE
  8
0
 10
86.426782
 20
-63.693516
 30
0.0
 11
86.531316
 21
-63.651989
 31
0.0
  0
LINE
  8
0
 10
86.329407
 20
-63.749364
 30
0.0
 11
86.426782
 21
-63.693516
 31
0.0
  0
LINE
  8
0
 10
86.235374
 20
-63.815235
 30
0.0
 11
86.329407
 21
-63.749364
 31
0.0
  0
LINE
  8
0
 10
86.151841
 20
-63.888266
 30
0.0
 11
86.235374
 21
-63.815235
 31
0.0
  0
LINE
  8
0
 10
86.07881
 20
-63.971798
 30
0.0
 11
86.151841
 21
-63.888266
 31
0.0
  0
LINE
  8
0
 10
86.012462
 20
-64.06249
 30
0.0
 11
86.07881
 21
-63.971798
 31
0.0
  0
LINE
  8
0
 10
85.960433
 20
-64.163206
 30
0.0
 11
86.012462
 21
-64.06249
 31
0.0
  0
LINE
  8
0
 10
85.915087
 20
-64.264399
 30
0.0
 11
85.960433
 21
-64.163206
 31
0.0
  0
LINE
  8
0
 10
85.884061
 20
-64.372275
 30
0.0
 11
85.915087
 21
-64.264399
 31
0.0
  0
LINE
  8
0
 10
85.8664
 20
-64.483493
 30
0.0
 11
85.884061
 21
-64.372275
 31
0.0
  0
LINE
  8
0
 10
85.859717
 20
-64.59471
 30
0.0
 11
85.8664
 21
-64.483493
 31
0.0
  0
LINE
  8
0
 10
85.859717
 20
-68.095903
 30
0.0
 11
85.859717
 21
-64.59471
 31
0.0
  0
LINE
  8
0
 10
85.8664
 20
-68.20712
 30
0.0
 11
85.859717
 21
-68.095903
 31
0.0
  0
LINE
  8
0
 10
85.884061
 20
-68.318815
 30
0.0
 11
85.8664
 21
-68.20712
 31
0.0
  0
LINE
  8
0
 10
85.915087
 20
-68.426691
 30
0.0
 11
85.884061
 21
-68.318815
 31
0.0
  0
LINE
  8
0
 10
85.960433
 20
-68.530748
 30
0.0
 11
85.915087
 21
-68.426691
 31
0.0
  0
LINE
  8
0
 10
86.012462
 20
-68.628123
 30
0.0
 11
85.960433
 21
-68.530748
 31
0.0
  0
LINE
  8
0
 10
86.07881
 20
-68.718815
 30
0.0
 11
86.012462
 21
-68.628123
 31
0.0
  0
LINE
  8
0
 10
86.151841
 20
-68.802347
 30
0.0
 11
86.07881
 21
-68.718815
 31
0.0
  0
LINE
  8
0
 10
86.235374
 20
-68.878719
 30
0.0
 11
86.151841
 21
-68.802347
 31
0.0
  0
LINE
  8
0
 10
86.329407
 20
-68.941726
 30
0.0
 11
86.235374
 21
-68.878719
 31
0.0
  0
LINE
  8
0
 10
86.426782
 20
-68.997096
 30
0.0
 11
86.329407
 21
-68.941726
 31
0.0
  0
LINE
  8
0
 10
86.531316
 20
-69.039101
 30
0.0
 11
86.426782
 21
-68.997096
 31
0.0
  0
LINE
  8
0
 10
86.639192
 20
-69.070127
 30
0.0
 11
86.531316
 21
-69.039101
 31
0.0
  0
LINE
  8
0
 10
86.747068
 20
-69.087788
 30
0.0
 11
86.639192
 21
-69.070127
 31
0.0
  0
LINE
  8
0
 10
86.858285
 20
-69.094471
 30
0.0
 11
86.747068
 21
-69.087788
 31
0.0
  0
LINE
  8
0
 10
91.361388
 20
-69.094471
 30
0.0
 11
86.858285
 21
-69.094471
 31
0.0
  0
LINE
  8
0
 10
91.361388
 20
-69.769889
 30
0.0
 11
91.361388
 21
-69.094471
 31
0.0
  0
LINE
  8
0
 10
91.365207
 20
-69.881106
 30
0.0
 11
91.361388
 21
-69.769889
 31
0.0
  0
LINE
  8
0
 10
91.385732
 20
-69.9928
 30
0.0
 11
91.365207
 21
-69.881106
 31
0.0
  0
LINE
  8
0
 10
91.417235
 20
-70.100676
 30
0.0
 11
91.385732
 21
-69.9928
 31
0.0
  0
LINE
  8
0
 10
91.45924
 20
-70.204734
 30
0.0
 11
91.417235
 21
-70.100676
 31
0.0
  0
LINE
  8
0
 10
91.51461
 20
-70.302108
 30
0.0
 11
91.45924
 21
-70.204734
 31
0.0
  0
LINE
  8
0
 10
91.57714
 20
-70.3928
 30
0.0
 11
91.51461
 21
-70.302108
 31
0.0
  0
LINE
  8
0
 10
91.653989
 20
-70.476333
 30
0.0
 11
91.57714
 21
-70.3928
 31
0.0
  0
LINE
  8
0
 10
91.737522
 20
-70.552705
 30
0.0
 11
91.653989
 21
-70.476333
 31
0.0
  0
LINE
  8
0
 10
91.827736
 20
-70.615712
 30
0.0
 11
91.737522
 21
-70.552705
 31
0.0
  0
LINE
  8
0
 10
91.925588
 20
-70.671082
 30
0.0
 11
91.827736
 21
-70.615712
 31
0.0
  0
LINE
  8
0
 10
92.029646
 20
-70.713087
 30
0.0
 11
91.925588
 21
-70.671082
 31
0.0
  0
LINE
  8
0
 10
92.137522
 20
-70.744113
 30
0.0
 11
92.029646
 21
-70.713087
 31
0.0
  0
LINE
  8
0
 10
92.249216
 20
-70.765115
 30
0.0
 11
92.137522
 21
-70.744113
 31
0.0
  0
LINE
  8
0
 10
92.360433
 20
-70.768457
 30
0.0
 11
92.249216
 21
-70.765115
 31
0.0
  0
LINE
  8
0
 10
94.44492
 20
-70.768457
 30
0.0
 11
92.360433
 21
-70.768457
 31
0.0
  0
LINE
  8
0
 10
94.556137
 20
-70.765115
 30
0.0
 11
94.44492
 21
-70.768457
 31
0.0
  0
LINE
  8
0
 10
94.667832
 20
-70.744113
 30
0.0
 11
94.556137
 21
-70.765115
 31
0.0
  0
LINE
  8
0
 10
94.775708
 20
-70.713087
 30
0.0
 11
94.667832
 21
-70.744113
 31
0.0
  0
LINE
  8
0
 10
94.880242
 20
-70.671082
 30
0.0
 11
94.775708
 21
-70.713087
 31
0.0
  0
LINE
  8
0
 10
94.977617
 20
-70.615712
 30
0.0
 11
94.880242
 21
-70.671082
 31
0.0
  0
LINE
  8
0
 10
95.067832
 20
-70.552705
 30
0.0
 11
94.977617
 21
-70.615712
 31
0.0
  0
LINE
  8
0
 10
95.151364
 20
-70.476333
 30
0.0
 11
95.067832
 21
-70.552705
 31
0.0
  0
LINE
  8
0
 10
97.065445
 20
-68.562251
 30
0.0
 11
95.151364
 21
-70.476333
 31
0.0
  0
LINE
  8
0
 10
97.142295
 20
-68.478719
 30
0.0
 11
97.065445
 21
-68.562251
 31
0.0
  0
LINE
  8
0
 10
97.208166
 20
-68.388027
 30
0.0
 11
97.142295
 21
-68.478719
 31
0.0
  0
LINE
  8
0
 10
97.260195
 20
-68.290652
 30
0.0
 11
97.208166
 21
-68.388027
 31
0.0
  0
LINE
  8
0
 10
97.302199
 20
-68.186595
 30
0.0
 11
97.260195
 21
-68.290652
 31
0.0
  0
LINE
  8
0
 10
97.333703
 20
-68.078719
 30
0.0
 11
97.302199
 21
-68.186595
 31
0.0
  0
LINE
  8
0
 10
97.354228
 20
-67.967025
 30
0.0
 11
97.333703
 21
-68.078719
 31
0.0
  0
LINE
  8
0
 10
97.361388
 20
-67.855808
 30
0.0
 11
97.354228
 21
-67.967025
 31
0.0
  0
LINE
  8
0
 10
97.361388
 20
-66.571798
 30
0.0
 11
97.361388
 21
-67.855808
 31
0.0
  0
LINE
  8
0
 10
97.354228
 20
-66.467263
 30
0.0
 11
97.361388
 21
-66.571798
 31
0.0
  0
LINE
  8
0
 10
97.333703
 20
-66.362729
 30
0.0
 11
97.354228
 21
-66.467263
 31
0.0
  0
LINE
  8
0
 10
97.298858
 20
-66.265354
 30
0.0
 11
97.333703
 21
-66.362729
 31
0.0
  0
LINE
  8
0
 10
97.253512
 20
-66.171321
 30
0.0
 11
97.298858
 21
-66.265354
 31
0.0
  0
LINE
  8
0
 10
97.194324
 20
-66.084447
 30
0.0
 11
97.253512
 21
-66.171321
 31
0.0
  0
LINE
  8
0
 10
97.124634
 20
-66.004256
 30
0.0
 11
97.194324
 21
-66.084447
 31
0.0
  0
LINE
  8
0
 10
97.048262
 20
-65.934567
 30
0.0
 11
97.124634
 21
-66.004256
 31
0.0
  0
LINE
  8
0
 10
96.961388
 20
-65.879197
 30
0.0
 11
97.048262
 21
-65.934567
 31
0.0
  0
LINE
  8
0
 10
96.867355
 20
-65.830509
 30
0.0
 11
96.961388
 21
-65.879197
 31
0.0
  0
LINE
  8
0
 10
96.766161
 20
-65.799006
 30
0.0
 11
96.867355
 21
-65.830509
 31
0.0
  0
LINE
  8
0
 10
96.665445
 20
-65.778003
 30
0.0
 11
96.766161
 21
-65.799006
 31
0.0
  0
LINE
  8
0
 10
96.560911
 20
-65.771321
 30
0.0
 11
96.665445
 21
-65.778003
 31
0.0
  0
LINE
  8
0
 10
96.456376
 20
-65.778003
 30
0.0
 11
96.560911
 21
-65.771321
 31
0.0
  0
LINE
  8
0
 10
96.352319
 20
-65.799006
 30
0.0
 11
96.456376
 21
-65.778003
 31
0.0
  0
LINE
  8
0
 10
96.254467
 20
-65.830509
 30
0.0
 11
96.352319
 21
-65.799006
 31
0.0
  0
LINE
  8
0
 10
96.160911
 20
-65.879197
 30
0.0
 11
96.254467
 21
-65.830509
 31
0.0
  0
LINE
  8
0
 10
96.07356
 20
-65.934567
 30
0.0
 11
96.160911
 21
-65.879197
 31
0.0
  0
LINE
  8
0
 10
95.993846
 20
-66.004256
 30
0.0
 11
96.07356
 21
-65.934567
 31
0.0
  0
LINE
  8
0
 10
95.924157
 20
-66.084447
 30
0.0
 11
95.993846
 21
-66.004256
 31
0.0
  0
LINE
  8
0
 10
95.868309
 20
-66.171321
 30
0.0
 11
95.924157
 21
-66.084447
 31
0.0
  0
LINE
  8
0
 10
95.819622
 20
-66.265354
 30
0.0
 11
95.868309
 21
-66.171321
 31
0.0
  0
LINE
  8
0
 10
95.788118
 20
-66.362729
 30
0.0
 11
95.819622
 21
-66.265354
 31
0.0
  0
LINE
  8
0
 10
95.767593
 20
-66.467263
 30
0.0
 11
95.788118
 21
-66.362729
 31
0.0
  0
LINE
  8
0
 10
95.760433
 20
-66.571798
 30
0.0
 11
95.767593
 21
-66.467263
 31
0.0
  0
LINE
  8
0
 10
95.760433
 20
-67.608552
 30
0.0
 11
95.760433
 21
-66.571798
 31
0.0
  0
LINE
  8
0
 10
94.198142
 20
-69.171321
 30
0.0
 11
95.760433
 21
-67.608552
 31
0.0
  0
LINE
  8
0
 10
92.959001
 20
-69.171321
 30
0.0
 11
94.198142
 21
-69.171321
 31
0.0
  0
LINE
  8
0
 10
92.959001
 20
-64.615712
 30
0.0
 11
92.959001
 21
-69.171321
 31
0.0
  0
LINE
  8
0
 10
97.904109
 20
-62.308314
 30
0.0
 11
92.959001
 21
-64.615712
 31
0.0
  0
LINE
  8
0
 10
98.050648
 20
-62.235283
 30
0.0
 11
97.904109
 21
-62.308314
 31
0.0
  0
LINE
  8
0
 10
98.186209
 20
-62.148409
 30
0.0
 11
98.050648
 21
-62.235283
 31
0.0
  0
LINE
  8
0
 10
98.315087
 20
-62.051034
 30
0.0
 11
98.186209
 21
-62.148409
 31
0.0
  0
LINE
  8
0
 10
98.436806
 20
-61.9465
 30
0.0
 11
98.315087
 21
-62.051034
 31
0.0
  0
LINE
  8
0
 10
98.551364
 20
-61.828123
 30
0.0
 11
98.436806
 21
-61.9465
 31
0.0
  0
LINE
  8
0
 10
98.652557
 20
-61.703063
 30
0.0
 11
98.551364
 21
-61.828123
 31
0.0
  0
LINE
  8
0
 10
98.746591
 20
-61.570843
 30
0.0
 11
98.652557
 21
-61.703063
 31
0.0
  0
LINE
  8
0
 10
98.826304
 20
-61.431464
 30
0.0
 11
98.746591
 21
-61.570843
 31
0.0
  0
LINE
  8
0
 10
98.899336
 20
-61.285402
 30
0.0
 11
98.826304
 21
-61.431464
 31
0.0
  0
LINE
  8
0
 10
98.955183
 20
-61.13218
 30
0.0
 11
98.899336
 21
-61.285402
 31
0.0
  0
LINE
  8
0
 10
99.000529
 20
-60.978958
 30
0.0
 11
98.955183
 21
-61.13218
 31
0.0
  0
LINE
  8
0
 10
99.035374
 20
-60.819053
 30
0.0
 11
99.000529
 21
-60.978958
 31
0.0
  0
LINE
  8
0
 10
99.052557
 20
-60.658672
 30
0.0
 11
99.035374
 21
-60.819053
 31
0.0
  0
LINE
  8
0
 10
99.059717
 20
-60.495426
 30
0.0
 11
99.052557
 21
-60.658672
 31
0.0
  0
LINE
  8
0
 10
99.059717
 20
-34.471082
 30
0.0
 11
99.059717
 21
-60.495426
 31
0.0
  0
LINE
  8
0
 10
99.052557
 20
-34.307359
 30
0.0
 11
99.059717
 21
-34.471082
 31
0.0
  0
LINE
  8
0
 10
99.032032
 20
-34.143636
 30
0.0
 11
99.052557
 21
-34.307359
 31
0.0
  0
LINE
  8
0
 10
98.997188
 20
-33.98039
 30
0.0
 11
99.032032
 21
-34.143636
 31
0.0
  0
LINE
  8
0
 10
98.951841
 20
-33.823827
 30
0.0
 11
98.997188
 21
-33.98039
 31
0.0
  0
LINE
  8
0
 10
98.892653
 20
-33.667263
 30
0.0
 11
98.951841
 21
-33.823827
 31
0.0
  0
LINE
  8
0
 10
98.819622
 20
-33.520724
 30
0.0
 11
98.892653
 21
-33.667263
 31
0.0
  0
LINE
  8
0
 10
98.732748
 20
-33.378003
 30
0.0
 11
98.819622
 21
-33.520724
 31
0.0
  0
LINE
  8
0
 10
98.638715
 20
-33.242442
 30
0.0
 11
98.732748
 21
-33.378003
 31
0.0
  0
LINE
  8
0
 10
98.530839
 20
-33.117383
 30
0.0
 11
98.638715
 21
-33.242442
 31
0.0
  0
LINE
  8
0
 10
98.415803
 20
-33.002347
 30
0.0
 11
98.530839
 21
-33.117383
 31
0.0
  0
LINE
  8
0
 10
98.286925
 20
-32.894471
 30
0.0
 11
98.415803
 21
-33.002347
 31
0.0
  0
LINE
  8
0
 10
98.154705
 20
-32.797096
 30
0.0
 11
98.286925
 21
-32.894471
 31
0.0
  0
LINE
  8
0
 10
98.011985
 20
-32.713564
 30
0.0
 11
98.154705
 21
-32.797096
 31
0.0
  0
LINE
  8
0
 10
97.862581
 20
-32.640533
 30
0.0
 11
98.011985
 21
-32.713564
 31
0.0
  0
LINE
  8
0
 10
97.709359
 20
-32.581345
 30
0.0
 11
97.862581
 21
-32.640533
 31
0.0
  0
LINE
  8
0
 10
97.549455
 20
-32.532657
 30
0.0
 11
97.709359
 21
-32.581345
 31
0.0
  0
LINE
  8
0
 10
97.389073
 20
-32.497812
 30
0.0
 11
97.549455
 21
-32.532657
 31
0.0
  0
LINE
  8
0
 10
97.225827
 20
-32.480151
 30
0.0
 11
97.389073
 21
-32.497812
 31
0.0
  0
LINE
  8
0
 10
97.058763
 20
-32.473469
 30
0.0
 11
97.225827
 21
-32.480151
 31
0.0
  0
LINE
  8
0
 10
-8.938851
 20
-32.473469
 30
0.0
 11
97.058763
 21
-32.473469
 31
0.0
  0
LINE
  8
0
 10
-9.105915
 20
-32.480151
 30
0.0
 11
-8.938851
 21
-32.473469
 31
0.0
  0
LINE
  8
0
 10
-9.269638
 20
-32.497812
 30
0.0
 11
-9.105915
 21
-32.480151
 31
0.0
  0
LINE
  8
0
 10
-9.429543
 20
-32.532657
 30
0.0
 11
-9.269638
 21
-32.497812
 31
0.0
  0
LINE
  8
0
 10
-9.589925
 20
-32.581345
 30
0.0
 11
-9.429543
 21
-32.532657
 31
0.0
  0
LINE
  8
0
 10
-9.743147
 20
-32.640533
 30
0.0
 11
-9.589925
 21
-32.581345
 31
0.0
  0
LINE
  8
0
 10
-9.89255
 20
-32.713564
 30
0.0
 11
-9.743147
 21
-32.640533
 31
0.0
  0
LINE
  8
0
 10
-10.035271
 20
-32.797096
 30
0.0
 11
-9.89255
 21
-32.713564
 31
0.0
  0
LINE
  8
0
 10
-10.16749
 20
-32.894471
 30
0.0
 11
-10.035271
 21
-32.797096
 31
0.0
  0
LINE
  8
0
 10
-10.296369
 20
-33.002347
 30
0.0
 11
-10.16749
 21
-32.894471
 31
0.0
  0
LINE
  8
0
 10
-10.410927
 20
-33.117383
 30
0.0
 11
-10.296369
 21
-33.002347
 31
0.0
  0
LINE
  8
0
 10
-10.518803
 20
-33.242442
 30
0.0
 11
-10.410927
 21
-33.117383
 31
0.0
  0
LINE
  8
0
 10
-10.612836
 20
-33.378003
 30
0.0
 11
-10.518803
 21
-33.242442
 31
0.0
  0
LINE
  8
0
 10
-10.700187
 20
-33.520724
 30
0.0
 11
-10.612836
 21
-33.378003
 31
0.0
  0
LINE
  8
0
 10
-10.773218
 20
-33.667263
 30
0.0
 11
-10.700187
 21
-33.520724
 31
0.0
  0
LINE
  8
0
 10
-10.832407
 20
-33.823827
 30
0.0
 11
-10.773218
 21
-33.667263
 31
0.0
  0
LINE
  8
0
 10
-10.877275
 20
-33.98039
 30
0.0
 11
-10.832407
 21
-33.823827
 31
0.0
  0
LINE
  8
0
 10
-10.91212
 20
-34.143636
 30
0.0
 11
-10.877275
 21
-33.98039
 31
0.0
  0
LINE
  8
0
 10
-10.933123
 20
-34.307359
 30
0.0
 11
-10.91212
 21
-34.143636
 31
0.0
  0
LINE
  8
0
 10
-10.940283
 20
-34.471082
 30
0.0
 11
-10.933123
 21
-34.307359
 31
0.0
  0
LINE
  8
0
 10
-10.933123
 20
-34.307359
 30
0.0
 11
-10.940283
 21
-34.471082
 31
0.0
  0
LINE
  8
0
 10
-10.91212
 20
-34.143636
 30
0.0
 11
-10.933123
 21
-34.307359
 31
0.0
  0
LINE
  8
0
 10
-10.877275
 20
-33.98039
 30
0.0
 11
-10.91212
 21
-34.143636
 31
0.0
  0
LINE
  8
0
 10
-10.832407
 20
-33.823827
 30
0.0
 11
-10.877275
 21
-33.98039
 31
0.0
  0
LINE
  8
0
 10
-10.773218
 20
-33.667263
 30
0.0
 11
-10.832407
 21
-33.823827
 31
0.0
  0
LINE
  8
0
 10
-10.700187
 20
-33.520724
 30
0.0
 11
-10.773218
 21
-33.667263
 31
0.0
  0
LINE
  8
0
 10
-10.612836
 20
-33.378003
 30
0.0
 11
-10.700187
 21
-33.520724
 31
0.0
  0
LINE
  8
0
 10
-10.518803
 20
-33.242442
 30
0.0
 11
-10.612836
 21
-33.378003
 31
0.0
  0
LINE
  8
0
 10
-10.410927
 20
-33.117383
 30
0.0
 11
-10.518803
 21
-33.242442
 31
0.0
  0
LINE
  8
0
 10
-10.296369
 20
-33.002347
 30
0.0
 11
-10.410927
 21
-33.117383
 31
0.0
  0
LINE
  8
0
 10
-10.16749
 20
-32.894471
 30
0.0
 11
-10.296369
 21
-33.002347
 31
0.0
  0
LINE
  8
0
 10
-10.035271
 20
-32.797096
 30
0.0
 11
-10.16749
 21
-32.894471
 31
0.0
  0
LINE
  8
0
 10
-9.89255
 20
-32.713564
 30
0.0
 11
-10.035271
 21
-32.797096
 31
0.0
  0
LINE
  8
0
 10
-9.743147
 20
-32.640533
 30
0.0
 11
-9.89255
 21
-32.713564
 31
0.0
  0
LINE
  8
0
 10
-9.589925
 20
-32.581345
 30
0.0
 11
-9.743147
 21
-32.640533
 31
0.0
  0
LINE
  8
0
 10
-9.429543
 20
-32.532657
 30
0.0
 11
-9.589925
 21
-32.581345
 31
0.0
  0
LINE
  8
0
 10
-9.269638
 20
-32.497812
 30
0.0
 11
-9.429543
 21
-32.532657
 31
0.0
  0
LINE
  8
0
 10
-9.105915
 20
-32.480151
 30
0.0
 11
-9.269638
 21
-32.497812
 31
0.0
  0
LINE
  8
0
 10
-8.938851
 20
-32.473469
 30
0.0
 11
-9.105915
 21
-32.480151
 31
0.0
  0
LINE
  8
0
 10
0.861149
 20
-67.695903
 30
0.0
 11
0.861149
 21
-64.995187
 31
0.0
  0
LINE
  8
0
 10
-3.238612
 20
-67.695903
 30
0.0
 11
0.861149
 21
-67.695903
 31
0.0
  0
LINE
  8
0
 10
-3.238612
 20
-64.995187
 30
0.0
 11
-3.238612
 21
-67.695903
 31
0.0
  0
LINE
  8
0
 10
0.861149
 20
-64.995187
 30
0.0
 11
-3.238612
 21
-64.995187
 31
0.0
  0
LINE
  8
0
 10
87.258763
 20
-64.995187
 30
0.0
 11
91.361388
 21
-64.995187
 31
0.0
  0
LINE
  8
0
 10
87.258763
 20
-67.695903
 30
0.0
 11
87.258763
 21
-64.995187
 31
0.0
  0
LINE
  8
0
 10
91.361388
 20
-67.695903
 30
0.0
 11
87.258763
 21
-67.695903
 31
0.0
  0
LINE
  8
0
 10
91.361388
 20
-64.995187
 30
0.0
 11
91.361388
 21
-67.695903
 31
0.0
  0
LINE
  8
0
 10
97.058763
 20
-32.473469
 30
0.0
 11
119.059717
 21
-32.473469
 31
0.0
  0
LINE
  8
0
 10
-9.323649
 20
-32.473469
 30
0.0
 11
-30.940283
 21
-32.473469
 31
0.0
  0
TEXT
  8
CAPA_1
 62
     2
 10
89.348289
 20
-34.672991
 30
0.0
 40
10.10358
  1
 
 50
90.0
 41
0.192496
  0
LINE
  8
0
 10
-7.842908
 20
-65.109746
 30
0.0
 11
-7.940283
 21
-65.172753
 31
0.0
  0
LINE
  8
0
 10
-7.940283
 20
-65.172753
 30
0.0
 11
-9.241953
 21
-65.924543
 31
0.0
  0
LINE
  8
0
 10
-7.756034
 20
-65.036714
 30
0.0
 11
-7.842908
 21
-65.109746
 31
0.0
  0
LINE
  8
0
 10
-7.675843
 20
-64.953182
 30
0.0
 11
-7.756034
 21
-65.036714
 31
0.0
  0
LINE
  8
0
 10
-7.609495
 20
-64.862967
 30
0.0
 11
-7.675843
 21
-64.953182
 31
0.0
  0
LINE
  8
0
 10
-7.550306
 20
-64.761774
 30
0.0
 11
-7.609495
 21
-64.862967
 31
0.0
  0
LINE
  8
0
 10
-7.505438
 20
-64.657717
 30
0.0
 11
-7.550306
 21
-64.761774
 31
0.0
  0
LINE
  8
0
 10
-7.470593
 20
-64.549841
 30
0.0
 11
-7.505438
 21
-64.657717
 31
0.0
  0
LINE
  8
0
 10
-7.449591
 20
-64.434805
 30
0.0
 11
-7.470593
 21
-64.549841
 31
0.0
  0
LINE
  8
0
 10
-7.439089
 20
-64.319769
 30
0.0
 11
-7.449591
 21
-64.434805
 31
0.0
  0
LINE
  8
0
 10
-7.446249
 20
-64.205211
 30
0.0
 11
-7.439089
 21
-64.319769
 31
0.0
  0
LINE
  8
0
 10
-7.463433
 20
-64.093994
 30
0.0
 11
-7.446249
 21
-64.205211
 31
0.0
  0
LINE
  8
0
 10
-7.494937
 20
-63.982299
 30
0.0
 11
-7.463433
 21
-64.093994
 31
0.0
  0
LINE
  8
0
 10
-7.536464
 20
-63.878242
 30
0.0
 11
-7.494937
 21
-63.982299
 31
0.0
  0
LINE
  8
0
 10
-7.592311
 20
-63.777049
 30
0.0
 11
-7.536464
 21
-63.878242
 31
0.0
  0
LINE
  8
0
 10
-7.658182
 20
-63.683015
 30
0.0
 11
-7.592311
 21
-63.777049
 31
0.0
  0
LINE
  8
0
 10
-7.735032
 20
-63.596142
 30
0.0
 11
-7.658182
 21
-63.683015
 31
0.0
  0
LINE
  8
0
 10
-7.821906
 20
-63.519769
 30
0.0
 11
-7.735032
 21
-63.596142
 31
0.0
  0
LINE
  8
0
 10
-7.915939
 20
-63.456762
 30
0.0
 11
-7.821906
 21
-63.519769
 31
0.0
  0
LINE
  8
0
 10
-8.016655
 20
-63.401392
 30
0.0
 11
-7.915939
 21
-63.456762
 31
0.0
  0
LINE
  8
0
 10
-8.938851
 20
-62.969889
 30
0.0
 11
-8.016655
 21
-63.401392
 31
0.0
  0
LINE
  8
0
 10
-9.105915
 20
-62.976571
 30
0.0
 11
-8.938851
 21
-62.969889
 31
0.0
  0
LINE
  8
0
 10
-9.269638
 20
-62.997574
 30
0.0
 11
-9.105915
 21
-62.976571
 31
0.0
  0
LINE
  8
0
 10
-9.429543
 20
-63.032419
 30
0.0
 11
-9.269638
 21
-62.997574
 31
0.0
  0
LINE
  8
0
 10
-9.589925
 20
-63.077765
 30
0.0
 11
-9.429543
 21
-63.032419
 31
0.0
  0
LINE
  8
0
 10
-9.743147
 20
-63.140294
 30
0.0
 11
-9.589925
 21
-63.077765
 31
0.0
  0
LINE
  8
0
 10
-9.89255
 20
-63.213325
 30
0.0
 11
-9.743147
 21
-63.140294
 31
0.0
  0
LINE
  8
0
 10
-10.035271
 20
-63.296858
 30
0.0
 11
-9.89255
 21
-63.213325
 31
0.0
  0
LINE
  8
0
 10
-10.16749
 20
-63.390891
 30
0.0
 11
-10.035271
 21
-63.296858
 31
0.0
  0
LINE
  8
0
 10
-10.296369
 20
-63.498767
 30
0.0
 11
-10.16749
 21
-63.390891
 31
0.0
  0
LINE
  8
0
 10
-10.410927
 20
-63.617144
 30
0.0
 11
-10.296369
 21
-63.498767
 31
0.0
  0
LINE
  8
0
 10
-10.518803
 20
-63.742204
 30
0.0
 11
-10.410927
 21
-63.617144
 31
0.0
  0
LINE
  8
0
 10
-10.612836
 20
-63.878242
 30
0.0
 11
-10.518803
 21
-63.742204
 31
0.0
  0
LINE
  8
0
 10
-10.700187
 20
-64.017144
 30
0.0
 11
-10.612836
 21
-63.878242
 31
0.0
  0
LINE
  8
0
 10
-10.773218
 20
-64.167025
 30
0.0
 11
-10.700187
 21
-64.017144
 31
0.0
  0
LINE
  8
0
 10
-10.832407
 20
-64.319769
 30
0.0
 11
-10.773218
 21
-64.167025
 31
0.0
  0
LINE
  8
0
 10
-10.877275
 20
-64.480151
 30
0.0
 11
-10.832407
 21
-64.319769
 31
0.0
  0
LINE
  8
0
 10
-10.91212
 20
-64.640056
 30
0.0
 11
-10.877275
 21
-64.480151
 31
0.0
  0
LINE
  8
0
 10
-10.933123
 20
-64.80712
 30
0.0
 11
-10.91212
 21
-64.640056
 31
0.0
  0
LINE
  8
0
 10
-10.940283
 20
-64.970843
 30
0.0
 11
-10.933123
 21
-64.80712
 31
0.0
  0
LINE
  8
0
 10
-10.940283
 20
-70.469173
 30
0.0
 11
-10.940283
 21
-64.970843
 31
0.0
  0
LINE
  8
0
 10
-9.241953
 20
-65.924543
 30
0.0
 11
-9.241953
 21
-69.571321
 31
0.0
  0
LINE
  8
0
 10
-8.166536
 20
-70.765115
 30
0.0
 11
-8.040999
 21
-70.768457
 31
0.0
  0
LINE
  8
0
 10
-8.288254
 20
-70.744113
 30
0.0
 11
-8.166536
 21
-70.765115
 31
0.0
  0
LINE
  8
0
 10
-8.409972
 20
-70.713087
 30
0.0
 11
-8.288254
 21
-70.744113
 31
0.0
  0
LINE
  8
0
 10
-8.528349
 20
-70.667741
 30
0.0
 11
-8.409972
 21
-70.713087
 31
0.0
  0
LINE
  8
0
 10
-8.639567
 20
-70.608552
 30
0.0
 11
-8.528349
 21
-70.667741
 31
0.0
  0
LINE
  8
0
 10
-8.744101
 20
-70.542204
 30
0.0
 11
-8.639567
 21
-70.608552
 31
0.0
  0
LINE
  8
0
 10
-8.841476
 20
-70.46249
 30
0.0
 11
-8.744101
 21
-70.542204
 31
0.0
  0
LINE
  8
0
 10
-8.932168
 20
-70.371798
 30
0.0
 11
-8.841476
 21
-70.46249
 31
0.0
  0
LINE
  8
0
 10
-9.012359
 20
-70.274423
 30
0.0
 11
-8.932168
 21
-70.371798
 31
0.0
  0
LINE
  8
0
 10
-9.07823
 20
-70.169889
 30
0.0
 11
-9.012359
 21
-70.274423
 31
0.0
  0
LINE
  8
0
 10
-9.137419
 20
-70.058672
 30
0.0
 11
-9.07823
 21
-70.169889
 31
0.0
  0
LINE
  8
0
 10
-9.182765
 20
-69.940294
 30
0.0
 11
-9.137419
 21
-70.058672
 31
0.0
  0
LINE
  8
0
 10
-9.213791
 20
-69.818576
 30
0.0
 11
-9.182765
 21
-69.940294
 31
0.0
  0
LINE
  8
0
 10
-9.234793
 20
-69.696858
 30
0.0
 11
-9.213791
 21
-69.818576
 31
0.0
  0
LINE
  8
0
 10
-9.241953
 20
-69.571321
 30
0.0
 11
-9.234793
 21
-69.696858
 31
0.0
  0
LINE
  8
0
 10
-10.933123
 20
-70.636237
 30
0.0
 11
-10.940283
 21
-70.469173
 31
0.0
  0
LINE
  8
0
 10
-10.91212
 20
-70.79996
 30
0.0
 11
-10.933123
 21
-70.636237
 31
0.0
  0
LINE
  8
0
 10
-10.877275
 20
-70.959865
 30
0.0
 11
-10.91212
 21
-70.79996
 31
0.0
  0
LINE
  8
0
 10
-10.832407
 20
-71.120247
 30
0.0
 11
-10.877275
 21
-70.959865
 31
0.0
  0
LINE
  8
0
 10
-10.773218
 20
-71.273469
 30
0.0
 11
-10.832407
 21
-71.120247
 31
0.0
  0
LINE
  8
0
 10
-10.700187
 20
-71.422872
 30
0.0
 11
-10.773218
 21
-71.273469
 31
0.0
  0
LINE
  8
0
 10
-10.612836
 20
-71.565593
 30
0.0
 11
-10.700187
 21
-71.422872
 31
0.0
  0
LINE
  8
0
 10
-10.518803
 20
-71.697812
 30
0.0
 11
-10.612836
 21
-71.565593
 31
0.0
  0
LINE
  8
0
 10
-10.410927
 20
-71.826691
 30
0.0
 11
-10.518803
 21
-71.697812
 31
0.0
  0
LINE
  8
0
 10
-10.296369
 20
-71.941249
 30
0.0
 11
-10.410927
 21
-71.826691
 31
0.0
  0
LINE
  8
0
 10
-10.16749
 20
-72.049125
 30
0.0
 11
-10.296369
 21
-71.941249
 31
0.0
  0
LINE
  8
0
 10
-10.035271
 20
-72.143158
 30
0.0
 11
-10.16749
 21
-72.049125
 31
0.0
  0
LINE
  8
0
 10
-9.89255
 20
-72.230509
 30
0.0
 11
-10.035271
 21
-72.143158
 31
0.0
  0
LINE
  8
0
 10
-9.743147
 20
-72.30354
 30
0.0
 11
-9.89255
 21
-72.230509
 31
0.0
  0
LINE
  8
0
 10
-9.589925
 20
-72.362729
 30
0.0
 11
-9.743147
 21
-72.30354
 31
0.0
  0
LINE
  8
0
 10
-9.429543
 20
-72.407598
 30
0.0
 11
-9.589925
 21
-72.362729
 31
0.0
  0
LINE
  8
0
 10
-9.269638
 20
-72.442442
 30
0.0
 11
-9.429543
 21
-72.407598
 31
0.0
  0
LINE
  8
0
 10
-9.105915
 20
-72.463445
 30
0.0
 11
-9.269638
 21
-72.442442
 31
0.0
  0
LINE
  8
0
 10
-8.938851
 20
-72.470605
 30
0.0
 11
-9.105915
 21
-72.463445
 31
0.0
  0
LINE
  8
0
 10
97.058763
 20
-72.470605
 30
0.0
 11
-8.938851
 21
-72.470605
 31
0.0
  0
LINE
  8
0
 10
-8.040999
 20
-70.768457
 30
0.0
 11
96.160911
 21
-70.768457
 31
0.0
  0
LINE
  8
0
 10
96.863536
 20
-70.542204
 30
0.0
 11
96.961388
 21
-70.46249
 31
0.0
  0
LINE
  8
0
 10
96.759479
 20
-70.608552
 30
0.0
 11
96.863536
 21
-70.542204
 31
0.0
  0
LINE
  8
0
 10
96.647784
 20
-70.667741
 30
0.0
 11
96.759479
 21
-70.608552
 31
0.0
  0
LINE
  8
0
 10
96.529407
 20
-70.713087
 30
0.0
 11
96.647784
 21
-70.667741
 31
0.0
  0
LINE
  8
0
 10
96.407689
 20
-70.744113
 30
0.0
 11
96.529407
 21
-70.713087
 31
0.0
  0
LINE
  8
0
 10
96.28597
 20
-70.765115
 30
0.0
 11
96.407689
 21
-70.744113
 31
0.0
  0
LINE
  8
0
 10
96.160911
 20
-70.768457
 30
0.0
 11
96.28597
 21
-70.765115
 31
0.0
  0
LINE
  8
0
 10
97.354228
 20
-69.696858
 30
0.0
 11
97.361388
 21
-69.571321
 31
0.0
  0
LINE
  8
0
 10
97.333703
 20
-69.818576
 30
0.0
 11
97.354228
 21
-69.696858
 31
0.0
  0
LINE
  8
0
 10
97.302199
 20
-69.940294
 30
0.0
 11
97.333703
 21
-69.818576
 31
0.0
  0
LINE
  8
0
 10
97.256853
 20
-70.058672
 30
0.0
 11
97.302199
 21
-69.940294
 31
0.0
  0
LINE
  8
0
 10
97.197665
 20
-70.169889
 30
0.0
 11
97.256853
 21
-70.058672
 31
0.0
  0
LINE
  8
0
 10
97.131794
 20
-70.274423
 30
0.0
 11
97.197665
 21
-70.169889
 31
0.0
  0
LINE
  8
0
 10
97.051603
 20
-70.371798
 30
0.0
 11
97.131794
 21
-70.274423
 31
0.0
  0
LINE
  8
0
 10
96.961388
 20
-70.46249
 30
0.0
 11
97.051603
 21
-70.371798
 31
0.0
  0
LINE
  8
0
 10
99.052557
 20
-70.636237
 30
0.0
 11
99.059717
 21
-70.469173
 31
0.0
  0
LINE
  8
0
 10
99.032032
 20
-70.79996
 30
0.0
 11
99.052557
 21
-70.636237
 31
0.0
  0
LINE
  8
0
 10
98.997188
 20
-70.959865
 30
0.0
 11
99.032032
 21
-70.79996
 31
0.0
  0
LINE
  8
0
 10
98.951841
 20
-71.120247
 30
0.0
 11
98.997188
 21
-70.959865
 31
0.0
  0
LINE
  8
0
 10
98.892653
 20
-71.273469
 30
0.0
 11
98.951841
 21
-71.120247
 31
0.0
  0
LINE
  8
0
 10
98.819622
 20
-71.422872
 30
0.0
 11
98.892653
 21
-71.273469
 31
0.0
  0
LINE
  8
0
 10
98.732748
 20
-71.565593
 30
0.0
 11
98.819622
 21
-71.422872
 31
0.0
  0
LINE
  8
0
 10
98.638715
 20
-71.697812
 30
0.0
 11
98.732748
 21
-71.565593
 31
0.0
  0
LINE
  8
0
 10
98.530839
 20
-71.826691
 30
0.0
 11
98.638715
 21
-71.697812
 31
0.0
  0
LINE
  8
0
 10
98.415803
 20
-71.941249
 30
0.0
 11
98.530839
 21
-71.826691
 31
0.0
  0
LINE
  8
0
 10
98.286925
 20
-72.049125
 30
0.0
 11
98.415803
 21
-71.941249
 31
0.0
  0
LINE
  8
0
 10
98.154705
 20
-72.143158
 30
0.0
 11
98.286925
 21
-72.049125
 31
0.0
  0
LINE
  8
0
 10
98.011985
 20
-72.230509
 30
0.0
 11
98.154705
 21
-72.143158
 31
0.0
  0
LINE
  8
0
 10
97.862581
 20
-72.30354
 30
0.0
 11
98.011985
 21
-72.230509
 31
0.0
  0
LINE
  8
0
 10
97.709359
 20
-72.362729
 30
0.0
 11
97.862581
 21
-72.30354
 31
0.0
  0
LINE
  8
0
 10
97.549455
 20
-72.407598
 30
0.0
 11
97.709359
 21
-72.362729
 31
0.0
  0
LINE
  8
0
 10
97.389073
 20
-72.442442
 30
0.0
 11
97.549455
 21
-72.407598
 31
0.0
  0
LINE
  8
0
 10
97.225827
 20
-72.463445
 30
0.0
 11
97.389073
 21
-72.442442
 31
0.0
  0
LINE
  8
0
 10
97.058763
 20
-72.470605
 30
0.0
 11
97.225827
 21
-72.463445
 31
0.0
  0
LINE
  8
0
 10
97.361388
 20
-69.571321
 30
0.0
 11
97.361388
 21
-65.924543
 31
0.0
  0
LINE
  8
0
 10
96.035374
 20
-63.456762
 30
0.0
 11
96.136567
 21
-63.401392
 31
0.0
  0
LINE
  8
0
 10
95.94134
 20
-63.519769
 30
0.0
 11
96.035374
 21
-63.456762
 31
0.0
  0
LINE
  8
0
 10
95.854467
 20
-63.596142
 30
0.0
 11
95.94134
 21
-63.519769
 31
0.0
  0
LINE
  8
0
 10
95.778094
 20
-63.683015
 30
0.0
 11
95.854467
 21
-63.596142
 31
0.0
  0
LINE
  8
0
 10
95.711746
 20
-63.777049
 30
0.0
 11
95.778094
 21
-63.683015
 31
0.0
  0
LINE
  8
0
 10
95.655899
 20
-63.878242
 30
0.0
 11
95.711746
 21
-63.777049
 31
0.0
  0
LINE
  8
0
 10
95.614371
 20
-63.982299
 30
0.0
 11
95.655899
 21
-63.878242
 31
0.0
  0
LINE
  8
0
 10
95.582868
 20
-64.093994
 30
0.0
 11
95.614371
 21
-63.982299
 31
0.0
  0
LINE
  8
0
 10
95.565684
 20
-64.205211
 30
0.0
 11
95.582868
 21
-64.093994
 31
0.0
  0
LINE
  8
0
 10
95.558524
 20
-64.319769
 30
0.0
 11
95.565684
 21
-64.205211
 31
0.0
  0
LINE
  8
0
 10
95.569025
 20
-64.434805
 30
0.0
 11
95.558524
 21
-64.319769
 31
0.0
  0
LINE
  8
0
 10
95.670219
 20
-64.761774
 30
0.0
 11
95.624873
 21
-64.657717
 31
0.0
  0
LINE
  8
0
 10
95.729407
 20
-64.862967
 30
0.0
 11
95.670219
 21
-64.761774
 31
0.0
  0
LINE
  8
0
 10
95.795278
 20
-64.953182
 30
0.0
 11
95.729407
 21
-64.862967
 31
0.0
  0
LINE
  8
0
 10
97.225827
 20
-62.976571
 30
0.0
 11
97.058763
 21
-62.969889
 31
0.0
  0
LINE
  8
0
 10
97.389073
 20
-62.997574
 30
0.0
 11
97.225827
 21
-62.976571
 31
0.0
  0
LINE
  8
0
 10
97.862581
 20
-63.140294
 30
0.0
 11
97.709359
 21
-63.077765
 31
0.0
  0
LINE
  8
0
 10
98.011985
 20
-63.213325
 30
0.0
 11
97.862581
 21
-63.140294
 31
0.0
  0
LINE
  8
0
 10
98.154705
 20
-63.296858
 30
0.0
 11
98.011985
 21
-63.213325
 31
0.0
  0
LINE
  8
0
 10
98.530839
 20
-63.617144
 30
0.0
 11
98.415803
 21
-63.498767
 31
0.0
  0
LINE
  8
0
 10
98.732748
 20
-63.878242
 30
0.0
 11
98.638715
 21
-63.742204
 31
0.0
  0
LINE
  8
0
 10
98.819622
 20
-64.017144
 30
0.0
 11
98.732748
 21
-63.878242
 31
0.0
  0
LINE
  8
0
 10
98.892653
 20
-64.167025
 30
0.0
 11
98.819622
 21
-64.017144
 31
0.0
  0
LINE
  8
0
 10
99.032032
 20
-64.640056
 30
0.0
 11
98.997188
 21
-64.480151
 31
0.0
  0
LINE
  8
0
 10
99.052557
 20
-64.80712
 30
0.0
 11
99.032032
 21
-64.640056
 31
0.0
  0
LINE
  8
0
 10
98.638715
 20
-63.742204
 30
0.0
 11
98.530839
 21
-63.617144
 31
0.0
  0
LINE
  8
0
 10
97.058763
 20
-62.969889
 30
0.0
 11
96.136567
 21
-63.401392
 31
0.0
  0
LINE
  8
0
 10
97.549455
 20
-63.032419
 30
0.0
 11
97.389073
 21
-62.997574
 31
0.0
  0
LINE
  8
0
 10
97.709359
 20
-63.077765
 30
0.0
 11
97.549455
 21
-63.032419
 31
0.0
  0
LINE
  8
0
 10
98.286925
 20
-63.390891
 30
0.0
 11
98.154705
 21
-63.296858
 31
0.0
  0
LINE
  8
0
 10
98.415803
 20
-63.498767
 30
0.0
 11
98.286925
 21
-63.390891
 31
0.0
  0
LINE
  8
0
 10
98.951841
 20
-64.319769
 30
0.0
 11
98.892653
 21
-64.167025
 31
0.0
  0
LINE
  8
0
 10
98.997188
 20
-64.480151
 30
0.0
 11
98.951841
 21
-64.319769
 31
0.0
  0
LINE
  8
0
 10
99.059717
 20
-64.970843
 30
0.0
 11
99.052557
 21
-64.80712
 31
0.0
  0
LINE
  8
0
 10
99.059717
 20
-70.469173
 30
0.0
 11
99.059717
 21
-64.970843
 31
0.0
  0
LINE
  8
0
 10
96.059717
 20
-65.172753
 30
0.0
 11
95.962343
 21
-65.109746
 31
0.0
  0
LINE
  8
0
 10
97.361388
 20
-65.924543
 30
0.0
 11
96.059717
 21
-65.172753
 31
0.0
  0
LINE
  8
0
 10
95.590028
 20
-64.549841
 30
0.0
 11
95.569025
 21
-64.434805
 31
0.0
  0
LINE
  8
0
 10
95.624873
 20
-64.657717
 30
0.0
 11
95.590028
 21
-64.549841
 31
0.0
  0
LINE
  8
0
 10
95.875469
 20
-65.036714
 30
0.0
 11
95.795278
 21
-64.953182
 31
0.0
  0
LINE
  8
0
 10
95.962343
 20
-65.109746
 30
0.0
 11
95.875469
 21
-65.036714
 31
0.0
  0
LINE
  8
0
 10
90.439192
 20
-70.062013
 30
0.0
 11
90.512701
 21
-69.978481
 31
0.0
  0
LINE
  8
0
 10
90.359479
 20
-70.142204
 30
0.0
 11
90.439192
 21
-70.062013
 31
0.0
  0
LINE
  8
0
 10
90.665445
 20
-69.675855
 30
0.0
 11
90.689789
 21
-69.564638
 31
0.0
  0
LINE
  8
0
 10
90.627259
 20
-69.78039
 30
0.0
 11
90.665445
 21
-69.675855
 31
0.0
  0
LINE
  8
0
 10
90.575231
 20
-69.881106
 30
0.0
 11
90.627259
 21
-69.78039
 31
0.0
  0
LINE
  8
0
 10
90.512701
 20
-69.978481
 30
0.0
 11
90.575231
 21
-69.881106
 31
0.0
  0
LINE
  8
0
 10
90.268787
 20
-70.208552
 30
0.0
 11
90.359479
 21
-70.142204
 31
0.0
  0
LINE
  8
0
 10
90.171412
 20
-70.267263
 30
0.0
 11
90.268787
 21
-70.208552
 31
0.0
  0
LINE
  8
0
 10
90.066877
 20
-70.312609
 30
0.0
 11
90.171412
 21
-70.267263
 31
0.0
  0
LINE
  8
0
 10
89.959001
 20
-70.344113
 30
0.0
 11
90.066877
 21
-70.312609
 31
0.0
  0
LINE
  8
0
 10
89.847784
 20
-70.365115
 30
0.0
 11
89.959001
 21
-70.344113
 31
0.0
  0
LINE
  8
0
 10
89.732748
 20
-70.371798
 30
0.0
 11
89.847784
 21
-70.365115
 31
0.0
  0
LINE
  8
0
 10
89.315087
 20
-69.258194
 30
0.0
 11
89.259717
 21
-69.265354
 31
0.0
  0
LINE
  8
0
 10
89.364252
 20
-69.237192
 30
0.0
 11
89.315087
 21
-69.258194
 31
0.0
  0
LINE
  8
0
 10
89.405779
 20
-69.202824
 30
0.0
 11
89.364252
 21
-69.237192
 31
0.0
  0
LINE
  8
0
 10
89.437283
 20
-69.157478
 30
0.0
 11
89.405779
 21
-69.202824
 31
0.0
  0
LINE
  8
0
 10
89.451125
 20
-69.104972
 30
0.0
 11
89.437283
 21
-69.157478
 31
0.0
  0
LINE
  8
0
 10
89.451125
 20
-69.104972
 30
0.0
 11
89.823441
 21
-67.006643
 31
0.0
  0
LINE
  8
0
 10
89.820099
 20
-67.027645
 30
0.0
 11
89.812939
 21
-67.121679
 31
0.0
  0
LINE
  8
0
 10
89.837283
 20
-66.936953
 30
0.0
 11
89.820099
 21
-67.027645
 31
0.0
  0
LINE
  8
0
 10
89.872128
 20
-66.85008
 30
0.0
 11
89.837283
 21
-66.936953
 31
0.0
  0
LINE
  8
0
 10
89.913655
 20
-66.769889
 30
0.0
 11
89.872128
 21
-66.85008
 31
0.0
  0
LINE
  8
0
 10
89.969503
 20
-66.693516
 30
0.0
 11
89.913655
 21
-66.769889
 31
0.0
  0
LINE
  8
0
 10
90.035851
 20
-66.630987
 30
0.0
 11
89.969503
 21
-66.693516
 31
0.0
  0
LINE
  8
0
 10
90.112223
 20
-66.575139
 30
0.0
 11
90.035851
 21
-66.630987
 31
0.0
  0
LINE
  8
0
 10
90.192414
 20
-66.529793
 30
0.0
 11
90.112223
 21
-66.575139
 31
0.0
  0
LINE
  8
0
 10
90.279288
 20
-66.49829
 30
0.0
 11
90.192414
 21
-66.529793
 31
0.0
  0
LINE
  8
0
 10
90.36998
 20
-66.477765
 30
0.0
 11
90.279288
 21
-66.49829
 31
0.0
  0
LINE
  8
0
 10
90.463536
 20
-66.470605
 30
0.0
 11
90.36998
 21
-66.477765
 31
0.0
  0
LINE
  8
0
 10
90.554228
 20
-66.477765
 30
0.0
 11
90.463536
 21
-66.470605
 31
0.0
  0
LINE
  8
0
 10
90.64492
 20
-66.49829
 30
0.0
 11
90.554228
 21
-66.477765
 31
0.0
  0
LINE
  8
0
 10
90.731794
 20
-66.529793
 30
0.0
 11
90.64492
 21
-66.49829
 31
0.0
  0
LINE
  8
0
 10
90.815326
 20
-66.575139
 30
0.0
 11
90.731794
 21
-66.529793
 31
0.0
  0
LINE
  8
0
 10
90.888357
 20
-66.630987
 30
0.0
 11
90.815326
 21
-66.575139
 31
0.0
  0
LINE
  8
0
 10
90.954228
 20
-66.693516
 30
0.0
 11
90.888357
 21
-66.630987
 31
0.0
  0
LINE
  8
0
 10
91.010075
 20
-66.769889
 30
0.0
 11
90.954228
 21
-66.693516
 31
0.0
  0
LINE
  8
0
 10
91.055421
 20
-66.85008
 30
0.0
 11
91.010075
 21
-66.769889
 31
0.0
  0
LINE
  8
0
 10
91.086448
 20
-66.936953
 30
0.0
 11
91.055421
 21
-66.85008
 31
0.0
  0
LINE
  8
0
 10
91.104109
 20
-67.027645
 30
0.0
 11
91.086448
 21
-66.936953
 31
0.0
  0
LINE
  8
0
 10
91.111269
 20
-67.121679
 30
0.0
 11
91.104109
 21
-67.027645
 31
0.0
  0
LINE
  8
0
 10
91.104109
 20
-67.211893
 30
0.0
 11
91.111269
 21
-67.121679
 31
0.0
  0
LINE
  8
0
 10
91.086448
 20
-67.302586
 30
0.0
 11
91.104109
 21
-67.211893
 31
0.0
  0
LINE
  8
0
 10
91.055421
 20
-67.389459
 30
0.0
 11
91.086448
 21
-67.302586
 31
0.0
  0
LINE
  8
0
 10
91.010075
 20
-67.472991
 30
0.0
 11
91.055421
 21
-67.389459
 31
0.0
  0
LINE
  8
0
 10
90.954228
 20
-67.546022
 30
0.0
 11
91.010075
 21
-67.472991
 31
0.0
  0
LINE
  8
0
 10
90.888357
 20
-67.612371
 30
0.0
 11
90.954228
 21
-67.546022
 31
0.0
  0
LINE
  8
0
 10
90.815326
 20
-67.667741
 30
0.0
 11
90.888357
 21
-67.612371
 31
0.0
  0
LINE
  8
0
 10
90.731794
 20
-67.713087
 30
0.0
 11
90.815326
 21
-67.667741
 31
0.0
  0
LINE
  8
0
 10
90.64492
 20
-67.74459
 30
0.0
 11
90.731794
 21
-67.713087
 31
0.0
  0
LINE
  8
0
 10
90.554228
 20
-67.765115
 30
0.0
 11
90.64492
 21
-67.74459
 31
0.0
  0
LINE
  8
0
 10
90.463536
 20
-67.768934
 30
0.0
 11
90.554228
 21
-67.765115
 31
0.0
  0
LINE
  8
0
 10
90.36998
 20
-67.765115
 30
0.0
 11
90.463536
 21
-67.768934
 31
0.0
  0
LINE
  8
0
 10
90.279288
 20
-67.74459
 30
0.0
 11
90.36998
 21
-67.765115
 31
0.0
  0
LINE
  8
0
 10
90.192414
 20
-67.713087
 30
0.0
 11
90.279288
 21
-67.74459
 31
0.0
  0
LINE
  8
0
 10
90.112223
 20
-67.667741
 30
0.0
 11
90.192414
 21
-67.713087
 31
0.0
  0
LINE
  8
0
 10
90.035851
 20
-67.612371
 30
0.0
 11
90.112223
 21
-67.667741
 31
0.0
  0
LINE
  8
0
 10
89.969503
 20
-67.546022
 30
0.0
 11
90.035851
 21
-67.612371
 31
0.0
  0
LINE
  8
0
 10
89.913655
 20
-67.472991
 30
0.0
 11
89.969503
 21
-67.546022
 31
0.0
  0
LINE
  8
0
 10
89.872128
 20
-67.389459
 30
0.0
 11
89.913655
 21
-67.472991
 31
0.0
  0
LINE
  8
0
 10
89.837283
 20
-67.302586
 30
0.0
 11
89.872128
 21
-67.389459
 31
0.0
  0
LINE
  8
0
 10
89.820099
 20
-67.211893
 30
0.0
 11
89.837283
 21
-67.302586
 31
0.0
  0
LINE
  8
0
 10
89.812939
 20
-67.121679
 30
0.0
 11
89.820099
 21
-67.211893
 31
0.0
  0
LINE
  8
0
 10
91.104109
 20
-67.232896
 30
0.0
 11
90.689789
 21
-69.564638
 31
0.0
  0
LINE
  8
0
 10
89.263059
 20
-69.265354
 30
0.0
 11
85.313178
 21
-69.265354
 31
0.0
  0
LINE
  8
0
 10
85.142772
 20
-69.167979
 30
0.0
 11
85.125111
 21
-69.122633
 31
0.0
  0
LINE
  8
0
 10
85.173799
 20
-69.209507
 30
0.0
 11
85.142772
 21
-69.167979
 31
0.0
  0
LINE
  8
0
 10
85.215803
 20
-69.24101
 30
0.0
 11
85.173799
 21
-69.209507
 31
0.0
  0
LINE
  8
0
 10
85.261149
 20
-69.258194
 30
0.0
 11
85.215803
 21
-69.24101
 31
0.0
  0
LINE
  8
0
 10
85.313178
 20
-69.265354
 30
0.0
 11
85.261149
 21
-69.258194
 31
0.0
  0
LINE
  8
0
 10
77.479288
 20
-65.62144
 30
0.0
 11
77.479288
 21
-65.625259
 31
0.0
  0
LINE
  8
0
 10
78.255421
 20
-64.845306
 30
0.0
 11
78.258763
 21
-64.845306
 31
0.0
  0
LINE
  8
0
 10
78.220577
 20
-64.845306
 30
0.0
 11
78.231078
 21
-64.845306
 31
0.0
  0
LINE
  8
0
 10
78.199574
 20
-64.849125
 30
0.0
 11
78.220577
 21
-64.845306
 31
0.0
  0
LINE
  8
0
 10
78.175231
 20
-64.849125
 30
0.0
 11
78.199574
 21
-64.849125
 31
0.0
  0
LINE
  8
0
 10
78.150887
 20
-64.852466
 30
0.0
 11
78.175231
 21
-64.849125
 31
0.0
  0
LINE
  8
0
 10
78.126543
 20
-64.855808
 30
0.0
 11
78.150887
 21
-64.852466
 31
0.0
  0
LINE
  8
0
 10
78.098858
 20
-64.862967
 30
0.0
 11
78.126543
 21
-64.855808
 31
0.0
  0
LINE
  8
0
 10
78.074515
 20
-64.866309
 30
0.0
 11
78.098858
 21
-64.862967
 31
0.0
  0
LINE
  8
0
 10
78.050171
 20
-64.873469
 30
0.0
 11
78.074515
 21
-64.866309
 31
0.0
  0
LINE
  8
0
 10
78.025827
 20
-64.880151
 30
0.0
 11
78.050171
 21
-64.873469
 31
0.0
  0
LINE
  8
0
 10
78.001483
 20
-64.887311
 30
0.0
 11
78.025827
 21
-64.880151
 31
0.0
  0
LINE
  8
0
 10
77.97714
 20
-64.897812
 30
0.0
 11
78.001483
 21
-64.887311
 31
0.0
  0
LINE
  8
0
 10
77.952796
 20
-64.908314
 30
0.0
 11
77.97714
 21
-64.897812
 31
0.0
  0
LINE
  8
0
 10
77.928452
 20
-64.918337
 30
0.0
 11
77.952796
 21
-64.908314
 31
0.0
  0
LINE
  8
0
 10
77.90745
 20
-64.928839
 30
0.0
 11
77.928452
 21
-64.918337
 31
0.0
  0
LINE
  8
0
 10
77.883106
 20
-64.942681
 30
0.0
 11
77.90745
 21
-64.928839
 31
0.0
  0
LINE
  8
0
 10
77.858763
 20
-64.953182
 30
0.0
 11
77.883106
 21
-64.942681
 31
0.0
  0
LINE
  8
0
 10
77.83776
 20
-64.967025
 30
0.0
 11
77.858763
 21
-64.953182
 31
0.0
  0
LINE
  8
0
 10
77.816758
 20
-64.981345
 30
0.0
 11
77.83776
 21
-64.967025
 31
0.0
  0
LINE
  8
0
 10
77.796233
 20
-64.998528
 30
0.0
 11
77.816758
 21
-64.981345
 31
0.0
  0
LINE
  8
0
 10
77.775231
 20
-65.012371
 30
0.0
 11
77.796233
 21
-64.998528
 31
0.0
  0
LINE
  8
0
 10
77.754228
 20
-65.030032
 30
0.0
 11
77.775231
 21
-65.012371
 31
0.0
  0
LINE
  8
0
 10
77.733226
 20
-65.047216
 30
0.0
 11
77.754228
 21
-65.030032
 31
0.0
  0
LINE
  8
0
 10
77.716042
 20
-65.064877
 30
0.0
 11
77.733226
 21
-65.047216
 31
0.0
  0
LINE
  8
0
 10
77.698858
 20
-65.082061
 30
0.0
 11
77.716042
 21
-65.064877
 31
0.0
  0
LINE
  8
0
 10
77.681197
 20
-65.103063
 30
0.0
 11
77.698858
 21
-65.082061
 31
0.0
  0
LINE
  8
0
 10
77.664013
 20
-65.120247
 30
0.0
 11
77.681197
 21
-65.103063
 31
0.0
  0
LINE
  8
0
 10
77.646352
 20
-65.141249
 30
0.0
 11
77.664013
 21
-65.120247
 31
0.0
  0
LINE
  8
0
 10
77.629168
 20
-65.162251
 30
0.0
 11
77.646352
 21
-65.141249
 31
0.0
  0
LINE
  8
0
 10
77.615326
 20
-65.183254
 30
0.0
 11
77.629168
 21
-65.162251
 31
0.0
  0
LINE
  8
0
 10
77.601006
 20
-65.203779
 30
0.0
 11
77.615326
 21
-65.183254
 31
0.0
  0
LINE
  8
0
 10
77.587164
 20
-65.228123
 30
0.0
 11
77.601006
 21
-65.203779
 31
0.0
  0
LINE
  8
0
 10
77.573321
 20
-65.249125
 30
0.0
 11
77.587164
 21
-65.228123
 31
0.0
  0
LINE
  8
0
 10
77.56282
 20
-65.273469
 30
0.0
 11
77.573321
 21
-65.249125
 31
0.0
  0
LINE
  8
0
 10
77.552319
 20
-65.294471
 30
0.0
 11
77.56282
 21
-65.273469
 31
0.0
  0
LINE
  8
0
 10
77.538476
 20
-65.318815
 30
0.0
 11
77.552319
 21
-65.294471
 31
0.0
  0
LINE
  8
0
 10
77.531794
 20
-65.343158
 30
0.0
 11
77.538476
 21
-65.318815
 31
0.0
  0
LINE
  8
0
 10
77.521293
 20
-65.367502
 30
0.0
 11
77.531794
 21
-65.343158
 31
0.0
  0
LINE
  8
0
 10
77.514133
 20
-65.391846
 30
0.0
 11
77.521293
 21
-65.367502
 31
0.0
  0
LINE
  8
0
 10
77.50745
 20
-65.416189
 30
0.0
 11
77.514133
 21
-65.391846
 31
0.0
  0
LINE
  8
0
 10
77.50029
 20
-65.443874
 30
0.0
 11
77.50745
 21
-65.416189
 31
0.0
  0
LINE
  8
0
 10
77.49313
 20
-65.468218
 30
0.0
 11
77.50029
 21
-65.443874
 31
0.0
  0
LINE
  8
0
 10
77.489789
 20
-65.492562
 30
0.0
 11
77.49313
 21
-65.468218
 31
0.0
  0
LINE
  8
0
 10
77.486448
 20
-65.520724
 30
0.0
 11
77.489789
 21
-65.492562
 31
0.0
  0
LINE
  8
0
 10
77.483106
 20
-65.545068
 30
0.0
 11
77.486448
 21
-65.520724
 31
0.0
  0
LINE
  8
0
 10
77.479288
 20
-65.569411
 30
0.0
 11
77.483106
 21
-65.545068
 31
0.0
  0
LINE
  8
0
 10
77.479288
 20
-65.597096
 30
0.0
 11
77.479288
 21
-65.569411
 31
0.0
  0
LINE
  8
0
 10
77.475946
 20
-65.62144
 30
0.0
 11
77.479288
 21
-65.597096
 31
0.0
  0
LINE
  8
0
 10
84.394324
 20
-66.404734
 30
0.0
 11
85.125111
 21
-69.122633
 31
0.0
  0
LINE
  8
0
 10
84.394324
 20
-66.397574
 30
0.0
 11
84.394324
 21
-66.404734
 31
0.0
  0
LINE
  8
0
 10
84.387641
 20
-66.376571
 30
0.0
 11
84.394324
 21
-66.397574
 31
0.0
  0
LINE
  8
0
 10
84.380481
 20
-66.345545
 30
0.0
 11
84.387641
 21
-66.376571
 31
0.0
  0
LINE
  8
0
 10
84.366639
 20
-66.296858
 30
0.0
 11
84.380481
 21
-66.345545
 31
0.0
  0
LINE
  8
0
 10
84.352796
 20
-66.237669
 30
0.0
 11
84.366639
 21
-66.296858
 31
0.0
  0
LINE
  8
0
 10
84.331794
 20
-66.167979
 30
0.0
 11
84.352796
 21
-66.237669
 31
0.0
  0
LINE
  8
0
 10
84.310791
 20
-66.087788
 30
0.0
 11
84.331794
 21
-66.167979
 31
0.0
  0
LINE
  8
0
 10
84.286448
 20
-66.000915
 30
0.0
 11
84.310791
 21
-66.087788
 31
0.0
  0
LINE
  8
0
 10
84.262104
 20
-65.906882
 30
0.0
 11
84.286448
 21
-66.000915
 31
0.0
  0
LINE
  8
0
 10
84.234419
 20
-65.806166
 30
0.0
 11
84.262104
 21
-65.906882
 31
0.0
  0
LINE
  8
0
 10
84.189073
 20
-65.6286
 30
0.0
 11
84.234419
 21
-65.806166
 31
0.0
  0
LINE
  8
0
 10
84.185732
 20
-65.62144
 30
0.0
 11
84.189073
 21
-65.6286
 31
0.0
  0
LINE
  8
0
 10
83.385254
 20
-64.845306
 30
0.0
 11
83.381436
 21
-64.845306
 31
0.0
  0
LINE
  8
0
 10
83.423441
 20
-64.845306
 30
0.0
 11
83.385254
 21
-64.845306
 31
0.0
  0
LINE
  8
0
 10
83.444443
 20
-64.849125
 30
0.0
 11
83.423441
 21
-64.845306
 31
0.0
  0
LINE
  8
0
 10
83.468787
 20
-64.849125
 30
0.0
 11
83.444443
 21
-64.849125
 31
0.0
  0
LINE
  8
0
 10
83.489789
 20
-64.852466
 30
0.0
 11
83.468787
 21
-64.849125
 31
0.0
  0
LINE
  8
0
 10
83.506973
 20
-64.855808
 30
0.0
 11
83.489789
 21
-64.852466
 31
0.0
  0
LINE
  8
0
 10
83.531316
 20
-64.859149
 30
0.0
 11
83.506973
 21
-64.855808
 31
0.0
  0
LINE
  8
0
 10
83.552319
 20
-64.866309
 30
0.0
 11
83.531316
 21
-64.859149
 31
0.0
  0
LINE
  8
0
 10
83.573321
 20
-64.86965
 30
0.0
 11
83.552319
 21
-64.866309
 31
0.0
  0
LINE
  8
0
 10
83.593846
 20
-64.87681
 30
0.0
 11
83.573321
 21
-64.86965
 31
0.0
  0
LINE
  8
0
 10
83.614849
 20
-64.880151
 30
0.0
 11
83.593846
 21
-64.87681
 31
0.0
  0
LINE
  8
0
 10
83.635851
 20
-64.887311
 30
0.0
 11
83.614849
 21
-64.880151
 31
0.0
  0
LINE
  8
0
 10
83.656853
 20
-64.897812
 30
0.0
 11
83.635851
 21
-64.887311
 31
0.0
  0
LINE
  8
0
 10
83.677378
 20
-64.904495
 30
0.0
 11
83.656853
 21
-64.897812
 31
0.0
  0
LINE
  8
0
 10
83.69504
 20
-64.911655
 30
0.0
 11
83.677378
 21
-64.904495
 31
0.0
  0
LINE
  8
0
 10
83.715565
 20
-64.922156
 30
0.0
 11
83.69504
 21
-64.911655
 31
0.0
  0
LINE
  8
0
 10
83.736567
 20
-64.932657
 30
0.0
 11
83.715565
 21
-64.922156
 31
0.0
  0
LINE
  8
0
 10
83.754228
 20
-64.942681
 30
0.0
 11
83.736567
 21
-64.932657
 31
0.0
  0
LINE
  8
0
 10
83.774753
 20
-64.953182
 30
0.0
 11
83.754228
 21
-64.942681
 31
0.0
  0
LINE
  8
0
 10
83.792414
 20
-64.963683
 30
0.0
 11
83.774753
 21
-64.953182
 31
0.0
  0
LINE
  8
0
 10
83.809598
 20
-64.974185
 30
0.0
 11
83.792414
 21
-64.963683
 31
0.0
  0
LINE
  8
0
 10
83.827259
 20
-64.988027
 30
0.0
 11
83.809598
 21
-64.974185
 31
0.0
  0
LINE
  8
0
 10
83.844443
 20
-64.998528
 30
0.0
 11
83.827259
 21
-64.988027
 31
0.0
  0
LINE
  8
0
 10
83.862104
 20
-65.012371
 30
0.0
 11
83.844443
 21
-64.998528
 31
0.0
  0
LINE
  8
0
 10
83.879288
 20
-65.026213
 30
0.0
 11
83.862104
 21
-65.012371
 31
0.0
  0
LINE
  8
0
 10
83.896949
 20
-65.040533
 30
0.0
 11
83.879288
 21
-65.026213
 31
0.0
  0
LINE
  8
0
 10
83.914133
 20
-65.054376
 30
0.0
 11
83.896949
 21
-65.040533
 31
0.0
  0
LINE
  8
0
 10
83.927975
 20
-65.071559
 30
0.0
 11
83.914133
 21
-65.054376
 31
0.0
  0
LINE
  8
0
 10
83.941818
 20
-65.085402
 30
0.0
 11
83.927975
 21
-65.071559
 31
0.0
  0
LINE
  8
0
 10
83.959479
 20
-65.103063
 30
0.0
 11
83.941818
 21
-65.085402
 31
0.0
  0
LINE
  8
0
 10
83.973321
 20
-65.120247
 30
0.0
 11
83.959479
 21
-65.103063
 31
0.0
  0
LINE
  8
0
 10
83.987164
 20
-65.134089
 30
0.0
 11
83.973321
 21
-65.120247
 31
0.0
  0
LINE
  8
0
 10
84.001006
 20
-65.15175
 30
0.0
 11
83.987164
 21
-65.134089
 31
0.0
  0
LINE
  8
0
 10
84.011507
 20
-65.168934
 30
0.0
 11
84.001006
 21
-65.15175
 31
0.0
  0
LINE
  8
0
 10
84.02535
 20
-65.186595
 30
0.0
 11
84.011507
 21
-65.168934
 31
0.0
  0
LINE
  8
0
 10
84.035851
 20
-65.207598
 30
0.0
 11
84.02535
 21
-65.186595
 31
0.0
  0
LINE
  8
0
 10
84.049694
 20
-65.224781
 30
0.0
 11
84.035851
 21
-65.207598
 31
0.0
  0
LINE
  8
0
 10
84.060195
 20
-65.241965
 30
0.0
 11
84.049694
 21
-65.224781
 31
0.0
  0
LINE
  8
0
 10
84.070696
 20
-65.262967
 30
0.0
 11
84.060195
 21
-65.241965
 31
0.0
  0
LINE
  8
0
 10
84.081197
 20
-65.280629
 30
0.0
 11
84.070696
 21
-65.262967
 31
0.0
  0
LINE
  8
0
 10
84.088357
 20
-65.301154
 30
0.0
 11
84.081197
 21
-65.280629
 31
0.0
  0
LINE
  8
0
 10
84.098381
 20
-65.322156
 30
0.0
 11
84.088357
 21
-65.301154
 31
0.0
  0
LINE
  8
0
 10
84.105541
 20
-65.339817
 30
0.0
 11
84.098381
 21
-65.322156
 31
0.0
  0
LINE
  8
0
 10
84.112701
 20
-65.360342
 30
0.0
 11
84.105541
 21
-65.339817
 31
0.0
  0
LINE
  8
0
 10
84.119383
 20
-65.381345
 30
0.0
 11
84.112701
 21
-65.360342
 31
0.0
  0
LINE
  8
0
 10
84.126543
 20
-65.402347
 30
0.0
 11
84.119383
 21
-65.381345
 31
0.0
  0
LINE
  8
0
 10
84.133226
 20
-65.423349
 30
0.0
 11
84.126543
 21
-65.402347
 31
0.0
  0
LINE
  8
0
 10
84.185732
 20
-65.625259
 30
0.0
 11
84.133226
 21
-65.423349
 31
0.0
  0
LINE
  8
0
 10
77.479288
 20
-65.729316
 30
0.0
 11
77.479288
 21
-65.6286
 31
0.0
  0
LINE
  8
0
 10
77.479288
 20
-65.830509
 30
0.0
 11
77.479288
 21
-65.729316
 31
0.0
  0
LINE
  8
0
 10
77.479288
 20
-65.924543
 30
0.0
 11
77.479288
 21
-65.830509
 31
0.0
  0
LINE
  8
0
 10
77.479288
 20
-66.018099
 30
0.0
 11
77.479288
 21
-65.924543
 31
0.0
  0
LINE
  8
0
 10
77.479288
 20
-66.101631
 30
0.0
 11
77.479288
 21
-66.018099
 31
0.0
  0
LINE
  8
0
 10
77.479288
 20
-66.178481
 30
0.0
 11
77.479288
 21
-66.101631
 31
0.0
  0
LINE
  8
0
 10
77.479288
 20
-66.244352
 30
0.0
 11
77.479288
 21
-66.178481
 31
0.0
  0
LINE
  8
0
 10
77.479288
 20
-66.300199
 30
0.0
 11
77.479288
 21
-66.244352
 31
0.0
  0
LINE
  8
0
 10
77.479288
 20
-66.345545
 30
0.0
 11
77.479288
 21
-66.300199
 31
0.0
  0
LINE
  8
0
 10
77.479288
 20
-66.38039
 30
0.0
 11
77.479288
 21
-66.345545
 31
0.0
  0
LINE
  8
0
 10
77.479288
 20
-66.397574
 30
0.0
 11
77.479288
 21
-66.38039
 31
0.0
  0
LINE
  8
0
 10
77.479288
 20
-66.404734
 30
0.0
 11
77.479288
 21
-66.397574
 31
0.0
  0
LINE
  8
0
 10
77.479288
 20
-66.871082
 30
0.0
 11
77.479288
 21
-66.404734
 31
0.0
  0
LINE
  8
0
 10
78.258763
 20
-64.845306
 30
0.0
 11
83.378094
 21
-64.845306
 31
0.0
  0
LINE
  8
0
 10
83.378094
 20
-64.845306
 30
0.0
 11
78.258763
 21
-64.845306
 31
0.0
  0
LINE
  8
0
 10
77.479288
 20
-66.404734
 30
0.0
 11
84.394324
 21
-66.404734
 31
0.0
  0
LINE
  8
0
 10
84.394324
 20
-66.404734
 30
0.0
 11
77.479288
 21
-66.404734
 31
0.0
  0
LINE
  8
0
 10
3.116042
 20
-69.167979
 30
0.0
 11
3.137044
 21
-69.122633
 31
0.0
  0
LINE
  8
0
 10
3.084538
 20
-69.209507
 30
0.0
 11
3.116042
 21
-69.167979
 31
0.0
  0
LINE
  8
0
 10
3.046352
 20
-69.24101
 30
0.0
 11
3.084538
 21
-69.209507
 31
0.0
  0
LINE
  8
0
 10
2.997665
 20
-69.258194
 30
0.0
 11
3.046352
 21
-69.24101
 31
0.0
  0
LINE
  8
0
 10
2.948978
 20
-69.265354
 30
0.0
 11
2.997665
 21
-69.258194
 31
0.0
  0
LINE
  8
0
 10
10.782868
 20
-66.871082
 30
0.0
 11
77.479288
 21
-66.871082
 31
0.0
  0
LINE
  8
0
 10
3.864491
 20
-66.404734
 30
0.0
 11
3.137044
 21
-69.122633
 31
0.0
  0
LINE
  8
0
 10
10.782868
 20
-66.404734
 30
0.0
 11
10.782868
 21
-66.871082
 31
0.0
  0
LINE
  8
0
 10
10.782868
 20
-65.62144
 30
0.0
 11
10.782868
 21
-65.625259
 31
0.0
  0
LINE
  8
0
 10
10.577617
 20
-65.103063
 30
0.0
 11
10.594801
 21
-65.120247
 31
0.0
  0
LINE
  8
0
 10
10.559956
 20
-65.082061
 30
0.0
 11
10.577617
 21
-65.103063
 31
0.0
  0
LINE
  8
0
 10
10.542772
 20
-65.064877
 30
0.0
 11
10.559956
 21
-65.082061
 31
0.0
  0
LINE
  8
0
 10
10.525111
 20
-65.047216
 30
0.0
 11
10.542772
 21
-65.064877
 31
0.0
  0
LINE
  8
0
 10
10.504586
 20
-65.030032
 30
0.0
 11
10.525111
 21
-65.047216
 31
0.0
  0
LINE
  8
0
 10
10.483584
 20
-65.012371
 30
0.0
 11
10.504586
 21
-65.030032
 31
0.0
  0
LINE
  8
0
 10
10.462581
 20
-64.998528
 30
0.0
 11
10.483584
 21
-65.012371
 31
0.0
  0
LINE
  8
0
 10
10.441579
 20
-64.981345
 30
0.0
 11
10.462581
 21
-64.998528
 31
0.0
  0
LINE
  8
0
 10
10.421054
 20
-64.967025
 30
0.0
 11
10.441579
 21
-64.981345
 31
0.0
  0
LINE
  8
0
 10
10.400052
 20
-64.953182
 30
0.0
 11
10.421054
 21
-64.967025
 31
0.0
  0
LINE
  8
0
 10
10.375708
 20
-64.942681
 30
0.0
 11
10.400052
 21
-64.953182
 31
0.0
  0
LINE
  8
0
 10
10.351364
 20
-64.928839
 30
0.0
 11
10.375708
 21
-64.942681
 31
0.0
  0
LINE
  8
0
 10
10.330362
 20
-64.918337
 30
0.0
 11
10.351364
 21
-64.928839
 31
0.0
  0
LINE
  8
0
 10
10.306018
 20
-64.908314
 30
0.0
 11
10.330362
 21
-64.918337
 31
0.0
  0
LINE
  8
0
 10
10.281674
 20
-64.897812
 30
0.0
 11
10.306018
 21
-64.908314
 31
0.0
  0
LINE
  8
0
 10
10.257331
 20
-64.887311
 30
0.0
 11
10.281674
 21
-64.897812
 31
0.0
  0
LINE
  8
0
 10
10.232987
 20
-64.880151
 30
0.0
 11
10.257331
 21
-64.887311
 31
0.0
  0
LINE
  8
0
 10
10.208643
 20
-64.873469
 30
0.0
 11
10.232987
 21
-64.880151
 31
0.0
  0
LINE
  8
0
 10
10.180958
 20
-64.866309
 30
0.0
 11
10.208643
 21
-64.873469
 31
0.0
  0
LINE
  8
0
 10
10.156615
 20
-64.862967
 30
0.0
 11
10.180958
 21
-64.866309
 31
0.0
  0
LINE
  8
0
 10
10.131794
 20
-64.855808
 30
0.0
 11
10.156615
 21
-64.862967
 31
0.0
  0
LINE
  8
0
 10
10.104109
 20
-64.852466
 30
0.0
 11
10.131794
 21
-64.855808
 31
0.0
  0
LINE
  8
0
 10
10.079765
 20
-64.849125
 30
0.0
 11
10.104109
 21
-64.852466
 31
0.0
  0
LINE
  8
0
 10
10.05208
 20
-64.849125
 30
0.0
 11
10.079765
 21
-64.849125
 31
0.0
  0
LINE
  8
0
 10
10.003393
 20
-64.845306
 30
0.0
 11
10.05208
 21
-64.849125
 31
0.0
  0
LINE
  8
0
 10
10.003393
 20
-64.845306
 30
0.0
 11
4.88072
 21
-64.845306
 31
0.0
  0
LINE
  8
0
 10
4.88072
 20
-64.845306
 30
0.0
 11
10.003393
 21
-64.845306
 31
0.0
  0
LINE
  8
0
 10
4.876901
 20
-64.845306
 30
0.0
 11
4.88072
 21
-64.845306
 31
0.0
  0
LINE
  8
0
 10
4.852557
 20
-64.845306
 30
0.0
 11
4.876901
 21
-64.845306
 31
0.0
  0
LINE
  8
0
 10
4.832032
 20
-64.845306
 30
0.0
 11
4.852557
 21
-64.845306
 31
0.0
  0
LINE
  8
0
 10
4.81103
 20
-64.849125
 30
0.0
 11
4.832032
 21
-64.845306
 31
0.0
  0
LINE
  8
0
 10
4.790028
 20
-64.852466
 30
0.0
 11
4.81103
 21
-64.849125
 31
0.0
  0
LINE
  8
0
 10
4.769025
 20
-64.852466
 30
0.0
 11
4.790028
 21
-64.852466
 31
0.0
  0
LINE
  8
0
 10
4.7485
 20
-64.855808
 30
0.0
 11
4.769025
 21
-64.852466
 31
0.0
  0
LINE
  8
0
 10
4.727498
 20
-64.859149
 30
0.0
 11
4.7485
 21
-64.855808
 31
0.0
  0
LINE
  8
0
 10
4.703154
 20
-64.866309
 30
0.0
 11
4.727498
 21
-64.859149
 31
0.0
  0
LINE
  8
0
 10
4.682152
 20
-64.86965
 30
0.0
 11
4.703154
 21
-64.866309
 31
0.0
  0
LINE
  8
0
 10
4.661149
 20
-64.87681
 30
0.0
 11
4.682152
 21
-64.86965
 31
0.0
  0
LINE
  8
0
 10
4.640624
 20
-64.88397
 30
0.0
 11
4.661149
 21
-64.87681
 31
0.0
  0
LINE
  8
0
 10
4.622963
 20
-64.890652
 30
0.0
 11
4.640624
 21
-64.88397
 31
0.0
  0
LINE
  8
0
 10
4.601961
 20
-64.897812
 30
0.0
 11
4.622963
 21
-64.890652
 31
0.0
  0
LINE
  8
0
 10
4.581436
 20
-64.904495
 30
0.0
 11
4.601961
 21
-64.897812
 31
0.0
  0
LINE
  8
0
 10
4.560433
 20
-64.914996
 30
0.0
 11
4.581436
 21
-64.904495
 31
0.0
  0
LINE
  8
0
 10
4.542772
 20
-64.922156
 30
0.0
 11
4.560433
 21
-64.914996
 31
0.0
  0
LINE
  8
0
 10
4.522247
 20
-64.932657
 30
0.0
 11
4.542772
 21
-64.922156
 31
0.0
  0
LINE
  8
0
 10
4.504586
 20
-64.942681
 30
0.0
 11
4.522247
 21
-64.932657
 31
0.0
  0
LINE
  8
0
 10
4.483584
 20
-64.953182
 30
0.0
 11
4.504586
 21
-64.942681
 31
0.0
  0
LINE
  8
0
 10
4.4664
 20
-64.963683
 30
0.0
 11
4.483584
 21
-64.953182
 31
0.0
  0
LINE
  8
0
 10
4.449216
 20
-64.977526
 30
0.0
 11
4.4664
 21
-64.963683
 31
0.0
  0
LINE
  8
0
 10
4.431555
 20
-64.988027
 30
0.0
 11
4.449216
 21
-64.977526
 31
0.0
  0
LINE
  8
0
 10
4.410553
 20
-65.00187
 30
0.0
 11
4.431555
 21
-64.988027
 31
0.0
  0
LINE
  8
0
 10
4.39671
 20
-65.016189
 30
0.0
 11
4.410553
 21
-65.00187
 31
0.0
  0
LINE
  8
0
 10
4.379526
 20
-65.030032
 30
0.0
 11
4.39671
 21
-65.016189
 31
0.0
  0
LINE
  8
0
 10
4.361865
 20
-65.043874
 30
0.0
 11
4.379526
 21
-65.030032
 31
0.0
  0
LINE
  8
0
 10
4.344682
 20
-65.057717
 30
0.0
 11
4.361865
 21
-65.043874
 31
0.0
  0
LINE
  8
0
 10
4.330839
 20
-65.071559
 30
0.0
 11
4.344682
 21
-65.057717
 31
0.0
  0
LINE
  8
0
 10
4.316519
 20
-65.08922
 30
0.0
 11
4.330839
 21
-65.071559
 31
0.0
  0
LINE
  8
0
 10
4.299336
 20
-65.103063
 30
0.0
 11
4.316519
 21
-65.08922
 31
0.0
  0
LINE
  8
0
 10
4.285493
 20
-65.120247
 30
0.0
 11
4.299336
 21
-65.103063
 31
0.0
  0
LINE
  8
0
 10
4.271651
 20
-65.137908
 30
0.0
 11
4.285493
 21
-65.120247
 31
0.0
  0
LINE
  8
0
 10
4.261149
 20
-65.155092
 30
0.0
 11
4.271651
 21
-65.137908
 31
0.0
  0
LINE
  8
0
 10
4.247307
 20
-65.172753
 30
0.0
 11
4.261149
 21
-65.155092
 31
0.0
  0
LINE
  8
0
 10
4.232987
 20
-65.189936
 30
0.0
 11
4.247307
 21
-65.172753
 31
0.0
  0
LINE
  8
0
 10
4.222963
 20
-65.207598
 30
0.0
 11
4.232987
 21
-65.189936
 31
0.0
  0
LINE
  8
0
 10
4.212462
 20
-65.224781
 30
0.0
 11
4.222963
 21
-65.207598
 31
0.0
  0
LINE
  8
0
 10
4.19862
 20
-65.241965
 30
0.0
 11
4.212462
 21
-65.224781
 31
0.0
  0
LINE
  8
0
 10
4.188118
 20
-65.262967
 30
0.0
 11
4.19862
 21
-65.241965
 31
0.0
  0
LINE
  8
0
 10
4.180958
 20
-65.280629
 30
0.0
 11
4.188118
 21
-65.262967
 31
0.0
  0
LINE
  8
0
 10
4.170457
 20
-65.301154
 30
0.0
 11
4.180958
 21
-65.280629
 31
0.0
  0
LINE
  8
0
 10
4.163775
 20
-65.322156
 30
0.0
 11
4.170457
 21
-65.301154
 31
0.0
  0
LINE
  8
0
 10
4.153273
 20
-65.343158
 30
0.0
 11
4.163775
 21
-65.322156
 31
0.0
  0
LINE
  8
0
 10
4.146114
 20
-65.360342
 30
0.0
 11
4.153273
 21
-65.343158
 31
0.0
  0
LINE
  8
0
 10
4.139431
 20
-65.381345
 30
0.0
 11
4.146114
 21
-65.360342
 31
0.0
  0
LINE
  8
0
 10
4.132271
 20
-65.402347
 30
0.0
 11
4.139431
 21
-65.381345
 31
0.0
  0
LINE
  8
0
 10
4.125111
 20
-65.423349
 30
0.0
 11
4.132271
 21
-65.402347
 31
0.0
  0
LINE
  8
0
 10
4.073083
 20
-65.62144
 30
0.0
 11
4.125111
 21
-65.423349
 31
0.0
  0
LINE
  8
0
 10
4.073083
 20
-65.6286
 30
0.0
 11
4.073083
 21
-65.62144
 31
0.0
  0
LINE
  8
0
 10
4.045398
 20
-65.732657
 30
0.0
 11
4.073083
 21
-65.6286
 31
0.0
  0
LINE
  8
0
 10
4.017235
 20
-65.833851
 30
0.0
 11
4.045398
 21
-65.732657
 31
0.0
  0
LINE
  8
0
 10
3.98955
 20
-65.934567
 30
0.0
 11
4.017235
 21
-65.833851
 31
0.0
  0
LINE
  8
0
 10
3.965207
 20
-66.025259
 30
0.0
 11
3.98955
 21
-65.934567
 31
0.0
  0
LINE
  8
0
 10
3.940863
 20
-66.112132
 30
0.0
 11
3.965207
 21
-66.025259
 31
0.0
  0
LINE
  8
0
 10
3.923679
 20
-66.188982
 30
0.0
 11
3.940863
 21
-66.112132
 31
0.0
  0
LINE
  8
0
 10
3.902677
 20
-66.254853
 30
0.0
 11
3.923679
 21
-66.188982
 31
0.0
  0
LINE
  8
0
 10
3.888834
 20
-66.3107
 30
0.0
 11
3.902677
 21
-66.254853
 31
0.0
  0
LINE
  8
0
 10
3.878333
 20
-66.356046
 30
0.0
 11
3.888834
 21
-66.3107
 31
0.0
  0
LINE
  8
0
 10
3.867832
 20
-66.383731
 30
0.0
 11
3.878333
 21
-66.356046
 31
0.0
  0
LINE
  8
0
 10
3.864491
 20
-66.404734
 30
0.0
 11
3.867832
 21
-66.383731
 31
0.0
  0
LINE
  8
0
 10
10.782868
 20
-66.404734
 30
0.0
 11
3.864491
 21
-66.404734
 31
0.0
  0
LINE
  8
0
 10
10.782868
 20
-66.397574
 30
0.0
 11
10.782868
 21
-66.404734
 31
0.0
  0
LINE
  8
0
 10
10.782868
 20
-66.38039
 30
0.0
 11
10.782868
 21
-66.397574
 31
0.0
  0
LINE
  8
0
 10
10.782868
 20
-66.345545
 30
0.0
 11
10.782868
 21
-66.38039
 31
0.0
  0
LINE
  8
0
 10
10.782868
 20
-66.300199
 30
0.0
 11
10.782868
 21
-66.345545
 31
0.0
  0
LINE
  8
0
 10
10.782868
 20
-66.244352
 30
0.0
 11
10.782868
 21
-66.300199
 31
0.0
  0
LINE
  8
0
 10
10.782868
 20
-66.178481
 30
0.0
 11
10.782868
 21
-66.244352
 31
0.0
  0
LINE
  8
0
 10
10.782868
 20
-66.101631
 30
0.0
 11
10.782868
 21
-66.178481
 31
0.0
  0
LINE
  8
0
 10
10.782868
 20
-66.018099
 30
0.0
 11
10.782868
 21
-66.101631
 31
0.0
  0
LINE
  8
0
 10
10.782868
 20
-65.924543
 30
0.0
 11
10.782868
 21
-66.018099
 31
0.0
  0
LINE
  8
0
 10
10.782868
 20
-65.830509
 30
0.0
 11
10.782868
 21
-65.924543
 31
0.0
  0
LINE
  8
0
 10
10.782868
 20
-65.729316
 30
0.0
 11
10.782868
 21
-65.830509
 31
0.0
  0
LINE
  8
0
 10
10.782868
 20
-65.6286
 30
0.0
 11
10.782868
 21
-65.729316
 31
0.0
  0
LINE
  8
0
 10
10.782868
 20
-65.625259
 30
0.0
 11
10.782868
 21
-65.6286
 31
0.0
  0
LINE
  8
0
 10
10.782868
 20
-65.62144
 30
0.0
 11
10.782868
 21
-65.625259
 31
0.0
  0
LINE
  8
0
 10
10.782868
 20
-65.597096
 30
0.0
 11
10.782868
 21
-65.62144
 31
0.0
  0
LINE
  8
0
 10
10.779526
 20
-65.569411
 30
0.0
 11
10.782868
 21
-65.597096
 31
0.0
  0
LINE
  8
0
 10
10.775708
 20
-65.545068
 30
0.0
 11
10.779526
 21
-65.569411
 31
0.0
  0
LINE
  8
0
 10
10.775708
 20
-65.520724
 30
0.0
 11
10.775708
 21
-65.545068
 31
0.0
  0
LINE
  8
0
 10
10.769025
 20
-65.492562
 30
0.0
 11
10.775708
 21
-65.520724
 31
0.0
  0
LINE
  8
0
 10
10.765207
 20
-65.468218
 30
0.0
 11
10.769025
 21
-65.492562
 31
0.0
  0
LINE
  8
0
 10
10.758524
 20
-65.443874
 30
0.0
 11
10.765207
 21
-65.468218
 31
0.0
  0
LINE
  8
0
 10
10.755183
 20
-65.416189
 30
0.0
 11
10.758524
 21
-65.443874
 31
0.0
  0
LINE
  8
0
 10
10.744682
 20
-65.391846
 30
0.0
 11
10.755183
 21
-65.416189
 31
0.0
  0
LINE
  8
0
 10
10.737522
 20
-65.367502
 30
0.0
 11
10.744682
 21
-65.391846
 31
0.0
  0
LINE
  8
0
 10
10.72702
 20
-65.343158
 30
0.0
 11
10.737522
 21
-65.367502
 31
0.0
  0
LINE
  8
0
 10
10.720338
 20
-65.318815
 30
0.0
 11
10.72702
 21
-65.343158
 31
0.0
  0
LINE
  8
0
 10
10.709837
 20
-65.294471
 30
0.0
 11
10.720338
 21
-65.318815
 31
0.0
  0
LINE
  8
0
 10
10.695994
 20
-65.273469
 30
0.0
 11
10.709837
 21
-65.294471
 31
0.0
  0
LINE
  8
0
 10
10.685493
 20
-65.249125
 30
0.0
 11
10.695994
 21
-65.273469
 31
0.0
  0
LINE
  8
0
 10
10.671651
 20
-65.228123
 30
0.0
 11
10.685493
 21
-65.249125
 31
0.0
  0
LINE
  8
0
 10
10.657331
 20
-65.203779
 30
0.0
 11
10.671651
 21
-65.228123
 31
0.0
  0
LINE
  8
0
 10
10.643488
 20
-65.183254
 30
0.0
 11
10.657331
 21
-65.203779
 31
0.0
  0
LINE
  8
0
 10
10.629646
 20
-65.162251
 30
0.0
 11
10.643488
 21
-65.183254
 31
0.0
  0
LINE
  8
0
 10
10.612462
 20
-65.141249
 30
0.0
 11
10.629646
 21
-65.162251
 31
0.0
  0
LINE
  8
0
 10
10.594801
 20
-65.120247
 30
0.0
 11
10.612462
 21
-65.141249
 31
0.0
  0
LINE
  8
0
 10
10.782868
 20
-66.404734
 30
0.0
 11
3.864491
 21
-66.404734
 31
0.0
  0
LINE
  8
0
 10
-1.470593
 20
-70.371798
 30
0.0
 11
89.732748
 21
-70.371798
 31
0.0
  0
LINE
  8
0
 10
-2.406631
 20
-69.675855
 30
0.0
 11
-2.431452
 21
-69.564638
 31
0.0
  0
LINE
  8
0
 10
-2.365104
 20
-69.78039
 30
0.0
 11
-2.406631
 21
-69.675855
 31
0.0
  0
LINE
  8
0
 10
-2.180855
 20
-70.065831
 30
0.0
 11
-2.253886
 21
-69.978481
 31
0.0
  0
LINE
  8
0
 10
-2.097323
 20
-70.142204
 30
0.0
 11
-2.180855
 21
-70.065831
 31
0.0
  0
LINE
  8
0
 10
-2.006631
 20
-70.208552
 30
0.0
 11
-2.097323
 21
-70.142204
 31
0.0
  0
LINE
  8
0
 10
-1.909256
 20
-70.267263
 30
0.0
 11
-2.006631
 21
-70.208552
 31
0.0
  0
LINE
  8
0
 10
-1.804722
 20
-70.312609
 30
0.0
 11
-1.909256
 21
-70.267263
 31
0.0
  0
LINE
  8
0
 10
-1.696846
 20
-70.344113
 30
0.0
 11
-1.804722
 21
-70.312609
 31
0.0
  0
LINE
  8
0
 10
-1.585629
 20
-70.365115
 30
0.0
 11
-1.696846
 21
-70.344113
 31
0.0
  0
LINE
  8
0
 10
-1.470593
 20
-70.371798
 30
0.0
 11
-1.585629
 21
-70.365115
 31
0.0
  0
LINE
  8
0
 10
-1.052932
 20
-69.258194
 30
0.0
 11
-1.000903
 21
-69.265354
 31
0.0
  0
LINE
  8
0
 10
-1.105438
 20
-69.237192
 30
0.0
 11
-1.052932
 21
-69.258194
 31
0.0
  0
LINE
  8
0
 10
-1.146965
 20
-69.202824
 30
0.0
 11
-1.105438
 21
-69.237192
 31
0.0
  0
LINE
  8
0
 10
-1.175127
 20
-69.157478
 30
0.0
 11
-1.146965
 21
-69.202824
 31
0.0
  0
LINE
  8
0
 10
-1.192311
 20
-69.104972
 30
0.0
 11
-1.175127
 21
-69.157478
 31
0.0
  0
LINE
  8
0
 10
-2.316416
 20
-69.881106
 30
0.0
 11
-2.365104
 21
-69.78039
 31
0.0
  0
LINE
  8
0
 10
-2.253886
 20
-69.978481
 30
0.0
 11
-2.316416
 21
-69.881106
 31
0.0
  0
LINE
  8
0
 10
2.948978
 20
-69.265354
 30
0.0
 11
-1.004244
 21
-69.265354
 31
0.0
  0
LINE
  8
0
 10
-1.192311
 20
-69.104972
 30
0.0
 11
-1.561285
 21
-67.006643
 31
0.0
  0
LINE
  8
0
 10
-2.841953
 20
-67.232896
 30
0.0
 11
-2.431452
 21
-69.564638
 31
0.0
  0
LINE
  8
0
 10
-1.655318
 20
-66.769889
 30
0.0
 11
-1.710688
 21
-66.693516
 31
0.0
  0
LINE
  8
0
 10
-1.609972
 20
-66.85008
 30
0.0
 11
-1.655318
 21
-66.769889
 31
0.0
  0
LINE
  8
0
 10
-1.578469
 20
-66.936953
 30
0.0
 11
-1.609972
 21
-66.85008
 31
0.0
  0
LINE
  8
0
 10
-1.557466
 20
-67.027645
 30
0.0
 11
-1.578469
 21
-66.936953
 31
0.0
  0
LINE
  8
0
 10
-1.554125
 20
-67.121679
 30
0.0
 11
-1.557466
 21
-67.027645
 31
0.0
  0
LINE
  8
0
 10
-1.557466
 20
-67.211893
 30
0.0
 11
-1.554125
 21
-67.121679
 31
0.0
  0
LINE
  8
0
 10
-1.578469
 20
-67.302586
 30
0.0
 11
-1.557466
 21
-67.211893
 31
0.0
  0
LINE
  8
0
 10
-1.609972
 20
-67.389459
 30
0.0
 11
-1.578469
 21
-67.302586
 31
0.0
  0
LINE
  8
0
 10
-1.655318
 20
-67.472991
 30
0.0
 11
-1.609972
 21
-67.389459
 31
0.0
  0
LINE
  8
0
 10
-1.710688
 20
-67.546022
 30
0.0
 11
-1.655318
 21
-67.472991
 31
0.0
  0
LINE
  8
0
 10
-1.777037
 20
-67.612371
 30
0.0
 11
-1.710688
 21
-67.546022
 31
0.0
  0
LINE
  8
0
 10
-1.850068
 20
-67.667741
 30
0.0
 11
-1.777037
 21
-67.612371
 31
0.0
  0
LINE
  8
0
 10
-1.9336
 20
-67.713087
 30
0.0
 11
-1.850068
 21
-67.667741
 31
0.0
  0
LINE
  8
0
 10
-2.020474
 20
-67.74459
 30
0.0
 11
-1.9336
 21
-67.713087
 31
0.0
  0
LINE
  8
0
 10
-2.111166
 20
-67.765115
 30
0.0
 11
-2.020474
 21
-67.74459
 31
0.0
  0
LINE
  8
0
 10
-2.20138
 20
-67.768934
 30
0.0
 11
-2.111166
 21
-67.765115
 31
0.0
  0
LINE
  8
0
 10
-2.295414
 20
-67.765115
 30
0.0
 11
-2.20138
 21
-67.768934
 31
0.0
  0
LINE
  8
0
 10
-2.386106
 20
-67.74459
 30
0.0
 11
-2.295414
 21
-67.765115
 31
0.0
  0
LINE
  8
0
 10
-2.47298
 20
-67.713087
 30
0.0
 11
-2.386106
 21
-67.74459
 31
0.0
  0
LINE
  8
0
 10
-2.55317
 20
-67.667741
 30
0.0
 11
-2.47298
 21
-67.713087
 31
0.0
  0
LINE
  8
0
 10
-2.629543
 20
-67.612371
 30
0.0
 11
-2.55317
 21
-67.667741
 31
0.0
  0
LINE
  8
0
 10
-2.692073
 20
-67.546022
 30
0.0
 11
-2.629543
 21
-67.612371
 31
0.0
  0
LINE
  8
0
 10
-2.74792
 20
-67.472991
 30
0.0
 11
-2.692073
 21
-67.546022
 31
0.0
  0
LINE
  8
0
 10
-2.793266
 20
-67.389459
 30
0.0
 11
-2.74792
 21
-67.472991
 31
0.0
  0
LINE
  8
0
 10
-2.828111
 20
-67.302586
 30
0.0
 11
-2.793266
 21
-67.389459
 31
0.0
  0
LINE
  8
0
 10
-2.845295
 20
-67.211893
 30
0.0
 11
-2.828111
 21
-67.302586
 31
0.0
  0
LINE
  8
0
 10
-2.852454
 20
-67.121679
 30
0.0
 11
-2.845295
 21
-67.211893
 31
0.0
  0
LINE
  8
0
 10
-2.845295
 20
-67.027645
 30
0.0
 11
-2.852454
 21
-67.121679
 31
0.0
  0
LINE
  8
0
 10
-2.828111
 20
-66.936953
 30
0.0
 11
-2.845295
 21
-67.027645
 31
0.0
  0
LINE
  8
0
 10
-2.793266
 20
-66.85008
 30
0.0
 11
-2.828111
 21
-66.936953
 31
0.0
  0
LINE
  8
0
 10
-2.74792
 20
-66.769889
 30
0.0
 11
-2.793266
 21
-66.85008
 31
0.0
  0
LINE
  8
0
 10
-2.692073
 20
-66.693516
 30
0.0
 11
-2.74792
 21
-66.769889
 31
0.0
  0
LINE
  8
0
 10
-2.629543
 20
-66.630987
 30
0.0
 11
-2.692073
 21
-66.693516
 31
0.0
  0
LINE
  8
0
 10
-2.55317
 20
-66.575139
 30
0.0
 11
-2.629543
 21
-66.630987
 31
0.0
  0
LINE
  8
0
 10
-2.47298
 20
-66.529793
 30
0.0
 11
-2.55317
 21
-66.575139
 31
0.0
  0
LINE
  8
0
 10
-2.386106
 20
-66.49829
 30
0.0
 11
-2.47298
 21
-66.529793
 31
0.0
  0
LINE
  8
0
 10
-2.295414
 20
-66.477765
 30
0.0
 11
-2.386106
 21
-66.49829
 31
0.0
  0
LINE
  8
0
 10
-2.20138
 20
-66.470605
 30
0.0
 11
-2.295414
 21
-66.477765
 31
0.0
  0
LINE
  8
0
 10
-2.111166
 20
-66.477765
 30
0.0
 11
-2.20138
 21
-66.470605
 31
0.0
  0
LINE
  8
0
 10
-2.020474
 20
-66.49829
 30
0.0
 11
-2.111166
 21
-66.477765
 31
0.0
  0
LINE
  8
0
 10
-1.9336
 20
-66.529793
 30
0.0
 11
-2.020474
 21
-66.49829
 31
0.0
  0
LINE
  8
0
 10
-1.850068
 20
-66.575139
 30
0.0
 11
-1.9336
 21
-66.529793
 31
0.0
  0
LINE
  8
0
 10
-1.777037
 20
-66.630987
 30
0.0
 11
-1.850068
 21
-66.575139
 31
0.0
  0
LINE
  8
0
 10
-1.710688
 20
-66.693516
 30
0.0
 11
-1.777037
 21
-66.630987
 31
0.0
  0
LINE
  8
0
 10
-30.940283
 20
-16.798147
 30
0.0
 11
-26.615604
 21
-12.473469
 31
0.0
  0
LINE
  8
0
 10
-30.940283
 20
-23.869215
 30
0.0
 11
-19.544536
 21
-12.473469
 31
0.0
  0
LINE
  8
0
 10
-30.940283
 20
-30.940283
 30
0.0
 11
-12.473469
 21
-12.473469
 31
0.0
  0
LINE
  8
0
 10
-25.402401
 20
-32.473469
 30
0.0
 11
-5.402401
 21
-12.473469
 31
0.0
  0
LINE
  8
0
 10
-18.331333
 20
-32.473469
 30
0.0
 11
1.668667
 21
-12.473469
 31
0.0
  0
LINE
  8
0
 10
-11.260265
 20
-32.473469
 30
0.0
 11
8.739735
 21
-12.473469
 31
0.0
  0
LINE
  8
0
 10
-4.189197
 20
-32.473469
 30
0.0
 11
15.810803
 21
-12.473469
 31
0.0
  0
LINE
  8
0
 10
2.88187
 20
-32.473469
 30
0.0
 11
22.88187
 21
-12.473469
 31
0.0
  0
LINE
  8
0
 10
9.952938
 20
-32.473469
 30
0.0
 11
29.952938
 21
-12.473469
 31
0.0
  0
LINE
  8
0
 10
17.024006
 20
-32.473469
 30
0.0
 11
37.024006
 21
-12.473469
 31
0.0
  0
LINE
  8
0
 10
24.095074
 20
-32.473469
 30
0.0
 11
44.095074
 21
-12.473469
 31
0.0
  0
LINE
  8
0
 10
31.166142
 20
-32.473469
 30
0.0
 11
51.166142
 21
-12.473469
 31
0.0
  0
LINE
  8
0
 10
38.237209
 20
-32.473469
 30
0.0
 11
58.237209
 21
-12.473469
 31
0.0
  0
LINE
  8
0
 10
45.308277
 20
-32.473469
 30
0.0
 11
65.308277
 21
-12.473469
 31
0.0
  0
LINE
  8
0
 10
52.379345
 20
-32.473469
 30
0.0
 11
72.379345
 21
-12.473469
 31
0.0
  0
LINE
  8
0
 10
59.450413
 20
-32.473469
 30
0.0
 11
79.450413
 21
-12.473469
 31
0.0
  0
LINE
  8
0
 10
66.521481
 20
-32.473469
 30
0.0
 11
86.521481
 21
-12.473469
 31
0.0
  0
LINE
  8
0
 10
73.592549
 20
-32.473469
 30
0.0
 11
93.592549
 21
-12.473469
 31
0.0
  0
LINE
  8
0
 10
80.663616
 20
-32.473469
 30
0.0
 11
100.663616
 21
-12.473469
 31
0.0
  0
LINE
  8
0
 10
87.734684
 20
-32.473469
 30
0.0
 11
107.734684
 21
-12.473469
 31
0.0
  0
LINE
  8
0
 10
94.805752
 20
-32.473469
 30
0.0
 11
114.805752
 21
-12.473469
 31
0.0
  0
LINE
  8
0
 10
101.87682
 20
-32.473469
 30
0.0
 11
119.059717
 21
-15.290571
 31
0.0
  0
LINE
  8
0
 10
108.947888
 20
-32.473469
 30
0.0
 11
119.059717
 21
-22.361639
 31
0.0
  0
LINE
  8
0
 10
116.018955
 20
-32.473469
 30
0.0
 11
119.059717
 21
-29.432707
 31
0.0
  0
ENDSEC
  0
EOF
