  0
SECTION
  2
HEADER
  9
$ACADVER
  1
AC1009
  9
$INSBASE
 10
0.0
 20
0.0
 30
0.0
  9
$EXTMIN
 10
835.039764
 20
279.722317
 30
0.0
  9
$EXTMAX
 10
955.039764
 20
456.864907
 30
0.0
  9
$LIMMIN
 10
835.039764
 20
279.722317
  9
$LIMMAX
 10
955.039764
 20
456.864907
  9
$ORTHOMODE
 70
     0
  9
$REGENMODE
 70
     1
  9
$FILLMODE
 70
     1
  9
$QTEXTMODE
 70
     0
  9
$MIRRTEXT
 70
     1
  9
$DRAGMODE
 70
     2
  9
$LTSCALE
 40
1.0
  9
$OSMODE
 70
     0
  9
$ATTMODE
 70
     1
  9
$TEXTSIZE
 40
3.5
  9
$TRACEWID
 40
0.5
  9
$TEXTSTYLE
  7
STANDARD
  9
$CLAYER
  8
0
  9
$CELTYPE
  6
BYLAYER
  9
$CECOLOR
 62
   256
  9
$DIMSCALE
 40
1.0
  9
$DIMASZ
 40
0.18
  9
$DIMEXO
 40
0.0625
  9
$DIMDLI
 40
0.38
  9
$DIMRND
 40
0.0
  9
$DIMDLE
 40
0.0
  9
$DIMEXE
 40
0.18
  9
$DIMTP
 40
0.0
  9
$DIMTM
 40
0.0
  9
$DIMTXT
 40
0.18
  9
$DIMCEN
 40
0.09
  9
$DIMTSZ
 40
0.0
  9
$DIMTOL
 70
     0
  9
$DIMLIM
 70
     0
  9
$DIMTIH
 70
     1
  9
$DIMTOH
 70
     1
  9
$DIMSE1
 70
     0
  9
$DIMSE2
 70
     0
  9
$DIMTAD
 70
     0
  9
$DIMZIN
 70
     0
  9
$DIMBLK
  1

  9
$DIMASO
 70
     1
  9
$DIMSHO
 70
     1
  9
$DIMPOST
  1

  9
$DIMAPOST
  1

  9
$DIMALT
 70
     0
  9
$DIMALTD
 70
     2
  9
$DIMALTF
 40
25.4
  9
$DIMLFAC
 40
1.0
  9
$DIMTOFL
 70
     0
  9
$DIMTVP
 40
0.0
  9
$DIMTIX
 70
     0
  9
$DIMSOXD
 70
     0
  9
$DIMSAH
 70
     0
  9
$DIMBLK1
  1

  9
$DIMBLK2
  1

  9
$DIMSTYLE
  2
*UNNAMED
  9
$DIMCLRD
 70
     0
  9
$DIMCLRE
 70
     0
  9
$DIMCLRT
 70
     0
  9
$DIMTFAC
 40
1.0
  9
$DIMGAP
 40
0.09
  9
$LUNITS
 70
     2
  9
$LUPREC
 70
     4
  9
$SKETCHINC
 40
0.1
  9
$FILLETRAD
 40
2.0
  9
$AUNITS
 70
     0
  9
$AUPREC
 70
     0
  9
$MENU
  1
ACAD
  9
$ELEVATION
 40
0.0
  9
$PELEVATION
 40
0.0
  9
$THICKNESS
 40
0.0
  9
$LIMCHECK
 70
     0
  9
$BLIPMODE
 70
     1
  9
$CHAMFERA
 40
0.0
  9
$CHAMFERB
 40
0.0
  9
$SKPOLY
 70
     0
  9
$TDCREATE
 40
2450953.669778819
  9
$TDUPDATE
 40
2450953.670935185
  9
$TDINDWG
 40
0.0007259259
  9
$TDUSRTIMER
 40
0.0007259259
  9
$USRTIMER
 70
     1
  9
$ANGBASE
 50
0.0
  9
$ANGDIR
 70
     0
  9
$PDMODE
 70
     0
  9
$PDSIZE
 40
0.0
  9
$PLINEWID
 40
0.0
  9
$COORDS
 70
     2
  9
$SPLFRAME
 70
     0
  9
$SPLINETYPE
 70
     6
  9
$SPLINESEGS
 70
     8
  9
$ATTDIA
 70
     0
  9
$ATTREQ
 70
     1
  9
$HANDLING
 70
     0
  9
$HANDSEED
  5
0
  9
$SURFTAB1
 70
     6
  9
$SURFTAB2
 70
     6
  9
$SURFTYPE
 70
     6
  9
$SURFU
 70
     6
  9
$SURFV
 70
     6
  9
$UCSNAME
  2

  9
$UCSORG
 10
0.0
 20
0.0
 30
0.0
  9
$UCSXDIR
 10
1.0
 20
0.0
 30
0.0
  9
$UCSYDIR
 10
0.0
 20
1.0
 30
0.0
  9
$PUCSNAME
  2

  9
$PUCSORG
 10
0.0
 20
0.0
 30
0.0
  9
$PUCSXDIR
 10
1.0
 20
0.0
 30
0.0
  9
$PUCSYDIR
 10
0.0
 20
1.0
 30
0.0
  9
$USERI1
 70
     0
  9
$USERI2
 70
     0
  9
$USERI3
 70
     0
  9
$USERI4
 70
     0
  9
$USERI5
 70
     0
  9
$USERR1
 40
0.0
  9
$USERR2
 40
0.0
  9
$USERR3
 40
0.0
  9
$USERR4
 40
0.0
  9
$USERR5
 40
0.0
  9
$WORLDVIEW
 70
     1
  9
$SHADEDGE
 70
     3
  9
$SHADEDIF
 70
    70
  9
$TILEMODE
 70
     1
  9
$MAXACTVP
 70
    16
  9
$PINSBASE
 10
0.0
 20
0.0
 30
0.0
  9
$PLIMCHECK
 70
     0
  9
$PEXTMIN
 10
1.000000E+20
 20
1.000000E+20
 30
1.000000E+20
  9
$PEXTMAX
 10
-1.000000E+20
 20
-1.000000E+20
 30
-1.000000E+20
  9
$PLIMMIN
 10
0.0
 20
0.0
  9
$PLIMMAX
 10
420.0
 20
297.0
  9
$UNITMODE
 70
     0
  9
$VISRETAIN
 70
     0
  9
$PLINEGEN
 70
     0
  9
$PSLTSCALE
 70
     1
  9
$TREEDEPTH
 70
  3020
  9
$DWGCODEPAGE
  3
iso8859-1
  0
ENDSEC
  0
SECTION
  2
TABLES
  0
TABLE
  2
VPORT
 70
     2
  0
VPORT
  2
*ACTIVE
 70
     0
 10
0.0
 20
0.0
 11
1.0
 21
1.0
 12
1039.285239
 22
349.129378
 13
0.0
 23
0.0
 14
1.0
 24
1.0
 15
0.0
 25
0.0
 16
0.0
 26
0.0
 36
1.0
 17
0.0
 27
0.0
 37
0.0
 40
271.754378
 41
1.748359
 42
50.0
 43
0.0
 44
0.0
 50
0.0
 51
0.0
 71
     0
 72
   100
 73
     1
 74
     0
 75
     0
 76
     0
 77
     0
 78
     0
  0
ENDTAB
  0
TABLE
  2
LTYPE
 70
     1
  0
LTYPE
  2
CONTINUOUS
 70
    64
  3
Solid line
 72
    65
 73
     0
 40
0.0
  0
ENDTAB
  0
TABLE
  2
LAYER
 70
     1
  0
LAYER
  2
0
 70
    64
 62
     7
  6
CONTINUOUS
  0
ENDTAB
  0
TABLE
  2
STYLE
 70
     1
  0
STYLE
  2
STANDARD
 70
     0
 40
0.0
 41
1.0
 50
0.0
 71
     0
 42
3.5
  3
txt
  4

  0
ENDTAB
  0
TABLE
  2
VIEW
 70
     0
  0
ENDTAB
  0
TABLE
  2
UCS
 70
     0
  0
ENDTAB
  0
TABLE
  2
APPID
 70
     1
  0
APPID
  2
ACAD
 70
    64
  0
ENDTAB
  0
TABLE
  2
DIMSTYLE
 70
     0
  0
ENDTAB
  0
ENDSEC
  0
SECTION
  2
BLOCKS
  0
ENDSEC
  0
SECTION
  2
ENTITIES
  0
LINE
  8
0
 10
835.039764
 20
436.864907
 30
0.0
 11
855.039764
 21
436.864907
 31
0.0
  0
LINE
  8
0
 10
935.039764
 20
436.864907
 30
0.0
 11
935.039764
 21
416.864907
 31
0.0
  0
LINE
  8
0
 10
935.039764
 20
436.864907
 30
0.0
 11
955.039764
 21
436.864907
 31
0.0
  0
LINE
  8
0
 10
935.039764
 20
416.864907
 30
0.0
 11
875.039764
 21
416.864907
 31
0.0
  0
LINE
  8
0
 10
875.039764
 20
416.864907
 30
0.0
 11
875.039764
 21
279.722317
 31
0.0
  0
LINE
  8
0
 10
875.039764
 20
279.722317
 30
0.0
 11
855.039764
 21
279.722317
 31
0.0
  0
LINE
  8
0
 10
855.039764
 20
279.722317
 30
0.0
 11
855.039764
 21
436.864907
 31
0.0
  0
LINE
  8
0
 10
855.039764
 20
436.864907
 30
0.0
 11
935.039764
 21
436.864907
 31
0.0
  0
LINE
  8
0
 10
835.039764
 20
453.202102
 30
0.0
 11
838.702569
 21
456.864907
 31
0.0
  0
LINE
  8
0
 10
835.039764
 20
446.131034
 30
0.0
 11
845.773637
 21
456.864907
 31
0.0
  0
LINE
  8
0
 10
835.039764
 20
439.059966
 30
0.0
 11
852.844705
 21
456.864907
 31
0.0
  0
LINE
  8
0
 10
839.915773
 20
436.864907
 30
0.0
 11
859.915773
 21
456.864907
 31
0.0
  0
LINE
  8
0
 10
846.986841
 20
436.864907
 30
0.0
 11
866.986841
 21
456.864907
 31
0.0
  0
LINE
  8
0
 10
854.057908
 20
436.864907
 30
0.0
 11
874.057908
 21
456.864907
 31
0.0
  0
LINE
  8
0
 10
861.128976
 20
436.864907
 30
0.0
 11
881.128976
 21
456.864907
 31
0.0
  0
LINE
  8
0
 10
868.200044
 20
436.864907
 30
0.0
 11
888.200044
 21
456.864907
 31
0.0
  0
LINE
  8
0
 10
875.271112
 20
436.864907
 30
0.0
 11
895.271112
 21
456.864907
 31
0.0
  0
LINE
  8
0
 10
882.34218
 20
436.864907
 30
0.0
 11
902.34218
 21
456.864907
 31
0.0
  0
LINE
  8
0
 10
889.413247
 20
436.864907
 30
0.0
 11
909.413247
 21
456.864907
 31
0.0
  0
LINE
  8
0
 10
896.484315
 20
436.864907
 30
0.0
 11
916.484315
 21
456.864907
 31
0.0
  0
LINE
  8
0
 10
903.555383
 20
436.864907
 30
0.0
 11
923.555383
 21
456.864907
 31
0.0
  0
LINE
  8
0
 10
910.626451
 20
436.864907
 30
0.0
 11
930.626451
 21
456.864907
 31
0.0
  0
LINE
  8
0
 10
917.697519
 20
436.864907
 30
0.0
 11
937.697519
 21
456.864907
 31
0.0
  0
LINE
  8
0
 10
924.768587
 20
436.864907
 30
0.0
 11
944.768587
 21
456.864907
 31
0.0
  0
LINE
  8
0
 10
931.839654
 20
436.864907
 30
0.0
 11
951.839654
 21
456.864907
 31
0.0
  0
LINE
  8
0
 10
938.910722
 20
436.864907
 30
0.0
 11
955.039764
 21
452.993949
 31
0.0
  0
LINE
  8
0
 10
945.98179
 20
436.864907
 30
0.0
 11
955.039764
 21
445.922881
 31
0.0
  0
LINE
  8
0
 10
953.052858
 20
436.864907
 30
0.0
 11
955.039764
 21
438.851813
 31
0.0
  0
LINE
  8
0
 10
910.26308
 20
344.304692
 30
0.0
 11
907.564585
 21
344.304692
 31
0.0
  0
LINE
  8
0
 10
907.564585
 20
344.304692
 30
0.0
 11
907.564585
 21
340.206025
 31
0.0
  0
LINE
  8
0
 10
907.564585
 20
340.206025
 30
0.0
 11
910.26308
 21
340.206025
 31
0.0
  0
LINE
  8
0
 10
910.26308
 20
340.206025
 30
0.0
 11
910.26308
 21
344.304692
 31
0.0
  0
LINE
  8
0
 10
911.662757
 20
297.705474
 30
0.0
 11
911.662757
 21
302.204614
 31
0.0
  0
LINE
  8
0
 10
911.662757
 20
302.204614
 30
0.0
 11
911.655836
 21
302.318823
 31
0.0
  0
LINE
  8
0
 10
911.655836
 20
302.318823
 30
0.0
 11
911.638531
 21
302.429076
 31
0.0
  0
LINE
  8
0
 10
911.638531
 20
302.429076
 30
0.0
 11
911.607383
 21
302.536363
 31
0.0
  0
LINE
  8
0
 10
911.607383
 20
302.536363
 30
0.0
 11
911.565853
 21
302.64019
 31
0.0
  0
LINE
  8
0
 10
911.565853
 20
302.64019
 30
0.0
 11
911.510973
 21
302.7366
 31
0.0
  0
LINE
  8
0
 10
911.510973
 20
302.7366
 30
0.0
 11
911.445217
 21
302.830044
 31
0.0
  0
LINE
  8
0
 10
911.445217
 20
302.830044
 30
0.0
 11
911.369077
 21
302.913105
 31
0.0
  0
LINE
  8
0
 10
911.369077
 20
302.913105
 30
0.0
 11
911.286016
 21
302.985783
 31
0.0
  0
LINE
  8
0
 10
911.286016
 20
302.985783
 30
0.0
 11
911.196528
 21
303.051045
 31
0.0
  0
LINE
  8
0
 10
911.196528
 20
303.051045
 30
0.0
 11
911.096162
 21
303.106419
 31
0.0
  0
LINE
  8
0
 10
911.096162
 20
303.106419
 30
0.0
 11
910.992336
 21
303.14795
 31
0.0
  0
LINE
  8
0
 10
910.992336
 20
303.14795
 30
0.0
 11
910.885543
 21
303.179098
 31
0.0
  0
LINE
  8
0
 10
910.885543
 20
303.179098
 30
0.0
 11
910.774795
 21
303.199863
 31
0.0
  0
LINE
  8
0
 10
910.774795
 20
303.199863
 30
0.0
 11
910.664047
 21
303.206785
 31
0.0
  0
LINE
  8
0
 10
910.664047
 20
303.206785
 30
0.0
 11
907.163618
 21
303.206785
 31
0.0
  0
LINE
  8
0
 10
907.163618
 20
303.206785
 30
0.0
 11
907.05287
 21
303.199863
 31
0.0
  0
LINE
  8
0
 10
907.05287
 20
303.199863
 30
0.0
 11
906.942616
 21
303.179098
 31
0.0
  0
LINE
  8
0
 10
906.942616
 20
303.179098
 30
0.0
 11
906.831868
 21
303.14795
 31
0.0
  0
LINE
  8
0
 10
906.831868
 20
303.14795
 30
0.0
 11
906.728042
 21
303.106419
 31
0.0
  0
LINE
  8
0
 10
906.728042
 20
303.106419
 30
0.0
 11
906.631632
 21
303.051045
 31
0.0
  0
LINE
  8
0
 10
906.631632
 20
303.051045
 30
0.0
 11
906.541649
 21
302.985783
 31
0.0
  0
LINE
  8
0
 10
906.541649
 20
302.985783
 30
0.0
 11
906.455127
 21
302.913105
 31
0.0
  0
LINE
  8
0
 10
906.455127
 20
302.913105
 30
0.0
 11
906.382449
 21
302.830044
 31
0.0
  0
LINE
  8
0
 10
906.382449
 20
302.830044
 30
0.0
 11
906.316692
 21
302.7366
 31
0.0
  0
LINE
  8
0
 10
906.316692
 20
302.7366
 30
0.0
 11
906.261813
 21
302.64019
 31
0.0
  0
LINE
  8
0
 10
906.261813
 20
302.64019
 30
0.0
 11
906.220282
 21
302.536363
 31
0.0
  0
LINE
  8
0
 10
906.220282
 20
302.536363
 30
0.0
 11
906.189134
 21
302.429076
 31
0.0
  0
LINE
  8
0
 10
906.189134
 20
302.429076
 30
0.0
 11
906.168369
 21
302.318823
 31
0.0
  0
LINE
  8
0
 10
906.168369
 20
302.318823
 30
0.0
 11
906.164908
 21
302.204614
 31
0.0
  0
LINE
  8
0
 10
906.164908
 20
302.204614
 30
0.0
 11
906.164908
 21
297.705474
 31
0.0
  0
LINE
  8
0
 10
906.164908
 20
297.705474
 30
0.0
 11
903.597432
 21
292.204164
 31
0.0
  0
LINE
  8
0
 10
903.597432
 20
292.204164
 30
0.0
 11
877.237915
 21
292.204164
 31
0.0
  0
LINE
  8
0
 10
877.237915
 20
292.204164
 30
0.0
 11
877.237915
 21
343.903724
 31
0.0
  0
LINE
  8
0
 10
892.238836
 20
343.903724
 30
0.0
 11
906.164908
 21
344.304692
 31
0.0
  0
LINE
  8
0
 10
906.164908
 20
344.304692
 30
0.0
 11
906.164908
 21
339.805552
 31
0.0
  0
LINE
  8
0
 10
906.164908
 20
339.805552
 30
0.0
 11
906.168369
 21
339.691343
 31
0.0
  0
LINE
  8
0
 10
906.168369
 20
339.691343
 30
0.0
 11
906.189134
 21
339.580595
 31
0.0
  0
LINE
  8
0
 10
906.189134
 20
339.580595
 30
0.0
 11
906.220282
 21
339.473803
 31
0.0
  0
LINE
  8
0
 10
906.220282
 20
339.473803
 30
0.0
 11
906.261813
 21
339.369976
 31
0.0
  0
LINE
  8
0
 10
906.261813
 20
339.369976
 30
0.0
 11
906.316692
 21
339.273072
 31
0.0
  0
LINE
  8
0
 10
906.316692
 20
339.273072
 30
0.0
 11
906.382449
 21
339.179628
 31
0.0
  0
LINE
  8
0
 10
906.382449
 20
339.179628
 30
0.0
 11
906.455127
 21
339.097061
 31
0.0
  0
LINE
  8
0
 10
906.455127
 20
339.097061
 30
0.0
 11
906.541649
 21
339.024383
 31
0.0
  0
LINE
  8
0
 10
906.541649
 20
339.024383
 30
0.0
 11
906.631632
 21
338.958626
 31
0.0
  0
LINE
  8
0
 10
906.631632
 20
338.958626
 30
0.0
 11
906.728042
 21
338.903252
 31
0.0
  0
LINE
  8
0
 10
906.728042
 20
338.903252
 30
0.0
 11
906.831868
 21
338.861722
 31
0.0
  0
LINE
  8
0
 10
906.831868
 20
338.861722
 30
0.0
 11
906.942616
 21
338.831068
 31
0.0
  0
LINE
  8
0
 10
906.942616
 20
338.831068
 30
0.0
 11
907.05287
 21
338.810303
 31
0.0
  0
LINE
  8
0
 10
907.05287
 20
338.810303
 30
0.0
 11
907.163618
 21
338.803381
 31
0.0
  0
LINE
  8
0
 10
907.163618
 20
338.803381
 30
0.0
 11
910.664047
 21
338.803381
 31
0.0
  0
LINE
  8
0
 10
910.664047
 20
338.803381
 30
0.0
 11
910.774795
 21
338.810303
 31
0.0
  0
LINE
  8
0
 10
910.774795
 20
338.810303
 30
0.0
 11
910.885543
 21
338.831068
 31
0.0
  0
LINE
  8
0
 10
910.885543
 20
338.831068
 30
0.0
 11
910.992336
 21
338.861722
 31
0.0
  0
LINE
  8
0
 10
910.992336
 20
338.861722
 30
0.0
 11
911.096162
 21
338.903252
 31
0.0
  0
LINE
  8
0
 10
911.096162
 20
338.903252
 30
0.0
 11
911.196528
 21
338.958626
 31
0.0
  0
LINE
  8
0
 10
911.196528
 20
338.958626
 30
0.0
 11
911.286016
 21
339.024383
 31
0.0
  0
LINE
  8
0
 10
911.286016
 20
339.024383
 30
0.0
 11
911.369077
 21
339.097061
 31
0.0
  0
LINE
  8
0
 10
911.369077
 20
339.097061
 30
0.0
 11
911.445217
 21
339.179628
 31
0.0
  0
LINE
  8
0
 10
911.445217
 20
339.179628
 30
0.0
 11
911.510973
 21
339.273072
 31
0.0
  0
LINE
  8
0
 10
911.510973
 20
339.273072
 30
0.0
 11
911.565853
 21
339.369976
 31
0.0
  0
LINE
  8
0
 10
911.565853
 20
339.369976
 30
0.0
 11
911.607383
 21
339.473803
 31
0.0
  0
LINE
  8
0
 10
911.607383
 20
339.473803
 30
0.0
 11
911.638531
 21
339.580595
 31
0.0
  0
LINE
  8
0
 10
911.638531
 20
339.580595
 30
0.0
 11
911.655836
 21
339.691343
 31
0.0
  0
LINE
  8
0
 10
911.655836
 20
339.691343
 30
0.0
 11
911.662757
 21
339.805552
 31
0.0
  0
LINE
  8
0
 10
911.662757
 20
339.805552
 30
0.0
 11
911.662757
 21
344.304692
 31
0.0
  0
LINE
  8
0
 10
911.662757
 20
344.304692
 30
0.0
 11
913.33881
 21
344.304692
 31
0.0
  0
LINE
  8
0
 10
913.33881
 20
344.304692
 30
0.0
 11
913.33881
 21
345.703874
 31
0.0
  0
LINE
  8
0
 10
913.33881
 20
345.703874
 30
0.0
 11
911.662757
 21
345.703874
 31
0.0
  0
LINE
  8
0
 10
911.662757
 20
345.703874
 30
0.0
 11
911.662757
 21
350.203508
 31
0.0
  0
LINE
  8
0
 10
911.662757
 20
350.203508
 30
0.0
 11
911.655836
 21
350.317223
 31
0.0
  0
LINE
  8
0
 10
911.655836
 20
350.317223
 30
0.0
 11
911.638531
 21
350.427971
 31
0.0
  0
LINE
  8
0
 10
911.638531
 20
350.427971
 30
0.0
 11
911.607383
 21
350.535258
 31
0.0
  0
LINE
  8
0
 10
911.607383
 20
350.535258
 30
0.0
 11
911.565853
 21
350.63859
 31
0.0
  0
LINE
  8
0
 10
911.565853
 20
350.63859
 30
0.0
 11
911.510973
 21
350.735494
 31
0.0
  0
LINE
  8
0
 10
911.510973
 20
350.735494
 30
0.0
 11
911.445217
 21
350.828938
 31
0.0
  0
LINE
  8
0
 10
911.445217
 20
350.828938
 30
0.0
 11
911.369077
 21
350.911505
 31
0.0
  0
LINE
  8
0
 10
911.369077
 20
350.911505
 30
0.0
 11
911.286016
 21
350.987644
 31
0.0
  0
LINE
  8
0
 10
911.286016
 20
350.987644
 30
0.0
 11
911.196528
 21
351.04994
 31
0.0
  0
LINE
  8
0
 10
911.196528
 20
351.04994
 30
0.0
 11
911.096162
 21
351.105314
 31
0.0
  0
LINE
  8
0
 10
911.096162
 20
351.105314
 30
0.0
 11
910.992336
 21
351.150305
 31
0.0
  0
LINE
  8
0
 10
910.992336
 20
351.150305
 30
0.0
 11
910.885543
 21
351.181453
 31
0.0
  0
LINE
  8
0
 10
910.885543
 20
351.181453
 30
0.0
 11
910.774795
 21
351.198757
 31
0.0
  0
LINE
  8
0
 10
910.774795
 20
351.198757
 30
0.0
 11
910.664047
 21
351.205679
 31
0.0
  0
LINE
  8
0
 10
910.664047
 20
351.205679
 30
0.0
 11
907.163618
 21
351.205679
 31
0.0
  0
LINE
  8
0
 10
907.163618
 20
351.205679
 30
0.0
 11
907.05287
 21
351.198757
 31
0.0
  0
LINE
  8
0
 10
907.05287
 20
351.198757
 30
0.0
 11
906.942616
 21
351.181453
 31
0.0
  0
LINE
  8
0
 10
906.942616
 20
351.181453
 30
0.0
 11
906.831868
 21
351.150305
 31
0.0
  0
LINE
  8
0
 10
906.831868
 20
351.150305
 30
0.0
 11
906.728042
 21
351.105314
 31
0.0
  0
LINE
  8
0
 10
906.728042
 20
351.105314
 30
0.0
 11
906.631632
 21
351.04994
 31
0.0
  0
LINE
  8
0
 10
906.631632
 20
351.04994
 30
0.0
 11
906.541649
 21
350.987644
 31
0.0
  0
LINE
  8
0
 10
906.541649
 20
350.987644
 30
0.0
 11
906.455127
 21
350.911505
 31
0.0
  0
LINE
  8
0
 10
906.455127
 20
350.911505
 30
0.0
 11
906.382449
 21
350.828938
 31
0.0
  0
LINE
  8
0
 10
906.382449
 20
350.828938
 30
0.0
 11
906.316692
 21
350.735494
 31
0.0
  0
LINE
  8
0
 10
906.316692
 20
350.735494
 30
0.0
 11
906.261813
 21
350.63859
 31
0.0
  0
LINE
  8
0
 10
906.261813
 20
350.63859
 30
0.0
 11
906.220282
 21
350.535258
 31
0.0
  0
LINE
  8
0
 10
906.220282
 20
350.535258
 30
0.0
 11
906.189134
 21
350.427971
 31
0.0
  0
LINE
  8
0
 10
906.189134
 20
350.427971
 30
0.0
 11
906.168369
 21
350.317223
 31
0.0
  0
LINE
  8
0
 10
906.168369
 20
350.317223
 30
0.0
 11
906.164908
 21
350.203508
 31
0.0
  0
LINE
  8
0
 10
906.164908
 20
350.203508
 30
0.0
 11
906.164908
 21
345.703874
 31
0.0
  0
LINE
  8
0
 10
906.164908
 20
345.703874
 30
0.0
 11
892.238836
 21
346.104842
 31
0.0
  0
LINE
  8
0
 10
892.238836
 20
346.104842
 30
0.0
 11
877.237915
 21
346.104842
 31
0.0
  0
LINE
  8
0
 10
877.237915
 20
346.104842
 30
0.0
 11
877.237915
 21
397.804896
 31
0.0
  0
LINE
  8
0
 10
877.237915
 20
397.804896
 30
0.0
 11
903.597432
 21
397.804896
 31
0.0
  0
LINE
  8
0
 10
903.597432
 20
397.804896
 30
0.0
 11
906.164908
 21
392.303091
 31
0.0
  0
LINE
  8
0
 10
906.164908
 20
392.303091
 30
0.0
 11
906.164908
 21
387.803952
 31
0.0
  0
LINE
  8
0
 10
906.164908
 20
387.803952
 30
0.0
 11
906.168369
 21
387.693699
 31
0.0
  0
LINE
  8
0
 10
906.168369
 20
387.693699
 30
0.0
 11
906.189134
 21
387.58295
 31
0.0
  0
LINE
  8
0
 10
906.189134
 20
387.58295
 30
0.0
 11
906.220282
 21
387.475663
 31
0.0
  0
LINE
  8
0
 10
906.220282
 20
387.475663
 30
0.0
 11
906.261813
 21
387.372331
 31
0.0
  0
LINE
  8
0
 10
906.261813
 20
387.372331
 30
0.0
 11
906.316692
 21
387.271966
 31
0.0
  0
LINE
  8
0
 10
906.316692
 20
387.271966
 30
0.0
 11
906.382449
 21
387.181983
 31
0.0
  0
LINE
  8
0
 10
906.382449
 20
387.181983
 30
0.0
 11
906.455127
 21
387.095461
 31
0.0
  0
LINE
  8
0
 10
906.455127
 20
387.095461
 30
0.0
 11
906.541649
 21
387.023277
 31
0.0
  0
LINE
  8
0
 10
906.541649
 20
387.023277
 30
0.0
 11
906.631632
 21
386.957521
 31
0.0
  0
LINE
  8
0
 10
906.631632
 20
386.957521
 30
0.0
 11
906.728042
 21
386.902147
 31
0.0
  0
LINE
  8
0
 10
906.728042
 20
386.902147
 30
0.0
 11
906.831868
 21
386.860616
 31
0.0
  0
LINE
  8
0
 10
906.831868
 20
386.860616
 30
0.0
 11
906.942616
 21
386.829468
 31
0.0
  0
LINE
  8
0
 10
906.942616
 20
386.829468
 30
0.0
 11
907.05287
 21
386.812164
 31
0.0
  0
LINE
  8
0
 10
907.05287
 20
386.812164
 30
0.0
 11
907.163618
 21
386.805242
 31
0.0
  0
LINE
  8
0
 10
907.163618
 20
386.805242
 30
0.0
 11
910.664047
 21
386.805242
 31
0.0
  0
LINE
  8
0
 10
910.664047
 20
386.805242
 30
0.0
 11
910.774795
 21
386.812164
 31
0.0
  0
LINE
  8
0
 10
910.774795
 20
386.812164
 30
0.0
 11
910.885543
 21
386.829468
 31
0.0
  0
LINE
  8
0
 10
910.885543
 20
386.829468
 30
0.0
 11
910.992336
 21
386.860616
 31
0.0
  0
LINE
  8
0
 10
910.992336
 20
386.860616
 30
0.0
 11
911.096162
 21
386.902147
 31
0.0
  0
LINE
  8
0
 10
911.096162
 20
386.902147
 30
0.0
 11
911.196528
 21
386.957521
 31
0.0
  0
LINE
  8
0
 10
911.196528
 20
386.957521
 30
0.0
 11
911.286016
 21
387.023277
 31
0.0
  0
LINE
  8
0
 10
911.286016
 20
387.023277
 30
0.0
 11
911.369077
 21
387.095461
 31
0.0
  0
LINE
  8
0
 10
911.369077
 20
387.095461
 30
0.0
 11
911.445217
 21
387.181983
 31
0.0
  0
LINE
  8
0
 10
911.445217
 20
387.181983
 30
0.0
 11
911.510973
 21
387.271966
 31
0.0
  0
LINE
  8
0
 10
911.510973
 20
387.271966
 30
0.0
 11
911.565853
 21
387.372331
 31
0.0
  0
LINE
  8
0
 10
911.565853
 20
387.372331
 30
0.0
 11
911.607383
 21
387.475663
 31
0.0
  0
LINE
  8
0
 10
911.607383
 20
387.475663
 30
0.0
 11
911.638531
 21
387.58295
 31
0.0
  0
LINE
  8
0
 10
911.638531
 20
387.58295
 30
0.0
 11
911.655836
 21
387.693699
 31
0.0
  0
LINE
  8
0
 10
911.655836
 20
387.693699
 30
0.0
 11
911.662757
 21
387.803952
 31
0.0
  0
LINE
  8
0
 10
911.662757
 20
387.803952
 30
0.0
 11
911.662757
 21
392.303091
 31
0.0
  0
LINE
  8
0
 10
911.662757
 20
392.303091
 30
0.0
 11
912.336639
 21
392.303091
 31
0.0
  0
LINE
  8
0
 10
912.336639
 20
392.303091
 30
0.0
 11
912.450848
 21
392.310013
 31
0.0
  0
LINE
  8
0
 10
912.450848
 20
392.310013
 30
0.0
 11
912.561102
 21
392.330778
 31
0.0
  0
LINE
  8
0
 10
912.561102
 20
392.330778
 30
0.0
 11
912.668389
 21
392.361926
 31
0.0
  0
LINE
  8
0
 10
912.668389
 20
392.361926
 30
0.0
 11
912.772215
 21
392.403457
 31
0.0
  0
LINE
  8
0
 10
912.772215
 20
392.403457
 30
0.0
 11
912.868626
 21
392.458831
 31
0.0
  0
LINE
  8
0
 10
912.868626
 20
392.458831
 30
0.0
 11
912.962069
 21
392.521127
 31
0.0
  0
LINE
  8
0
 10
912.962069
 20
392.521127
 30
0.0
 11
913.04513
 21
392.597266
 31
0.0
  0
LINE
  8
0
 10
913.04513
 20
392.597266
 30
0.0
 11
913.12127
 21
392.679833
 31
0.0
  0
LINE
  8
0
 10
913.12127
 20
392.679833
 30
0.0
 11
913.183071
 21
392.773276
 31
0.0
  0
LINE
  8
0
 10
913.183071
 20
392.773276
 30
0.0
 11
913.238445
 21
392.870181
 31
0.0
  0
LINE
  8
0
 10
913.238445
 20
392.870181
 30
0.0
 11
913.283436
 21
392.973513
 31
0.0
  0
LINE
  8
0
 10
913.283436
 20
392.973513
 30
0.0
 11
913.314584
 21
393.0808
 31
0.0
  0
LINE
  8
0
 10
913.314584
 20
393.0808
 30
0.0
 11
913.331889
 21
393.191548
 31
0.0
  0
LINE
  8
0
 10
913.331889
 20
393.191548
 30
0.0
 11
913.33881
 21
393.305262
 31
0.0
  0
LINE
  8
0
 10
913.33881
 20
393.305262
 30
0.0
 11
913.33881
 21
395.389204
 31
0.0
  0
LINE
  8
0
 10
913.33881
 20
395.389204
 30
0.0
 11
913.331889
 21
395.503413
 31
0.0
  0
LINE
  8
0
 10
913.331889
 20
395.503413
 30
0.0
 11
913.314584
 21
395.613667
 31
0.0
  0
LINE
  8
0
 10
913.314584
 20
395.613667
 30
0.0
 11
913.283436
 21
395.720954
 31
0.0
  0
LINE
  8
0
 10
913.283436
 20
395.720954
 30
0.0
 11
913.238445
 21
395.82478
 31
0.0
  0
LINE
  8
0
 10
913.238445
 20
395.82478
 30
0.0
 11
913.183071
 21
395.92119
 31
0.0
  0
LINE
  8
0
 10
913.183071
 20
395.92119
 30
0.0
 11
913.12127
 21
396.014634
 31
0.0
  0
LINE
  8
0
 10
913.12127
 20
396.014634
 30
0.0
 11
913.04513
 21
396.097695
 31
0.0
  0
LINE
  8
0
 10
913.04513
 20
396.097695
 30
0.0
 11
911.130771
 21
398.012054
 31
0.0
  0
LINE
  8
0
 10
911.130771
 20
398.012054
 30
0.0
 11
911.04771
 21
398.084733
 31
0.0
  0
LINE
  8
0
 10
911.04771
 20
398.084733
 30
0.0
 11
910.954267
 21
398.150489
 31
0.0
  0
LINE
  8
0
 10
910.954267
 20
398.150489
 30
0.0
 11
910.857856
 21
398.205369
 31
0.0
  0
LINE
  8
0
 10
910.857856
 20
398.205369
 30
0.0
 11
910.75403
 21
398.246899
 31
0.0
  0
LINE
  8
0
 10
910.75403
 20
398.246899
 30
0.0
 11
910.646743
 21
398.278047
 31
0.0
  0
LINE
  8
0
 10
910.646743
 20
398.278047
 30
0.0
 11
910.536489
 21
398.298813
 31
0.0
  0
LINE
  8
0
 10
910.536489
 20
398.298813
 30
0.0
 11
910.425741
 21
398.305734
 31
0.0
  0
LINE
  8
0
 10
910.425741
 20
398.305734
 30
0.0
 11
909.136812
 21
398.305734
 31
0.0
  0
LINE
  8
0
 10
909.136812
 20
398.305734
 30
0.0
 11
909.032986
 21
398.298813
 31
0.0
  0
LINE
  8
0
 10
909.032986
 20
398.298813
 30
0.0
 11
908.933115
 21
398.278047
 31
0.0
  0
LINE
  8
0
 10
908.933115
 20
398.278047
 30
0.0
 11
908.832749
 21
398.243439
 31
0.0
  0
LINE
  8
0
 10
908.832749
 20
398.243439
 30
0.0
 11
908.739306
 21
398.198447
 31
0.0
  0
LINE
  8
0
 10
908.739306
 20
398.198447
 30
0.0
 11
908.652784
 21
398.140107
 31
0.0
  0
LINE
  8
0
 10
908.652784
 20
398.140107
 30
0.0
 11
908.573678
 21
398.070889
 31
0.0
  0
LINE
  8
0
 10
908.573678
 20
398.070889
 30
0.0
 11
908.50446
 21
397.991289
 31
0.0
  0
LINE
  8
0
 10
908.50446
 20
397.991289
 30
0.0
 11
908.445626
 21
397.904767
 31
0.0
  0
LINE
  8
0
 10
908.445626
 20
397.904767
 30
0.0
 11
908.400634
 21
397.811818
 31
0.0
  0
LINE
  8
0
 10
908.400634
 20
397.811818
 30
0.0
 11
908.366025
 21
397.711452
 31
0.0
  0
LINE
  8
0
 10
908.366025
 20
397.711452
 30
0.0
 11
908.34526
 21
397.607626
 31
0.0
  0
LINE
  8
0
 10
908.34526
 20
397.607626
 30
0.0
 11
908.338338
 21
397.5038
 31
0.0
  0
LINE
  8
0
 10
908.338338
 20
397.5038
 30
0.0
 11
908.34526
 21
397.400468
 31
0.0
  0
LINE
  8
0
 10
908.34526
 20
397.400468
 30
0.0
 11
908.366025
 21
397.296642
 31
0.0
  0
LINE
  8
0
 10
908.366025
 20
397.296642
 30
0.0
 11
908.400634
 21
397.199737
 31
0.0
  0
LINE
  8
0
 10
908.400634
 20
397.199737
 30
0.0
 11
908.445626
 21
397.103327
 31
0.0
  0
LINE
  8
0
 10
908.445626
 20
397.103327
 30
0.0
 11
908.50446
 21
397.016805
 31
0.0
  0
LINE
  8
0
 10
908.50446
 20
397.016805
 30
0.0
 11
908.573678
 21
396.937205
 31
0.0
  0
LINE
  8
0
 10
908.573678
 20
396.937205
 30
0.0
 11
908.652784
 21
396.867987
 31
0.0
  0
LINE
  8
0
 10
908.652784
 20
396.867987
 30
0.0
 11
908.739306
 21
396.813108
 31
0.0
  0
LINE
  8
0
 10
908.739306
 20
396.813108
 30
0.0
 11
908.832749
 21
396.764655
 31
0.0
  0
LINE
  8
0
 10
908.832749
 20
396.764655
 30
0.0
 11
908.933115
 21
396.730047
 31
0.0
  0
LINE
  8
0
 10
908.933115
 20
396.730047
 30
0.0
 11
909.032986
 21
396.712742
 31
0.0
  0
LINE
  8
0
 10
909.032986
 20
396.712742
 30
0.0
 11
909.136812
 21
396.705821
 31
0.0
  0
LINE
  8
0
 10
909.136812
 20
396.705821
 30
0.0
 11
910.177053
 21
396.705821
 31
0.0
  0
LINE
  8
0
 10
910.177053
 20
396.705821
 30
0.0
 11
911.738897
 21
395.140516
 31
0.0
  0
LINE
  8
0
 10
911.738897
 20
395.140516
 30
0.0
 11
911.738897
 21
393.9035
 31
0.0
  0
LINE
  8
0
 10
911.738897
 20
393.9035
 30
0.0
 11
907.184383
 21
393.9035
 31
0.0
  0
LINE
  8
0
 10
907.184383
 20
393.9035
 30
0.0
 11
904.875979
 21
398.848103
 31
0.0
  0
LINE
  8
0
 10
904.875979
 20
398.848103
 30
0.0
 11
904.8033
 21
398.99346
 31
0.0
  0
LINE
  8
0
 10
904.8033
 20
398.99346
 30
0.0
 11
904.716778
 21
399.1314
 31
0.0
  0
LINE
  8
0
 10
904.716778
 20
399.1314
 30
0.0
 11
904.620368
 21
399.259453
 31
0.0
  0
LINE
  8
0
 10
904.620368
 20
399.259453
 30
0.0
 11
904.513081
 21
399.384044
 31
0.0
  0
LINE
  8
0
 10
904.513081
 20
399.384044
 30
0.0
 11
904.395411
 21
399.494298
 31
0.0
  0
LINE
  8
0
 10
904.395411
 20
399.494298
 30
0.0
 11
904.271314
 21
399.598124
 31
0.0
  0
LINE
  8
0
 10
904.271314
 20
399.598124
 30
0.0
 11
904.139801
 21
399.691568
 31
0.0
  0
LINE
  8
0
 10
904.139801
 20
399.691568
 30
0.0
 11
903.998399
 21
399.771168
 31
0.0
  0
LINE
  8
0
 10
903.998399
 20
399.771168
 30
0.0
 11
903.853043
 21
399.843352
 31
0.0
  0
LINE
  8
0
 10
903.853043
 20
399.843352
 30
0.0
 11
903.701258
 21
399.898726
 31
0.0
  0
LINE
  8
0
 10
903.701258
 20
399.898726
 30
0.0
 11
903.545519
 21
399.947178
 31
0.0
  0
LINE
  8
0
 10
903.545519
 20
399.947178
 30
0.0
 11
903.386319
 21
399.978326
 31
0.0
  0
LINE
  8
0
 10
903.386319
 20
399.978326
 30
0.0
 11
903.227613
 21
399.999092
 31
0.0
  0
LINE
  8
0
 10
903.227613
 20
399.999092
 30
0.0
 11
903.064952
 21
400.006013
 31
0.0
  0
LINE
  8
0
 10
903.064952
 20
400.006013
 30
0.0
 11
877.040645
 21
400.006013
 31
0.0
  0
LINE
  8
0
 10
877.040645
 20
400.006013
 30
0.0
 11
876.875017
 21
399.999092
 31
0.0
  0
LINE
  8
0
 10
876.875017
 20
399.999092
 30
0.0
 11
876.708895
 21
399.978326
 31
0.0
  0
LINE
  8
0
 10
876.708895
 20
399.978326
 30
0.0
 11
876.550189
 21
399.943718
 31
0.0
  0
LINE
  8
0
 10
876.550189
 20
399.943718
 30
0.0
 11
876.390989
 21
399.895265
 31
0.0
  0
LINE
  8
0
 10
876.390989
 20
399.895265
 30
0.0
 11
876.235744
 21
399.83643
 31
0.0
  0
LINE
  8
0
 10
876.235744
 20
399.83643
 30
0.0
 11
876.086926
 21
399.764246
 31
0.0
  0
LINE
  8
0
 10
876.086926
 20
399.764246
 30
0.0
 11
875.945524
 21
399.677725
 31
0.0
  0
LINE
  8
0
 10
875.945524
 20
399.677725
 30
0.0
 11
875.81055
 21
399.584281
 31
0.0
  0
LINE
  8
0
 10
875.81055
 20
399.584281
 30
0.0
 11
875.685959
 21
399.476994
 31
0.0
  0
LINE
  8
0
 10
875.685959
 20
399.476994
 30
0.0
 11
875.568783
 21
399.359818
 31
0.0
  0
LINE
  8
0
 10
875.568783
 20
399.359818
 30
0.0
 11
875.461496
 21
399.231766
 31
0.0
  0
LINE
  8
0
 10
875.461496
 20
399.231766
 30
0.0
 11
875.364592
 21
399.097286
 31
0.0
  0
LINE
  8
0
 10
875.364592
 20
399.097286
 30
0.0
 11
875.282025
 21
398.95539
 31
0.0
  0
LINE
  8
0
 10
875.282025
 20
398.95539
 30
0.0
 11
875.209347
 21
398.806573
 31
0.0
  0
LINE
  8
0
 10
875.209347
 20
398.806573
 30
0.0
 11
875.147051
 21
398.654788
 31
0.0
  0
LINE
  8
0
 10
875.147051
 20
398.654788
 30
0.0
 11
875.102059
 21
398.495588
 31
0.0
  0
LINE
  8
0
 10
875.102059
 20
398.495588
 30
0.0
 11
875.067451
 21
398.333421
 31
0.0
  0
LINE
  8
0
 10
875.067451
 20
398.333421
 30
0.0
 11
875.046685
 21
398.17076
 31
0.0
  0
LINE
  8
0
 10
875.046685
 20
398.17076
 30
0.0
 11
875.039764
 21
398.005132
 31
0.0
  0
LINE
  8
0
 10
875.039764
 20
398.005132
 30
0.0
 11
875.039764
 21
292.003433
 31
0.0
  0
LINE
  8
0
 10
875.039764
 20
292.003433
 30
0.0
 11
875.046685
 21
291.841267
 31
0.0
  0
LINE
  8
0
 10
875.046685
 20
291.841267
 30
0.0
 11
875.067451
 21
291.675145
 31
0.0
  0
LINE
  8
0
 10
875.067451
 20
291.675145
 30
0.0
 11
875.102059
 21
291.512978
 31
0.0
  0
LINE
  8
0
 10
875.102059
 20
291.512978
 30
0.0
 11
875.147051
 21
291.357238
 31
0.0
  0
LINE
  8
0
 10
875.147051
 20
291.357238
 30
0.0
 11
875.209347
 21
291.201993
 31
0.0
  0
LINE
  8
0
 10
875.209347
 20
291.201993
 30
0.0
 11
875.282025
 21
291.053176
 31
0.0
  0
LINE
  8
0
 10
875.282025
 20
291.053176
 30
0.0
 11
875.364592
 21
290.911774
 31
0.0
  0
LINE
  8
0
 10
875.364592
 20
290.911774
 30
0.0
 11
875.461496
 21
290.7768
 31
0.0
  0
LINE
  8
0
 10
875.461496
 20
290.7768
 30
0.0
 11
875.568783
 21
290.648748
 31
0.0
  0
LINE
  8
0
 10
875.568783
 20
290.648748
 30
0.0
 11
875.685959
 21
290.535033
 31
0.0
  0
LINE
  8
0
 10
875.685959
 20
290.535033
 30
0.0
 11
875.81055
 21
290.427746
 31
0.0
  0
LINE
  8
0
 10
875.81055
 20
290.427746
 30
0.0
 11
875.945524
 21
290.330841
 31
0.0
  0
LINE
  8
0
 10
875.945524
 20
290.330841
 30
0.0
 11
876.086926
 21
290.244814
 31
0.0
  0
LINE
  8
0
 10
876.086926
 20
290.244814
 30
0.0
 11
876.235744
 21
290.172135
 31
0.0
  0
LINE
  8
0
 10
876.235744
 20
290.172135
 30
0.0
 11
876.390989
 21
290.113301
 31
0.0
  0
LINE
  8
0
 10
876.390989
 20
290.113301
 30
0.0
 11
876.550189
 21
290.064848
 31
0.0
  0
LINE
  8
0
 10
876.550189
 20
290.064848
 30
0.0
 11
876.708895
 21
290.0337
 31
0.0
  0
LINE
  8
0
 10
876.708895
 20
290.0337
 30
0.0
 11
876.875017
 21
290.012935
 31
0.0
  0
LINE
  8
0
 10
876.875017
 20
290.012935
 30
0.0
 11
877.040645
 21
290.006013
 31
0.0
  0
LINE
  8
0
 10
877.040645
 20
290.006013
 30
0.0
 11
903.064952
 21
290.006013
 31
0.0
  0
LINE
  8
0
 10
903.064952
 20
290.006013
 30
0.0
 11
903.227613
 21
290.012935
 31
0.0
  0
LINE
  8
0
 10
903.227613
 20
290.012935
 30
0.0
 11
903.386319
 21
290.03024
 31
0.0
  0
LINE
  8
0
 10
903.386319
 20
290.03024
 30
0.0
 11
903.545519
 21
290.064848
 31
0.0
  0
LINE
  8
0
 10
903.545519
 20
290.064848
 30
0.0
 11
903.701258
 21
290.10984
 31
0.0
  0
LINE
  8
0
 10
903.701258
 20
290.10984
 30
0.0
 11
903.853043
 21
290.168675
 31
0.0
  0
LINE
  8
0
 10
903.853043
 20
290.168675
 30
0.0
 11
903.998399
 21
290.237892
 31
0.0
  0
LINE
  8
0
 10
903.998399
 20
290.237892
 30
0.0
 11
904.139801
 21
290.316998
 31
0.0
  0
LINE
  8
0
 10
904.139801
 20
290.316998
 30
0.0
 11
904.271314
 21
290.410442
 31
0.0
  0
LINE
  8
0
 10
904.271314
 20
290.410442
 30
0.0
 11
904.395411
 21
290.514268
 31
0.0
  0
LINE
  8
0
 10
904.395411
 20
290.514268
 30
0.0
 11
904.513081
 21
290.627982
 31
0.0
  0
LINE
  8
0
 10
904.513081
 20
290.627982
 30
0.0
 11
904.620368
 21
290.749113
 31
0.0
  0
LINE
  8
0
 10
904.620368
 20
290.749113
 30
0.0
 11
904.716778
 21
290.877165
 31
0.0
  0
LINE
  8
0
 10
904.716778
 20
290.877165
 30
0.0
 11
904.8033
 21
291.015106
 31
0.0
  0
LINE
  8
0
 10
904.8033
 20
291.015106
 30
0.0
 11
904.875979
 21
291.160463
 31
0.0
  0
LINE
  8
0
 10
904.875979
 20
291.160463
 30
0.0
 11
907.184383
 21
296.105561
 31
0.0
  0
LINE
  8
0
 10
907.184383
 20
296.105561
 30
0.0
 11
911.738897
 21
296.105561
 31
0.0
  0
LINE
  8
0
 10
911.738897
 20
296.105561
 30
0.0
 11
911.738897
 21
294.86805
 31
0.0
  0
LINE
  8
0
 10
911.738897
 20
294.86805
 30
0.0
 11
910.177053
 21
293.306206
 31
0.0
  0
LINE
  8
0
 10
910.177053
 20
293.306206
 30
0.0
 11
909.136812
 21
293.306206
 31
0.0
  0
LINE
  8
0
 10
909.136812
 20
293.306206
 30
0.0
 11
909.032986
 21
293.299284
 31
0.0
  0
LINE
  8
0
 10
909.032986
 20
293.299284
 30
0.0
 11
908.933115
 21
293.278519
 31
0.0
  0
LINE
  8
0
 10
908.933115
 20
293.278519
 30
0.0
 11
908.832749
 21
293.24391
 31
0.0
  0
LINE
  8
0
 10
908.832749
 20
293.24391
 30
0.0
 11
908.739306
 21
293.199413
 31
0.0
  0
LINE
  8
0
 10
908.739306
 20
293.199413
 30
0.0
 11
908.652784
 21
293.140579
 31
0.0
  0
LINE
  8
0
 10
908.652784
 20
293.140579
 30
0.0
 11
908.573678
 21
293.071361
 31
0.0
  0
LINE
  8
0
 10
908.573678
 20
293.071361
 30
0.0
 11
908.50446
 21
292.991761
 31
0.0
  0
LINE
  8
0
 10
908.50446
 20
292.991761
 30
0.0
 11
908.445626
 21
292.905239
 31
0.0
  0
LINE
  8
0
 10
908.445626
 20
292.905239
 30
0.0
 11
908.400634
 21
292.81229
 31
0.0
  0
LINE
  8
0
 10
908.400634
 20
292.81229
 30
0.0
 11
908.366025
 21
292.711924
 31
0.0
  0
LINE
  8
0
 10
908.366025
 20
292.711924
 30
0.0
 11
908.34526
 21
292.608098
 31
0.0
  0
LINE
  8
0
 10
908.34526
 20
292.608098
 30
0.0
 11
908.338338
 21
292.504766
 31
0.0
  0
LINE
  8
0
 10
908.338338
 20
292.504766
 30
0.0
 11
908.34526
 21
292.40094
 31
0.0
  0
LINE
  8
0
 10
908.34526
 20
292.40094
 30
0.0
 11
908.366025
 21
292.297114
 31
0.0
  0
LINE
  8
0
 10
908.366025
 20
292.297114
 30
0.0
 11
908.400634
 21
292.200703
 31
0.0
  0
LINE
  8
0
 10
908.400634
 20
292.200703
 30
0.0
 11
908.445626
 21
292.103799
 31
0.0
  0
LINE
  8
0
 10
908.445626
 20
292.103799
 30
0.0
 11
908.50446
 21
292.017277
 31
0.0
  0
LINE
  8
0
 10
908.50446
 20
292.017277
 30
0.0
 11
908.573678
 21
291.937677
 31
0.0
  0
LINE
  8
0
 10
908.573678
 20
291.937677
 30
0.0
 11
908.652784
 21
291.868954
 31
0.0
  0
LINE
  8
0
 10
908.652784
 20
291.868954
 30
0.0
 11
908.739306
 21
291.81358
 31
0.0
  0
LINE
  8
0
 10
908.739306
 20
291.81358
 30
0.0
 11
908.832749
 21
291.765127
 31
0.0
  0
LINE
  8
0
 10
908.832749
 20
291.765127
 30
0.0
 11
908.933115
 21
291.73398
 31
0.0
  0
LINE
  8
0
 10
908.933115
 20
291.73398
 30
0.0
 11
909.032986
 21
291.713214
 31
0.0
  0
LINE
  8
0
 10
909.032986
 20
291.713214
 30
0.0
 11
909.136812
 21
291.706293
 31
0.0
  0
LINE
  8
0
 10
909.136812
 20
291.706293
 30
0.0
 11
910.425741
 21
291.706293
 31
0.0
  0
LINE
  8
0
 10
910.425741
 20
291.706293
 30
0.0
 11
910.536489
 21
291.709753
 31
0.0
  0
LINE
  8
0
 10
910.536489
 20
291.709753
 30
0.0
 11
910.646743
 21
291.730519
 31
0.0
  0
LINE
  8
0
 10
910.646743
 20
291.730519
 30
0.0
 11
910.75403
 21
291.761667
 31
0.0
  0
LINE
  8
0
 10
910.75403
 20
291.761667
 30
0.0
 11
910.857856
 21
291.803197
 31
0.0
  0
LINE
  8
0
 10
910.857856
 20
291.803197
 30
0.0
 11
910.954267
 21
291.858571
 31
0.0
  0
LINE
  8
0
 10
910.954267
 20
291.858571
 30
0.0
 11
911.04771
 21
291.923833
 31
0.0
  0
LINE
  8
0
 10
911.04771
 20
291.923833
 30
0.0
 11
911.130771
 21
291.996512
 31
0.0
  0
LINE
  8
0
 10
911.130771
 20
291.996512
 30
0.0
 11
913.04513
 21
293.910871
 31
0.0
  0
LINE
  8
0
 10
913.04513
 20
293.910871
 30
0.0
 11
913.12127
 21
293.997393
 31
0.0
  0
LINE
  8
0
 10
913.12127
 20
293.997393
 30
0.0
 11
913.183071
 21
294.087375
 31
0.0
  0
LINE
  8
0
 10
913.183071
 20
294.087375
 30
0.0
 11
913.238445
 21
294.18428
 31
0.0
  0
LINE
  8
0
 10
913.238445
 20
294.18428
 30
0.0
 11
913.283436
 21
294.287612
 31
0.0
  0
LINE
  8
0
 10
913.283436
 20
294.287612
 30
0.0
 11
913.314584
 21
294.39836
 31
0.0
  0
LINE
  8
0
 10
913.314584
 20
294.39836
 30
0.0
 11
913.331889
 21
294.509108
 31
0.0
  0
LINE
  8
0
 10
913.331889
 20
294.509108
 30
0.0
 11
913.33881
 21
294.619362
 31
0.0
  0
LINE
  8
0
 10
913.33881
 20
294.619362
 30
0.0
 11
913.33881
 21
296.706764
 31
0.0
  0
LINE
  8
0
 10
913.33881
 20
296.706764
 30
0.0
 11
913.331889
 21
296.817018
 31
0.0
  0
LINE
  8
0
 10
913.331889
 20
296.817018
 30
0.0
 11
913.314584
 21
296.927766
 31
0.0
  0
LINE
  8
0
 10
913.314584
 20
296.927766
 30
0.0
 11
913.283436
 21
297.035053
 31
0.0
  0
LINE
  8
0
 10
913.283436
 20
297.035053
 30
0.0
 11
913.238445
 21
297.138385
 31
0.0
  0
LINE
  8
0
 10
913.238445
 20
297.138385
 30
0.0
 11
913.183071
 21
297.238751
 31
0.0
  0
LINE
  8
0
 10
913.183071
 20
297.238751
 30
0.0
 11
913.12127
 21
297.328733
 31
0.0
  0
LINE
  8
0
 10
913.12127
 20
297.328733
 30
0.0
 11
913.04513
 21
297.411794
 31
0.0
  0
LINE
  8
0
 10
913.04513
 20
297.411794
 30
0.0
 11
912.962069
 21
297.487439
 31
0.0
  0
LINE
  8
0
 10
912.962069
 20
297.487439
 30
0.0
 11
912.868626
 21
297.553196
 31
0.0
  0
LINE
  8
0
 10
912.868626
 20
297.553196
 30
0.0
 11
912.772215
 21
297.605109
 31
0.0
  0
LINE
  8
0
 10
912.772215
 20
297.605109
 30
0.0
 11
912.668389
 21
297.6501
 31
0.0
  0
LINE
  8
0
 10
912.668389
 20
297.6501
 30
0.0
 11
912.561102
 21
297.681248
 31
0.0
  0
LINE
  8
0
 10
912.561102
 20
297.681248
 30
0.0
 11
912.450848
 21
297.698553
 31
0.0
  0
LINE
  8
0
 10
912.450848
 20
297.698553
 30
0.0
 11
912.336639
 21
297.705474
 31
0.0
  0
LINE
  8
0
 10
912.336639
 20
297.705474
 30
0.0
 11
911.662757
 21
297.705474
 31
0.0
  0
LINE
  8
0
 10
910.26308
 20
297.705474
 30
0.0
 11
910.26308
 21
301.803647
 31
0.0
  0
LINE
  8
0
 10
910.26308
 20
301.803647
 30
0.0
 11
907.564585
 21
301.803647
 31
0.0
  0
LINE
  8
0
 10
907.564585
 20
301.803647
 30
0.0
 11
907.564585
 21
297.705474
 31
0.0
  0
LINE
  8
0
 10
907.564585
 20
297.705474
 30
0.0
 11
910.26308
 21
297.705474
 31
0.0
  0
LINE
  8
0
 10
877.040645
 20
290.006013
 30
0.0
 11
876.875017
 21
290.012935
 31
0.0
  0
LINE
  8
0
 10
876.875017
 20
290.012935
 30
0.0
 11
876.708895
 21
290.0337
 31
0.0
  0
LINE
  8
0
 10
876.708895
 20
290.0337
 30
0.0
 11
876.550189
 21
290.064848
 31
0.0
  0
LINE
  8
0
 10
876.550189
 20
290.064848
 30
0.0
 11
876.390989
 21
290.113301
 31
0.0
  0
LINE
  8
0
 10
876.390989
 20
290.113301
 30
0.0
 11
876.235744
 21
290.172135
 31
0.0
  0
LINE
  8
0
 10
876.235744
 20
290.172135
 30
0.0
 11
876.086926
 21
290.244814
 31
0.0
  0
LINE
  8
0
 10
876.086926
 20
290.244814
 30
0.0
 11
875.945524
 21
290.330841
 31
0.0
  0
LINE
  8
0
 10
875.945524
 20
290.330841
 30
0.0
 11
875.81055
 21
290.427746
 31
0.0
  0
LINE
  8
0
 10
875.81055
 20
290.427746
 30
0.0
 11
875.685959
 21
290.535033
 31
0.0
  0
LINE
  8
0
 10
875.685959
 20
290.535033
 30
0.0
 11
875.568783
 21
290.648748
 31
0.0
  0
LINE
  8
0
 10
875.568783
 20
290.648748
 30
0.0
 11
875.461496
 21
290.7768
 31
0.0
  0
LINE
  8
0
 10
875.461496
 20
290.7768
 30
0.0
 11
875.364592
 21
290.911774
 31
0.0
  0
LINE
  8
0
 10
875.364592
 20
290.911774
 30
0.0
 11
875.282025
 21
291.053176
 31
0.0
  0
LINE
  8
0
 10
875.282025
 20
291.053176
 30
0.0
 11
875.209347
 21
291.201993
 31
0.0
  0
LINE
  8
0
 10
875.209347
 20
291.201993
 30
0.0
 11
875.147051
 21
291.357238
 31
0.0
  0
LINE
  8
0
 10
875.147051
 20
291.357238
 30
0.0
 11
875.102059
 21
291.512978
 31
0.0
  0
LINE
  8
0
 10
875.102059
 20
291.512978
 30
0.0
 11
875.067451
 21
291.675145
 31
0.0
  0
LINE
  8
0
 10
875.067451
 20
291.675145
 30
0.0
 11
875.046685
 21
291.841267
 31
0.0
  0
LINE
  8
0
 10
875.046685
 20
291.841267
 30
0.0
 11
875.039764
 21
292.003433
 31
0.0
  0
LINE
  8
0
 10
907.564585
 20
345.703874
 30
0.0
 11
910.26308
 21
345.703874
 31
0.0
  0
LINE
  8
0
 10
910.26308
 20
345.703874
 30
0.0
 11
910.26308
 21
349.806002
 31
0.0
  0
LINE
  8
0
 10
910.26308
 20
349.806002
 30
0.0
 11
907.564585
 21
349.806002
 31
0.0
  0
LINE
  8
0
 10
907.564585
 20
349.806002
 30
0.0
 11
907.564585
 21
345.703874
 31
0.0
  0
LINE
  8
0
 10
907.564585
 20
388.204919
 30
0.0
 11
907.564585
 21
392.303091
 31
0.0
  0
LINE
  8
0
 10
907.564585
 20
392.303091
 30
0.0
 11
910.26308
 21
392.303091
 31
0.0
  0
LINE
  8
0
 10
910.26308
 20
392.303091
 30
0.0
 11
910.26308
 21
388.204919
 31
0.0
  0
LINE
  8
0
 10
910.26308
 20
388.204919
 30
0.0
 11
907.564585
 21
388.204919
 31
0.0
  0
LINE
  8
0
 10
877.237915
 20
343.903724
 30
0.0
 11
892.238836
 21
343.903724
 31
0.0
  0
LINE
  8
0
 10
910.111296
 20
346.474661
 30
0.0
 11
910.142444
 21
346.561183
 31
0.0
  0
LINE
  8
0
 10
910.066305
 20
346.392094
 30
0.0
 11
910.111296
 21
346.474661
 31
0.0
  0
LINE
  8
0
 10
910.010931
 20
346.319416
 30
0.0
 11
910.066305
 21
346.392094
 31
0.0
  0
LINE
  8
0
 10
909.945668
 20
346.253659
 30
0.0
 11
910.010931
 21
346.319416
 31
0.0
  0
LINE
  8
0
 10
909.869529
 20
346.198285
 30
0.0
 11
909.945668
 21
346.253659
 31
0.0
  0
LINE
  8
0
 10
909.789929
 20
346.153294
 30
0.0
 11
909.869529
 21
346.198285
 31
0.0
  0
LINE
  8
0
 10
909.703407
 20
346.122146
 30
0.0
 11
909.789929
 21
346.153294
 31
0.0
  0
LINE
  8
0
 10
909.610458
 20
346.101875
 30
0.0
 11
909.703407
 21
346.122146
 31
0.0
  0
LINE
  8
0
 10
909.520475
 20
346.094953
 30
0.0
 11
909.610458
 21
346.101875
 31
0.0
  0
LINE
  8
0
 10
909.427031
 20
346.101875
 30
0.0
 11
909.520475
 21
346.094953
 31
0.0
  0
LINE
  8
0
 10
909.337048
 20
346.122146
 30
0.0
 11
909.427031
 21
346.101875
 31
0.0
  0
LINE
  8
0
 10
909.24756
 20
346.153294
 30
0.0
 11
909.337048
 21
346.122146
 31
0.0
  0
LINE
  8
0
 10
909.16796
 20
346.198285
 30
0.0
 11
909.24756
 21
346.153294
 31
0.0
  0
LINE
  8
0
 10
909.091821
 20
346.253659
 30
0.0
 11
909.16796
 21
346.198285
 31
0.0
  0
LINE
  8
0
 10
909.026064
 20
346.319416
 30
0.0
 11
909.091821
 21
346.253659
 31
0.0
  0
LINE
  8
0
 10
908.971184
 20
346.392094
 30
0.0
 11
909.026064
 21
346.319416
 31
0.0
  0
LINE
  8
0
 10
908.926193
 20
346.474661
 30
0.0
 11
908.971184
 21
346.392094
 31
0.0
  0
LINE
  8
0
 10
908.895045
 20
346.561183
 30
0.0
 11
908.926193
 21
346.474661
 31
0.0
  0
LINE
  8
0
 10
908.87428
 20
346.651166
 30
0.0
 11
908.895045
 21
346.561183
 31
0.0
  0
LINE
  8
0
 10
908.867358
 20
346.744609
 30
0.0
 11
908.87428
 21
346.651166
 31
0.0
  0
LINE
  8
0
 10
908.87428
 20
346.837559
 30
0.0
 11
908.867358
 21
346.744609
 31
0.0
  0
LINE
  8
0
 10
908.895045
 20
346.927541
 30
0.0
 11
908.87428
 21
346.837559
 31
0.0
  0
LINE
  8
0
 10
908.926193
 20
347.014063
 30
0.0
 11
908.895045
 21
346.927541
 31
0.0
  0
LINE
  8
0
 10
908.971184
 20
347.097124
 30
0.0
 11
908.926193
 21
347.014063
 31
0.0
  0
LINE
  8
0
 10
909.026064
 20
347.169308
 30
0.0
 11
908.971184
 21
347.097124
 31
0.0
  0
LINE
  8
0
 10
909.091821
 20
347.235065
 30
0.0
 11
909.026064
 21
347.169308
 31
0.0
  0
LINE
  8
0
 10
909.16796
 20
347.290439
 30
0.0
 11
909.091821
 21
347.235065
 31
0.0
  0
LINE
  8
0
 10
909.24756
 20
347.33543
 30
0.0
 11
909.16796
 21
347.290439
 31
0.0
  0
LINE
  8
0
 10
909.337048
 20
347.370039
 30
0.0
 11
909.24756
 21
347.33543
 31
0.0
  0
LINE
  8
0
 10
909.427031
 20
347.387344
 30
0.0
 11
909.337048
 21
347.370039
 31
0.0
  0
LINE
  8
0
 10
909.520475
 20
347.394265
 30
0.0
 11
909.427031
 21
347.387344
 31
0.0
  0
LINE
  8
0
 10
909.610458
 20
347.387344
 30
0.0
 11
909.520475
 21
347.394265
 31
0.0
  0
LINE
  8
0
 10
909.703407
 20
347.370039
 30
0.0
 11
909.610458
 21
347.387344
 31
0.0
  0
LINE
  8
0
 10
909.789929
 20
347.33543
 30
0.0
 11
909.703407
 21
347.370039
 31
0.0
  0
LINE
  8
0
 10
909.869529
 20
347.290439
 30
0.0
 11
909.789929
 21
347.33543
 31
0.0
  0
LINE
  8
0
 10
909.945668
 20
347.235065
 30
0.0
 11
909.869529
 21
347.290439
 31
0.0
  0
LINE
  8
0
 10
910.010931
 20
347.169308
 30
0.0
 11
909.945668
 21
347.235065
 31
0.0
  0
LINE
  8
0
 10
910.066305
 20
347.097124
 30
0.0
 11
910.010931
 21
347.169308
 31
0.0
  0
LINE
  8
0
 10
910.111296
 20
347.014063
 30
0.0
 11
910.066305
 21
347.097124
 31
0.0
  0
LINE
  8
0
 10
910.142444
 20
346.927541
 30
0.0
 11
910.111296
 21
347.014063
 31
0.0
  0
LINE
  8
0
 10
910.163209
 20
346.837559
 30
0.0
 11
910.142444
 21
346.927541
 31
0.0
  0
LINE
  8
0
 10
910.170131
 20
346.744609
 30
0.0
 11
910.163209
 21
346.837559
 31
0.0
  0
LINE
  8
0
 10
910.163209
 20
346.651166
 30
0.0
 11
910.170131
 21
346.744609
 31
0.0
  0
LINE
  8
0
 10
910.142444
 20
346.561183
 30
0.0
 11
910.163209
 21
346.651166
 31
0.0
  0
LINE
  8
0
 10
909.634189
 20
346.105336
 30
0.0
 11
911.963359
 21
346.516192
 31
0.0
  0
LINE
  8
0
 10
911.504051
 20
347.753208
 30
0.0
 11
909.406266
 21
347.383883
 31
0.0
  0
LINE
  8
0
 10
912.074107
 20
346.540418
 30
0.0
 11
911.963359
 21
346.516192
 31
0.0
  0
LINE
  8
0
 10
912.181394
 20
346.581948
 30
0.0
 11
912.074107
 21
346.540418
 31
0.0
  0
LINE
  8
0
 10
912.281265
 20
346.6304
 30
0.0
 11
912.181394
 21
346.581948
 31
0.0
  0
LINE
  8
0
 10
912.374709
 20
346.692696
 30
0.0
 11
912.281265
 21
346.6304
 31
0.0
  0
LINE
  8
0
 10
912.461231
 20
346.768341
 30
0.0
 11
912.374709
 21
346.692696
 31
0.0
  0
LINE
  8
0
 10
912.540831
 20
346.847941
 30
0.0
 11
912.461231
 21
346.768341
 31
0.0
  0
LINE
  8
0
 10
912.609554
 20
346.941385
 30
0.0
 11
912.540831
 21
346.847941
 31
0.0
  0
LINE
  8
0
 10
912.664928
 20
347.038289
 30
0.0
 11
912.609554
 21
346.941385
 31
0.0
  0
LINE
  8
0
 10
912.70992
 20
347.141621
 30
0.0
 11
912.664928
 21
347.038289
 31
0.0
  0
LINE
  8
0
 10
912.741068
 20
347.252369
 30
0.0
 11
912.70992
 21
347.141621
 31
0.0
  0
LINE
  8
0
 10
912.761833
 20
347.363117
 30
0.0
 11
912.741068
 21
347.252369
 31
0.0
  0
LINE
  8
0
 10
912.768755
 20
347.476832
 30
0.0
 11
912.761833
 21
347.363117
 31
0.0
  0
LINE
  8
0
 10
911.555965
 20
347.770512
 30
0.0
 11
911.504051
 21
347.753208
 31
0.0
  0
LINE
  8
0
 10
911.600462
 20
347.80166
 30
0.0
 11
911.555965
 21
347.770512
 31
0.0
  0
LINE
  8
0
 10
911.63507
 20
347.84319
 30
0.0
 11
911.600462
 21
347.80166
 31
0.0
  0
LINE
  8
0
 10
911.655836
 20
347.891643
 30
0.0
 11
911.63507
 21
347.84319
 31
0.0
  0
LINE
  8
0
 10
911.662757
 20
347.947017
 30
0.0
 11
911.655836
 21
347.891643
 31
0.0
  0
LINE
  8
0
 10
912.768755
 20
347.476832
 30
0.0
 11
912.768755
 21
390.679446
 31
0.0
  0
LINE
  8
0
 10
911.662757
 20
351.295662
 30
0.0
 11
911.662757
 21
347.947017
 31
0.0
  0
LINE
  8
0
 10
911.607383
 20
351.433602
 30
0.0
 11
911.638531
 21
351.392072
 31
0.0
  0
LINE
  8
0
 10
911.566347
 20
351.46475
 30
0.0
 11
911.607383
 21
351.433602
 31
0.0
  0
LINE
  8
0
 10
908.805062
 20
352.211311
 30
0.0
 11
911.517895
 21
351.482055
 31
0.0
  0
LINE
  8
0
 10
908.805062
 20
357.028356
 30
0.0
 11
909.268325
 21
357.028356
 31
0.0
  0
LINE
  8
0
 10
908.798141
 20
357.028356
 30
0.0
 11
908.805062
 21
357.028356
 31
0.0
  0
LINE
  8
0
 10
908.777375
 20
357.028356
 30
0.0
 11
908.798141
 21
357.028356
 31
0.0
  0
LINE
  8
0
 10
908.746227
 20
357.028356
 30
0.0
 11
908.777375
 21
357.028356
 31
0.0
  0
LINE
  8
0
 10
908.701236
 20
357.028356
 30
0.0
 11
908.746227
 21
357.028356
 31
0.0
  0
LINE
  8
0
 10
908.642896
 20
357.028356
 30
0.0
 11
908.701236
 21
357.028356
 31
0.0
  0
LINE
  8
0
 10
908.577139
 20
357.028356
 30
0.0
 11
908.642896
 21
357.028356
 31
0.0
  0
LINE
  8
0
 10
908.501
 20
357.028356
 30
0.0
 11
908.577139
 21
357.028356
 31
0.0
  0
LINE
  8
0
 10
908.414478
 20
357.028356
 30
0.0
 11
908.501
 21
357.028356
 31
0.0
  0
LINE
  8
0
 10
908.324989
 20
357.028356
 30
0.0
 11
908.414478
 21
357.028356
 31
0.0
  0
LINE
  8
0
 10
908.228085
 20
357.028356
 30
0.0
 11
908.324989
 21
357.028356
 31
0.0
  0
LINE
  8
0
 10
908.127719
 20
357.028356
 30
0.0
 11
908.228085
 21
357.028356
 31
0.0
  0
LINE
  8
0
 10
908.027354
 20
357.028356
 30
0.0
 11
908.127719
 21
357.028356
 31
0.0
  0
LINE
  8
0
 10
908.023893
 20
357.028356
 30
0.0
 11
908.027354
 21
357.028356
 31
0.0
  0
LINE
  8
0
 10
908.020432
 20
357.028356
 30
0.0
 11
908.023893
 21
357.028356
 31
0.0
  0
LINE
  8
0
 10
907.9967
 20
357.028356
 30
0.0
 11
908.020432
 21
357.028356
 31
0.0
  0
LINE
  8
0
 10
907.969013
 20
357.028356
 30
0.0
 11
907.9967
 21
357.028356
 31
0.0
  0
LINE
  8
0
 10
907.944787
 20
357.024895
 30
0.0
 11
907.969013
 21
357.028356
 31
0.0
  0
LINE
  8
0
 10
907.9171
 20
357.021435
 30
0.0
 11
907.944787
 21
357.024895
 31
0.0
  0
LINE
  8
0
 10
907.892874
 20
357.017974
 30
0.0
 11
907.9171
 21
357.021435
 31
0.0
  0
LINE
  8
0
 10
907.865187
 20
357.014513
 30
0.0
 11
907.892874
 21
357.017974
 31
0.0
  0
LINE
  8
0
 10
907.840961
 20
357.007591
 30
0.0
 11
907.865187
 21
357.014513
 31
0.0
  0
LINE
  8
0
 10
907.816735
 20
357.000669
 30
0.0
 11
907.840961
 21
357.007591
 31
0.0
  0
LINE
  8
0
 10
907.792509
 20
356.993748
 30
0.0
 11
907.816735
 21
357.000669
 31
0.0
  0
LINE
  8
0
 10
907.764822
 20
356.986826
 30
0.0
 11
907.792509
 21
356.993748
 31
0.0
  0
LINE
  8
0
 10
907.740596
 20
356.976443
 30
0.0
 11
907.764822
 21
356.986826
 31
0.0
  0
LINE
  8
0
 10
907.716369
 20
356.96606
 30
0.0
 11
907.740596
 21
356.976443
 31
0.0
  0
LINE
  8
0
 10
907.692143
 20
356.955678
 30
0.0
 11
907.716369
 21
356.96606
 31
0.0
  0
LINE
  8
0
 10
907.671378
 20
356.945295
 30
0.0
 11
907.692143
 21
356.955678
 31
0.0
  0
LINE
  8
0
 10
907.647646
 20
356.931452
 30
0.0
 11
907.671378
 21
356.945295
 31
0.0
  0
LINE
  8
0
 10
907.626881
 20
356.921069
 30
0.0
 11
907.647646
 21
356.931452
 31
0.0
  0
LINE
  8
0
 10
907.602655
 20
356.907226
 30
0.0
 11
907.626881
 21
356.921069
 31
0.0
  0
LINE
  8
0
 10
907.58189
 20
356.889921
 30
0.0
 11
907.602655
 21
356.907226
 31
0.0
  0
LINE
  8
0
 10
907.561124
 20
356.876078
 30
0.0
 11
907.58189
 21
356.889921
 31
0.0
  0
LINE
  8
0
 10
907.540359
 20
356.859268
 30
0.0
 11
907.561124
 21
356.876078
 31
0.0
  0
LINE
  8
0
 10
907.519594
 20
356.845424
 30
0.0
 11
907.540359
 21
356.859268
 31
0.0
  0
LINE
  8
0
 10
907.498829
 20
356.82812
 30
0.0
 11
907.519594
 21
356.845424
 31
0.0
  0
LINE
  8
0
 10
907.243218
 20
353.227325
 30
0.0
 11
907.243218
 21
356.250648
 31
0.0
  0
LINE
  8
0
 10
908.784297
 20
352.218233
 30
0.0
 11
908.805062
 21
352.211311
 31
0.0
  0
LINE
  8
0
 10
908.753149
 20
352.225154
 30
0.0
 11
908.784297
 21
352.218233
 31
0.0
  0
LINE
  8
0
 10
908.708158
 20
352.235537
 30
0.0
 11
908.753149
 21
352.225154
 31
0.0
  0
LINE
  8
0
 10
908.653278
 20
352.252841
 30
0.0
 11
908.708158
 21
352.235537
 31
0.0
  0
LINE
  8
0
 10
908.587521
 20
352.270146
 30
0.0
 11
908.653278
 21
352.252841
 31
0.0
  0
LINE
  8
0
 10
908.507921
 20
352.290911
 30
0.0
 11
908.587521
 21
352.270146
 31
0.0
  0
LINE
  8
0
 10
908.42486
 20
352.311182
 30
0.0
 11
908.507921
 21
352.290911
 31
0.0
  0
LINE
  8
0
 10
908.331417
 20
352.338869
 30
0.0
 11
908.42486
 21
352.311182
 31
0.0
  0
LINE
  8
0
 10
908.231546
 20
352.363095
 30
0.0
 11
908.331417
 21
352.338869
 31
0.0
  0
LINE
  8
0
 10
908.13118
 20
352.390782
 30
0.0
 11
908.231546
 21
352.363095
 31
0.0
  0
LINE
  8
0
 10
908.027354
 20
352.418469
 30
0.0
 11
908.13118
 21
352.390782
 31
0.0
  0
LINE
  8
0
 10
908.020432
 20
352.42193
 30
0.0
 11
908.027354
 21
352.418469
 31
0.0
  0
LINE
  8
0
 10
907.823657
 20
352.473843
 30
0.0
 11
908.020432
 21
352.42193
 31
0.0
  0
LINE
  8
0
 10
907.799431
 20
352.480765
 30
0.0
 11
907.823657
 21
352.473843
 31
0.0
  0
LINE
  8
0
 10
907.778665
 20
352.487686
 30
0.0
 11
907.799431
 21
352.480765
 31
0.0
  0
LINE
  8
0
 10
907.761361
 20
352.494608
 30
0.0
 11
907.778665
 21
352.487686
 31
0.0
  0
LINE
  8
0
 10
907.740596
 20
352.50153
 30
0.0
 11
907.761361
 21
352.494608
 31
0.0
  0
LINE
  8
0
 10
907.71983
 20
352.508452
 30
0.0
 11
907.740596
 21
352.50153
 31
0.0
  0
LINE
  8
0
 10
907.699065
 20
352.518834
 30
0.0
 11
907.71983
 21
352.508452
 31
0.0
  0
LINE
  8
0
 10
907.6783
 20
352.529217
 30
0.0
 11
907.699065
 21
352.518834
 31
0.0
  0
LINE
  8
0
 10
907.66149
 20
352.536139
 30
0.0
 11
907.6783
 21
352.529217
 31
0.0
  0
LINE
  8
0
 10
907.640725
 20
352.546521
 30
0.0
 11
907.66149
 21
352.536139
 31
0.0
  0
LINE
  8
0
 10
907.62342
 20
352.560365
 30
0.0
 11
907.640725
 21
352.546521
 31
0.0
  0
LINE
  8
0
 10
907.602655
 20
352.570748
 30
0.0
 11
907.62342
 21
352.560365
 31
0.0
  0
LINE
  8
0
 10
907.585351
 20
352.58113
 30
0.0
 11
907.602655
 21
352.570748
 31
0.0
  0
LINE
  8
0
 10
907.568046
 20
352.594974
 30
0.0
 11
907.585351
 21
352.58113
 31
0.0
  0
LINE
  8
0
 10
907.550742
 20
352.608817
 30
0.0
 11
907.568046
 21
352.594974
 31
0.0
  0
LINE
  8
0
 10
907.533437
 20
352.622166
 30
0.0
 11
907.550742
 21
352.608817
 31
0.0
  0
LINE
  8
0
 10
907.516133
 20
352.63601
 30
0.0
 11
907.533437
 21
352.622166
 31
0.0
  0
LINE
  8
0
 10
907.50229
 20
352.649853
 30
0.0
 11
907.516133
 21
352.63601
 31
0.0
  0
LINE
  8
0
 10
907.484985
 20
352.663697
 30
0.0
 11
907.50229
 21
352.649853
 31
0.0
  0
LINE
  8
0
 10
907.467681
 20
352.67754
 30
0.0
 11
907.484985
 21
352.663697
 31
0.0
  0
LINE
  8
0
 10
907.453837
 20
352.694845
 30
0.0
 11
907.467681
 21
352.67754
 31
0.0
  0
LINE
  8
0
 10
907.439994
 20
352.712149
 30
0.0
 11
907.453837
 21
352.694845
 31
0.0
  0
LINE
  8
0
 10
907.42615
 20
352.725993
 30
0.0
 11
907.439994
 21
352.712149
 31
0.0
  0
LINE
  8
0
 10
907.412307
 20
352.743297
 30
0.0
 11
907.42615
 21
352.725993
 31
0.0
  0
LINE
  8
0
 10
907.398463
 20
352.760601
 30
0.0
 11
907.412307
 21
352.743297
 31
0.0
  0
LINE
  8
0
 10
907.38462
 20
352.777906
 30
0.0
 11
907.398463
 21
352.760601
 31
0.0
  0
LINE
  8
0
 10
907.374237
 20
352.798671
 30
0.0
 11
907.38462
 21
352.777906
 31
0.0
  0
LINE
  8
0
 10
907.360394
 20
352.815975
 30
0.0
 11
907.374237
 21
352.798671
 31
0.0
  0
LINE
  8
0
 10
907.350505
 20
352.83328
 30
0.0
 11
907.360394
 21
352.815975
 31
0.0
  0
LINE
  8
0
 10
907.340123
 20
352.854045
 30
0.0
 11
907.350505
 21
352.83328
 31
0.0
  0
LINE
  8
0
 10
907.32974
 20
352.871349
 30
0.0
 11
907.340123
 21
352.854045
 31
0.0
  0
LINE
  8
0
 10
907.319358
 20
352.892115
 30
0.0
 11
907.32974
 21
352.871349
 31
0.0
  0
LINE
  8
0
 10
907.312436
 20
352.91288
 30
0.0
 11
907.319358
 21
352.892115
 31
0.0
  0
LINE
  8
0
 10
907.302053
 20
352.930184
 30
0.0
 11
907.312436
 21
352.91288
 31
0.0
  0
LINE
  8
0
 10
907.295131
 20
352.95095
 30
0.0
 11
907.302053
 21
352.930184
 31
0.0
  0
LINE
  8
0
 10
907.28821
 20
352.97122
 30
0.0
 11
907.295131
 21
352.95095
 31
0.0
  0
LINE
  8
0
 10
907.281288
 20
352.991986
 30
0.0
 11
907.28821
 21
352.97122
 31
0.0
  0
LINE
  8
0
 10
907.274366
 20
353.012751
 30
0.0
 11
907.281288
 21
352.991986
 31
0.0
  0
LINE
  8
0
 10
907.267444
 20
353.033516
 30
0.0
 11
907.274366
 21
353.012751
 31
0.0
  0
LINE
  8
0
 10
907.263983
 20
353.054281
 30
0.0
 11
907.267444
 21
353.033516
 31
0.0
  0
LINE
  8
0
 10
907.260523
 20
353.075047
 30
0.0
 11
907.263983
 21
353.054281
 31
0.0
  0
LINE
  8
0
 10
907.253601
 20
353.099273
 30
0.0
 11
907.260523
 21
353.075047
 31
0.0
  0
LINE
  8
0
 10
907.25014
 20
353.120038
 30
0.0
 11
907.253601
 21
353.099273
 31
0.0
  0
LINE
  8
0
 10
907.25014
 20
353.140803
 30
0.0
 11
907.25014
 21
353.120038
 31
0.0
  0
LINE
  8
0
 10
907.246679
 20
353.161569
 30
0.0
 11
907.25014
 21
353.140803
 31
0.0
  0
LINE
  8
0
 10
907.246679
 20
353.185795
 30
0.0
 11
907.246679
 21
353.161569
 31
0.0
  0
LINE
  8
0
 10
907.243218
 20
353.227325
 30
0.0
 11
907.246679
 21
353.185795
 31
0.0
  0
LINE
  8
0
 10
907.243218
 20
356.250648
 30
0.0
 11
907.243218
 21
353.227325
 31
0.0
  0
LINE
  8
0
 10
907.243218
 20
356.274874
 30
0.0
 11
907.243218
 21
356.250648
 31
0.0
  0
LINE
  8
0
 10
907.246679
 20
356.302561
 30
0.0
 11
907.243218
 21
356.274874
 31
0.0
  0
LINE
  8
0
 10
907.246679
 20
356.326787
 30
0.0
 11
907.246679
 21
356.302561
 31
0.0
  0
LINE
  8
0
 10
907.25014
 20
356.354474
 30
0.0
 11
907.246679
 21
356.326787
 31
0.0
  0
LINE
  8
0
 10
907.253601
 20
356.3787
 30
0.0
 11
907.25014
 21
356.354474
 31
0.0
  0
LINE
  8
0
 10
907.260523
 20
356.406387
 30
0.0
 11
907.253601
 21
356.3787
 31
0.0
  0
LINE
  8
0
 10
907.263983
 20
356.430613
 30
0.0
 11
907.260523
 21
356.406387
 31
0.0
  0
LINE
  8
0
 10
907.270905
 20
356.45484
 30
0.0
 11
907.263983
 21
356.430613
 31
0.0
  0
LINE
  8
0
 10
907.277827
 20
356.482527
 30
0.0
 11
907.270905
 21
356.45484
 31
0.0
  0
LINE
  8
0
 10
907.28821
 20
356.506753
 30
0.0
 11
907.277827
 21
356.482527
 31
0.0
  0
LINE
  8
0
 10
907.295131
 20
356.530979
 30
0.0
 11
907.28821
 21
356.506753
 31
0.0
  0
LINE
  8
0
 10
907.305514
 20
356.554711
 30
0.0
 11
907.295131
 21
356.530979
 31
0.0
  0
LINE
  8
0
 10
907.315897
 20
356.578937
 30
0.0
 11
907.305514
 21
356.554711
 31
0.0
  0
LINE
  8
0
 10
907.326279
 20
356.599702
 30
0.0
 11
907.315897
 21
356.578937
 31
0.0
  0
LINE
  8
0
 10
907.340123
 20
356.623928
 30
0.0
 11
907.326279
 21
356.599702
 31
0.0
  0
LINE
  8
0
 10
907.353472
 20
356.648154
 30
0.0
 11
907.340123
 21
356.623928
 31
0.0
  0
LINE
  8
0
 10
907.367315
 20
356.66892
 30
0.0
 11
907.353472
 21
356.648154
 31
0.0
  0
LINE
  8
0
 10
907.381159
 20
356.689685
 30
0.0
 11
907.367315
 21
356.66892
 31
0.0
  0
LINE
  8
0
 10
907.395002
 20
356.71045
 30
0.0
 11
907.381159
 21
356.689685
 31
0.0
  0
LINE
  8
0
 10
907.412307
 20
356.731215
 30
0.0
 11
907.395002
 21
356.71045
 31
0.0
  0
LINE
  8
0
 10
907.42615
 20
356.751981
 30
0.0
 11
907.412307
 21
356.731215
 31
0.0
  0
LINE
  8
0
 10
907.443455
 20
356.772746
 30
0.0
 11
907.42615
 21
356.751981
 31
0.0
  0
LINE
  8
0
 10
907.46422
 20
356.79005
 30
0.0
 11
907.443455
 21
356.772746
 31
0.0
  0
LINE
  8
0
 10
907.481524
 20
356.810815
 30
0.0
 11
907.46422
 21
356.79005
 31
0.0
  0
LINE
  8
0
 10
907.498829
 20
356.82812
 30
0.0
 11
907.481524
 21
356.810815
 31
0.0
  0
LINE
  8
0
 10
908.805062
 20
357.028356
 30
0.0
 11
908.805062
 21
352.211311
 31
0.0
  0
LINE
  8
0
 10
909.268325
 20
357.028356
 30
0.0
 11
909.268325
 21
381.124461
 31
0.0
  0
LINE
  8
0
 10
908.020432
 20
381.124461
 30
0.0
 11
908.023893
 21
381.124461
 31
0.0
  0
LINE
  8
0
 10
907.243218
 20
381.902169
 30
0.0
 11
907.243218
 21
381.90563
 31
0.0
  0
LINE
  8
0
 10
907.243218
 20
381.877943
 30
0.0
 11
907.243218
 21
381.902169
 31
0.0
  0
LINE
  8
0
 10
907.246679
 20
381.853717
 30
0.0
 11
907.243218
 21
381.877943
 31
0.0
  0
LINE
  8
0
 10
907.246679
 20
381.82603
 30
0.0
 11
907.246679
 21
381.853717
 31
0.0
  0
LINE
  8
0
 10
907.25014
 20
381.801804
 30
0.0
 11
907.246679
 21
381.82603
 31
0.0
  0
LINE
  8
0
 10
907.253601
 20
381.774117
 30
0.0
 11
907.25014
 21
381.801804
 31
0.0
  0
LINE
  8
0
 10
907.260523
 20
381.749891
 30
0.0
 11
907.253601
 21
381.774117
 31
0.0
  0
LINE
  8
0
 10
907.263983
 20
381.725664
 30
0.0
 11
907.260523
 21
381.749891
 31
0.0
  0
LINE
  8
0
 10
907.270905
 20
381.697977
 30
0.0
 11
907.263983
 21
381.725664
 31
0.0
  0
LINE
  8
0
 10
907.277827
 20
381.673751
 30
0.0
 11
907.270905
 21
381.697977
 31
0.0
  0
LINE
  8
0
 10
907.28821
 20
381.649525
 30
0.0
 11
907.277827
 21
381.673751
 31
0.0
  0
LINE
  8
0
 10
907.295131
 20
381.625793
 30
0.0
 11
907.28821
 21
381.649525
 31
0.0
  0
LINE
  8
0
 10
907.305514
 20
381.601567
 30
0.0
 11
907.295131
 21
381.625793
 31
0.0
  0
LINE
  8
0
 10
907.315897
 20
381.577341
 30
0.0
 11
907.305514
 21
381.601567
 31
0.0
  0
LINE
  8
0
 10
907.326279
 20
381.553115
 30
0.0
 11
907.315897
 21
381.577341
 31
0.0
  0
LINE
  8
0
 10
907.340123
 20
381.53235
 30
0.0
 11
907.326279
 21
381.553115
 31
0.0
  0
LINE
  8
0
 10
907.353472
 20
381.508124
 30
0.0
 11
907.340123
 21
381.53235
 31
0.0
  0
LINE
  8
0
 10
907.367315
 20
381.487358
 30
0.0
 11
907.353472
 21
381.508124
 31
0.0
  0
LINE
  8
0
 10
907.381159
 20
381.463132
 30
0.0
 11
907.367315
 21
381.487358
 31
0.0
  0
LINE
  8
0
 10
907.395002
 20
381.442367
 30
0.0
 11
907.381159
 21
381.463132
 31
0.0
  0
LINE
  8
0
 10
907.412307
 20
381.421602
 30
0.0
 11
907.395002
 21
381.442367
 31
0.0
  0
LINE
  8
0
 10
907.42615
 20
381.404297
 30
0.0
 11
907.412307
 21
381.421602
 31
0.0
  0
LINE
  8
0
 10
907.443455
 20
381.383532
 30
0.0
 11
907.42615
 21
381.404297
 31
0.0
  0
LINE
  8
0
 10
907.460759
 20
381.362767
 30
0.0
 11
907.443455
 21
381.383532
 31
0.0
  0
LINE
  8
0
 10
907.481524
 20
381.345462
 30
0.0
 11
907.460759
 21
381.362767
 31
0.0
  0
LINE
  8
0
 10
907.498829
 20
381.328158
 30
0.0
 11
907.481524
 21
381.345462
 31
0.0
  0
LINE
  8
0
 10
907.519594
 20
381.310854
 30
0.0
 11
907.498829
 21
381.328158
 31
0.0
  0
LINE
  8
0
 10
907.540359
 20
381.294044
 30
0.0
 11
907.519594
 21
381.310854
 31
0.0
  0
LINE
  8
0
 10
907.561124
 20
381.2802
 30
0.0
 11
907.540359
 21
381.294044
 31
0.0
  0
LINE
  8
0
 10
907.58189
 20
381.262896
 30
0.0
 11
907.561124
 21
381.2802
 31
0.0
  0
LINE
  8
0
 10
907.602655
 20
381.249052
 30
0.0
 11
907.58189
 21
381.262896
 31
0.0
  0
LINE
  8
0
 10
907.62342
 20
381.235209
 30
0.0
 11
907.602655
 21
381.249052
 31
0.0
  0
LINE
  8
0
 10
907.647646
 20
381.221365
 30
0.0
 11
907.62342
 21
381.235209
 31
0.0
  0
LINE
  8
0
 10
907.671378
 20
381.210983
 30
0.0
 11
907.647646
 21
381.221365
 31
0.0
  0
LINE
  8
0
 10
907.692143
 20
381.197139
 30
0.0
 11
907.671378
 21
381.210983
 31
0.0
  0
LINE
  8
0
 10
907.716369
 20
381.186757
 30
0.0
 11
907.692143
 21
381.197139
 31
0.0
  0
LINE
  8
0
 10
907.740596
 20
381.179835
 30
0.0
 11
907.716369
 21
381.186757
 31
0.0
  0
LINE
  8
0
 10
907.764822
 20
381.169452
 30
0.0
 11
907.740596
 21
381.179835
 31
0.0
  0
LINE
  8
0
 10
907.789048
 20
381.16253
 30
0.0
 11
907.764822
 21
381.169452
 31
0.0
  0
LINE
  8
0
 10
907.816735
 20
381.152148
 30
0.0
 11
907.789048
 21
381.16253
 31
0.0
  0
LINE
  8
0
 10
907.840961
 20
381.148687
 30
0.0
 11
907.816735
 21
381.152148
 31
0.0
  0
LINE
  8
0
 10
907.865187
 20
381.141765
 30
0.0
 11
907.840961
 21
381.148687
 31
0.0
  0
LINE
  8
0
 10
907.892874
 20
381.138304
 30
0.0
 11
907.865187
 21
381.141765
 31
0.0
  0
LINE
  8
0
 10
907.9171
 20
381.131383
 30
0.0
 11
907.892874
 21
381.138304
 31
0.0
  0
LINE
  8
0
 10
907.944787
 20
381.127922
 30
0.0
 11
907.9171
 21
381.131383
 31
0.0
  0
LINE
  8
0
 10
907.969013
 20
381.127922
 30
0.0
 11
907.944787
 21
381.127922
 31
0.0
  0
LINE
  8
0
 10
907.9967
 20
381.124461
 30
0.0
 11
907.969013
 21
381.127922
 31
0.0
  0
LINE
  8
0
 10
908.020432
 20
381.124461
 30
0.0
 11
907.9967
 21
381.124461
 31
0.0
  0
LINE
  8
0
 10
908.798141
 20
385.941506
 30
0.0
 11
908.805062
 21
385.941506
 31
0.0
  0
LINE
  8
0
 10
908.777375
 20
385.934585
 30
0.0
 11
908.798141
 21
385.941506
 31
0.0
  0
LINE
  8
0
 10
908.742767
 20
385.927663
 30
0.0
 11
908.777375
 21
385.934585
 31
0.0
  0
LINE
  8
0
 10
908.694314
 20
385.913819
 30
0.0
 11
908.742767
 21
385.927663
 31
0.0
  0
LINE
  8
0
 10
908.635974
 20
385.896515
 30
0.0
 11
908.694314
 21
385.913819
 31
0.0
  0
LINE
  8
0
 10
908.566756
 20
385.87921
 30
0.0
 11
908.635974
 21
385.896515
 31
0.0
  0
LINE
  8
0
 10
908.487156
 20
385.85894
 30
0.0
 11
908.566756
 21
385.87921
 31
0.0
  0
LINE
  8
0
 10
908.397173
 20
385.834713
 30
0.0
 11
908.487156
 21
385.85894
 31
0.0
  0
LINE
  8
0
 10
908.304224
 20
385.810487
 30
0.0
 11
908.397173
 21
385.834713
 31
0.0
  0
LINE
  8
0
 10
908.203859
 20
385.7828
 30
0.0
 11
908.304224
 21
385.810487
 31
0.0
  0
LINE
  8
0
 10
908.030815
 20
385.734348
 30
0.0
 11
908.203859
 21
385.7828
 31
0.0
  0
LINE
  8
0
 10
907.243218
 20
384.932414
 30
0.0
 11
907.243218
 21
384.928953
 31
0.0
  0
LINE
  8
0
 10
907.246679
 20
384.973944
 30
0.0
 11
907.243218
 21
384.932414
 31
0.0
  0
LINE
  8
0
 10
907.246679
 20
384.994709
 30
0.0
 11
907.246679
 21
384.973944
 31
0.0
  0
LINE
  8
0
 10
907.25014
 20
385.015475
 30
0.0
 11
907.246679
 21
384.994709
 31
0.0
  0
LINE
  8
0
 10
907.253601
 20
385.039701
 30
0.0
 11
907.25014
 21
385.015475
 31
0.0
  0
LINE
  8
0
 10
907.257062
 20
385.060466
 30
0.0
 11
907.253601
 21
385.039701
 31
0.0
  0
LINE
  8
0
 10
907.260523
 20
385.081231
 30
0.0
 11
907.257062
 21
385.060466
 31
0.0
  0
LINE
  8
0
 10
907.263983
 20
385.101997
 30
0.0
 11
907.260523
 21
385.081231
 31
0.0
  0
LINE
  8
0
 10
907.270905
 20
385.122762
 30
0.0
 11
907.263983
 21
385.101997
 31
0.0
  0
LINE
  8
0
 10
907.274366
 20
385.143527
 30
0.0
 11
907.270905
 21
385.122762
 31
0.0
  0
LINE
  8
0
 10
907.281288
 20
385.164292
 30
0.0
 11
907.274366
 21
385.143527
 31
0.0
  0
LINE
  8
0
 10
907.28821
 20
385.185058
 30
0.0
 11
907.281288
 21
385.164292
 31
0.0
  0
LINE
  8
0
 10
907.295131
 20
385.205823
 30
0.0
 11
907.28821
 21
385.185058
 31
0.0
  0
LINE
  8
0
 10
907.302053
 20
385.226588
 30
0.0
 11
907.295131
 21
385.205823
 31
0.0
  0
LINE
  8
0
 10
907.312436
 20
385.246859
 30
0.0
 11
907.302053
 21
385.226588
 31
0.0
  0
LINE
  8
0
 10
907.322818
 20
385.264163
 30
0.0
 11
907.312436
 21
385.246859
 31
0.0
  0
LINE
  8
0
 10
907.32974
 20
385.284929
 30
0.0
 11
907.322818
 21
385.264163
 31
0.0
  0
LINE
  8
0
 10
907.340123
 20
385.302233
 30
0.0
 11
907.32974
 21
385.284929
 31
0.0
  0
LINE
  8
0
 10
907.350505
 20
385.322998
 30
0.0
 11
907.340123
 21
385.302233
 31
0.0
  0
LINE
  8
0
 10
907.363854
 20
385.340303
 30
0.0
 11
907.350505
 21
385.322998
 31
0.0
  0
LINE
  8
0
 10
907.374237
 20
385.357607
 30
0.0
 11
907.363854
 21
385.340303
 31
0.0
  0
LINE
  8
0
 10
907.388081
 20
385.378372
 30
0.0
 11
907.374237
 21
385.357607
 31
0.0
  0
LINE
  8
0
 10
907.398463
 20
385.395677
 30
0.0
 11
907.388081
 21
385.378372
 31
0.0
  0
LINE
  8
0
 10
907.412307
 20
385.412981
 30
0.0
 11
907.398463
 21
385.395677
 31
0.0
  0
LINE
  8
0
 10
907.42615
 20
385.426824
 30
0.0
 11
907.412307
 21
385.412981
 31
0.0
  0
LINE
  8
0
 10
907.439994
 20
385.444129
 30
0.0
 11
907.42615
 21
385.426824
 31
0.0
  0
LINE
  8
0
 10
907.453837
 20
385.461433
 30
0.0
 11
907.439994
 21
385.444129
 31
0.0
  0
LINE
  8
0
 10
907.471142
 20
385.475277
 30
0.0
 11
907.453837
 21
385.461433
 31
0.0
  0
LINE
  8
0
 10
907.484985
 20
385.492581
 30
0.0
 11
907.471142
 21
385.475277
 31
0.0
  0
LINE
  8
0
 10
907.50229
 20
385.506425
 30
0.0
 11
907.484985
 21
385.492581
 31
0.0
  0
LINE
  8
0
 10
907.519594
 20
385.520268
 30
0.0
 11
907.50229
 21
385.506425
 31
0.0
  0
LINE
  8
0
 10
907.533437
 20
385.534112
 30
0.0
 11
907.519594
 21
385.520268
 31
0.0
  0
LINE
  8
0
 10
907.550742
 20
385.547461
 30
0.0
 11
907.533437
 21
385.534112
 31
0.0
  0
LINE
  8
0
 10
907.568046
 20
385.561304
 30
0.0
 11
907.550742
 21
385.547461
 31
0.0
  0
LINE
  8
0
 10
907.585351
 20
385.571687
 30
0.0
 11
907.568046
 21
385.561304
 31
0.0
  0
LINE
  8
0
 10
907.606116
 20
385.58553
 30
0.0
 11
907.585351
 21
385.571687
 31
0.0
  0
LINE
  8
0
 10
907.62342
 20
385.595913
 30
0.0
 11
907.606116
 21
385.58553
 31
0.0
  0
LINE
  8
0
 10
907.640725
 20
385.606296
 30
0.0
 11
907.62342
 21
385.595913
 31
0.0
  0
LINE
  8
0
 10
907.66149
 20
385.616678
 30
0.0
 11
907.640725
 21
385.606296
 31
0.0
  0
LINE
  8
0
 10
907.681761
 20
385.627061
 30
0.0
 11
907.66149
 21
385.616678
 31
0.0
  0
LINE
  8
0
 10
907.699065
 20
385.637444
 30
0.0
 11
907.681761
 21
385.627061
 31
0.0
  0
LINE
  8
0
 10
907.71983
 20
385.644365
 30
0.0
 11
907.699065
 21
385.637444
 31
0.0
  0
LINE
  8
0
 10
907.740596
 20
385.654748
 30
0.0
 11
907.71983
 21
385.644365
 31
0.0
  0
LINE
  8
0
 10
907.761361
 20
385.66167
 30
0.0
 11
907.740596
 21
385.654748
 31
0.0
  0
LINE
  8
0
 10
907.782126
 20
385.668591
 30
0.0
 11
907.761361
 21
385.66167
 31
0.0
  0
LINE
  8
0
 10
907.799431
 20
385.675513
 30
0.0
 11
907.782126
 21
385.668591
 31
0.0
  0
LINE
  8
0
 10
907.823657
 20
385.678974
 30
0.0
 11
907.799431
 21
385.675513
 31
0.0
  0
LINE
  8
0
 10
908.016971
 20
385.734348
 30
0.0
 11
907.823657
 21
385.678974
 31
0.0
  0
LINE
  8
0
 10
908.020432
 20
385.734348
 30
0.0
 11
908.016971
 21
385.734348
 31
0.0
  0
LINE
  8
0
 10
908.027354
 20
385.734348
 30
0.0
 11
908.020432
 21
385.734348
 31
0.0
  0
LINE
  8
0
 10
908.027354
 20
381.124461
 30
0.0
 11
908.023893
 21
381.124461
 31
0.0
  0
LINE
  8
0
 10
908.127719
 20
381.124461
 30
0.0
 11
908.027354
 21
381.124461
 31
0.0
  0
LINE
  8
0
 10
908.228085
 20
381.124461
 30
0.0
 11
908.127719
 21
381.124461
 31
0.0
  0
LINE
  8
0
 10
908.324989
 20
381.124461
 30
0.0
 11
908.228085
 21
381.124461
 31
0.0
  0
LINE
  8
0
 10
908.414478
 20
381.124461
 30
0.0
 11
908.324989
 21
381.124461
 31
0.0
  0
LINE
  8
0
 10
908.501
 20
381.124461
 30
0.0
 11
908.414478
 21
381.124461
 31
0.0
  0
LINE
  8
0
 10
908.577139
 20
381.124461
 30
0.0
 11
908.501
 21
381.124461
 31
0.0
  0
LINE
  8
0
 10
908.642896
 20
381.124461
 30
0.0
 11
908.577139
 21
381.124461
 31
0.0
  0
LINE
  8
0
 10
908.701236
 20
381.124461
 30
0.0
 11
908.642896
 21
381.124461
 31
0.0
  0
LINE
  8
0
 10
908.746227
 20
381.124461
 30
0.0
 11
908.701236
 21
381.124461
 31
0.0
  0
LINE
  8
0
 10
908.777375
 20
381.124461
 30
0.0
 11
908.746227
 21
381.124461
 31
0.0
  0
LINE
  8
0
 10
908.798141
 20
381.124461
 30
0.0
 11
908.777375
 21
381.124461
 31
0.0
  0
LINE
  8
0
 10
908.805062
 20
381.124461
 30
0.0
 11
908.798141
 21
381.124461
 31
0.0
  0
LINE
  8
0
 10
909.268325
 20
381.124461
 30
0.0
 11
908.805062
 21
381.124461
 31
0.0
  0
LINE
  8
0
 10
907.243218
 20
384.925492
 30
0.0
 11
907.243218
 21
381.90563
 31
0.0
  0
LINE
  8
0
 10
907.243218
 20
381.902169
 30
0.0
 11
907.243218
 21
384.925492
 31
0.0
  0
LINE
  8
0
 10
908.805062
 20
385.941506
 30
0.0
 11
908.805062
 21
381.124461
 31
0.0
  0
LINE
  8
0
 10
908.805062
 20
385.941506
 30
0.0
 11
911.517895
 21
386.670762
 31
0.0
  0
LINE
  8
0
 10
911.566347
 20
386.691528
 30
0.0
 11
911.517895
 21
386.670762
 31
0.0
  0
LINE
  8
0
 10
911.607383
 20
386.722675
 30
0.0
 11
911.566347
 21
386.691528
 31
0.0
  0
LINE
  8
0
 10
911.638531
 20
386.760745
 30
0.0
 11
911.607383
 21
386.722675
 31
0.0
  0
LINE
  8
0
 10
911.655836
 20
386.809197
 30
0.0
 11
911.638531
 21
386.760745
 31
0.0
  0
LINE
  8
0
 10
911.662757
 20
386.860616
 30
0.0
 11
911.655836
 21
386.809197
 31
0.0
  0
LINE
  8
0
 10
911.662757
 20
390.209261
 30
0.0
 11
911.662757
 21
386.860616
 31
0.0
  0
LINE
  8
0
 10
912.074107
 20
391.612399
 30
0.0
 11
911.963359
 21
391.640086
 31
0.0
  0
LINE
  8
0
 10
912.181394
 20
391.57433
 30
0.0
 11
912.074107
 21
391.612399
 31
0.0
  0
LINE
  8
0
 10
912.281265
 20
391.522417
 30
0.0
 11
912.181394
 21
391.57433
 31
0.0
  0
LINE
  8
0
 10
912.374709
 20
391.460121
 30
0.0
 11
912.281265
 21
391.522417
 31
0.0
  0
LINE
  8
0
 10
912.461231
 20
391.387937
 30
0.0
 11
912.374709
 21
391.460121
 31
0.0
  0
LINE
  8
0
 10
912.540831
 20
391.304876
 30
0.0
 11
912.461231
 21
391.387937
 31
0.0
  0
LINE
  8
0
 10
912.609554
 20
391.214893
 30
0.0
 11
912.540831
 21
391.304876
 31
0.0
  0
LINE
  8
0
 10
912.664928
 20
391.114528
 30
0.0
 11
912.609554
 21
391.214893
 31
0.0
  0
LINE
  8
0
 10
912.70992
 20
391.011196
 30
0.0
 11
912.664928
 21
391.114528
 31
0.0
  0
LINE
  8
0
 10
912.741068
 20
390.903909
 30
0.0
 11
912.70992
 21
391.011196
 31
0.0
  0
LINE
  8
0
 10
912.761833
 20
390.793161
 30
0.0
 11
912.741068
 21
390.903909
 31
0.0
  0
LINE
  8
0
 10
912.768755
 20
390.679446
 30
0.0
 11
912.761833
 21
390.793161
 31
0.0
  0
LINE
  8
0
 10
911.655836
 20
390.261174
 30
0.0
 11
911.662757
 21
390.209261
 31
0.0
  0
LINE
  8
0
 10
911.63507
 20
390.309627
 30
0.0
 11
911.655836
 21
390.261174
 31
0.0
  0
LINE
  8
0
 10
911.600462
 20
390.351157
 30
0.0
 11
911.63507
 21
390.309627
 31
0.0
  0
LINE
  8
0
 10
911.555965
 20
390.382305
 30
0.0
 11
911.600462
 21
390.351157
 31
0.0
  0
LINE
  8
0
 10
911.504051
 20
390.399609
 30
0.0
 11
911.555965
 21
390.382305
 31
0.0
  0
LINE
  8
0
 10
909.630729
 20
392.051436
 30
0.0
 11
911.963359
 21
391.640086
 31
0.0
  0
LINE
  8
0
 10
911.504051
 20
390.399609
 30
0.0
 11
909.406266
 21
390.768934
 31
0.0
  0
LINE
  8
0
 10
909.427031
 20
390.765473
 30
0.0
 11
909.520475
 21
390.758552
 31
0.0
  0
LINE
  8
0
 10
909.337048
 20
390.786239
 30
0.0
 11
909.427031
 21
390.765473
 31
0.0
  0
LINE
  8
0
 10
909.24756
 20
390.817387
 30
0.0
 11
909.337048
 21
390.786239
 31
0.0
  0
LINE
  8
0
 10
909.16796
 20
390.862378
 30
0.0
 11
909.24756
 21
390.817387
 31
0.0
  0
LINE
  8
0
 10
909.091821
 20
390.917752
 30
0.0
 11
909.16796
 21
390.862378
 31
0.0
  0
LINE
  8
0
 10
909.026064
 20
390.983509
 30
0.0
 11
909.091821
 21
390.917752
 31
0.0
  0
LINE
  8
0
 10
908.971184
 20
391.059648
 30
0.0
 11
909.026064
 21
390.983509
 31
0.0
  0
LINE
  8
0
 10
908.926193
 20
391.138754
 30
0.0
 11
908.971184
 21
391.059648
 31
0.0
  0
LINE
  8
0
 10
908.895045
 20
391.225276
 30
0.0
 11
908.926193
 21
391.138754
 31
0.0
  0
LINE
  8
0
 10
908.87428
 20
391.318719
 30
0.0
 11
908.895045
 21
391.225276
 31
0.0
  0
LINE
  8
0
 10
908.867358
 20
391.408702
 30
0.0
 11
908.87428
 21
391.318719
 31
0.0
  0
LINE
  8
0
 10
908.87428
 20
391.501651
 30
0.0
 11
908.867358
 21
391.408702
 31
0.0
  0
LINE
  8
0
 10
908.895045
 20
391.591634
 30
0.0
 11
908.87428
 21
391.501651
 31
0.0
  0
LINE
  8
0
 10
908.926193
 20
391.678156
 30
0.0
 11
908.895045
 21
391.591634
 31
0.0
  0
LINE
  8
0
 10
908.971184
 20
391.760723
 30
0.0
 11
908.926193
 21
391.678156
 31
0.0
  0
LINE
  8
0
 10
909.026064
 20
391.836862
 30
0.0
 11
908.971184
 21
391.760723
 31
0.0
  0
LINE
  8
0
 10
909.091821
 20
391.899158
 30
0.0
 11
909.026064
 21
391.836862
 31
0.0
  0
LINE
  8
0
 10
909.16796
 20
391.957993
 30
0.0
 11
909.091821
 21
391.899158
 31
0.0
  0
LINE
  8
0
 10
909.24756
 20
391.999523
 30
0.0
 11
909.16796
 21
391.957993
 31
0.0
  0
LINE
  8
0
 10
909.337048
 20
392.034132
 30
0.0
 11
909.24756
 21
391.999523
 31
0.0
  0
LINE
  8
0
 10
909.427031
 20
392.054897
 30
0.0
 11
909.337048
 21
392.034132
 31
0.0
  0
LINE
  8
0
 10
909.520475
 20
392.057864
 30
0.0
 11
909.427031
 21
392.054897
 31
0.0
  0
LINE
  8
0
 10
909.610458
 20
392.054897
 30
0.0
 11
909.520475
 21
392.057864
 31
0.0
  0
LINE
  8
0
 10
909.703407
 20
392.034132
 30
0.0
 11
909.610458
 21
392.054897
 31
0.0
  0
LINE
  8
0
 10
909.789929
 20
391.999523
 30
0.0
 11
909.703407
 21
392.034132
 31
0.0
  0
LINE
  8
0
 10
909.869529
 20
391.957993
 30
0.0
 11
909.789929
 21
391.999523
 31
0.0
  0
LINE
  8
0
 10
909.945668
 20
391.899158
 30
0.0
 11
909.869529
 21
391.957993
 31
0.0
  0
LINE
  8
0
 10
910.010931
 20
391.836862
 30
0.0
 11
909.945668
 21
391.899158
 31
0.0
  0
LINE
  8
0
 10
910.066305
 20
391.760723
 30
0.0
 11
910.010931
 21
391.836862
 31
0.0
  0
LINE
  8
0
 10
910.111296
 20
391.678156
 30
0.0
 11
910.066305
 21
391.760723
 31
0.0
  0
LINE
  8
0
 10
910.142444
 20
391.591634
 30
0.0
 11
910.111296
 21
391.678156
 31
0.0
  0
LINE
  8
0
 10
910.163209
 20
391.501651
 30
0.0
 11
910.142444
 21
391.591634
 31
0.0
  0
LINE
  8
0
 10
910.170131
 20
391.408702
 30
0.0
 11
910.163209
 21
391.501651
 31
0.0
  0
LINE
  8
0
 10
910.163209
 20
391.318719
 30
0.0
 11
910.170131
 21
391.408702
 31
0.0
  0
LINE
  8
0
 10
910.142444
 20
391.225276
 30
0.0
 11
910.163209
 21
391.318719
 31
0.0
  0
LINE
  8
0
 10
910.111296
 20
391.138754
 30
0.0
 11
910.142444
 21
391.225276
 31
0.0
  0
LINE
  8
0
 10
910.066305
 20
391.059648
 30
0.0
 11
910.111296
 21
391.138754
 31
0.0
  0
LINE
  8
0
 10
910.010931
 20
390.983509
 30
0.0
 11
910.066305
 21
391.059648
 31
0.0
  0
LINE
  8
0
 10
909.945668
 20
390.917752
 30
0.0
 11
910.010931
 21
390.983509
 31
0.0
  0
LINE
  8
0
 10
909.869529
 20
390.862378
 30
0.0
 11
909.945668
 21
390.917752
 31
0.0
  0
LINE
  8
0
 10
909.789929
 20
390.817387
 30
0.0
 11
909.869529
 21
390.862378
 31
0.0
  0
LINE
  8
0
 10
909.703407
 20
390.786239
 30
0.0
 11
909.789929
 21
390.817387
 31
0.0
  0
LINE
  8
0
 10
909.610458
 20
390.765473
 30
0.0
 11
909.703407
 21
390.786239
 31
0.0
  0
LINE
  8
0
 10
909.520475
 20
390.758552
 30
0.0
 11
909.610458
 21
390.765473
 31
0.0
  0
LINE
  8
0
 10
911.655836
 20
351.347081
 30
0.0
 11
911.662757
 21
351.295662
 31
0.0
  0
LINE
  8
0
 10
911.638531
 20
351.392072
 30
0.0
 11
911.655836
 21
351.347081
 31
0.0
  0
LINE
  8
0
 10
911.517895
 20
351.482055
 30
0.0
 11
911.566347
 21
351.46475
 31
0.0
  0
LINE
  8
0
 10
915.039089
 20
398.005132
 30
0.0
 11
915.032168
 21
398.17076
 31
0.0
  0
LINE
  8
0
 10
915.032168
 20
398.17076
 30
0.0
 11
915.011402
 21
398.333421
 31
0.0
  0
LINE
  8
0
 10
915.011402
 20
398.333421
 30
0.0
 11
914.976794
 21
398.495588
 31
0.0
  0
LINE
  8
0
 10
914.976794
 20
398.495588
 30
0.0
 11
914.928341
 21
398.654788
 31
0.0
  0
LINE
  8
0
 10
914.928341
 20
398.654788
 30
0.0
 11
914.869507
 21
398.806573
 31
0.0
  0
LINE
  8
0
 10
914.869507
 20
398.806573
 30
0.0
 11
914.796828
 21
398.95539
 31
0.0
  0
LINE
  8
0
 10
914.796828
 20
398.95539
 30
0.0
 11
914.714261
 21
399.097286
 31
0.0
  0
LINE
  8
0
 10
914.714261
 20
399.097286
 30
0.0
 11
914.617357
 21
399.231766
 31
0.0
  0
LINE
  8
0
 10
914.617357
 20
399.231766
 30
0.0
 11
914.51007
 21
399.359818
 31
0.0
  0
LINE
  8
0
 10
914.51007
 20
399.359818
 30
0.0
 11
914.392894
 21
399.476994
 31
0.0
  0
LINE
  8
0
 10
914.392894
 20
399.476994
 30
0.0
 11
914.264842
 21
399.584281
 31
0.0
  0
LINE
  8
0
 10
914.264842
 20
399.584281
 30
0.0
 11
914.133823
 21
399.677725
 31
0.0
  0
LINE
  8
0
 10
914.133823
 20
399.677725
 30
0.0
 11
913.988466
 21
399.764246
 31
0.0
  0
LINE
  8
0
 10
913.988466
 20
399.764246
 30
0.0
 11
913.839649
 21
399.83643
 31
0.0
  0
LINE
  8
0
 10
913.839649
 20
399.83643
 30
0.0
 11
913.687864
 21
399.895265
 31
0.0
  0
LINE
  8
0
 10
913.687864
 20
399.895265
 30
0.0
 11
913.528664
 21
399.943718
 31
0.0
  0
LINE
  8
0
 10
912.139864
 20
398.305734
 30
0.0
 11
912.263961
 21
398.298813
 31
0.0
  0
LINE
  8
0
 10
912.263961
 20
398.298813
 30
0.0
 11
912.388553
 21
398.278047
 31
0.0
  0
LINE
  8
0
 10
912.388553
 20
398.278047
 30
0.0
 11
912.509683
 21
398.246899
 31
0.0
  0
LINE
  8
0
 10
912.509683
 20
398.246899
 30
0.0
 11
912.626859
 21
398.201908
 31
0.0
  0
LINE
  8
0
 10
912.626859
 20
398.201908
 30
0.0
 11
912.737607
 21
398.143567
 31
0.0
  0
LINE
  8
0
 10
912.737607
 20
398.143567
 30
0.0
 11
912.844399
 21
398.07435
 31
0.0
  0
LINE
  8
0
 10
912.844399
 20
398.07435
 30
0.0
 11
912.941304
 21
397.99475
 31
0.0
  0
LINE
  8
0
 10
912.941304
 20
397.99475
 30
0.0
 11
913.031287
 21
397.908228
 31
0.0
  0
LINE
  8
0
 10
913.031287
 20
397.908228
 30
0.0
 11
913.110887
 21
397.808357
 31
0.0
  0
LINE
  8
0
 10
913.110887
 20
397.808357
 30
0.0
 11
913.176149
 21
397.704531
 31
0.0
  0
LINE
  8
0
 10
913.176149
 20
397.704531
 30
0.0
 11
913.234984
 21
397.593783
 31
0.0
  0
LINE
  8
0
 10
913.234984
 20
397.593783
 30
0.0
 11
913.279975
 21
397.476607
 31
0.0
  0
LINE
  8
0
 10
913.279975
 20
397.476607
 30
0.0
 11
913.311123
 21
397.355477
 31
0.0
  0
LINE
  8
0
 10
913.311123
 20
397.355477
 30
0.0
 11
913.331889
 21
397.230885
 31
0.0
  0
LINE
  8
0
 10
913.331889
 20
397.230885
 30
0.0
 11
913.33881
 21
397.103327
 31
0.0
  0
LINE
  8
0
 10
908.490617
 20
398.305734
 30
0.0
 11
912.139864
 21
398.305734
 31
0.0
  0
LINE
  8
0
 10
907.740596
 20
397.002962
 30
0.0
 11
908.490617
 21
398.305734
 31
0.0
  0
LINE
  8
0
 10
907.536898
 20
400.006013
 30
0.0
 11
907.374237
 21
399.999092
 31
0.0
  0
LINE
  8
0
 10
907.374237
 20
399.999092
 30
0.0
 11
907.208609
 21
399.978326
 31
0.0
  0
LINE
  8
0
 10
907.208609
 20
399.978326
 30
0.0
 11
907.045948
 21
399.943718
 31
0.0
  0
LINE
  8
0
 10
907.045948
 20
399.943718
 30
0.0
 11
906.890703
 21
399.895265
 31
0.0
  0
LINE
  8
0
 10
906.890703
 20
399.895265
 30
0.0
 11
906.734964
 21
399.83643
 31
0.0
  0
LINE
  8
0
 10
906.734964
 20
399.83643
 30
0.0
 11
906.586641
 21
399.764246
 31
0.0
  0
LINE
  8
0
 10
906.586641
 20
399.764246
 30
0.0
 11
906.444745
 21
399.677725
 31
0.0
  0
LINE
  8
0
 10
906.444745
 20
399.677725
 30
0.0
 11
906.30977
 21
399.584281
 31
0.0
  0
LINE
  8
0
 10
906.30977
 20
399.584281
 30
0.0
 11
906.182212
 21
399.476994
 31
0.0
  0
LINE
  8
0
 10
906.182212
 20
399.476994
 30
0.0
 11
906.068003
 21
399.359818
 31
0.0
  0
LINE
  8
0
 10
906.068003
 20
399.359818
 30
0.0
 11
905.961211
 21
399.231766
 31
0.0
  0
LINE
  8
0
 10
905.961211
 20
399.231766
 30
0.0
 11
905.864306
 21
399.097286
 31
0.0
  0
LINE
  8
0
 10
905.864306
 20
399.097286
 30
0.0
 11
905.777784
 21
398.95539
 31
0.0
  0
LINE
  8
0
 10
905.777784
 20
398.95539
 30
0.0
 11
905.705106
 21
398.806573
 31
0.0
  0
LINE
  8
0
 10
905.705106
 20
398.806573
 30
0.0
 11
905.646765
 21
398.654788
 31
0.0
  0
LINE
  8
0
 10
905.646765
 20
398.654788
 30
0.0
 11
905.598313
 21
398.495588
 31
0.0
  0
LINE
  8
0
 10
905.598313
 20
398.495588
 30
0.0
 11
905.567165
 21
398.333421
 31
0.0
  0
LINE
  8
0
 10
905.567165
 20
398.333421
 30
0.0
 11
905.5464
 21
398.17076
 31
0.0
  0
LINE
  8
0
 10
905.5464
 20
398.17076
 30
0.0
 11
905.539478
 21
398.005132
 31
0.0
  0
LINE
  8
0
 10
905.539478
 20
398.005132
 30
0.0
 11
905.968132
 21
397.082562
 31
0.0
  0
LINE
  8
0
 10
905.968132
 20
397.082562
 30
0.0
 11
906.023012
 21
396.982196
 31
0.0
  0
LINE
  8
0
 10
906.023012
 20
396.982196
 30
0.0
 11
906.088769
 21
396.885292
 31
0.0
  0
LINE
  8
0
 10
906.088769
 20
396.885292
 30
0.0
 11
906.164908
 21
396.799264
 31
0.0
  0
LINE
  8
0
 10
906.164908
 20
396.799264
 30
0.0
 11
906.25143
 21
396.723125
 31
0.0
  0
LINE
  8
0
 10
906.25143
 20
396.723125
 30
0.0
 11
906.344379
 21
396.657368
 31
0.0
  0
LINE
  8
0
 10
906.344379
 20
396.657368
 30
0.0
 11
906.444745
 21
396.601994
 31
0.0
  0
LINE
  8
0
 10
906.444745
 20
396.601994
 30
0.0
 11
906.552032
 21
396.557003
 31
0.0
  0
LINE
  8
0
 10
906.552032
 20
396.557003
 30
0.0
 11
906.658825
 21
396.526349
 31
0.0
  0
LINE
  8
0
 10
906.658825
 20
396.526349
 30
0.0
 11
906.773033
 21
396.509045
 31
0.0
  0
LINE
  8
0
 10
906.773033
 20
396.509045
 30
0.0
 11
906.887242
 21
396.505584
 31
0.0
  0
LINE
  8
0
 10
906.887242
 20
396.505584
 30
0.0
 11
907.004418
 21
396.512506
 31
0.0
  0
LINE
  8
0
 10
907.004418
 20
396.512506
 30
0.0
 11
907.115166
 21
396.532777
 31
0.0
  0
LINE
  8
0
 10
907.115166
 20
396.532777
 30
0.0
 11
907.225914
 21
396.567386
 31
0.0
  0
LINE
  8
0
 10
907.225914
 20
396.567386
 30
0.0
 11
907.329246
 21
396.615838
 31
0.0
  0
LINE
  8
0
 10
907.329246
 20
396.615838
 30
0.0
 11
907.429611
 21
396.671212
 31
0.0
  0
LINE
  8
0
 10
907.429611
 20
396.671212
 30
0.0
 11
907.519594
 21
396.740429
 31
0.0
  0
LINE
  8
0
 10
907.519594
 20
396.740429
 30
0.0
 11
907.606116
 21
396.820029
 31
0.0
  0
LINE
  8
0
 10
907.606116
 20
396.820029
 30
0.0
 11
907.6783
 21
396.909518
 31
0.0
  0
LINE
  8
0
 10
907.6783
 20
396.909518
 30
0.0
 11
907.740596
 21
397.002962
 31
0.0
  0
LINE
  8
0
 10
913.038209
 20
400.006013
 30
0.0
 11
907.536898
 21
400.006013
 31
0.0
  0
LINE
  8
0
 10
913.528664
 20
399.943718
 30
0.0
 11
913.366497
 21
399.978326
 31
0.0
  0
LINE
  8
0
 10
913.366497
 20
399.978326
 30
0.0
 11
913.203836
 21
399.999092
 31
0.0
  0
LINE
  8
0
 10
913.203836
 20
399.999092
 30
0.0
 11
913.038209
 21
400.006013
 31
0.0
  0
LINE
  8
0
 10
913.33881
 20
397.103327
 30
0.0
 11
913.33881
 21
292.905239
 31
0.0
  0
LINE
  8
0
 10
907.536898
 20
290.006013
 30
0.0
 11
913.038209
 21
290.006013
 31
0.0
  0
LINE
  8
0
 10
913.038209
 20
290.006013
 30
0.0
 11
913.203836
 21
290.012935
 31
0.0
  0
LINE
  8
0
 10
913.203836
 20
290.012935
 30
0.0
 11
913.366497
 21
290.0337
 31
0.0
  0
LINE
  8
0
 10
913.366497
 20
290.0337
 30
0.0
 11
913.528664
 21
290.064848
 31
0.0
  0
LINE
  8
0
 10
913.528664
 20
290.064848
 30
0.0
 11
913.687864
 21
290.113301
 31
0.0
  0
LINE
  8
0
 10
913.687864
 20
290.113301
 30
0.0
 11
913.839649
 21
290.172135
 31
0.0
  0
LINE
  8
0
 10
913.839649
 20
290.172135
 30
0.0
 11
913.988466
 21
290.244814
 31
0.0
  0
LINE
  8
0
 10
913.988466
 20
290.244814
 30
0.0
 11
914.133823
 21
290.330841
 31
0.0
  0
LINE
  8
0
 10
914.133823
 20
290.330841
 30
0.0
 11
914.264842
 21
290.427746
 31
0.0
  0
LINE
  8
0
 10
914.264842
 20
290.427746
 30
0.0
 11
914.392894
 21
290.535033
 31
0.0
  0
LINE
  8
0
 10
914.392894
 20
290.535033
 30
0.0
 11
914.51007
 21
290.648748
 31
0.0
  0
LINE
  8
0
 10
914.51007
 20
290.648748
 30
0.0
 11
914.617357
 21
290.7768
 31
0.0
  0
LINE
  8
0
 10
914.617357
 20
290.7768
 30
0.0
 11
914.714261
 21
290.911774
 31
0.0
  0
LINE
  8
0
 10
914.714261
 20
290.911774
 30
0.0
 11
914.796828
 21
291.053176
 31
0.0
  0
LINE
  8
0
 10
914.796828
 20
291.053176
 30
0.0
 11
914.869507
 21
291.201993
 31
0.0
  0
LINE
  8
0
 10
914.869507
 20
291.201993
 30
0.0
 11
914.928341
 21
291.357238
 31
0.0
  0
LINE
  8
0
 10
914.928341
 20
291.357238
 30
0.0
 11
914.976794
 21
291.512978
 31
0.0
  0
LINE
  8
0
 10
914.976794
 20
291.512978
 30
0.0
 11
915.011402
 21
291.675145
 31
0.0
  0
LINE
  8
0
 10
915.011402
 20
291.675145
 30
0.0
 11
915.032168
 21
291.841267
 31
0.0
  0
LINE
  8
0
 10
915.032168
 20
291.841267
 30
0.0
 11
915.039089
 21
292.003433
 31
0.0
  0
LINE
  8
0
 10
913.33881
 20
292.905239
 30
0.0
 11
913.331889
 21
292.781142
 31
0.0
  0
LINE
  8
0
 10
913.331889
 20
292.781142
 30
0.0
 11
913.311123
 21
292.65655
 31
0.0
  0
LINE
  8
0
 10
913.311123
 20
292.65655
 30
0.0
 11
913.279975
 21
292.535914
 31
0.0
  0
LINE
  8
0
 10
913.279975
 20
292.535914
 30
0.0
 11
913.234984
 21
292.418244
 31
0.0
  0
LINE
  8
0
 10
913.234984
 20
292.418244
 30
0.0
 11
913.176149
 21
292.304035
 31
0.0
  0
LINE
  8
0
 10
913.176149
 20
292.304035
 30
0.0
 11
913.110887
 21
292.200703
 31
0.0
  0
LINE
  8
0
 10
913.110887
 20
292.200703
 30
0.0
 11
913.031287
 21
292.103799
 31
0.0
  0
LINE
  8
0
 10
913.031287
 20
292.103799
 30
0.0
 11
912.941304
 21
292.013816
 31
0.0
  0
LINE
  8
0
 10
912.941304
 20
292.013816
 30
0.0
 11
912.844399
 21
291.934216
 31
0.0
  0
LINE
  8
0
 10
912.844399
 20
291.934216
 30
0.0
 11
912.737607
 21
291.865493
 31
0.0
  0
LINE
  8
0
 10
912.737607
 20
291.865493
 30
0.0
 11
912.626859
 21
291.810119
 31
0.0
  0
LINE
  8
0
 10
912.626859
 20
291.810119
 30
0.0
 11
912.509683
 21
291.765127
 31
0.0
  0
LINE
  8
0
 10
912.509683
 20
291.765127
 30
0.0
 11
912.388553
 21
291.730519
 31
0.0
  0
LINE
  8
0
 10
912.388553
 20
291.730519
 30
0.0
 11
912.263961
 21
291.713214
 31
0.0
  0
LINE
  8
0
 10
912.263961
 20
291.713214
 30
0.0
 11
912.139864
 21
291.706293
 31
0.0
  0
LINE
  8
0
 10
912.139864
 20
291.706293
 30
0.0
 11
908.490617
 21
291.706293
 31
0.0
  0
LINE
  8
0
 10
908.490617
 20
291.706293
 30
0.0
 11
907.740596
 21
293.005604
 31
0.0
  0
LINE
  8
0
 10
907.740596
 20
293.005604
 30
0.0
 11
907.6783
 21
293.102509
 31
0.0
  0
LINE
  8
0
 10
907.6783
 20
293.102509
 30
0.0
 11
907.606116
 21
293.189031
 31
0.0
  0
LINE
  8
0
 10
907.606116
 20
293.189031
 30
0.0
 11
907.519594
 21
293.268137
 31
0.0
  0
LINE
  8
0
 10
907.519594
 20
293.268137
 30
0.0
 11
907.429611
 21
293.337354
 31
0.0
  0
LINE
  8
0
 10
907.429611
 20
293.337354
 30
0.0
 11
907.329246
 21
293.396189
 31
0.0
  0
LINE
  8
0
 10
907.329246
 20
293.396189
 30
0.0
 11
907.225914
 21
293.44118
 31
0.0
  0
LINE
  8
0
 10
907.225914
 20
293.44118
 30
0.0
 11
907.115166
 21
293.475789
 31
0.0
  0
LINE
  8
0
 10
907.115166
 20
293.475789
 30
0.0
 11
907.004418
 21
293.496554
 31
0.0
  0
LINE
  8
0
 10
907.004418
 20
293.496554
 30
0.0
 11
906.887242
 21
293.503476
 31
0.0
  0
LINE
  8
0
 10
906.887242
 20
293.503476
 30
0.0
 11
906.773033
 21
293.500015
 31
0.0
  0
LINE
  8
0
 10
906.773033
 20
293.500015
 30
0.0
 11
906.658825
 21
293.482711
 31
0.0
  0
LINE
  8
0
 10
906.658825
 20
293.482711
 30
0.0
 11
906.552032
 21
293.451563
 31
0.0
  0
LINE
  8
0
 10
906.552032
 20
293.451563
 30
0.0
 11
906.444745
 21
293.406572
 31
0.0
  0
LINE
  8
0
 10
906.444745
 20
293.406572
 30
0.0
 11
906.344379
 21
293.351198
 31
0.0
  0
LINE
  8
0
 10
906.344379
 20
293.351198
 30
0.0
 11
906.25143
 21
293.285441
 31
0.0
  0
LINE
  8
0
 10
906.25143
 20
293.285441
 30
0.0
 11
906.164908
 21
293.209796
 31
0.0
  0
LINE
  8
0
 10
906.164908
 20
293.209796
 30
0.0
 11
906.088769
 21
293.123274
 31
0.0
  0
LINE
  8
0
 10
906.088769
 20
293.123274
 30
0.0
 11
906.023012
 21
293.029831
 31
0.0
  0
LINE
  8
0
 10
906.023012
 20
293.029831
 30
0.0
 11
905.968132
 21
292.926004
 31
0.0
  0
LINE
  8
0
 10
905.968132
 20
292.926004
 30
0.0
 11
905.539478
 21
292.003433
 31
0.0
  0
LINE
  8
0
 10
905.539478
 20
292.003433
 30
0.0
 11
905.5464
 21
291.841267
 31
0.0
  0
LINE
  8
0
 10
905.5464
 20
291.841267
 30
0.0
 11
905.567165
 21
291.675145
 31
0.0
  0
LINE
  8
0
 10
905.567165
 20
291.675145
 30
0.0
 11
905.598313
 21
291.512978
 31
0.0
  0
LINE
  8
0
 10
905.598313
 20
291.512978
 30
0.0
 11
905.646765
 21
291.357238
 31
0.0
  0
LINE
  8
0
 10
905.646765
 20
291.357238
 30
0.0
 11
905.705106
 21
291.201993
 31
0.0
  0
LINE
  8
0
 10
905.705106
 20
291.201993
 30
0.0
 11
905.777784
 21
291.053176
 31
0.0
  0
LINE
  8
0
 10
905.777784
 20
291.053176
 30
0.0
 11
905.864306
 21
290.911774
 31
0.0
  0
LINE
  8
0
 10
905.864306
 20
290.911774
 30
0.0
 11
905.961211
 21
290.7768
 31
0.0
  0
LINE
  8
0
 10
905.961211
 20
290.7768
 30
0.0
 11
906.068003
 21
290.648748
 31
0.0
  0
LINE
  8
0
 10
906.068003
 20
290.648748
 30
0.0
 11
906.182212
 21
290.535033
 31
0.0
  0
LINE
  8
0
 10
906.182212
 20
290.535033
 30
0.0
 11
906.30977
 21
290.427746
 31
0.0
  0
LINE
  8
0
 10
906.30977
 20
290.427746
 30
0.0
 11
906.444745
 21
290.330841
 31
0.0
  0
LINE
  8
0
 10
906.444745
 20
290.330841
 30
0.0
 11
906.586641
 21
290.244814
 31
0.0
  0
LINE
  8
0
 10
906.586641
 20
290.244814
 30
0.0
 11
906.734964
 21
290.172135
 31
0.0
  0
LINE
  8
0
 10
906.734964
 20
290.172135
 30
0.0
 11
906.890703
 21
290.113301
 31
0.0
  0
LINE
  8
0
 10
906.890703
 20
290.113301
 30
0.0
 11
907.045948
 21
290.064848
 31
0.0
  0
LINE
  8
0
 10
907.045948
 20
290.064848
 30
0.0
 11
907.208609
 21
290.0337
 31
0.0
  0
LINE
  8
0
 10
907.208609
 20
290.0337
 30
0.0
 11
907.374237
 21
290.012935
 31
0.0
  0
LINE
  8
0
 10
907.374237
 20
290.012935
 30
0.0
 11
907.536898
 21
290.006013
 31
0.0
  0
LINE
  8
0
 10
915.039089
 20
292.003433
 30
0.0
 11
915.039089
 21
398.005132
 31
0.0
  0
LINE
  8
0
 10
911.517895
 20
303.479699
 30
0.0
 11
911.566347
 21
303.462395
 31
0.0
  0
LINE
  8
0
 10
911.638531
 20
303.389717
 30
0.0
 11
911.655836
 21
303.344725
 31
0.0
  0
LINE
  8
0
 10
911.655836
 20
303.344725
 30
0.0
 11
911.662757
 21
303.293307
 31
0.0
  0
LINE
  8
0
 10
909.520475
 20
342.756197
 30
0.0
 11
909.610458
 21
342.763118
 31
0.0
  0
LINE
  8
0
 10
909.610458
 20
342.763118
 30
0.0
 11
909.703407
 21
342.783884
 31
0.0
  0
LINE
  8
0
 10
909.703407
 20
342.783884
 30
0.0
 11
909.789929
 21
342.815031
 31
0.0
  0
LINE
  8
0
 10
909.789929
 20
342.815031
 30
0.0
 11
909.869529
 21
342.860023
 31
0.0
  0
LINE
  8
0
 10
909.869529
 20
342.860023
 30
0.0
 11
909.945668
 21
342.915397
 31
0.0
  0
LINE
  8
0
 10
909.945668
 20
342.915397
 30
0.0
 11
910.010931
 21
342.981154
 31
0.0
  0
LINE
  8
0
 10
910.010931
 20
342.981154
 30
0.0
 11
910.066305
 21
343.057293
 31
0.0
  0
LINE
  8
0
 10
910.066305
 20
343.057293
 30
0.0
 11
910.111296
 21
343.136399
 31
0.0
  0
LINE
  8
0
 10
910.111296
 20
343.136399
 30
0.0
 11
910.142444
 21
343.22292
 31
0.0
  0
LINE
  8
0
 10
910.142444
 20
343.22292
 30
0.0
 11
910.163209
 21
343.316364
 31
0.0
  0
LINE
  8
0
 10
910.163209
 20
343.316364
 30
0.0
 11
910.170131
 21
343.406347
 31
0.0
  0
LINE
  8
0
 10
910.170131
 20
343.406347
 30
0.0
 11
910.163209
 21
343.499296
 31
0.0
  0
LINE
  8
0
 10
910.163209
 20
343.499296
 30
0.0
 11
910.142444
 21
343.589279
 31
0.0
  0
LINE
  8
0
 10
910.142444
 20
343.589279
 30
0.0
 11
910.111296
 21
343.675801
 31
0.0
  0
LINE
  8
0
 10
910.111296
 20
343.675801
 30
0.0
 11
910.066305
 21
343.758367
 31
0.0
  0
LINE
  8
0
 10
910.066305
 20
343.758367
 30
0.0
 11
910.010931
 21
343.834507
 31
0.0
  0
LINE
  8
0
 10
910.010931
 20
343.834507
 30
0.0
 11
909.945668
 21
343.896803
 31
0.0
  0
LINE
  8
0
 10
909.945668
 20
343.896803
 30
0.0
 11
909.869529
 21
343.955637
 31
0.0
  0
LINE
  8
0
 10
909.869529
 20
343.955637
 30
0.0
 11
909.789929
 21
343.997168
 31
0.0
  0
LINE
  8
0
 10
909.789929
 20
343.997168
 30
0.0
 11
909.703407
 21
344.031777
 31
0.0
  0
LINE
  8
0
 10
909.703407
 20
344.031777
 30
0.0
 11
909.610458
 21
344.052542
 31
0.0
  0
LINE
  8
0
 10
909.610458
 20
344.052542
 30
0.0
 11
909.520475
 21
344.055508
 31
0.0
  0
LINE
  8
0
 10
909.520475
 20
344.055508
 30
0.0
 11
909.427031
 21
344.052542
 31
0.0
  0
LINE
  8
0
 10
909.427031
 20
344.052542
 30
0.0
 11
909.337048
 21
344.031777
 31
0.0
  0
LINE
  8
0
 10
909.337048
 20
344.031777
 30
0.0
 11
909.24756
 21
343.997168
 31
0.0
  0
LINE
  8
0
 10
909.24756
 20
343.997168
 30
0.0
 11
909.16796
 21
343.955637
 31
0.0
  0
LINE
  8
0
 10
909.16796
 20
343.955637
 30
0.0
 11
909.091821
 21
343.896803
 31
0.0
  0
LINE
  8
0
 10
909.091821
 20
343.896803
 30
0.0
 11
909.026064
 21
343.834507
 31
0.0
  0
LINE
  8
0
 10
909.026064
 20
343.834507
 30
0.0
 11
908.971184
 21
343.758367
 31
0.0
  0
LINE
  8
0
 10
908.971184
 20
343.758367
 30
0.0
 11
908.926193
 21
343.675801
 31
0.0
  0
LINE
  8
0
 10
908.926193
 20
343.675801
 30
0.0
 11
908.895045
 21
343.589279
 31
0.0
  0
LINE
  8
0
 10
908.895045
 20
343.589279
 30
0.0
 11
908.87428
 21
343.499296
 31
0.0
  0
LINE
  8
0
 10
908.87428
 20
343.499296
 30
0.0
 11
908.867358
 21
343.406347
 31
0.0
  0
LINE
  8
0
 10
908.867358
 20
343.406347
 30
0.0
 11
908.87428
 21
343.316364
 31
0.0
  0
LINE
  8
0
 10
908.87428
 20
343.316364
 30
0.0
 11
908.895045
 21
343.22292
 31
0.0
  0
LINE
  8
0
 10
908.895045
 20
343.22292
 30
0.0
 11
908.926193
 21
343.136399
 31
0.0
  0
LINE
  8
0
 10
908.926193
 20
343.136399
 30
0.0
 11
908.971184
 21
343.057293
 31
0.0
  0
LINE
  8
0
 10
908.971184
 20
343.057293
 30
0.0
 11
909.026064
 21
342.981154
 31
0.0
  0
LINE
  8
0
 10
909.026064
 20
342.981154
 30
0.0
 11
909.091821
 21
342.915397
 31
0.0
  0
LINE
  8
0
 10
909.091821
 20
342.915397
 30
0.0
 11
909.16796
 21
342.860023
 31
0.0
  0
LINE
  8
0
 10
909.16796
 20
342.860023
 30
0.0
 11
909.24756
 21
342.815031
 31
0.0
  0
LINE
  8
0
 10
909.24756
 20
342.815031
 30
0.0
 11
909.337048
 21
342.783884
 31
0.0
  0
LINE
  8
0
 10
909.337048
 20
342.783884
 30
0.0
 11
909.427031
 21
342.763118
 31
0.0
  0
LINE
  8
0
 10
909.427031
 20
342.763118
 30
0.0
 11
909.520475
 21
342.756197
 31
0.0
  0
LINE
  8
0
 10
911.504051
 20
342.397254
 30
0.0
 11
909.406266
 21
342.766579
 31
0.0
  0
LINE
  8
0
 10
909.630729
 20
344.049081
 30
0.0
 11
911.963359
 21
343.637731
 31
0.0
  0
LINE
  8
0
 10
911.504051
 20
342.397254
 30
0.0
 11
911.555965
 21
342.37995
 31
0.0
  0
LINE
  8
0
 10
911.555965
 20
342.37995
 30
0.0
 11
911.600462
 21
342.348802
 31
0.0
  0
LINE
  8
0
 10
911.600462
 20
342.348802
 30
0.0
 11
911.63507
 21
342.307271
 31
0.0
  0
LINE
  8
0
 10
911.63507
 20
342.307271
 30
0.0
 11
911.655836
 21
342.258819
 31
0.0
  0
LINE
  8
0
 10
911.655836
 20
342.258819
 30
0.0
 11
911.662757
 21
342.206906
 31
0.0
  0
LINE
  8
0
 10
912.768755
 20
342.677091
 30
0.0
 11
912.761833
 21
342.790805
 31
0.0
  0
LINE
  8
0
 10
912.761833
 20
342.790805
 30
0.0
 11
912.741068
 21
342.901553
 31
0.0
  0
LINE
  8
0
 10
912.741068
 20
342.901553
 30
0.0
 11
912.70992
 21
343.008841
 31
0.0
  0
LINE
  8
0
 10
912.70992
 20
343.008841
 30
0.0
 11
912.664928
 21
343.112172
 31
0.0
  0
LINE
  8
0
 10
912.664928
 20
343.112172
 30
0.0
 11
912.609554
 21
343.212538
 31
0.0
  0
LINE
  8
0
 10
912.609554
 20
343.212538
 30
0.0
 11
912.540831
 21
343.302521
 31
0.0
  0
LINE
  8
0
 10
912.540831
 20
343.302521
 30
0.0
 11
912.461231
 21
343.385582
 31
0.0
  0
LINE
  8
0
 10
912.461231
 20
343.385582
 30
0.0
 11
912.374709
 21
343.457766
 31
0.0
  0
LINE
  8
0
 10
912.374709
 20
343.457766
 30
0.0
 11
912.281265
 21
343.520061
 31
0.0
  0
LINE
  8
0
 10
912.281265
 20
343.520061
 30
0.0
 11
912.181394
 21
343.571975
 31
0.0
  0
LINE
  8
0
 10
912.181394
 20
343.571975
 30
0.0
 11
912.074107
 21
343.610044
 31
0.0
  0
LINE
  8
0
 10
912.074107
 20
343.610044
 30
0.0
 11
911.963359
 21
343.637731
 31
0.0
  0
LINE
  8
0
 10
911.662757
 20
342.206906
 30
0.0
 11
911.662757
 21
338.858261
 31
0.0
  0
LINE
  8
0
 10
911.662757
 20
338.858261
 30
0.0
 11
911.655836
 21
338.806842
 31
0.0
  0
LINE
  8
0
 10
911.655836
 20
338.806842
 30
0.0
 11
911.638531
 21
338.75839
 31
0.0
  0
LINE
  8
0
 10
911.638531
 20
338.75839
 30
0.0
 11
911.607383
 21
338.72032
 31
0.0
  0
LINE
  8
0
 10
911.607383
 20
338.72032
 30
0.0
 11
911.566347
 21
338.689172
 31
0.0
  0
LINE
  8
0
 10
911.566347
 20
338.689172
 30
0.0
 11
911.517895
 21
338.668407
 31
0.0
  0
LINE
  8
0
 10
908.805062
 20
337.939151
 30
0.0
 11
911.517895
 21
338.668407
 31
0.0
  0
LINE
  8
0
 10
908.805062
 20
337.939151
 30
0.0
 11
908.805062
 21
333.122106
 31
0.0
  0
LINE
  8
0
 10
907.243218
 20
333.899814
 30
0.0
 11
907.243218
 21
336.923137
 31
0.0
  0
LINE
  8
0
 10
907.243218
 20
336.923137
 30
0.0
 11
907.243218
 21
333.903275
 31
0.0
  0
LINE
  8
0
 10
909.268325
 20
333.122106
 30
0.0
 11
908.805062
 21
333.122106
 31
0.0
  0
LINE
  8
0
 10
908.805062
 20
333.122106
 30
0.0
 11
908.798141
 21
333.122106
 31
0.0
  0
LINE
  8
0
 10
908.798141
 20
333.122106
 30
0.0
 11
908.777375
 21
333.122106
 31
0.0
  0
LINE
  8
0
 10
908.777375
 20
333.122106
 30
0.0
 11
908.746227
 21
333.122106
 31
0.0
  0
LINE
  8
0
 10
908.746227
 20
333.122106
 30
0.0
 11
908.701236
 21
333.122106
 31
0.0
  0
LINE
  8
0
 10
908.701236
 20
333.122106
 30
0.0
 11
908.642896
 21
333.122106
 31
0.0
  0
LINE
  8
0
 10
908.642896
 20
333.122106
 30
0.0
 11
908.577139
 21
333.122106
 31
0.0
  0
LINE
  8
0
 10
908.577139
 20
333.122106
 30
0.0
 11
908.501
 21
333.122106
 31
0.0
  0
LINE
  8
0
 10
908.501
 20
333.122106
 30
0.0
 11
908.414478
 21
333.122106
 31
0.0
  0
LINE
  8
0
 10
908.414478
 20
333.122106
 30
0.0
 11
908.324989
 21
333.122106
 31
0.0
  0
LINE
  8
0
 10
908.324989
 20
333.122106
 30
0.0
 11
908.228085
 21
333.122106
 31
0.0
  0
LINE
  8
0
 10
908.228085
 20
333.122106
 30
0.0
 11
908.127719
 21
333.122106
 31
0.0
  0
LINE
  8
0
 10
908.127719
 20
333.122106
 30
0.0
 11
908.027354
 21
333.122106
 31
0.0
  0
LINE
  8
0
 10
908.027354
 20
333.122106
 30
0.0
 11
908.023893
 21
333.122106
 31
0.0
  0
LINE
  8
0
 10
908.027354
 20
337.731993
 30
0.0
 11
908.020432
 21
337.731993
 31
0.0
  0
LINE
  8
0
 10
908.020432
 20
337.731993
 30
0.0
 11
908.016971
 21
337.731993
 31
0.0
  0
LINE
  8
0
 10
908.016971
 20
337.731993
 30
0.0
 11
907.823657
 21
337.676619
 31
0.0
  0
LINE
  8
0
 10
907.823657
 20
337.676619
 30
0.0
 11
907.799431
 21
337.673158
 31
0.0
  0
LINE
  8
0
 10
907.799431
 20
337.673158
 30
0.0
 11
907.782126
 21
337.666236
 31
0.0
  0
LINE
  8
0
 10
907.782126
 20
337.666236
 30
0.0
 11
907.761361
 21
337.659314
 31
0.0
  0
LINE
  8
0
 10
907.761361
 20
337.659314
 30
0.0
 11
907.740596
 21
337.652393
 31
0.0
  0
LINE
  8
0
 10
907.740596
 20
337.652393
 30
0.0
 11
907.71983
 21
337.64201
 31
0.0
  0
LINE
  8
0
 10
907.71983
 20
337.64201
 30
0.0
 11
907.699065
 21
337.635088
 31
0.0
  0
LINE
  8
0
 10
907.699065
 20
337.635088
 30
0.0
 11
907.681761
 21
337.624706
 31
0.0
  0
LINE
  8
0
 10
907.681761
 20
337.624706
 30
0.0
 11
907.66149
 21
337.614323
 31
0.0
  0
LINE
  8
0
 10
907.66149
 20
337.614323
 30
0.0
 11
907.640725
 21
337.60394
 31
0.0
  0
LINE
  8
0
 10
907.640725
 20
337.60394
 30
0.0
 11
907.62342
 21
337.593558
 31
0.0
  0
LINE
  8
0
 10
907.62342
 20
337.593558
 30
0.0
 11
907.606116
 21
337.583175
 31
0.0
  0
LINE
  8
0
 10
907.606116
 20
337.583175
 30
0.0
 11
907.585351
 21
337.569332
 31
0.0
  0
LINE
  8
0
 10
907.585351
 20
337.569332
 30
0.0
 11
907.568046
 21
337.558949
 31
0.0
  0
LINE
  8
0
 10
907.568046
 20
337.558949
 30
0.0
 11
907.550742
 21
337.545106
 31
0.0
  0
LINE
  8
0
 10
907.550742
 20
337.545106
 30
0.0
 11
907.533437
 21
337.531756
 31
0.0
  0
LINE
  8
0
 10
907.533437
 20
337.531756
 30
0.0
 11
907.519594
 21
337.517913
 31
0.0
  0
LINE
  8
0
 10
907.519594
 20
337.517913
 30
0.0
 11
907.50229
 21
337.504069
 31
0.0
  0
LINE
  8
0
 10
907.50229
 20
337.504069
 30
0.0
 11
907.484985
 21
337.490226
 31
0.0
  0
LINE
  8
0
 10
907.484985
 20
337.490226
 30
0.0
 11
907.471142
 21
337.472922
 31
0.0
  0
LINE
  8
0
 10
907.471142
 20
337.472922
 30
0.0
 11
907.453837
 21
337.459078
 31
0.0
  0
LINE
  8
0
 10
907.453837
 20
337.459078
 30
0.0
 11
907.439994
 21
337.441774
 31
0.0
  0
LINE
  8
0
 10
907.439994
 20
337.441774
 30
0.0
 11
907.42615
 21
337.424469
 31
0.0
  0
LINE
  8
0
 10
907.42615
 20
337.424469
 30
0.0
 11
907.412307
 21
337.410626
 31
0.0
  0
LINE
  8
0
 10
907.412307
 20
337.410626
 30
0.0
 11
907.398463
 21
337.393321
 31
0.0
  0
LINE
  8
0
 10
907.398463
 20
337.393321
 30
0.0
 11
907.388081
 21
337.376017
 31
0.0
  0
LINE
  8
0
 10
907.388081
 20
337.376017
 30
0.0
 11
907.374237
 21
337.355252
 31
0.0
  0
LINE
  8
0
 10
907.374237
 20
337.355252
 30
0.0
 11
907.363854
 21
337.337947
 31
0.0
  0
LINE
  8
0
 10
907.363854
 20
337.337947
 30
0.0
 11
907.350505
 21
337.320643
 31
0.0
  0
LINE
  8
0
 10
907.350505
 20
337.320643
 30
0.0
 11
907.340123
 21
337.299878
 31
0.0
  0
LINE
  8
0
 10
907.340123
 20
337.299878
 30
0.0
 11
907.32974
 21
337.282573
 31
0.0
  0
LINE
  8
0
 10
907.32974
 20
337.282573
 30
0.0
 11
907.322818
 21
337.261808
 31
0.0
  0
LINE
  8
0
 10
907.322818
 20
337.261808
 30
0.0
 11
907.312436
 21
337.244504
 31
0.0
  0
LINE
  8
0
 10
907.312436
 20
337.244504
 30
0.0
 11
907.302053
 21
337.224233
 31
0.0
  0
LINE
  8
0
 10
907.302053
 20
337.224233
 30
0.0
 11
907.295131
 21
337.203468
 31
0.0
  0
LINE
  8
0
 10
907.295131
 20
337.203468
 30
0.0
 11
907.28821
 21
337.182702
 31
0.0
  0
LINE
  8
0
 10
907.28821
 20
337.182702
 30
0.0
 11
907.281288
 21
337.161937
 31
0.0
  0
LINE
  8
0
 10
907.281288
 20
337.161937
 30
0.0
 11
907.274366
 21
337.141172
 31
0.0
  0
LINE
  8
0
 10
907.274366
 20
337.141172
 30
0.0
 11
907.270905
 21
337.120407
 31
0.0
  0
LINE
  8
0
 10
907.270905
 20
337.120407
 30
0.0
 11
907.263983
 21
337.099641
 31
0.0
  0
LINE
  8
0
 10
907.263983
 20
337.099641
 30
0.0
 11
907.260523
 21
337.078876
 31
0.0
  0
LINE
  8
0
 10
907.260523
 20
337.078876
 30
0.0
 11
907.257062
 21
337.058111
 31
0.0
  0
LINE
  8
0
 10
907.257062
 20
337.058111
 30
0.0
 11
907.253601
 21
337.037346
 31
0.0
  0
LINE
  8
0
 10
907.253601
 20
337.037346
 30
0.0
 11
907.25014
 21
337.013119
 31
0.0
  0
LINE
  8
0
 10
907.25014
 20
337.013119
 30
0.0
 11
907.246679
 21
336.992354
 31
0.0
  0
LINE
  8
0
 10
907.246679
 20
336.992354
 30
0.0
 11
907.246679
 21
336.971589
 31
0.0
  0
LINE
  8
0
 10
907.246679
 20
336.971589
 30
0.0
 11
907.243218
 21
336.930058
 31
0.0
  0
LINE
  8
0
 10
907.243218
 20
336.930058
 30
0.0
 11
907.243218
 21
336.926598
 31
0.0
  0
LINE
  8
0
 10
908.030815
 20
337.731993
 30
0.0
 11
908.203859
 21
337.780445
 31
0.0
  0
LINE
  8
0
 10
908.203859
 20
337.780445
 30
0.0
 11
908.304224
 21
337.808132
 31
0.0
  0
LINE
  8
0
 10
908.304224
 20
337.808132
 30
0.0
 11
908.397173
 21
337.832358
 31
0.0
  0
LINE
  8
0
 10
908.397173
 20
337.832358
 30
0.0
 11
908.487156
 21
337.856584
 31
0.0
  0
LINE
  8
0
 10
908.487156
 20
337.856584
 30
0.0
 11
908.566756
 21
337.876855
 31
0.0
  0
LINE
  8
0
 10
908.566756
 20
337.876855
 30
0.0
 11
908.635974
 21
337.89416
 31
0.0
  0
LINE
  8
0
 10
908.635974
 20
337.89416
 30
0.0
 11
908.694314
 21
337.911464
 31
0.0
  0
LINE
  8
0
 10
908.694314
 20
337.911464
 30
0.0
 11
908.742767
 21
337.925308
 31
0.0
  0
LINE
  8
0
 10
908.742767
 20
337.925308
 30
0.0
 11
908.777375
 21
337.932229
 31
0.0
  0
LINE
  8
0
 10
908.777375
 20
337.932229
 30
0.0
 11
908.798141
 21
337.939151
 31
0.0
  0
LINE
  8
0
 10
908.798141
 20
337.939151
 30
0.0
 11
908.805062
 21
337.939151
 31
0.0
  0
LINE
  8
0
 10
908.020432
 20
333.122106
 30
0.0
 11
907.9967
 21
333.122106
 31
0.0
  0
LINE
  8
0
 10
907.9967
 20
333.122106
 30
0.0
 11
907.969013
 21
333.125566
 31
0.0
  0
LINE
  8
0
 10
907.969013
 20
333.125566
 30
0.0
 11
907.944787
 21
333.125566
 31
0.0
  0
LINE
  8
0
 10
907.944787
 20
333.125566
 30
0.0
 11
907.9171
 21
333.129027
 31
0.0
  0
LINE
  8
0
 10
907.9171
 20
333.129027
 30
0.0
 11
907.892874
 21
333.135949
 31
0.0
  0
LINE
  8
0
 10
907.892874
 20
333.135949
 30
0.0
 11
907.865187
 21
333.13941
 31
0.0
  0
LINE
  8
0
 10
907.865187
 20
333.13941
 30
0.0
 11
907.840961
 21
333.146332
 31
0.0
  0
LINE
  8
0
 10
907.840961
 20
333.146332
 30
0.0
 11
907.816735
 21
333.149793
 31
0.0
  0
LINE
  8
0
 10
907.816735
 20
333.149793
 30
0.0
 11
907.789048
 21
333.160175
 31
0.0
  0
LINE
  8
0
 10
907.789048
 20
333.160175
 30
0.0
 11
907.764822
 21
333.167097
 31
0.0
  0
LINE
  8
0
 10
907.764822
 20
333.167097
 30
0.0
 11
907.740596
 21
333.17748
 31
0.0
  0
LINE
  8
0
 10
907.740596
 20
333.17748
 30
0.0
 11
907.716369
 21
333.184401
 31
0.0
  0
LINE
  8
0
 10
907.716369
 20
333.184401
 30
0.0
 11
907.692143
 21
333.194784
 31
0.0
  0
LINE
  8
0
 10
907.692143
 20
333.194784
 30
0.0
 11
907.671378
 21
333.208627
 31
0.0
  0
LINE
  8
0
 10
907.671378
 20
333.208627
 30
0.0
 11
907.647646
 21
333.21901
 31
0.0
  0
LINE
  8
0
 10
907.647646
 20
333.21901
 30
0.0
 11
907.62342
 21
333.232854
 31
0.0
  0
LINE
  8
0
 10
907.62342
 20
333.232854
 30
0.0
 11
907.602655
 21
333.246697
 31
0.0
  0
LINE
  8
0
 10
907.602655
 20
333.246697
 30
0.0
 11
907.58189
 21
333.260541
 31
0.0
  0
LINE
  8
0
 10
907.58189
 20
333.260541
 30
0.0
 11
907.561124
 21
333.277845
 31
0.0
  0
LINE
  8
0
 10
907.561124
 20
333.277845
 30
0.0
 11
907.540359
 21
333.291689
 31
0.0
  0
LINE
  8
0
 10
907.540359
 20
333.291689
 30
0.0
 11
907.519594
 21
333.308498
 31
0.0
  0
LINE
  8
0
 10
907.519594
 20
333.308498
 30
0.0
 11
907.498829
 21
333.325803
 31
0.0
  0
LINE
  8
0
 10
907.498829
 20
333.325803
 30
0.0
 11
907.481524
 21
333.343107
 31
0.0
  0
LINE
  8
0
 10
907.481524
 20
333.343107
 30
0.0
 11
907.460759
 21
333.360412
 31
0.0
  0
LINE
  8
0
 10
907.460759
 20
333.360412
 30
0.0
 11
907.443455
 21
333.381177
 31
0.0
  0
LINE
  8
0
 10
907.443455
 20
333.381177
 30
0.0
 11
907.42615
 21
333.401942
 31
0.0
  0
LINE
  8
0
 10
907.42615
 20
333.401942
 30
0.0
 11
907.412307
 21
333.419247
 31
0.0
  0
LINE
  8
0
 10
907.412307
 20
333.419247
 30
0.0
 11
907.395002
 21
333.440012
 31
0.0
  0
LINE
  8
0
 10
907.395002
 20
333.440012
 30
0.0
 11
907.381159
 21
333.460777
 31
0.0
  0
LINE
  8
0
 10
907.381159
 20
333.460777
 30
0.0
 11
907.367315
 21
333.485003
 31
0.0
  0
LINE
  8
0
 10
907.367315
 20
333.485003
 30
0.0
 11
907.353472
 21
333.505768
 31
0.0
  0
LINE
  8
0
 10
907.353472
 20
333.505768
 30
0.0
 11
907.340123
 21
333.529995
 31
0.0
  0
LINE
  8
0
 10
907.340123
 20
333.529995
 30
0.0
 11
907.326279
 21
333.55076
 31
0.0
  0
LINE
  8
0
 10
907.326279
 20
333.55076
 30
0.0
 11
907.315897
 21
333.574986
 31
0.0
  0
LINE
  8
0
 10
907.315897
 20
333.574986
 30
0.0
 11
907.305514
 21
333.599212
 31
0.0
  0
LINE
  8
0
 10
907.305514
 20
333.599212
 30
0.0
 11
907.295131
 21
333.623438
 31
0.0
  0
LINE
  8
0
 10
907.295131
 20
333.623438
 30
0.0
 11
907.28821
 21
333.64717
 31
0.0
  0
LINE
  8
0
 10
907.28821
 20
333.64717
 30
0.0
 11
907.277827
 21
333.671396
 31
0.0
  0
LINE
  8
0
 10
907.277827
 20
333.671396
 30
0.0
 11
907.270905
 21
333.695622
 31
0.0
  0
LINE
  8
0
 10
907.270905
 20
333.695622
 30
0.0
 11
907.263983
 21
333.723309
 31
0.0
  0
LINE
  8
0
 10
907.263983
 20
333.723309
 30
0.0
 11
907.260523
 21
333.747535
 31
0.0
  0
LINE
  8
0
 10
907.260523
 20
333.747535
 30
0.0
 11
907.253601
 21
333.771762
 31
0.0
  0
LINE
  8
0
 10
907.253601
 20
333.771762
 30
0.0
 11
907.25014
 21
333.799449
 31
0.0
  0
LINE
  8
0
 10
907.25014
 20
333.799449
 30
0.0
 11
907.246679
 21
333.823675
 31
0.0
  0
LINE
  8
0
 10
907.246679
 20
333.823675
 30
0.0
 11
907.246679
 21
333.851362
 31
0.0
  0
LINE
  8
0
 10
907.246679
 20
333.851362
 30
0.0
 11
907.243218
 21
333.875588
 31
0.0
  0
LINE
  8
0
 10
907.243218
 20
333.875588
 30
0.0
 11
907.243218
 21
333.899814
 31
0.0
  0
LINE
  8
0
 10
907.243218
 20
333.899814
 30
0.0
 11
907.243218
 21
333.903275
 31
0.0
  0
LINE
  8
0
 10
908.020432
 20
333.122106
 30
0.0
 11
908.023893
 21
333.122106
 31
0.0
  0
LINE
  8
0
 10
909.268325
 20
309.026001
 30
0.0
 11
909.268325
 21
333.122106
 31
0.0
  0
LINE
  8
0
 10
908.805062
 20
309.026001
 30
0.0
 11
908.805062
 21
304.208956
 31
0.0
  0
LINE
  8
0
 10
907.498829
 20
308.825765
 30
0.0
 11
907.481524
 21
308.80846
 31
0.0
  0
LINE
  8
0
 10
907.481524
 20
308.80846
 30
0.0
 11
907.46422
 21
308.787695
 31
0.0
  0
LINE
  8
0
 10
907.46422
 20
308.787695
 30
0.0
 11
907.443455
 21
308.770391
 31
0.0
  0
LINE
  8
0
 10
907.443455
 20
308.770391
 30
0.0
 11
907.42615
 21
308.749625
 31
0.0
  0
LINE
  8
0
 10
907.42615
 20
308.749625
 30
0.0
 11
907.412307
 21
308.72886
 31
0.0
  0
LINE
  8
0
 10
907.412307
 20
308.72886
 30
0.0
 11
907.395002
 21
308.708095
 31
0.0
  0
LINE
  8
0
 10
907.395002
 20
308.708095
 30
0.0
 11
907.381159
 21
308.68733
 31
0.0
  0
LINE
  8
0
 10
907.381159
 20
308.68733
 30
0.0
 11
907.367315
 21
308.666564
 31
0.0
  0
LINE
  8
0
 10
907.367315
 20
308.666564
 30
0.0
 11
907.353472
 21
308.645799
 31
0.0
  0
LINE
  8
0
 10
907.353472
 20
308.645799
 30
0.0
 11
907.340123
 21
308.621573
 31
0.0
  0
LINE
  8
0
 10
907.340123
 20
308.621573
 30
0.0
 11
907.326279
 21
308.597347
 31
0.0
  0
LINE
  8
0
 10
907.326279
 20
308.597347
 30
0.0
 11
907.315897
 21
308.576582
 31
0.0
  0
LINE
  8
0
 10
907.315897
 20
308.576582
 30
0.0
 11
907.305514
 21
308.552355
 31
0.0
  0
LINE
  8
0
 10
907.305514
 20
308.552355
 30
0.0
 11
907.295131
 21
308.528624
 31
0.0
  0
LINE
  8
0
 10
907.295131
 20
308.528624
 30
0.0
 11
907.28821
 21
308.504398
 31
0.0
  0
LINE
  8
0
 10
907.28821
 20
308.504398
 30
0.0
 11
907.277827
 21
308.480171
 31
0.0
  0
LINE
  8
0
 10
907.277827
 20
308.480171
 30
0.0
 11
907.270905
 21
308.452484
 31
0.0
  0
LINE
  8
0
 10
907.270905
 20
308.452484
 30
0.0
 11
907.263983
 21
308.428258
 31
0.0
  0
LINE
  8
0
 10
907.263983
 20
308.428258
 30
0.0
 11
907.260523
 21
308.404032
 31
0.0
  0
LINE
  8
0
 10
907.260523
 20
308.404032
 30
0.0
 11
907.253601
 21
308.376345
 31
0.0
  0
LINE
  8
0
 10
907.253601
 20
308.376345
 30
0.0
 11
907.25014
 21
308.352119
 31
0.0
  0
LINE
  8
0
 10
907.25014
 20
308.352119
 30
0.0
 11
907.246679
 21
308.324432
 31
0.0
  0
LINE
  8
0
 10
907.246679
 20
308.324432
 30
0.0
 11
907.246679
 21
308.300206
 31
0.0
  0
LINE
  8
0
 10
907.246679
 20
308.300206
 30
0.0
 11
907.243218
 21
308.272519
 31
0.0
  0
LINE
  8
0
 10
907.243218
 20
308.272519
 30
0.0
 11
907.243218
 21
308.248293
 31
0.0
  0
LINE
  8
0
 10
907.243218
 20
308.248293
 30
0.0
 11
907.243218
 21
305.22497
 31
0.0
  0
LINE
  8
0
 10
907.243218
 20
305.22497
 30
0.0
 11
907.246679
 21
305.183439
 31
0.0
  0
LINE
  8
0
 10
907.246679
 20
305.183439
 30
0.0
 11
907.246679
 21
305.159213
 31
0.0
  0
LINE
  8
0
 10
907.246679
 20
305.159213
 30
0.0
 11
907.25014
 21
305.138448
 31
0.0
  0
LINE
  8
0
 10
907.25014
 20
305.138448
 30
0.0
 11
907.25014
 21
305.117683
 31
0.0
  0
LINE
  8
0
 10
907.25014
 20
305.117683
 30
0.0
 11
907.253601
 21
305.096918
 31
0.0
  0
LINE
  8
0
 10
907.253601
 20
305.096918
 30
0.0
 11
907.260523
 21
305.072691
 31
0.0
  0
LINE
  8
0
 10
907.260523
 20
305.072691
 30
0.0
 11
907.263983
 21
305.051926
 31
0.0
  0
LINE
  8
0
 10
907.263983
 20
305.051926
 30
0.0
 11
907.267444
 21
305.031161
 31
0.0
  0
LINE
  8
0
 10
907.267444
 20
305.031161
 30
0.0
 11
907.274366
 21
305.010396
 31
0.0
  0
LINE
  8
0
 10
907.274366
 20
305.010396
 30
0.0
 11
907.281288
 21
304.98963
 31
0.0
  0
LINE
  8
0
 10
907.281288
 20
304.98963
 30
0.0
 11
907.28821
 21
304.968865
 31
0.0
  0
LINE
  8
0
 10
907.28821
 20
304.968865
 30
0.0
 11
907.295131
 21
304.948594
 31
0.0
  0
LINE
  8
0
 10
907.295131
 20
304.948594
 30
0.0
 11
907.302053
 21
304.927829
 31
0.0
  0
LINE
  8
0
 10
907.302053
 20
304.927829
 30
0.0
 11
907.312436
 21
304.910525
 31
0.0
  0
LINE
  8
0
 10
907.312436
 20
304.910525
 30
0.0
 11
907.319358
 21
304.889759
 31
0.0
  0
LINE
  8
0
 10
907.319358
 20
304.889759
 30
0.0
 11
907.32974
 21
304.868994
 31
0.0
  0
LINE
  8
0
 10
907.32974
 20
304.868994
 30
0.0
 11
907.340123
 21
304.85169
 31
0.0
  0
LINE
  8
0
 10
907.340123
 20
304.85169
 30
0.0
 11
907.350505
 21
304.830925
 31
0.0
  0
LINE
  8
0
 10
907.350505
 20
304.830925
 30
0.0
 11
907.360394
 21
304.81362
 31
0.0
  0
LINE
  8
0
 10
907.360394
 20
304.81362
 30
0.0
 11
907.374237
 21
304.796316
 31
0.0
  0
LINE
  8
0
 10
907.374237
 20
304.796316
 30
0.0
 11
907.38462
 21
304.77555
 31
0.0
  0
LINE
  8
0
 10
907.38462
 20
304.77555
 30
0.0
 11
907.398463
 21
304.758246
 31
0.0
  0
LINE
  8
0
 10
907.398463
 20
304.758246
 30
0.0
 11
907.412307
 21
304.740942
 31
0.0
  0
LINE
  8
0
 10
907.412307
 20
304.740942
 30
0.0
 11
907.42615
 21
304.723637
 31
0.0
  0
LINE
  8
0
 10
907.42615
 20
304.723637
 30
0.0
 11
907.439994
 21
304.709794
 31
0.0
  0
LINE
  8
0
 10
907.439994
 20
304.709794
 30
0.0
 11
907.453837
 21
304.692489
 31
0.0
  0
LINE
  8
0
 10
907.453837
 20
304.692489
 30
0.0
 11
907.467681
 21
304.675185
 31
0.0
  0
LINE
  8
0
 10
907.467681
 20
304.675185
 30
0.0
 11
907.484985
 21
304.661342
 31
0.0
  0
LINE
  8
0
 10
907.484985
 20
304.661342
 30
0.0
 11
907.50229
 21
304.647498
 31
0.0
  0
LINE
  8
0
 10
907.50229
 20
304.647498
 30
0.0
 11
907.516133
 21
304.633655
 31
0.0
  0
LINE
  8
0
 10
907.516133
 20
304.633655
 30
0.0
 11
907.533437
 21
304.619811
 31
0.0
  0
LINE
  8
0
 10
907.533437
 20
304.619811
 30
0.0
 11
907.550742
 21
304.606462
 31
0.0
  0
LINE
  8
0
 10
907.550742
 20
304.606462
 30
0.0
 11
907.568046
 21
304.592618
 31
0.0
  0
LINE
  8
0
 10
907.568046
 20
304.592618
 30
0.0
 11
907.585351
 21
304.578775
 31
0.0
  0
LINE
  8
0
 10
907.585351
 20
304.578775
 30
0.0
 11
907.602655
 21
304.568392
 31
0.0
  0
LINE
  8
0
 10
907.602655
 20
304.568392
 30
0.0
 11
907.62342
 21
304.55801
 31
0.0
  0
LINE
  8
0
 10
907.62342
 20
304.55801
 30
0.0
 11
907.640725
 21
304.544166
 31
0.0
  0
LINE
  8
0
 10
907.640725
 20
304.544166
 30
0.0
 11
907.66149
 21
304.533784
 31
0.0
  0
LINE
  8
0
 10
907.66149
 20
304.533784
 30
0.0
 11
907.6783
 21
304.526862
 31
0.0
  0
LINE
  8
0
 10
907.6783
 20
304.526862
 30
0.0
 11
907.699065
 21
304.516479
 31
0.0
  0
LINE
  8
0
 10
907.699065
 20
304.516479
 30
0.0
 11
907.71983
 21
304.506097
 31
0.0
  0
LINE
  8
0
 10
907.71983
 20
304.506097
 30
0.0
 11
907.740596
 21
304.499175
 31
0.0
  0
LINE
  8
0
 10
907.740596
 20
304.499175
 30
0.0
 11
907.761361
 21
304.492253
 31
0.0
  0
LINE
  8
0
 10
907.761361
 20
304.492253
 30
0.0
 11
907.778665
 21
304.485331
 31
0.0
  0
LINE
  8
0
 10
907.778665
 20
304.485331
 30
0.0
 11
907.799431
 21
304.47841
 31
0.0
  0
LINE
  8
0
 10
907.799431
 20
304.47841
 30
0.0
 11
907.823657
 21
304.471488
 31
0.0
  0
LINE
  8
0
 10
907.823657
 20
304.471488
 30
0.0
 11
908.020432
 21
304.419575
 31
0.0
  0
LINE
  8
0
 10
908.020432
 20
304.419575
 30
0.0
 11
908.027354
 21
304.416114
 31
0.0
  0
LINE
  8
0
 10
908.027354
 20
304.416114
 30
0.0
 11
908.13118
 21
304.388427
 31
0.0
  0
LINE
  8
0
 10
908.13118
 20
304.388427
 30
0.0
 11
908.231546
 21
304.36074
 31
0.0
  0
LINE
  8
0
 10
908.231546
 20
304.36074
 30
0.0
 11
908.331417
 21
304.336514
 31
0.0
  0
LINE
  8
0
 10
908.331417
 20
304.336514
 30
0.0
 11
908.42486
 21
304.308827
 31
0.0
  0
LINE
  8
0
 10
908.42486
 20
304.308827
 30
0.0
 11
908.507921
 21
304.288556
 31
0.0
  0
LINE
  8
0
 10
908.507921
 20
304.288556
 30
0.0
 11
908.587521
 21
304.26779
 31
0.0
  0
LINE
  8
0
 10
908.587521
 20
304.26779
 30
0.0
 11
908.653278
 21
304.250486
 31
0.0
  0
LINE
  8
0
 10
908.653278
 20
304.250486
 30
0.0
 11
908.708158
 21
304.233182
 31
0.0
  0
LINE
  8
0
 10
908.708158
 20
304.233182
 30
0.0
 11
908.753149
 21
304.222799
 31
0.0
  0
LINE
  8
0
 10
908.753149
 20
304.222799
 30
0.0
 11
908.784297
 21
304.215877
 31
0.0
  0
LINE
  8
0
 10
908.784297
 20
304.215877
 30
0.0
 11
908.805062
 21
304.208956
 31
0.0
  0
LINE
  8
0
 10
907.243218
 20
305.22497
 30
0.0
 11
907.243218
 21
308.248293
 31
0.0
  0
LINE
  8
0
 10
907.498829
 20
308.825765
 30
0.0
 11
907.519594
 21
308.843069
 31
0.0
  0
LINE
  8
0
 10
907.519594
 20
308.843069
 30
0.0
 11
907.540359
 21
308.856913
 31
0.0
  0
LINE
  8
0
 10
907.540359
 20
308.856913
 30
0.0
 11
907.561124
 21
308.873723
 31
0.0
  0
LINE
  8
0
 10
907.561124
 20
308.873723
 30
0.0
 11
907.58189
 21
308.887566
 31
0.0
  0
LINE
  8
0
 10
907.58189
 20
308.887566
 30
0.0
 11
907.602655
 21
308.90487
 31
0.0
  0
LINE
  8
0
 10
907.602655
 20
308.90487
 30
0.0
 11
907.626881
 21
308.918714
 31
0.0
  0
LINE
  8
0
 10
907.626881
 20
308.918714
 30
0.0
 11
907.647646
 21
308.929097
 31
0.0
  0
LINE
  8
0
 10
907.647646
 20
308.929097
 30
0.0
 11
907.671378
 21
308.94294
 31
0.0
  0
LINE
  8
0
 10
907.671378
 20
308.94294
 30
0.0
 11
907.692143
 21
308.953323
 31
0.0
  0
LINE
  8
0
 10
907.692143
 20
308.953323
 30
0.0
 11
907.716369
 21
308.963705
 31
0.0
  0
LINE
  8
0
 10
907.716369
 20
308.963705
 30
0.0
 11
907.740596
 21
308.974088
 31
0.0
  0
LINE
  8
0
 10
907.740596
 20
308.974088
 30
0.0
 11
907.764822
 21
308.984471
 31
0.0
  0
LINE
  8
0
 10
907.764822
 20
308.984471
 30
0.0
 11
907.792509
 21
308.991392
 31
0.0
  0
LINE
  8
0
 10
907.792509
 20
308.991392
 30
0.0
 11
907.816735
 21
308.998314
 31
0.0
  0
LINE
  8
0
 10
907.816735
 20
308.998314
 30
0.0
 11
907.840961
 21
309.005236
 31
0.0
  0
LINE
  8
0
 10
907.840961
 20
309.005236
 30
0.0
 11
907.865187
 21
309.012158
 31
0.0
  0
LINE
  8
0
 10
907.865187
 20
309.012158
 30
0.0
 11
907.892874
 21
309.015618
 31
0.0
  0
LINE
  8
0
 10
907.892874
 20
309.015618
 30
0.0
 11
907.9171
 21
309.019079
 31
0.0
  0
LINE
  8
0
 10
907.9171
 20
309.019079
 30
0.0
 11
907.944787
 21
309.02254
 31
0.0
  0
LINE
  8
0
 10
907.944787
 20
309.02254
 30
0.0
 11
907.969013
 21
309.026001
 31
0.0
  0
LINE
  8
0
 10
907.969013
 20
309.026001
 30
0.0
 11
907.9967
 21
309.026001
 31
0.0
  0
LINE
  8
0
 10
907.9967
 20
309.026001
 30
0.0
 11
908.020432
 21
309.026001
 31
0.0
  0
LINE
  8
0
 10
908.020432
 20
309.026001
 30
0.0
 11
908.023893
 21
309.026001
 31
0.0
  0
LINE
  8
0
 10
908.023893
 20
309.026001
 30
0.0
 11
908.027354
 21
309.026001
 31
0.0
  0
LINE
  8
0
 10
908.027354
 20
309.026001
 30
0.0
 11
908.127719
 21
309.026001
 31
0.0
  0
LINE
  8
0
 10
908.127719
 20
309.026001
 30
0.0
 11
908.228085
 21
309.026001
 31
0.0
  0
LINE
  8
0
 10
908.228085
 20
309.026001
 30
0.0
 11
908.324989
 21
309.026001
 31
0.0
  0
LINE
  8
0
 10
908.324989
 20
309.026001
 30
0.0
 11
908.414478
 21
309.026001
 31
0.0
  0
LINE
  8
0
 10
908.414478
 20
309.026001
 30
0.0
 11
908.501
 21
309.026001
 31
0.0
  0
LINE
  8
0
 10
908.501
 20
309.026001
 30
0.0
 11
908.577139
 21
309.026001
 31
0.0
  0
LINE
  8
0
 10
908.577139
 20
309.026001
 30
0.0
 11
908.642896
 21
309.026001
 31
0.0
  0
LINE
  8
0
 10
908.642896
 20
309.026001
 30
0.0
 11
908.701236
 21
309.026001
 31
0.0
  0
LINE
  8
0
 10
908.701236
 20
309.026001
 30
0.0
 11
908.746227
 21
309.026001
 31
0.0
  0
LINE
  8
0
 10
908.746227
 20
309.026001
 30
0.0
 11
908.777375
 21
309.026001
 31
0.0
  0
LINE
  8
0
 10
908.777375
 20
309.026001
 30
0.0
 11
908.798141
 21
309.026001
 31
0.0
  0
LINE
  8
0
 10
908.798141
 20
309.026001
 30
0.0
 11
908.805062
 21
309.026001
 31
0.0
  0
LINE
  8
0
 10
908.805062
 20
309.026001
 30
0.0
 11
909.268325
 21
309.026001
 31
0.0
  0
LINE
  8
0
 10
908.805062
 20
304.208956
 30
0.0
 11
911.517895
 21
303.479699
 31
0.0
  0
LINE
  8
0
 10
911.566347
 20
303.462395
 30
0.0
 11
911.607383
 21
303.431247
 31
0.0
  0
LINE
  8
0
 10
911.607383
 20
303.431247
 30
0.0
 11
911.638531
 21
303.389717
 31
0.0
  0
LINE
  8
0
 10
911.662757
 20
303.293307
 30
0.0
 11
911.662757
 21
299.944661
 31
0.0
  0
LINE
  8
0
 10
912.768755
 20
299.474477
 30
0.0
 11
912.768755
 21
342.677091
 31
0.0
  0
LINE
  8
0
 10
911.662757
 20
299.944661
 30
0.0
 11
911.655836
 21
299.889287
 31
0.0
  0
LINE
  8
0
 10
911.655836
 20
299.889287
 30
0.0
 11
911.63507
 21
299.840835
 31
0.0
  0
LINE
  8
0
 10
911.63507
 20
299.840835
 30
0.0
 11
911.600462
 21
299.799305
 31
0.0
  0
LINE
  8
0
 10
911.600462
 20
299.799305
 30
0.0
 11
911.555965
 21
299.768157
 31
0.0
  0
LINE
  8
0
 10
911.555965
 20
299.768157
 30
0.0
 11
911.504051
 21
299.750852
 31
0.0
  0
LINE
  8
0
 10
912.768755
 20
299.474477
 30
0.0
 11
912.761833
 21
299.360762
 31
0.0
  0
LINE
  8
0
 10
912.761833
 20
299.360762
 30
0.0
 11
912.741068
 21
299.250014
 31
0.0
  0
LINE
  8
0
 10
912.741068
 20
299.250014
 30
0.0
 11
912.70992
 21
299.139266
 31
0.0
  0
LINE
  8
0
 10
912.70992
 20
299.139266
 30
0.0
 11
912.664928
 21
299.035934
 31
0.0
  0
LINE
  8
0
 10
912.664928
 20
299.035934
 30
0.0
 11
912.609554
 21
298.93903
 31
0.0
  0
LINE
  8
0
 10
912.609554
 20
298.93903
 30
0.0
 11
912.540831
 21
298.845586
 31
0.0
  0
LINE
  8
0
 10
912.540831
 20
298.845586
 30
0.0
 11
912.461231
 21
298.765986
 31
0.0
  0
LINE
  8
0
 10
912.461231
 20
298.765986
 30
0.0
 11
912.374709
 21
298.690341
 31
0.0
  0
LINE
  8
0
 10
912.374709
 20
298.690341
 30
0.0
 11
912.281265
 21
298.628045
 31
0.0
  0
LINE
  8
0
 10
912.281265
 20
298.628045
 30
0.0
 11
912.181394
 21
298.579593
 31
0.0
  0
LINE
  8
0
 10
912.181394
 20
298.579593
 30
0.0
 11
912.074107
 21
298.538062
 31
0.0
  0
LINE
  8
0
 10
912.074107
 20
298.538062
 30
0.0
 11
911.963359
 21
298.513836
 31
0.0
  0
LINE
  8
0
 10
911.504051
 20
299.750852
 30
0.0
 11
909.406266
 21
299.381527
 31
0.0
  0
LINE
  8
0
 10
909.634189
 20
298.102981
 30
0.0
 11
911.963359
 21
298.513836
 31
0.0
  0
LINE
  8
0
 10
910.142444
 20
298.558828
 30
0.0
 11
910.163209
 21
298.648811
 31
0.0
  0
LINE
  8
0
 10
910.163209
 20
298.648811
 30
0.0
 11
910.170131
 21
298.742254
 31
0.0
  0
LINE
  8
0
 10
910.170131
 20
298.742254
 30
0.0
 11
910.163209
 21
298.835203
 31
0.0
  0
LINE
  8
0
 10
910.163209
 20
298.835203
 30
0.0
 11
910.142444
 21
298.925186
 31
0.0
  0
LINE
  8
0
 10
910.142444
 20
298.925186
 30
0.0
 11
910.111296
 21
299.011708
 31
0.0
  0
LINE
  8
0
 10
910.111296
 20
299.011708
 30
0.0
 11
910.066305
 21
299.094769
 31
0.0
  0
LINE
  8
0
 10
910.066305
 20
299.094769
 30
0.0
 11
910.010931
 21
299.166953
 31
0.0
  0
LINE
  8
0
 10
910.010931
 20
299.166953
 30
0.0
 11
909.945668
 21
299.23271
 31
0.0
  0
LINE
  8
0
 10
909.945668
 20
299.23271
 30
0.0
 11
909.869529
 21
299.288084
 31
0.0
  0
LINE
  8
0
 10
909.869529
 20
299.288084
 30
0.0
 11
909.789929
 21
299.333075
 31
0.0
  0
LINE
  8
0
 10
909.789929
 20
299.333075
 30
0.0
 11
909.703407
 21
299.367684
 31
0.0
  0
LINE
  8
0
 10
909.703407
 20
299.367684
 30
0.0
 11
909.610458
 21
299.384988
 31
0.0
  0
LINE
  8
0
 10
909.610458
 20
299.384988
 30
0.0
 11
909.520475
 21
299.39191
 31
0.0
  0
LINE
  8
0
 10
909.520475
 20
299.39191
 30
0.0
 11
909.427031
 21
299.384988
 31
0.0
  0
LINE
  8
0
 10
909.427031
 20
299.384988
 30
0.0
 11
909.337048
 21
299.367684
 31
0.0
  0
LINE
  8
0
 10
909.337048
 20
299.367684
 30
0.0
 11
909.24756
 21
299.333075
 31
0.0
  0
LINE
  8
0
 10
909.24756
 20
299.333075
 30
0.0
 11
909.16796
 21
299.288084
 31
0.0
  0
LINE
  8
0
 10
909.16796
 20
299.288084
 30
0.0
 11
909.091821
 21
299.23271
 31
0.0
  0
LINE
  8
0
 10
909.091821
 20
299.23271
 30
0.0
 11
909.026064
 21
299.166953
 31
0.0
  0
LINE
  8
0
 10
909.026064
 20
299.166953
 30
0.0
 11
908.971184
 21
299.094769
 31
0.0
  0
LINE
  8
0
 10
908.971184
 20
299.094769
 30
0.0
 11
908.926193
 21
299.011708
 31
0.0
  0
LINE
  8
0
 10
908.926193
 20
299.011708
 30
0.0
 11
908.895045
 21
298.925186
 31
0.0
  0
LINE
  8
0
 10
908.895045
 20
298.925186
 30
0.0
 11
908.87428
 21
298.835203
 31
0.0
  0
LINE
  8
0
 10
908.87428
 20
298.835203
 30
0.0
 11
908.867358
 21
298.742254
 31
0.0
  0
LINE
  8
0
 10
908.867358
 20
298.742254
 30
0.0
 11
908.87428
 21
298.648811
 31
0.0
  0
LINE
  8
0
 10
908.87428
 20
298.648811
 30
0.0
 11
908.895045
 21
298.558828
 31
0.0
  0
LINE
  8
0
 10
908.895045
 20
298.558828
 30
0.0
 11
908.926193
 21
298.472306
 31
0.0
  0
LINE
  8
0
 10
908.926193
 20
298.472306
 30
0.0
 11
908.971184
 21
298.389739
 31
0.0
  0
LINE
  8
0
 10
908.971184
 20
298.389739
 30
0.0
 11
909.026064
 21
298.317061
 31
0.0
  0
LINE
  8
0
 10
909.026064
 20
298.317061
 30
0.0
 11
909.091821
 21
298.251304
 31
0.0
  0
LINE
  8
0
 10
909.091821
 20
298.251304
 30
0.0
 11
909.16796
 21
298.19593
 31
0.0
  0
LINE
  8
0
 10
909.16796
 20
298.19593
 30
0.0
 11
909.24756
 21
298.150939
 31
0.0
  0
LINE
  8
0
 10
909.24756
 20
298.150939
 30
0.0
 11
909.337048
 21
298.119791
 31
0.0
  0
LINE
  8
0
 10
909.337048
 20
298.119791
 30
0.0
 11
909.427031
 21
298.09952
 31
0.0
  0
LINE
  8
0
 10
909.427031
 20
298.09952
 30
0.0
 11
909.520475
 21
298.092598
 31
0.0
  0
LINE
  8
0
 10
909.520475
 20
298.092598
 30
0.0
 11
909.610458
 21
298.09952
 31
0.0
  0
LINE
  8
0
 10
909.610458
 20
298.09952
 30
0.0
 11
909.703407
 21
298.119791
 31
0.0
  0
LINE
  8
0
 10
909.703407
 20
298.119791
 30
0.0
 11
909.789929
 21
298.150939
 31
0.0
  0
LINE
  8
0
 10
909.789929
 20
298.150939
 30
0.0
 11
909.869529
 21
298.19593
 31
0.0
  0
LINE
  8
0
 10
909.869529
 20
298.19593
 30
0.0
 11
909.945668
 21
298.251304
 31
0.0
  0
LINE
  8
0
 10
909.945668
 20
298.251304
 30
0.0
 11
910.010931
 21
298.317061
 31
0.0
  0
LINE
  8
0
 10
910.010931
 20
298.317061
 30
0.0
 11
910.066305
 21
298.389739
 31
0.0
  0
LINE
  8
0
 10
910.066305
 20
298.389739
 30
0.0
 11
910.111296
 21
298.472306
 31
0.0
  0
LINE
  8
0
 10
910.111296
 20
298.472306
 30
0.0
 11
910.142444
 21
298.558828
 31
0.0
  0
ENDSEC
  0
EOF
