  0
SECTION
  2
HEADER
  9
$ACADVER
  1
AC1009
  9
$INSBASE
 10
0.0
 20
0.0
 30
0.0
  9
$EXTMIN
 10
835.039764
 20
279.722317
 30
0.0
  9
$EXTMAX
 10
955.039764
 20
456.864907
 30
0.0
  9
$LIMMIN
 10
835.039764
 20
279.722317
  9
$LIMMAX
 10
955.039764
 20
456.864907
  9
$ORTHOMODE
 70
     0
  9
$REGENMODE
 70
     1
  9
$FILLMODE
 70
     1
  9
$QTEXTMODE
 70
     0
  9
$MIRRTEXT
 70
     1
  9
$DRAGMODE
 70
     2
  9
$LTSCALE
 40
1.0
  9
$OSMODE
 70
     0
  9
$ATTMODE
 70
     1
  9
$TEXTSIZE
 40
3.5
  9
$TRACEWID
 40
0.5
  9
$TEXTSTYLE
  7
STANDARD
  9
$CLAYER
  8
0
  9
$CELTYPE
  6
BYLAYER
  9
$CECOLOR
 62
   256
  9
$DIMSCALE
 40
1.0
  9
$DIMASZ
 40
0.18
  9
$DIMEXO
 40
0.0625
  9
$DIMDLI
 40
0.38
  9
$DIMRND
 40
0.0
  9
$DIMDLE
 40
0.0
  9
$DIMEXE
 40
0.18
  9
$DIMTP
 40
0.0
  9
$DIMTM
 40
0.0
  9
$DIMTXT
 40
0.18
  9
$DIMCEN
 40
0.09
  9
$DIMTSZ
 40
0.0
  9
$DIMTOL
 70
     0
  9
$DIMLIM
 70
     0
  9
$DIMTIH
 70
     1
  9
$DIMTOH
 70
     1
  9
$DIMSE1
 70
     0
  9
$DIMSE2
 70
     0
  9
$DIMTAD
 70
     0
  9
$DIMZIN
 70
     0
  9
$DIMBLK
  1

  9
$DIMASO
 70
     1
  9
$DIMSHO
 70
     1
  9
$DIMPOST
  1

  9
$DIMAPOST
  1

  9
$DIMALT
 70
     0
  9
$DIMALTD
 70
     2
  9
$DIMALTF
 40
25.4
  9
$DIMLFAC
 40
1.0
  9
$DIMTOFL
 70
     0
  9
$DIMTVP
 40
0.0
  9
$DIMTIX
 70
     0
  9
$DIMSOXD
 70
     0
  9
$DIMSAH
 70
     0
  9
$DIMBLK1
  1

  9
$DIMBLK2
  1

  9
$DIMSTYLE
  2
*UNNAMED
  9
$DIMCLRD
 70
     0
  9
$DIMCLRE
 70
     0
  9
$DIMCLRT
 70
     0
  9
$DIMTFAC
 40
1.0
  9
$DIMGAP
 40
0.09
  9
$LUNITS
 70
     2
  9
$LUPREC
 70
     4
  9
$SKETCHINC
 40
0.1
  9
$FILLETRAD
 40
2.0
  9
$AUNITS
 70
     0
  9
$AUPREC
 70
     0
  9
$MENU
  1
ACAD
  9
$ELEVATION
 40
0.0
  9
$PELEVATION
 40
0.0
  9
$THICKNESS
 40
0.0
  9
$LIMCHECK
 70
     0
  9
$BLIPMODE
 70
     1
  9
$CHAMFERA
 40
0.0
  9
$CHAMFERB
 40
0.0
  9
$SKPOLY
 70
     0
  9
$TDCREATE
 40
2450953.666160301
  9
$TDUPDATE
 40
2450953.667428009
  9
$TDINDWG
 40
0.0007603009
  9
$TDUSRTIMER
 40
0.0007603009
  9
$USRTIMER
 70
     1
  9
$ANGBASE
 50
0.0
  9
$ANGDIR
 70
     0
  9
$PDMODE
 70
     0
  9
$PDSIZE
 40
0.0
  9
$PLINEWID
 40
0.0
  9
$COORDS
 70
     2
  9
$SPLFRAME
 70
     0
  9
$SPLINETYPE
 70
     6
  9
$SPLINESEGS
 70
     8
  9
$ATTDIA
 70
     0
  9
$ATTREQ
 70
     1
  9
$HANDLING
 70
     0
  9
$HANDSEED
  5
0
  9
$SURFTAB1
 70
     6
  9
$SURFTAB2
 70
     6
  9
$SURFTYPE
 70
     6
  9
$SURFU
 70
     6
  9
$SURFV
 70
     6
  9
$UCSNAME
  2

  9
$UCSORG
 10
0.0
 20
0.0
 30
0.0
  9
$UCSXDIR
 10
1.0
 20
0.0
 30
0.0
  9
$UCSYDIR
 10
0.0
 20
1.0
 30
0.0
  9
$PUCSNAME
  2

  9
$PUCSORG
 10
0.0
 20
0.0
 30
0.0
  9
$PUCSXDIR
 10
1.0
 20
0.0
 30
0.0
  9
$PUCSYDIR
 10
0.0
 20
1.0
 30
0.0
  9
$USERI1
 70
     0
  9
$USERI2
 70
     0
  9
$USERI3
 70
     0
  9
$USERI4
 70
     0
  9
$USERI5
 70
     0
  9
$USERR1
 40
0.0
  9
$USERR2
 40
0.0
  9
$USERR3
 40
0.0
  9
$USERR4
 40
0.0
  9
$USERR5
 40
0.0
  9
$WORLDVIEW
 70
     1
  9
$SHADEDGE
 70
     3
  9
$SHADEDIF
 70
    70
  9
$TILEMODE
 70
     1
  9
$MAXACTVP
 70
    16
  9
$PINSBASE
 10
0.0
 20
0.0
 30
0.0
  9
$PLIMCHECK
 70
     0
  9
$PEXTMIN
 10
1.000000E+20
 20
1.000000E+20
 30
1.000000E+20
  9
$PEXTMAX
 10
-1.000000E+20
 20
-1.000000E+20
 30
-1.000000E+20
  9
$PLIMMIN
 10
0.0
 20
0.0
  9
$PLIMMAX
 10
420.0
 20
297.0
  9
$UNITMODE
 70
     0
  9
$VISRETAIN
 70
     0
  9
$PLINEGEN
 70
     0
  9
$PSLTSCALE
 70
     1
  9
$TREEDEPTH
 70
  3020
  9
$DWGCODEPAGE
  3
iso8859-1
  0
ENDSEC
  0
SECTION
  2
TABLES
  0
TABLE
  2
VPORT
 70
     2
  0
VPORT
  2
*ACTIVE
 70
     0
 10
0.0
 20
0.0
 11
1.0
 21
1.0
 12
994.979285
 22
374.513029
 13
0.0
 23
0.0
 14
1.0
 24
1.0
 15
0.0
 25
0.0
 16
0.0
 26
0.0
 36
1.0
 17
0.0
 27
0.0
 37
0.0
 40
232.932324
 41
1.748359
 42
50.0
 43
0.0
 44
0.0
 50
0.0
 51
0.0
 71
     0
 72
   100
 73
     1
 74
     0
 75
     0
 76
     0
 77
     0
 78
     0
  0
ENDTAB
  0
TABLE
  2
LTYPE
 70
     1
  0
LTYPE
  2
CONTINUOUS
 70
    64
  3
Solid line
 72
    65
 73
     0
 40
0.0
  0
ENDTAB
  0
TABLE
  2
LAYER
 70
     2
  0
LAYER
  2
0
 70
    64
 62
     7
  6
CONTINUOUS
  0
LAYER
  2
CAPA_1
 70
    64
 62
     2
  6
CONTINUOUS
  0
ENDTAB
  0
TABLE
  2
STYLE
 70
     1
  0
STYLE
  2
STANDARD
 70
    64
 40
0.0
 41
1.0
 50
0.0
 71
     0
 42
3.5
  3
txt
  4

  0
ENDTAB
  0
TABLE
  2
VIEW
 70
     0
  0
ENDTAB
  0
TABLE
  2
UCS
 70
     0
  0
ENDTAB
  0
TABLE
  2
APPID
 70
     1
  0
APPID
  2
ACAD
 70
    64
  0
ENDTAB
  0
TABLE
  2
DIMSTYLE
 70
     0
  0
ENDTAB
  0
ENDSEC
  0
SECTION
  2
BLOCKS
  0
ENDSEC
  0
SECTION
  2
ENTITIES
  0
LINE
  8
0
 10
835.039764
 20
436.864907
 30
0.0
 11
855.039764
 21
436.864907
 31
0.0
  0
LINE
  8
0
 10
935.039764
 20
436.864907
 30
0.0
 11
935.039764
 21
416.864907
 31
0.0
  0
LINE
  8
0
 10
935.039764
 20
436.864907
 30
0.0
 11
955.039764
 21
436.864907
 31
0.0
  0
LINE
  8
0
 10
935.039764
 20
416.864907
 30
0.0
 11
875.039764
 21
416.864907
 31
0.0
  0
LINE
  8
0
 10
875.039764
 20
416.864907
 30
0.0
 11
875.039764
 21
279.722317
 31
0.0
  0
LINE
  8
0
 10
875.039764
 20
279.722317
 30
0.0
 11
855.039764
 21
279.722317
 31
0.0
  0
LINE
  8
0
 10
855.039764
 20
279.722317
 30
0.0
 11
855.039764
 21
436.864907
 31
0.0
  0
LINE
  8
0
 10
855.039764
 20
436.864907
 30
0.0
 11
935.039764
 21
436.864907
 31
0.0
  0
LINE
  8
0
 10
907.561482
 20
396.964235
 30
0.0
 11
910.262198
 21
396.964235
 31
0.0
  0
LINE
  8
0
 10
910.262198
 20
396.964235
 30
0.0
 11
910.262198
 21
392.86161
 31
0.0
  0
LINE
  8
0
 10
910.262198
 20
392.86161
 30
0.0
 11
907.561482
 21
392.86161
 31
0.0
  0
LINE
  8
0
 10
907.561482
 20
392.86161
 30
0.0
 11
907.561482
 21
396.964235
 31
0.0
  0
LINE
  8
0
 10
907.561482
 20
306.463997
 30
0.0
 11
907.561482
 21
302.364235
 31
0.0
  0
LINE
  8
0
 10
907.561482
 20
302.364235
 30
0.0
 11
910.262198
 21
302.364235
 31
0.0
  0
LINE
  8
0
 10
910.262198
 20
302.364235
 30
0.0
 11
910.262198
 21
306.463997
 31
0.0
  0
LINE
  8
0
 10
910.262198
 20
306.463997
 30
0.0
 11
907.561482
 21
306.463997
 31
0.0
  0
LINE
  8
0
 10
875.039764
 20
296.663997
 30
0.0
 11
875.046446
 21
296.496932
 31
0.0
  0
LINE
  8
0
 10
875.046446
 20
296.496932
 30
0.0
 11
875.043101
 21
296.567408
 31
0.0
  0
LINE
  8
0
 10
875.043101
 20
296.567408
 30
0.0
 11
875.043105
 21
296.580464
 31
0.0
  0
LINE
  8
0
 10
875.043105
 20
296.580464
 30
0.0
 11
875.206828
 21
295.859701
 31
0.0
  0
LINE
  8
0
 10
875.206828
 20
295.859701
 30
0.0
 11
875.279859
 21
295.710297
 31
0.0
  0
LINE
  8
0
 10
875.279859
 20
295.710297
 30
0.0
 11
875.363391
 21
295.567577
 31
0.0
  0
LINE
  8
0
 10
875.363391
 20
295.567577
 30
0.0
 11
875.460766
 21
295.435357
 31
0.0
  0
LINE
  8
0
 10
875.460766
 20
295.435357
 30
0.0
 11
875.568642
 21
295.306479
 31
0.0
  0
LINE
  8
0
 10
875.568642
 20
295.306479
 30
0.0
 11
875.683678
 21
295.19192
 31
0.0
  0
LINE
  8
0
 10
875.683678
 20
295.19192
 30
0.0
 11
875.808737
 21
295.084044
 31
0.0
  0
LINE
  8
0
 10
875.808737
 20
295.084044
 30
0.0
 11
875.944298
 21
294.990011
 31
0.0
  0
LINE
  8
0
 10
875.944298
 20
294.990011
 30
0.0
 11
876.087019
 21
294.90266
 31
0.0
  0
LINE
  8
0
 10
876.087019
 20
294.90266
 30
0.0
 11
876.233558
 21
294.829629
 31
0.0
  0
LINE
  8
0
 10
876.233558
 20
294.829629
 30
0.0
 11
876.390122
 21
294.770441
 31
0.0
  0
LINE
  8
0
 10
876.390122
 20
294.770441
 30
0.0
 11
876.546685
 21
294.725572
 31
0.0
  0
LINE
  8
0
 10
876.546685
 20
294.725572
 30
0.0
 11
876.709931
 21
294.690727
 31
0.0
  0
LINE
  8
0
 10
876.709931
 20
294.690727
 30
0.0
 11
876.873654
 21
294.669725
 31
0.0
  0
LINE
  8
0
 10
876.873654
 20
294.669725
 30
0.0
 11
877.037377
 21
294.662565
 31
0.0
  0
LINE
  8
0
 10
877.037377
 20
294.662565
 30
0.0
 11
876.873654
 21
294.669725
 31
0.0
  0
LINE
  8
0
 10
876.873654
 20
294.669725
 30
0.0
 11
876.709931
 21
294.690727
 31
0.0
  0
LINE
  8
0
 10
876.709931
 20
294.690727
 30
0.0
 11
876.546685
 21
294.725572
 31
0.0
  0
LINE
  8
0
 10
876.546685
 20
294.725572
 30
0.0
 11
876.390122
 21
294.770441
 31
0.0
  0
LINE
  8
0
 10
876.390122
 20
294.770441
 30
0.0
 11
876.233558
 21
294.829629
 31
0.0
  0
LINE
  8
0
 10
876.233558
 20
294.829629
 30
0.0
 11
876.087019
 21
294.90266
 31
0.0
  0
LINE
  8
0
 10
876.087019
 20
294.90266
 30
0.0
 11
875.944298
 21
294.990011
 31
0.0
  0
LINE
  8
0
 10
875.944298
 20
294.990011
 30
0.0
 11
875.808737
 21
295.084044
 31
0.0
  0
LINE
  8
0
 10
875.808737
 20
295.084044
 30
0.0
 11
875.683678
 21
295.19192
 31
0.0
  0
LINE
  8
0
 10
875.683678
 20
295.19192
 30
0.0
 11
875.568642
 21
295.306479
 31
0.0
  0
LINE
  8
0
 10
875.568642
 20
295.306479
 30
0.0
 11
875.460766
 21
295.435357
 31
0.0
  0
LINE
  8
0
 10
875.460766
 20
295.435357
 30
0.0
 11
875.363391
 21
295.567577
 31
0.0
  0
LINE
  8
0
 10
875.363391
 20
295.567577
 30
0.0
 11
875.279859
 21
295.710297
 31
0.0
  0
LINE
  8
0
 10
875.279859
 20
295.710297
 30
0.0
 11
875.206828
 21
295.859701
 31
0.0
  0
LINE
  8
0
 10
875.206828
 20
295.859701
 30
0.0
 11
875.043105
 21
296.580464
 31
0.0
  0
LINE
  8
0
 10
875.043105
 20
296.580464
 30
0.0
 11
875.043101
 21
296.567408
 31
0.0
  0
LINE
  8
0
 10
875.043101
 20
296.567408
 30
0.0
 11
875.046446
 21
296.496932
 31
0.0
  0
LINE
  8
0
 10
875.046446
 20
296.496932
 30
0.0
 11
875.039764
 21
296.663997
 31
0.0
  0
LINE
  8
0
 10
875.039764
 20
296.663997
 30
0.0
 11
875.039764
 21
402.66161
 31
0.0
  0
LINE
  8
0
 10
875.039764
 20
402.66161
 30
0.0
 11
875.046446
 21
402.828674
 31
0.0
  0
LINE
  8
0
 10
875.046446
 20
402.828674
 30
0.0
 11
875.064107
 21
402.99192
 31
0.0
  0
LINE
  8
0
 10
875.064107
 20
402.99192
 30
0.0
 11
875.098952
 21
403.152302
 31
0.0
  0
LINE
  8
0
 10
875.098952
 20
403.152302
 30
0.0
 11
875.14764
 21
403.312207
 31
0.0
  0
LINE
  8
0
 10
875.14764
 20
403.312207
 30
0.0
 11
875.206828
 21
403.465429
 31
0.0
  0
LINE
  8
0
 10
875.206828
 20
403.465429
 30
0.0
 11
875.279859
 21
403.614832
 31
0.0
  0
LINE
  8
0
 10
875.279859
 20
403.614832
 30
0.0
 11
875.363391
 21
403.757553
 31
0.0
  0
LINE
  8
0
 10
875.363391
 20
403.757553
 30
0.0
 11
875.460766
 21
403.889772
 31
0.0
  0
LINE
  8
0
 10
875.460766
 20
403.889772
 30
0.0
 11
875.568642
 21
404.018651
 31
0.0
  0
LINE
  8
0
 10
875.568642
 20
404.018651
 30
0.0
 11
875.683678
 21
404.133686
 31
0.0
  0
LINE
  8
0
 10
875.683678
 20
404.133686
 30
0.0
 11
875.808737
 21
404.241562
 31
0.0
  0
LINE
  8
0
 10
875.808737
 20
404.241562
 30
0.0
 11
875.944298
 21
404.335596
 31
0.0
  0
LINE
  8
0
 10
875.944298
 20
404.335596
 30
0.0
 11
876.087019
 21
404.422469
 31
0.0
  0
LINE
  8
0
 10
876.087019
 20
404.422469
 30
0.0
 11
876.233558
 21
404.4955
 31
0.0
  0
LINE
  8
0
 10
876.233558
 20
404.4955
 30
0.0
 11
876.390122
 21
404.554689
 31
0.0
  0
LINE
  8
0
 10
876.390122
 20
404.554689
 30
0.0
 11
876.546685
 21
404.600035
 31
0.0
  0
LINE
  8
0
 10
876.546685
 20
404.600035
 30
0.0
 11
876.709931
 21
404.63488
 31
0.0
  0
LINE
  8
0
 10
876.709931
 20
404.63488
 30
0.0
 11
876.873654
 21
404.655405
 31
0.0
  0
LINE
  8
0
 10
876.873654
 20
404.655405
 30
0.0
 11
877.037377
 21
404.662565
 31
0.0
  0
LINE
  8
0
 10
877.037377
 20
404.662565
 30
0.0
 11
903.061721
 21
404.662565
 31
0.0
  0
LINE
  8
0
 10
903.061721
 20
404.662565
 30
0.0
 11
903.224967
 21
404.655405
 31
0.0
  0
LINE
  8
0
 10
903.224967
 20
404.655405
 30
0.0
 11
903.385348
 21
404.638221
 31
0.0
  0
LINE
  8
0
 10
903.385348
 20
404.638221
 30
0.0
 11
903.545253
 21
404.603376
 31
0.0
  0
LINE
  8
0
 10
903.545253
 20
404.603376
 30
0.0
 11
903.698475
 21
404.55803
 31
0.0
  0
LINE
  8
0
 10
903.698475
 20
404.55803
 30
0.0
 11
903.851697
 21
404.502183
 31
0.0
  0
LINE
  8
0
 10
903.851697
 20
404.502183
 30
0.0
 11
903.997759
 21
404.429152
 31
0.0
  0
LINE
  8
0
 10
903.997759
 20
404.429152
 30
0.0
 11
904.137138
 21
404.349438
 31
0.0
  0
LINE
  8
0
 10
904.137138
 20
404.349438
 30
0.0
 11
904.269358
 21
404.255405
 31
0.0
  0
LINE
  8
0
 10
904.269358
 20
404.255405
 30
0.0
 11
904.394418
 21
404.154211
 31
0.0
  0
LINE
  8
0
 10
904.394418
 20
404.154211
 30
0.0
 11
904.512795
 21
404.039653
 31
0.0
  0
LINE
  8
0
 10
904.512795
 20
404.039653
 30
0.0
 11
904.617329
 21
403.917935
 31
0.0
  0
LINE
  8
0
 10
904.617329
 20
403.917935
 30
0.0
 11
904.714704
 21
403.789056
 31
0.0
  0
LINE
  8
0
 10
904.714704
 20
403.789056
 30
0.0
 11
904.801577
 21
403.653495
 31
0.0
  0
LINE
  8
0
 10
904.801577
 20
403.653495
 30
0.0
 11
904.874609
 21
403.506956
 31
0.0
  0
LINE
  8
0
 10
904.874609
 20
403.506956
 30
0.0
 11
907.182007
 21
398.561849
 31
0.0
  0
LINE
  8
0
 10
907.182007
 20
398.561849
 30
0.0
 11
911.737616
 21
398.561849
 31
0.0
  0
LINE
  8
0
 10
911.737616
 20
398.561849
 30
0.0
 11
911.737616
 21
399.800989
 31
0.0
  0
LINE
  8
0
 10
911.737616
 20
399.800989
 30
0.0
 11
910.174847
 21
401.363281
 31
0.0
  0
LINE
  8
0
 10
910.174847
 20
401.363281
 30
0.0
 11
909.138093
 21
401.363281
 31
0.0
  0
LINE
  8
0
 10
909.138093
 20
401.363281
 30
0.0
 11
909.033558
 21
401.370441
 31
0.0
  0
LINE
  8
0
 10
909.033558
 20
401.370441
 30
0.0
 11
908.929024
 21
401.390966
 31
0.0
  0
LINE
  8
0
 10
908.929024
 20
401.390966
 30
0.0
 11
908.831649
 21
401.422469
 31
0.0
  0
LINE
  8
0
 10
908.831649
 20
401.422469
 30
0.0
 11
908.737616
 21
401.471157
 31
0.0
  0
LINE
  8
0
 10
908.737616
 20
401.471157
 30
0.0
 11
908.650742
 21
401.527004
 31
0.0
  0
LINE
  8
0
 10
908.650742
 20
401.527004
 30
0.0
 11
908.570551
 21
401.596693
 31
0.0
  0
LINE
  8
0
 10
908.570551
 20
401.596693
 30
0.0
 11
908.500861
 21
401.676407
 31
0.0
  0
LINE
  8
0
 10
908.500861
 20
401.676407
 30
0.0
 11
908.445492
 21
401.763758
 31
0.0
  0
LINE
  8
0
 10
908.445492
 20
401.763758
 30
0.0
 11
908.396804
 21
401.857314
 31
0.0
  0
LINE
  8
0
 10
908.396804
 20
401.857314
 30
0.0
 11
908.365301
 21
401.955166
 31
0.0
  0
LINE
  8
0
 10
908.365301
 20
401.955166
 30
0.0
 11
908.344298
 21
402.059223
 31
0.0
  0
LINE
  8
0
 10
908.344298
 20
402.059223
 30
0.0
 11
908.337616
 21
402.163758
 31
0.0
  0
LINE
  8
0
 10
908.337616
 20
402.163758
 30
0.0
 11
908.344298
 21
402.268293
 31
0.0
  0
LINE
  8
0
 10
908.344298
 20
402.268293
 30
0.0
 11
908.365301
 21
402.369009
 31
0.0
  0
LINE
  8
0
 10
908.365301
 20
402.369009
 30
0.0
 11
908.396804
 21
402.470202
 31
0.0
  0
LINE
  8
0
 10
908.396804
 20
402.470202
 30
0.0
 11
908.445492
 21
402.564235
 31
0.0
  0
LINE
  8
0
 10
908.445492
 20
402.564235
 30
0.0
 11
908.500861
 21
402.651109
 31
0.0
  0
LINE
  8
0
 10
908.500861
 20
402.651109
 30
0.0
 11
908.570551
 21
402.727481
 31
0.0
  0
LINE
  8
0
 10
908.570551
 20
402.727481
 30
0.0
 11
908.650742
 21
402.797171
 31
0.0
  0
LINE
  8
0
 10
908.650742
 20
402.797171
 30
0.0
 11
908.737616
 21
402.856359
 31
0.0
  0
LINE
  8
0
 10
908.737616
 20
402.856359
 30
0.0
 11
908.831649
 21
402.901705
 31
0.0
  0
LINE
  8
0
 10
908.831649
 20
402.901705
 30
0.0
 11
908.929024
 21
402.93655
 31
0.0
  0
LINE
  8
0
 10
908.929024
 20
402.93655
 30
0.0
 11
909.033558
 21
402.957075
 31
0.0
  0
LINE
  8
0
 10
909.033558
 20
402.957075
 30
0.0
 11
909.138093
 21
402.964235
 31
0.0
  0
LINE
  8
0
 10
909.138093
 20
402.964235
 30
0.0
 11
910.422103
 21
402.964235
 31
0.0
  0
LINE
  8
0
 10
910.422103
 20
402.964235
 30
0.0
 11
910.53332
 21
402.957075
 31
0.0
  0
LINE
  8
0
 10
910.53332
 20
402.957075
 30
0.0
 11
910.645014
 21
402.93655
 31
0.0
  0
LINE
  8
0
 10
910.645014
 20
402.93655
 30
0.0
 11
910.75289
 21
402.905047
 31
0.0
  0
LINE
  8
0
 10
910.75289
 20
402.905047
 30
0.0
 11
910.856947
 21
402.863042
 31
0.0
  0
LINE
  8
0
 10
910.856947
 20
402.863042
 30
0.0
 11
910.954322
 21
402.811013
 31
0.0
  0
LINE
  8
0
 10
910.954322
 20
402.811013
 30
0.0
 11
911.045014
 21
402.745142
 31
0.0
  0
LINE
  8
0
 10
911.045014
 20
402.745142
 30
0.0
 11
911.128546
 21
402.668293
 31
0.0
  0
LINE
  8
0
 10
911.128546
 20
402.668293
 30
0.0
 11
913.042628
 21
400.754211
 31
0.0
  0
LINE
  8
0
 10
913.042628
 20
400.754211
 30
0.0
 11
913.119
 21
400.670679
 31
0.0
  0
LINE
  8
0
 10
913.119
 20
400.670679
 30
0.0
 11
913.182007
 21
400.580464
 31
0.0
  0
LINE
  8
0
 10
913.182007
 20
400.580464
 30
0.0
 11
913.237377
 21
400.48309
 31
0.0
  0
LINE
  8
0
 10
913.237377
 20
400.48309
 30
0.0
 11
913.279382
 21
400.378555
 31
0.0
  0
LINE
  8
0
 10
913.279382
 20
400.378555
 30
0.0
 11
913.310408
 21
400.270679
 31
0.0
  0
LINE
  8
0
 10
913.310408
 20
400.270679
 30
0.0
 11
913.33141
 21
400.158985
 31
0.0
  0
LINE
  8
0
 10
913.33141
 20
400.158985
 30
0.0
 11
913.334752
 21
400.047767
 31
0.0
  0
LINE
  8
0
 10
913.334752
 20
400.047767
 30
0.0
 11
913.334752
 21
397.963281
 31
0.0
  0
LINE
  8
0
 10
913.334752
 20
397.963281
 30
0.0
 11
913.33141
 21
397.852063
 31
0.0
  0
LINE
  8
0
 10
913.33141
 20
397.852063
 30
0.0
 11
913.310408
 21
397.740369
 31
0.0
  0
LINE
  8
0
 10
913.310408
 20
397.740369
 30
0.0
 11
913.279382
 21
397.632493
 31
0.0
  0
LINE
  8
0
 10
913.279382
 20
397.632493
 30
0.0
 11
913.237377
 21
397.528436
 31
0.0
  0
LINE
  8
0
 10
913.237377
 20
397.528436
 30
0.0
 11
913.182007
 21
397.430584
 31
0.0
  0
LINE
  8
0
 10
913.182007
 20
397.430584
 30
0.0
 11
913.119
 21
397.340369
 31
0.0
  0
LINE
  8
0
 10
913.119
 20
397.340369
 30
0.0
 11
913.042628
 21
397.256837
 31
0.0
  0
LINE
  8
0
 10
913.042628
 20
397.256837
 30
0.0
 11
912.959095
 21
397.179987
 31
0.0
  0
LINE
  8
0
 10
912.959095
 20
397.179987
 30
0.0
 11
912.868403
 21
397.117457
 31
0.0
  0
LINE
  8
0
 10
912.868403
 20
397.117457
 30
0.0
 11
912.771029
 21
397.062087
 31
0.0
  0
LINE
  8
0
 10
912.771029
 20
397.062087
 30
0.0
 11
912.666971
 21
397.020083
 31
0.0
  0
LINE
  8
0
 10
912.666971
 20
397.020083
 30
0.0
 11
912.559095
 21
396.988579
 31
0.0
  0
LINE
  8
0
 10
912.559095
 20
396.988579
 30
0.0
 11
912.447401
 21
396.968054
 31
0.0
  0
LINE
  8
0
 10
912.447401
 20
396.968054
 30
0.0
 11
912.336184
 21
396.964235
 31
0.0
  0
LINE
  8
0
 10
912.336184
 20
396.964235
 30
0.0
 11
911.660766
 21
396.964235
 31
0.0
  0
LINE
  8
0
 10
911.660766
 20
396.964235
 30
0.0
 11
911.660766
 21
392.461133
 31
0.0
  0
LINE
  8
0
 10
911.660766
 20
392.461133
 30
0.0
 11
911.654083
 21
392.349915
 31
0.0
  0
LINE
  8
0
 10
911.654083
 20
392.349915
 30
0.0
 11
911.636422
 21
392.24204
 31
0.0
  0
LINE
  8
0
 10
911.636422
 20
392.24204
 30
0.0
 11
911.605396
 21
392.134164
 31
0.0
  0
LINE
  8
0
 10
911.605396
 20
392.134164
 30
0.0
 11
911.563391
 21
392.029629
 31
0.0
  0
LINE
  8
0
 10
911.563391
 20
392.029629
 30
0.0
 11
911.508021
 21
391.932254
 31
0.0
  0
LINE
  8
0
 10
911.508021
 20
391.932254
 30
0.0
 11
911.445014
 21
391.838221
 31
0.0
  0
LINE
  8
0
 10
911.445014
 20
391.838221
 30
0.0
 11
911.368642
 21
391.754689
 31
0.0
  0
LINE
  8
0
 10
911.368642
 20
391.754689
 30
0.0
 11
911.28511
 21
391.681658
 31
0.0
  0
LINE
  8
0
 10
911.28511
 20
391.681658
 30
0.0
 11
911.194418
 21
391.615309
 31
0.0
  0
LINE
  8
0
 10
911.194418
 20
391.615309
 30
0.0
 11
911.097043
 21
391.563281
 31
0.0
  0
LINE
  8
0
 10
911.097043
 20
391.563281
 30
0.0
 11
910.992986
 21
391.517935
 31
0.0
  0
LINE
  8
0
 10
910.992986
 20
391.517935
 30
0.0
 11
910.88511
 21
391.486908
 31
0.0
  0
LINE
  8
0
 10
910.88511
 20
391.486908
 30
0.0
 11
910.773415
 21
391.469247
 31
0.0
  0
LINE
  8
0
 10
910.773415
 20
391.469247
 30
0.0
 11
910.662198
 21
391.462565
 31
0.0
  0
LINE
  8
0
 10
910.662198
 20
391.462565
 30
0.0
 11
907.161005
 21
391.462565
 31
0.0
  0
LINE
  8
0
 10
907.161005
 20
391.462565
 30
0.0
 11
907.049788
 21
391.469247
 31
0.0
  0
LINE
  8
0
 10
907.049788
 20
391.469247
 30
0.0
 11
906.93857
 21
391.486908
 31
0.0
  0
LINE
  8
0
 10
906.93857
 20
391.486908
 30
0.0
 11
906.830694
 21
391.517935
 31
0.0
  0
LINE
  8
0
 10
906.830694
 20
391.517935
 30
0.0
 11
906.729501
 21
391.563281
 31
0.0
  0
LINE
  8
0
 10
906.729501
 20
391.563281
 30
0.0
 11
906.628785
 21
391.615309
 31
0.0
  0
LINE
  8
0
 10
906.628785
 20
391.615309
 30
0.0
 11
906.538093
 21
391.681658
 31
0.0
  0
LINE
  8
0
 10
906.538093
 20
391.681658
 30
0.0
 11
906.454561
 21
391.754689
 31
0.0
  0
LINE
  8
0
 10
906.454561
 20
391.754689
 30
0.0
 11
906.38153
 21
391.838221
 31
0.0
  0
LINE
  8
0
 10
906.38153
 20
391.838221
 30
0.0
 11
906.315659
 21
391.932254
 31
0.0
  0
LINE
  8
0
 10
906.315659
 20
391.932254
 30
0.0
 11
906.259811
 21
392.029629
 31
0.0
  0
LINE
  8
0
 10
906.259811
 20
392.029629
 30
0.0
 11
906.218284
 21
392.134164
 31
0.0
  0
LINE
  8
0
 10
906.218284
 20
392.134164
 30
0.0
 11
906.18678
 21
392.24204
 31
0.0
  0
LINE
  8
0
 10
906.18678
 20
392.24204
 30
0.0
 11
906.169119
 21
392.349915
 31
0.0
  0
LINE
  8
0
 10
906.169119
 20
392.349915
 30
0.0
 11
906.162437
 21
392.461133
 31
0.0
  0
LINE
  8
0
 10
906.162437
 20
392.461133
 30
0.0
 11
906.162437
 21
396.964235
 31
0.0
  0
LINE
  8
0
 10
906.162437
 20
396.964235
 30
0.0
 11
903.597759
 21
402.463042
 31
0.0
  0
LINE
  8
0
 10
903.597759
 20
402.463042
 30
0.0
 11
877.239286
 21
402.463042
 31
0.0
  0
LINE
  8
0
 10
877.239286
 20
402.463042
 30
0.0
 11
877.239286
 21
296.862087
 31
0.0
  0
LINE
  8
0
 10
877.239286
 20
296.862087
 30
0.0
 11
903.597759
 21
296.862087
 31
0.0
  0
LINE
  8
0
 10
903.597759
 20
296.862087
 30
0.0
 11
906.162437
 21
302.364235
 31
0.0
  0
LINE
  8
0
 10
906.162437
 20
302.364235
 30
0.0
 11
906.162437
 21
306.863997
 31
0.0
  0
LINE
  8
0
 10
906.162437
 20
306.863997
 30
0.0
 11
906.169119
 21
306.975214
 31
0.0
  0
LINE
  8
0
 10
906.169119
 20
306.975214
 30
0.0
 11
906.18678
 21
307.086908
 31
0.0
  0
LINE
  8
0
 10
906.18678
 20
307.086908
 30
0.0
 11
906.218284
 21
307.194784
 31
0.0
  0
LINE
  8
0
 10
906.218284
 20
307.194784
 30
0.0
 11
906.259811
 21
307.2955
 31
0.0
  0
LINE
  8
0
 10
906.259811
 20
307.2955
 30
0.0
 11
906.315659
 21
307.392875
 31
0.0
  0
LINE
  8
0
 10
906.315659
 20
307.392875
 30
0.0
 11
906.38153
 21
307.486908
 31
0.0
  0
LINE
  8
0
 10
906.38153
 20
307.486908
 30
0.0
 11
906.454561
 21
307.570441
 31
0.0
  0
LINE
  8
0
 10
906.454561
 20
307.570441
 30
0.0
 11
906.538093
 21
307.643472
 31
0.0
  0
LINE
  8
0
 10
906.538093
 20
307.643472
 30
0.0
 11
906.628785
 21
307.70982
 31
0.0
  0
LINE
  8
0
 10
906.628785
 20
307.70982
 30
0.0
 11
906.729501
 21
307.76519
 31
0.0
  0
LINE
  8
0
 10
906.729501
 20
307.76519
 30
0.0
 11
906.830694
 21
307.807195
 31
0.0
  0
LINE
  8
0
 10
906.830694
 20
307.807195
 30
0.0
 11
906.93857
 21
307.838698
 31
0.0
  0
LINE
  8
0
 10
906.93857
 20
307.838698
 30
0.0
 11
907.049788
 21
307.855882
 31
0.0
  0
LINE
  8
0
 10
907.049788
 20
307.855882
 30
0.0
 11
907.161005
 21
307.863042
 31
0.0
  0
LINE
  8
0
 10
907.161005
 20
307.863042
 30
0.0
 11
910.662198
 21
307.863042
 31
0.0
  0
LINE
  8
0
 10
910.662198
 20
307.863042
 30
0.0
 11
910.773415
 21
307.855882
 31
0.0
  0
LINE
  8
0
 10
910.773415
 20
307.855882
 30
0.0
 11
910.88511
 21
307.838698
 31
0.0
  0
LINE
  8
0
 10
910.88511
 20
307.838698
 30
0.0
 11
910.992986
 21
307.807195
 31
0.0
  0
LINE
  8
0
 10
910.992986
 20
307.807195
 30
0.0
 11
911.097043
 21
307.76519
 31
0.0
  0
LINE
  8
0
 10
911.097043
 20
307.76519
 30
0.0
 11
911.194418
 21
307.70982
 31
0.0
  0
LINE
  8
0
 10
911.194418
 20
307.70982
 30
0.0
 11
911.28511
 21
307.643472
 31
0.0
  0
LINE
  8
0
 10
911.28511
 20
307.643472
 30
0.0
 11
911.368642
 21
307.570441
 31
0.0
  0
LINE
  8
0
 10
911.368642
 20
307.570441
 30
0.0
 11
911.445014
 21
307.486908
 31
0.0
  0
LINE
  8
0
 10
911.445014
 20
307.486908
 30
0.0
 11
911.508021
 21
307.392875
 31
0.0
  0
LINE
  8
0
 10
911.508021
 20
307.392875
 30
0.0
 11
911.563391
 21
307.2955
 31
0.0
  0
LINE
  8
0
 10
911.563391
 20
307.2955
 30
0.0
 11
911.605396
 21
307.194784
 31
0.0
  0
LINE
  8
0
 10
911.605396
 20
307.194784
 30
0.0
 11
911.636422
 21
307.086908
 31
0.0
  0
LINE
  8
0
 10
911.636422
 20
307.086908
 30
0.0
 11
911.654083
 21
306.975214
 31
0.0
  0
LINE
  8
0
 10
911.654083
 20
306.975214
 30
0.0
 11
911.660766
 21
306.863997
 31
0.0
  0
LINE
  8
0
 10
911.660766
 20
306.863997
 30
0.0
 11
911.660766
 21
302.364235
 31
0.0
  0
LINE
  8
0
 10
911.660766
 20
302.364235
 30
0.0
 11
912.336184
 21
302.364235
 31
0.0
  0
LINE
  8
0
 10
912.336184
 20
302.364235
 30
0.0
 11
912.447401
 21
302.357075
 31
0.0
  0
LINE
  8
0
 10
912.447401
 20
302.357075
 30
0.0
 11
912.559095
 21
302.33655
 31
0.0
  0
LINE
  8
0
 10
912.559095
 20
302.33655
 30
0.0
 11
912.666971
 21
302.305047
 31
0.0
  0
LINE
  8
0
 10
912.666971
 20
302.305047
 30
0.0
 11
912.771029
 21
302.263519
 31
0.0
  0
LINE
  8
0
 10
912.771029
 20
302.263519
 30
0.0
 11
912.868403
 21
302.211013
 31
0.0
  0
LINE
  8
0
 10
912.868403
 20
302.211013
 30
0.0
 11
912.959095
 21
302.145142
 31
0.0
  0
LINE
  8
0
 10
912.959095
 20
302.145142
 30
0.0
 11
913.042628
 21
302.068293
 31
0.0
  0
LINE
  8
0
 10
913.042628
 20
302.068293
 30
0.0
 11
913.119
 21
301.98476
 31
0.0
  0
LINE
  8
0
 10
913.119
 20
301.98476
 30
0.0
 11
913.182007
 21
301.894546
 31
0.0
  0
LINE
  8
0
 10
913.182007
 20
301.894546
 30
0.0
 11
913.237377
 21
301.797171
 31
0.0
  0
LINE
  8
0
 10
913.237377
 20
301.797171
 30
0.0
 11
913.279382
 21
301.692636
 31
0.0
  0
LINE
  8
0
 10
913.279382
 20
301.692636
 30
0.0
 11
913.310408
 21
301.58476
 31
0.0
  0
LINE
  8
0
 10
913.310408
 20
301.58476
 30
0.0
 11
913.33141
 21
301.473543
 31
0.0
  0
LINE
  8
0
 10
913.33141
 20
301.473543
 30
0.0
 11
913.334752
 21
301.361849
 31
0.0
  0
LINE
  8
0
 10
913.334752
 20
301.361849
 30
0.0
 11
913.334752
 21
299.277362
 31
0.0
  0
LINE
  8
0
 10
913.334752
 20
299.277362
 30
0.0
 11
913.33141
 21
299.166145
 31
0.0
  0
LINE
  8
0
 10
913.33141
 20
299.166145
 30
0.0
 11
913.310408
 21
299.05445
 31
0.0
  0
LINE
  8
0
 10
913.310408
 20
299.05445
 30
0.0
 11
913.279382
 21
298.946574
 31
0.0
  0
LINE
  8
0
 10
913.279382
 20
298.946574
 30
0.0
 11
913.237377
 21
298.842517
 31
0.0
  0
LINE
  8
0
 10
913.237377
 20
298.842517
 30
0.0
 11
913.182007
 21
298.745142
 31
0.0
  0
LINE
  8
0
 10
913.182007
 20
298.745142
 30
0.0
 11
913.119
 21
298.65445
 31
0.0
  0
LINE
  8
0
 10
913.119
 20
298.65445
 30
0.0
 11
913.042628
 21
298.570918
 31
0.0
  0
LINE
  8
0
 10
913.042628
 20
298.570918
 30
0.0
 11
911.128546
 21
296.656837
 31
0.0
  0
LINE
  8
0
 10
911.128546
 20
296.656837
 30
0.0
 11
911.045014
 21
296.580464
 31
0.0
  0
LINE
  8
0
 10
911.045014
 20
296.580464
 30
0.0
 11
910.954322
 21
296.517457
 31
0.0
  0
LINE
  8
0
 10
910.954322
 20
296.517457
 30
0.0
 11
910.856947
 21
296.462087
 31
0.0
  0
LINE
  8
0
 10
910.856947
 20
296.462087
 30
0.0
 11
910.75289
 21
296.420083
 31
0.0
  0
LINE
  8
0
 10
910.75289
 20
296.420083
 30
0.0
 11
910.645014
 21
296.389056
 31
0.0
  0
LINE
  8
0
 10
910.645014
 20
296.389056
 30
0.0
 11
910.53332
 21
296.368054
 31
0.0
  0
LINE
  8
0
 10
910.53332
 20
296.368054
 30
0.0
 11
910.422103
 21
296.360894
 31
0.0
  0
LINE
  8
0
 10
910.422103
 20
296.360894
 30
0.0
 11
909.138093
 21
296.360894
 31
0.0
  0
LINE
  8
0
 10
909.138093
 20
296.360894
 30
0.0
 11
909.033558
 21
296.368054
 31
0.0
  0
LINE
  8
0
 10
909.033558
 20
296.368054
 30
0.0
 11
908.929024
 21
296.389056
 31
0.0
  0
LINE
  8
0
 10
908.929024
 20
296.389056
 30
0.0
 11
908.831649
 21
296.423901
 31
0.0
  0
LINE
  8
0
 10
908.831649
 20
296.423901
 30
0.0
 11
908.737616
 21
296.46877
 31
0.0
  0
LINE
  8
0
 10
908.737616
 20
296.46877
 30
0.0
 11
908.650742
 21
296.527958
 31
0.0
  0
LINE
  8
0
 10
908.650742
 20
296.527958
 30
0.0
 11
908.570551
 21
296.597648
 31
0.0
  0
LINE
  8
0
 10
908.570551
 20
296.597648
 30
0.0
 11
908.500861
 21
296.67402
 31
0.0
  0
LINE
  8
0
 10
908.500861
 20
296.67402
 30
0.0
 11
908.445492
 21
296.761371
 31
0.0
  0
LINE
  8
0
 10
908.445492
 20
296.761371
 30
0.0
 11
908.396804
 21
296.855405
 31
0.0
  0
LINE
  8
0
 10
908.396804
 20
296.855405
 30
0.0
 11
908.365301
 21
296.956121
 31
0.0
  0
LINE
  8
0
 10
908.365301
 20
296.956121
 30
0.0
 11
908.344298
 21
297.056837
 31
0.0
  0
LINE
  8
0
 10
908.344298
 20
297.056837
 30
0.0
 11
908.337616
 21
297.161371
 31
0.0
  0
LINE
  8
0
 10
908.337616
 20
297.161371
 30
0.0
 11
908.344298
 21
297.265906
 31
0.0
  0
LINE
  8
0
 10
908.344298
 20
297.265906
 30
0.0
 11
908.365301
 21
297.370441
 31
0.0
  0
LINE
  8
0
 10
908.365301
 20
297.370441
 30
0.0
 11
908.396804
 21
297.467815
 31
0.0
  0
LINE
  8
0
 10
908.396804
 20
297.467815
 30
0.0
 11
908.445492
 21
297.561849
 31
0.0
  0
LINE
  8
0
 10
908.445492
 20
297.561849
 30
0.0
 11
908.500861
 21
297.648722
 31
0.0
  0
LINE
  8
0
 10
908.500861
 20
297.648722
 30
0.0
 11
908.570551
 21
297.728913
 31
0.0
  0
LINE
  8
0
 10
908.570551
 20
297.728913
 30
0.0
 11
908.650742
 21
297.798125
 31
0.0
  0
LINE
  8
0
 10
908.650742
 20
297.798125
 30
0.0
 11
908.737616
 21
297.853973
 31
0.0
  0
LINE
  8
0
 10
908.737616
 20
297.853973
 30
0.0
 11
908.831649
 21
297.90266
 31
0.0
  0
LINE
  8
0
 10
908.831649
 20
297.90266
 30
0.0
 11
908.929024
 21
297.934164
 31
0.0
  0
LINE
  8
0
 10
908.929024
 20
297.934164
 30
0.0
 11
909.033558
 21
297.955166
 31
0.0
  0
LINE
  8
0
 10
909.033558
 20
297.955166
 30
0.0
 11
909.138093
 21
297.961849
 31
0.0
  0
LINE
  8
0
 10
909.138093
 20
297.961849
 30
0.0
 11
910.174847
 21
297.961849
 31
0.0
  0
LINE
  8
0
 10
910.174847
 20
297.961849
 30
0.0
 11
911.737616
 21
299.524617
 31
0.0
  0
LINE
  8
0
 10
911.737616
 20
299.524617
 30
0.0
 11
911.737616
 21
300.763281
 31
0.0
  0
LINE
  8
0
 10
911.737616
 20
300.763281
 30
0.0
 11
907.182007
 21
300.763281
 31
0.0
  0
LINE
  8
0
 10
907.182007
 20
300.763281
 30
0.0
 11
904.874609
 21
295.818173
 31
0.0
  0
LINE
  8
0
 10
904.874609
 20
295.818173
 30
0.0
 11
904.801577
 21
295.672111
 31
0.0
  0
LINE
  8
0
 10
904.801577
 20
295.672111
 30
0.0
 11
904.714704
 21
295.536073
 31
0.0
  0
LINE
  8
0
 10
904.714704
 20
295.536073
 30
0.0
 11
904.617329
 21
295.407672
 31
0.0
  0
LINE
  8
0
 10
904.617329
 20
295.407672
 30
0.0
 11
904.512795
 21
295.285476
 31
0.0
  0
LINE
  8
0
 10
904.512795
 20
295.285476
 30
0.0
 11
904.394418
 21
295.170918
 31
0.0
  0
LINE
  8
0
 10
904.394418
 20
295.170918
 30
0.0
 11
904.269358
 21
295.069725
 31
0.0
  0
LINE
  8
0
 10
904.269358
 20
295.069725
 30
0.0
 11
904.137138
 21
294.976168
 31
0.0
  0
LINE
  8
0
 10
904.137138
 20
294.976168
 30
0.0
 11
903.997759
 21
294.895978
 31
0.0
  0
LINE
  8
0
 10
903.997759
 20
294.895978
 30
0.0
 11
903.851697
 21
294.826288
 31
0.0
  0
LINE
  8
0
 10
903.851697
 20
294.826288
 30
0.0
 11
903.698475
 21
294.767099
 31
0.0
  0
LINE
  8
0
 10
903.698475
 20
294.767099
 30
0.0
 11
903.545253
 21
294.721753
 31
0.0
  0
LINE
  8
0
 10
903.545253
 20
294.721753
 30
0.0
 11
903.385348
 21
294.690727
 31
0.0
  0
LINE
  8
0
 10
903.385348
 20
294.690727
 30
0.0
 11
903.224967
 21
294.669725
 31
0.0
  0
LINE
  8
0
 10
903.224967
 20
294.669725
 30
0.0
 11
903.061721
 21
294.662565
 31
0.0
  0
LINE
  8
0
 10
903.061721
 20
294.662565
 30
0.0
 11
877.037377
 21
294.662565
 31
0.0
  0
TEXT
  8
CAPA_1
 62
     2
 10
877.239286
 20
394.951136
 30
0.0
 40
10.10358
  1
 
 50
180.0
 41
0.192496
  0
LINE
  8
0
 10
835.039764
 20
453.202102
 30
0.0
 11
838.702569
 21
456.864907
 31
0.0
  0
LINE
  8
0
 10
835.039764
 20
446.131034
 30
0.0
 11
845.773637
 21
456.864907
 31
0.0
  0
LINE
  8
0
 10
835.039764
 20
439.059966
 30
0.0
 11
852.844705
 21
456.864907
 31
0.0
  0
LINE
  8
0
 10
839.915773
 20
436.864907
 30
0.0
 11
859.915773
 21
456.864907
 31
0.0
  0
LINE
  8
0
 10
846.986841
 20
436.864907
 30
0.0
 11
866.986841
 21
456.864907
 31
0.0
  0
LINE
  8
0
 10
854.057908
 20
436.864907
 30
0.0
 11
874.057908
 21
456.864907
 31
0.0
  0
LINE
  8
0
 10
861.128976
 20
436.864907
 30
0.0
 11
881.128976
 21
456.864907
 31
0.0
  0
LINE
  8
0
 10
868.200044
 20
436.864907
 30
0.0
 11
888.200044
 21
456.864907
 31
0.0
  0
LINE
  8
0
 10
875.271112
 20
436.864907
 30
0.0
 11
895.271112
 21
456.864907
 31
0.0
  0
LINE
  8
0
 10
882.34218
 20
436.864907
 30
0.0
 11
902.34218
 21
456.864907
 31
0.0
  0
LINE
  8
0
 10
889.413247
 20
436.864907
 30
0.0
 11
909.413247
 21
456.864907
 31
0.0
  0
LINE
  8
0
 10
896.484315
 20
436.864907
 30
0.0
 11
916.484315
 21
456.864907
 31
0.0
  0
LINE
  8
0
 10
903.555383
 20
436.864907
 30
0.0
 11
923.555383
 21
456.864907
 31
0.0
  0
LINE
  8
0
 10
910.626451
 20
436.864907
 30
0.0
 11
930.626451
 21
456.864907
 31
0.0
  0
LINE
  8
0
 10
917.697519
 20
436.864907
 30
0.0
 11
937.697519
 21
456.864907
 31
0.0
  0
LINE
  8
0
 10
924.768587
 20
436.864907
 30
0.0
 11
944.768587
 21
456.864907
 31
0.0
  0
LINE
  8
0
 10
931.839654
 20
436.864907
 30
0.0
 11
951.839654
 21
456.864907
 31
0.0
  0
LINE
  8
0
 10
938.910722
 20
436.864907
 30
0.0
 11
955.039764
 21
452.993949
 31
0.0
  0
LINE
  8
0
 10
945.98179
 20
436.864907
 30
0.0
 11
955.039764
 21
445.922881
 31
0.0
  0
LINE
  8
0
 10
953.052858
 20
436.864907
 30
0.0
 11
955.039764
 21
438.851813
 31
0.0
  0
LINE
  8
0
 10
909.259811
 20
303.892159
 30
0.0
 11
909.197282
 21
303.82581
 31
0.0
  0
LINE
  8
0
 10
909.197282
 20
303.82581
 30
0.0
 11
909.141434
 21
303.752779
 31
0.0
  0
LINE
  8
0
 10
909.141434
 20
303.752779
 30
0.0
 11
909.096088
 21
303.669247
 31
0.0
  0
LINE
  8
0
 10
909.096088
 20
303.669247
 30
0.0
 11
909.064585
 21
303.582374
 31
0.0
  0
LINE
  8
0
 10
909.064585
 20
303.582374
 30
0.0
 11
909.04406
 21
303.491682
 31
0.0
  0
LINE
  8
0
 10
909.04406
 20
303.491682
 30
0.0
 11
909.0369
 21
303.401467
 31
0.0
  0
LINE
  8
0
 10
909.0369
 20
303.401467
 30
0.0
 11
909.04406
 21
303.307433
 31
0.0
  0
LINE
  8
0
 10
909.04406
 20
303.307433
 30
0.0
 11
909.064585
 21
303.216741
 31
0.0
  0
LINE
  8
0
 10
909.064585
 20
303.216741
 30
0.0
 11
909.096088
 21
303.129868
 31
0.0
  0
LINE
  8
0
 10
909.096088
 20
303.129868
 30
0.0
 11
909.141434
 21
303.049677
 31
0.0
  0
LINE
  8
0
 10
909.141434
 20
303.049677
 30
0.0
 11
909.197282
 21
302.973304
 31
0.0
  0
LINE
  8
0
 10
909.197282
 20
302.973304
 30
0.0
 11
909.259811
 21
302.910775
 31
0.0
  0
LINE
  8
0
 10
909.259811
 20
302.910775
 30
0.0
 11
909.336184
 21
302.854927
 31
0.0
  0
LINE
  8
0
 10
909.336184
 20
302.854927
 30
0.0
 11
909.416375
 21
302.809581
 31
0.0
  0
LINE
  8
0
 10
909.416375
 20
302.809581
 30
0.0
 11
909.503248
 21
302.774736
 31
0.0
  0
LINE
  8
0
 10
909.503248
 20
302.774736
 30
0.0
 11
909.59394
 21
302.757553
 31
0.0
  0
LINE
  8
0
 10
909.59394
 20
302.757553
 30
0.0
 11
909.687974
 21
302.750393
 31
0.0
  0
LINE
  8
0
 10
909.687974
 20
302.750393
 30
0.0
 11
909.778188
 21
302.757553
 31
0.0
  0
LINE
  8
0
 10
909.778188
 20
302.757553
 30
0.0
 11
909.868881
 21
302.774736
 31
0.0
  0
LINE
  8
0
 10
909.868881
 20
302.774736
 30
0.0
 11
909.955754
 21
302.809581
 31
0.0
  0
LINE
  8
0
 10
909.955754
 20
302.809581
 30
0.0
 11
910.039286
 21
302.854927
 31
0.0
  0
LINE
  8
0
 10
910.039286
 20
302.854927
 30
0.0
 11
910.112317
 21
302.910775
 31
0.0
  0
LINE
  8
0
 10
910.112317
 20
302.910775
 30
0.0
 11
910.178666
 21
302.973304
 31
0.0
  0
LINE
  8
0
 10
910.178666
 20
302.973304
 30
0.0
 11
910.234036
 21
303.049677
 31
0.0
  0
LINE
  8
0
 10
910.234036
 20
303.049677
 30
0.0
 11
910.279382
 21
303.129868
 31
0.0
  0
LINE
  8
0
 10
910.279382
 20
303.129868
 30
0.0
 11
910.310885
 21
303.216741
 31
0.0
  0
LINE
  8
0
 10
910.310885
 20
303.216741
 30
0.0
 11
910.33141
 21
303.307433
 31
0.0
  0
LINE
  8
0
 10
910.33141
 20
303.307433
 30
0.0
 11
910.335229
 21
303.401467
 31
0.0
  0
LINE
  8
0
 10
910.335229
 20
303.401467
 30
0.0
 11
910.33141
 21
303.491682
 31
0.0
  0
LINE
  8
0
 10
910.33141
 20
303.491682
 30
0.0
 11
910.310885
 21
303.582374
 31
0.0
  0
LINE
  8
0
 10
910.310885
 20
303.582374
 30
0.0
 11
910.279382
 21
303.669247
 31
0.0
  0
LINE
  8
0
 10
910.279382
 20
303.669247
 30
0.0
 11
910.234036
 21
303.752779
 31
0.0
  0
LINE
  8
0
 10
910.234036
 20
303.752779
 30
0.0
 11
910.178666
 21
303.82581
 31
0.0
  0
LINE
  8
0
 10
910.178666
 20
303.82581
 30
0.0
 11
910.112317
 21
303.892159
 31
0.0
  0
LINE
  8
0
 10
910.112317
 20
303.892159
 30
0.0
 11
910.039286
 21
303.947529
 31
0.0
  0
LINE
  8
0
 10
910.039286
 20
303.947529
 30
0.0
 11
909.955754
 21
303.992875
 31
0.0
  0
LINE
  8
0
 10
909.955754
 20
303.992875
 30
0.0
 11
909.868881
 21
304.024378
 31
0.0
  0
LINE
  8
0
 10
909.868881
 20
304.024378
 30
0.0
 11
909.778188
 21
304.045381
 31
0.0
  0
LINE
  8
0
 10
909.778188
 20
304.045381
 30
0.0
 11
909.687974
 21
304.048722
 31
0.0
  0
LINE
  8
0
 10
909.687974
 20
304.048722
 30
0.0
 11
909.59394
 21
304.045381
 31
0.0
  0
LINE
  8
0
 10
909.59394
 20
304.045381
 30
0.0
 11
909.503248
 21
304.024378
 31
0.0
  0
LINE
  8
0
 10
909.503248
 20
304.024378
 30
0.0
 11
909.416375
 21
303.992875
 31
0.0
  0
LINE
  8
0
 10
909.416375
 20
303.992875
 30
0.0
 11
909.336184
 21
303.947529
 31
0.0
  0
LINE
  8
0
 10
909.336184
 20
303.947529
 30
0.0
 11
909.259811
 21
303.892159
 31
0.0
  0
LINE
  8
0
 10
909.799191
 20
302.760894
 30
0.0
 11
912.130933
 21
303.171395
 31
0.0
  0
LINE
  8
0
 10
911.671267
 20
304.410536
 30
0.0
 11
909.572938
 21
304.041562
 31
0.0
  0
LINE
  8
0
 10
911.831649
 20
308.551825
 30
0.0
 11
911.831649
 21
304.598603
 31
0.0
  0
LINE
  8
0
 10
912.544776
 20
303.348961
 30
0.0
 11
912.447401
 21
303.286431
 31
0.0
  0
LINE
  8
0
 10
912.447401
 20
303.286431
 30
0.0
 11
912.346685
 21
303.237744
 31
0.0
  0
LINE
  8
0
 10
911.671267
 20
304.410536
 30
0.0
 11
911.723773
 21
304.42772
 31
0.0
  0
LINE
  8
0
 10
911.723773
 20
304.42772
 30
0.0
 11
911.769119
 21
304.455882
 31
0.0
  0
LINE
  8
0
 10
911.769119
 20
304.455882
 30
0.0
 11
911.803487
 21
304.497409
 31
0.0
  0
LINE
  8
0
 10
911.803487
 20
304.497409
 30
0.0
 11
911.824489
 21
304.549915
 31
0.0
  0
LINE
  8
0
 10
911.824489
 20
304.549915
 30
0.0
 11
911.831649
 21
304.601944
 31
0.0
  0
LINE
  8
0
 10
912.938093
 20
304.132254
 30
0.0
 11
912.93141
 21
304.017219
 31
0.0
  0
LINE
  8
0
 10
912.93141
 20
304.017219
 30
0.0
 11
912.910408
 21
303.906001
 31
0.0
  0
LINE
  8
0
 10
912.910408
 20
303.906001
 30
0.0
 11
912.878904
 21
303.798125
 31
0.0
  0
LINE
  8
0
 10
912.878904
 20
303.798125
 30
0.0
 11
912.833558
 21
303.693591
 31
0.0
  0
LINE
  8
0
 10
912.833558
 20
303.693591
 30
0.0
 11
912.774847
 21
303.596216
 31
0.0
  0
LINE
  8
0
 10
912.774847
 20
303.596216
 30
0.0
 11
912.708499
 21
303.505524
 31
0.0
  0
LINE
  8
0
 10
912.708499
 20
303.505524
 30
0.0
 11
912.632126
 21
303.421992
 31
0.0
  0
LINE
  8
0
 10
912.632126
 20
303.421992
 30
0.0
 11
912.544776
 21
303.348961
 31
0.0
  0
LINE
  8
0
 10
912.346685
 20
303.237744
 30
0.0
 11
912.24215
 21
303.196216
 31
0.0
  0
LINE
  8
0
 10
912.24215
 20
303.196216
 30
0.0
 11
912.130933
 21
303.171395
 31
0.0
  0
LINE
  8
0
 10
912.938093
 20
304.132254
 30
0.0
 11
912.938093
 21
395.335596
 31
0.0
  0
LINE
  8
0
 10
908.971029
 20
316.385715
 30
0.0
 11
908.971029
 21
309.467338
 31
0.0
  0
LINE
  8
0
 10
907.686542
 20
316.197648
 30
0.0
 11
907.707544
 21
316.215309
 31
0.0
  0
LINE
  8
0
 10
907.707544
 20
316.215309
 30
0.0
 11
907.728546
 21
316.232493
 31
0.0
  0
LINE
  8
0
 10
907.728546
 20
316.232493
 30
0.0
 11
907.749549
 21
316.246336
 31
0.0
  0
LINE
  8
0
 10
907.749549
 20
316.246336
 30
0.0
 11
907.770074
 21
316.260178
 31
0.0
  0
LINE
  8
0
 10
907.770074
 20
316.260178
 30
0.0
 11
907.794418
 21
316.274498
 31
0.0
  0
LINE
  8
0
 10
907.794418
 20
316.274498
 30
0.0
 11
907.81542
 21
316.28834
 31
0.0
  0
LINE
  8
0
 10
907.81542
 20
316.28834
 30
0.0
 11
907.839764
 21
316.298841
 31
0.0
  0
LINE
  8
0
 10
907.839764
 20
316.298841
 30
0.0
 11
907.860766
 21
316.312684
 31
0.0
  0
LINE
  8
0
 10
907.860766
 20
316.312684
 30
0.0
 11
907.88511
 21
316.323185
 31
0.0
  0
LINE
  8
0
 10
907.88511
 20
316.323185
 30
0.0
 11
907.909453
 21
316.329868
 31
0.0
  0
LINE
  8
0
 10
907.909453
 20
316.329868
 30
0.0
 11
907.933797
 21
316.340369
 31
0.0
  0
LINE
  8
0
 10
907.933797
 20
316.340369
 30
0.0
 11
907.958141
 21
316.347529
 31
0.0
  0
LINE
  8
0
 10
907.958141
 20
316.347529
 30
0.0
 11
907.982484
 21
316.35803
 31
0.0
  0
LINE
  8
0
 10
907.982484
 20
316.35803
 30
0.0
 11
908.010169
 21
316.361371
 31
0.0
  0
LINE
  8
0
 10
908.010169
 20
316.361371
 30
0.0
 11
908.034513
 21
316.368054
 31
0.0
  0
LINE
  8
0
 10
908.034513
 20
316.368054
 30
0.0
 11
908.058857
 21
316.371872
 31
0.0
  0
LINE
  8
0
 10
908.058857
 20
316.371872
 30
0.0
 11
908.087019
 21
316.378555
 31
0.0
  0
LINE
  8
0
 10
908.087019
 20
316.378555
 30
0.0
 11
908.111363
 21
316.378555
 31
0.0
  0
LINE
  8
0
 10
908.111363
 20
316.378555
 30
0.0
 11
908.135706
 21
316.382374
 31
0.0
  0
LINE
  8
0
 10
908.135706
 20
316.382374
 30
0.0
 11
908.163391
 21
316.385715
 31
0.0
  0
LINE
  8
0
 10
908.163391
 20
316.385715
 30
0.0
 11
908.187735
 21
316.385715
 31
0.0
  0
LINE
  8
0
 10
908.187735
 20
316.385715
 30
0.0
 11
908.191554
 21
316.385715
 31
0.0
  0
LINE
  8
0
 10
908.191554
 20
316.385715
 30
0.0
 11
908.194895
 21
316.385715
 31
0.0
  0
LINE
  8
0
 10
908.194895
 20
316.385715
 30
0.0
 11
908.295611
 21
316.385715
 31
0.0
  0
LINE
  8
0
 10
908.295611
 20
316.385715
 30
0.0
 11
908.396804
 21
316.385715
 31
0.0
  0
LINE
  8
0
 10
908.396804
 20
316.385715
 30
0.0
 11
908.490838
 21
316.385715
 31
0.0
  0
LINE
  8
0
 10
908.490838
 20
316.385715
 30
0.0
 11
908.584394
 21
316.385715
 31
0.0
  0
LINE
  8
0
 10
908.584394
 20
316.385715
 30
0.0
 11
908.667926
 21
316.385715
 31
0.0
  0
LINE
  8
0
 10
908.667926
 20
316.385715
 30
0.0
 11
908.744776
 21
316.385715
 31
0.0
  0
LINE
  8
0
 10
908.744776
 20
316.385715
 30
0.0
 11
908.810647
 21
316.385715
 31
0.0
  0
LINE
  8
0
 10
908.810647
 20
316.385715
 30
0.0
 11
908.866494
 21
316.385715
 31
0.0
  0
LINE
  8
0
 10
908.866494
 20
316.385715
 30
0.0
 11
908.91184
 21
316.385715
 31
0.0
  0
LINE
  8
0
 10
908.91184
 20
316.385715
 30
0.0
 11
908.946685
 21
316.385715
 31
0.0
  0
LINE
  8
0
 10
908.946685
 20
316.385715
 30
0.0
 11
908.963869
 21
316.385715
 31
0.0
  0
LINE
  8
0
 10
908.963869
 20
316.385715
 30
0.0
 11
908.971029
 21
316.385715
 31
0.0
  0
LINE
  8
0
 10
908.971029
 20
316.385715
 30
0.0
 11
908.971029
 21
309.467338
 31
0.0
  0
LINE
  8
0
 10
908.971029
 20
309.467338
 30
0.0
 11
908.950026
 21
309.470679
 31
0.0
  0
LINE
  8
0
 10
908.950026
 20
309.470679
 30
0.0
 11
908.922341
 21
309.48118
 31
0.0
  0
LINE
  8
0
 10
908.922341
 20
309.48118
 30
0.0
 11
908.876995
 21
309.491682
 31
0.0
  0
LINE
  8
0
 10
908.876995
 20
309.491682
 30
0.0
 11
908.821148
 21
309.505524
 31
0.0
  0
LINE
  8
0
 10
908.821148
 20
309.505524
 30
0.0
 11
908.755277
 21
309.526526
 31
0.0
  0
LINE
  8
0
 10
908.755277
 20
309.526526
 30
0.0
 11
908.678427
 21
309.54371
 31
0.0
  0
LINE
  8
0
 10
908.678427
 20
309.54371
 30
0.0
 11
908.591554
 21
309.568054
 31
0.0
  0
LINE
  8
0
 10
908.591554
 20
309.568054
 30
0.0
 11
908.500861
 21
309.592398
 31
0.0
  0
LINE
  8
0
 10
908.500861
 20
309.592398
 30
0.0
 11
908.400146
 21
309.620083
 31
0.0
  0
LINE
  8
0
 10
908.400146
 20
309.620083
 30
0.0
 11
908.298952
 21
309.648245
 31
0.0
  0
LINE
  8
0
 10
908.298952
 20
309.648245
 30
0.0
 11
908.194895
 21
309.67593
 31
0.0
  0
LINE
  8
0
 10
908.194895
 20
309.67593
 30
0.0
 11
908.187735
 21
309.67593
 31
0.0
  0
LINE
  8
0
 10
908.187735
 20
309.67593
 30
0.0
 11
907.989644
 21
309.727958
 31
0.0
  0
LINE
  8
0
 10
907.989644
 20
309.727958
 30
0.0
 11
907.968642
 21
309.735118
 31
0.0
  0
LINE
  8
0
 10
907.968642
 20
309.735118
 30
0.0
 11
907.94764
 21
309.742278
 31
0.0
  0
LINE
  8
0
 10
907.94764
 20
309.742278
 30
0.0
 11
907.926637
 21
309.748961
 31
0.0
  0
LINE
  8
0
 10
907.926637
 20
309.748961
 30
0.0
 11
907.909453
 21
309.756121
 31
0.0
  0
LINE
  8
0
 10
907.909453
 20
309.756121
 30
0.0
 11
907.888451
 21
309.766622
 31
0.0
  0
LINE
  8
0
 10
907.888451
 20
309.766622
 30
0.0
 11
907.867449
 21
309.773304
 31
0.0
  0
LINE
  8
0
 10
907.867449
 20
309.773304
 30
0.0
 11
907.846924
 21
309.783806
 31
0.0
  0
LINE
  8
0
 10
907.846924
 20
309.783806
 30
0.0
 11
907.829262
 21
309.790966
 31
0.0
  0
LINE
  8
0
 10
907.829262
 20
309.790966
 30
0.0
 11
907.80826
 21
309.801467
 31
0.0
  0
LINE
  8
0
 10
907.80826
 20
309.801467
 30
0.0
 11
907.791076
 21
309.815309
 31
0.0
  0
LINE
  8
0
 10
907.791076
 20
309.815309
 30
0.0
 11
907.773893
 21
309.82581
 31
0.0
  0
LINE
  8
0
 10
907.773893
 20
309.82581
 30
0.0
 11
907.756231
 21
309.835834
 31
0.0
  0
LINE
  8
0
 10
907.756231
 20
309.835834
 30
0.0
 11
907.739048
 21
309.850154
 31
0.0
  0
LINE
  8
0
 10
907.739048
 20
309.850154
 30
0.0
 11
907.721387
 21
309.863997
 31
0.0
  0
LINE
  8
0
 10
907.721387
 20
309.863997
 30
0.0
 11
907.704203
 21
309.874498
 31
0.0
  0
LINE
  8
0
 10
907.704203
 20
309.874498
 30
0.0
 11
907.686542
 21
309.88834
 31
0.0
  0
LINE
  8
0
 10
907.686542
 20
309.88834
 30
0.0
 11
907.669358
 21
309.902183
 31
0.0
  0
LINE
  8
0
 10
907.669358
 20
309.902183
 30
0.0
 11
907.655515
 21
309.919367
 31
0.0
  0
LINE
  8
0
 10
907.655515
 20
309.919367
 30
0.0
 11
907.637854
 21
309.933686
 31
0.0
  0
LINE
  8
0
 10
907.637854
 20
309.933686
 30
0.0
 11
907.624012
 21
309.947529
 31
0.0
  0
LINE
  8
0
 10
907.624012
 20
309.947529
 30
0.0
 11
907.610169
 21
309.964713
 31
0.0
  0
LINE
  8
0
 10
907.610169
 20
309.964713
 30
0.0
 11
907.596327
 21
309.982374
 31
0.0
  0
LINE
  8
0
 10
907.596327
 20
309.982374
 30
0.0
 11
907.582484
 21
309.999557
 31
0.0
  0
LINE
  8
0
 10
907.582484
 20
309.999557
 30
0.0
 11
907.568165
 21
310.0134
 31
0.0
  0
LINE
  8
0
 10
907.568165
 20
310.0134
 30
0.0
 11
907.554322
 21
310.034402
 31
0.0
  0
LINE
  8
0
 10
907.554322
 20
310.034402
 30
0.0
 11
907.543821
 21
310.052063
 31
0.0
  0
LINE
  8
0
 10
907.543821
 20
310.052063
 30
0.0
 11
907.529978
 21
310.069247
 31
0.0
  0
LINE
  8
0
 10
907.529978
 20
310.069247
 30
0.0
 11
907.519477
 21
310.086431
 31
0.0
  0
LINE
  8
0
 10
907.519477
 20
310.086431
 30
0.0
 11
907.508976
 21
310.107433
 31
0.0
  0
LINE
  8
0
 10
907.508976
 20
310.107433
 30
0.0
 11
907.498952
 21
310.125094
 31
0.0
  0
LINE
  8
0
 10
907.498952
 20
310.125094
 30
0.0
 11
907.488451
 21
310.14562
 31
0.0
  0
LINE
  8
0
 10
907.488451
 20
310.14562
 30
0.0
 11
907.481291
 21
310.163281
 31
0.0
  0
LINE
  8
0
 10
907.481291
 20
310.163281
 30
0.0
 11
907.47079
 21
310.184283
 31
0.0
  0
LINE
  8
0
 10
907.47079
 20
310.184283
 30
0.0
 11
907.464107
 21
310.204808
 31
0.0
  0
LINE
  8
0
 10
907.464107
 20
310.204808
 30
0.0
 11
907.456947
 21
310.22581
 31
0.0
  0
LINE
  8
0
 10
907.456947
 20
310.22581
 30
0.0
 11
907.450265
 21
310.243472
 31
0.0
  0
LINE
  8
0
 10
907.450265
 20
310.243472
 30
0.0
 11
907.443105
 21
310.263997
 31
0.0
  0
LINE
  8
0
 10
907.443105
 20
310.263997
 30
0.0
 11
907.435945
 21
310.284999
 31
0.0
  0
LINE
  8
0
 10
907.435945
 20
310.284999
 30
0.0
 11
907.432604
 21
310.306001
 31
0.0
  0
LINE
  8
0
 10
907.432604
 20
310.306001
 30
0.0
 11
907.425444
 21
310.330345
 31
0.0
  0
LINE
  8
0
 10
907.425444
 20
310.330345
 30
0.0
 11
907.422103
 21
310.351347
 31
0.0
  0
LINE
  8
0
 10
907.422103
 20
310.351347
 30
0.0
 11
907.418761
 21
310.371872
 31
0.0
  0
LINE
  8
0
 10
907.418761
 20
310.371872
 30
0.0
 11
907.418761
 21
310.392875
 31
0.0
  0
LINE
  8
0
 10
907.418761
 20
310.392875
 30
0.0
 11
907.41542
 21
310.413877
 31
0.0
  0
LINE
  8
0
 10
907.41542
 20
310.413877
 30
0.0
 11
907.411601
 21
310.43488
 31
0.0
  0
LINE
  8
0
 10
907.411601
 20
310.43488
 30
0.0
 11
907.411601
 21
310.455405
 31
0.0
  0
LINE
  8
0
 10
907.411601
 20
310.455405
 30
0.0
 11
907.411601
 21
310.479748
 31
0.0
  0
LINE
  8
0
 10
907.411601
 20
310.479748
 30
0.0
 11
907.411601
 21
310.483567
 31
0.0
  0
LINE
  8
0
 10
907.411601
 20
310.483567
 30
0.0
 11
907.411601
 21
315.60624
 31
0.0
  0
LINE
  8
0
 10
907.411601
 20
315.60624
 30
0.0
 11
907.411601
 21
310.483567
 31
0.0
  0
LINE
  8
0
 10
907.411601
 20
315.60624
 30
0.0
 11
907.41542
 21
315.654927
 31
0.0
  0
LINE
  8
0
 10
907.41542
 20
315.654927
 30
0.0
 11
907.41542
 21
315.682612
 31
0.0
  0
LINE
  8
0
 10
907.41542
 20
315.682612
 30
0.0
 11
907.418761
 21
315.706956
 31
0.0
  0
LINE
  8
0
 10
907.418761
 20
315.706956
 30
0.0
 11
907.422103
 21
315.734641
 31
0.0
  0
LINE
  8
0
 10
907.422103
 20
315.734641
 30
0.0
 11
907.429262
 21
315.759462
 31
0.0
  0
LINE
  8
0
 10
907.429262
 20
315.759462
 30
0.0
 11
907.432604
 21
315.783806
 31
0.0
  0
LINE
  8
0
 10
907.432604
 20
315.783806
 30
0.0
 11
907.439764
 21
315.811491
 31
0.0
  0
LINE
  8
0
 10
907.439764
 20
315.811491
 30
0.0
 11
907.446446
 21
315.835834
 31
0.0
  0
LINE
  8
0
 10
907.446446
 20
315.835834
 30
0.0
 11
907.453606
 21
315.860178
 31
0.0
  0
LINE
  8
0
 10
907.453606
 20
315.860178
 30
0.0
 11
907.464107
 21
315.884522
 31
0.0
  0
LINE
  8
0
 10
907.464107
 20
315.884522
 30
0.0
 11
907.474609
 21
315.908865
 31
0.0
  0
LINE
  8
0
 10
907.474609
 20
315.908865
 30
0.0
 11
907.484632
 21
315.933209
 31
0.0
  0
LINE
  8
0
 10
907.484632
 20
315.933209
 30
0.0
 11
907.495134
 21
315.954211
 31
0.0
  0
LINE
  8
0
 10
907.495134
 20
315.954211
 30
0.0
 11
907.508976
 21
315.978555
 31
0.0
  0
LINE
  8
0
 10
907.508976
 20
315.978555
 30
0.0
 11
907.519477
 21
316.002899
 31
0.0
  0
LINE
  8
0
 10
907.519477
 20
316.002899
 30
0.0
 11
907.53332
 21
316.023901
 31
0.0
  0
LINE
  8
0
 10
907.53332
 20
316.023901
 30
0.0
 11
907.54764
 21
316.044426
 31
0.0
  0
LINE
  8
0
 10
907.54764
 20
316.044426
 30
0.0
 11
907.564823
 21
316.065429
 31
0.0
  0
LINE
  8
0
 10
907.564823
 20
316.065429
 30
0.0
 11
907.578666
 21
316.086431
 31
0.0
  0
LINE
  8
0
 10
907.578666
 20
316.086431
 30
0.0
 11
907.596327
 21
316.107433
 31
0.0
  0
LINE
  8
0
 10
907.596327
 20
316.107433
 30
0.0
 11
907.613511
 21
316.127958
 31
0.0
  0
LINE
  8
0
 10
907.613511
 20
316.127958
 30
0.0
 11
907.631172
 21
316.14562
 31
0.0
  0
LINE
  8
0
 10
907.631172
 20
316.14562
 30
0.0
 11
907.648356
 21
316.162803
 31
0.0
  0
LINE
  8
0
 10
907.648356
 20
316.162803
 30
0.0
 11
907.669358
 21
316.180464
 31
0.0
  0
LINE
  8
0
 10
907.669358
 20
316.180464
 30
0.0
 11
907.686542
 21
316.197648
 31
0.0
  0
LINE
  8
0
 10
908.187735
 20
316.385715
 30
0.0
 11
908.191554
 21
316.385715
 31
0.0
  0
LINE
  8
0
 10
908.971029
 20
316.385715
 30
0.0
 11
909.437377
 21
316.385715
 31
0.0
  0
LINE
  8
0
 10
908.971029
 20
309.467338
 30
0.0
 11
911.688928
 21
308.739892
 31
0.0
  0
LINE
  8
0
 10
909.437377
 20
316.385715
 30
0.0
 11
909.437377
 21
383.082135
 31
0.0
  0
LINE
  8
0
 10
911.831649
 20
308.551825
 30
0.0
 11
911.824489
 21
308.600512
 31
0.0
  0
LINE
  8
0
 10
911.824489
 20
308.600512
 30
0.0
 11
911.807305
 21
308.649199
 31
0.0
  0
LINE
  8
0
 10
911.807305
 20
308.649199
 30
0.0
 11
911.775802
 21
308.687386
 31
0.0
  0
LINE
  8
0
 10
911.775802
 20
308.687386
 30
0.0
 11
911.734274
 21
308.718889
 31
0.0
  0
LINE
  8
0
 10
911.734274
 20
308.718889
 30
0.0
 11
911.688928
 21
308.739892
 31
0.0
  0
LINE
  8
0
 10
908.971029
 20
389.997171
 30
0.0
 11
908.971029
 21
383.082135
 31
0.0
  0
LINE
  8
0
 10
908.971029
 20
383.082135
 30
0.0
 11
908.971029
 21
389.997171
 31
0.0
  0
LINE
  8
0
 10
907.411601
 20
388.980942
 30
0.0
 11
907.411601
 21
383.86161
 31
0.0
  0
LINE
  8
0
 10
907.411601
 20
383.86161
 30
0.0
 11
907.411601
 21
388.980942
 31
0.0
  0
LINE
  8
0
 10
909.437377
 20
383.082135
 30
0.0
 11
908.971029
 21
383.082135
 31
0.0
  0
LINE
  8
0
 10
908.971029
 20
383.082135
 30
0.0
 11
908.963869
 21
383.082135
 31
0.0
  0
LINE
  8
0
 10
908.963869
 20
383.082135
 30
0.0
 11
908.946685
 21
383.082135
 31
0.0
  0
LINE
  8
0
 10
908.946685
 20
383.082135
 30
0.0
 11
908.91184
 21
383.082135
 31
0.0
  0
LINE
  8
0
 10
908.91184
 20
383.082135
 30
0.0
 11
908.866494
 21
383.082135
 31
0.0
  0
LINE
  8
0
 10
908.866494
 20
383.082135
 30
0.0
 11
908.810647
 21
383.082135
 31
0.0
  0
LINE
  8
0
 10
908.810647
 20
383.082135
 30
0.0
 11
908.744776
 21
383.082135
 31
0.0
  0
LINE
  8
0
 10
908.744776
 20
383.082135
 30
0.0
 11
908.667926
 21
383.082135
 31
0.0
  0
LINE
  8
0
 10
908.667926
 20
383.082135
 30
0.0
 11
908.584394
 21
383.082135
 31
0.0
  0
LINE
  8
0
 10
908.584394
 20
383.082135
 30
0.0
 11
908.490838
 21
383.082135
 31
0.0
  0
LINE
  8
0
 10
908.490838
 20
383.082135
 30
0.0
 11
908.396804
 21
383.082135
 31
0.0
  0
LINE
  8
0
 10
908.396804
 20
383.082135
 30
0.0
 11
908.295611
 21
383.082135
 31
0.0
  0
LINE
  8
0
 10
908.295611
 20
383.082135
 30
0.0
 11
908.194895
 21
383.082135
 31
0.0
  0
LINE
  8
0
 10
908.191554
 20
389.788579
 30
0.0
 11
907.989644
 21
389.736073
 31
0.0
  0
LINE
  8
0
 10
907.989644
 20
389.736073
 30
0.0
 11
907.968642
 21
389.72939
 31
0.0
  0
LINE
  8
0
 10
907.968642
 20
389.72939
 30
0.0
 11
907.94764
 21
389.72223
 31
0.0
  0
LINE
  8
0
 10
907.94764
 20
389.72223
 30
0.0
 11
907.926637
 21
389.715548
 31
0.0
  0
LINE
  8
0
 10
907.926637
 20
389.715548
 30
0.0
 11
907.906112
 21
389.708388
 31
0.0
  0
LINE
  8
0
 10
907.906112
 20
389.708388
 30
0.0
 11
907.888451
 21
389.701228
 31
0.0
  0
LINE
  8
0
 10
907.888451
 20
389.701228
 30
0.0
 11
907.867449
 21
389.691204
 31
0.0
  0
LINE
  8
0
 10
907.867449
 20
389.691204
 30
0.0
 11
907.846924
 21
389.684044
 31
0.0
  0
LINE
  8
0
 10
907.846924
 20
389.684044
 30
0.0
 11
907.829262
 21
389.673543
 31
0.0
  0
LINE
  8
0
 10
907.829262
 20
389.673543
 30
0.0
 11
907.80826
 21
389.663042
 31
0.0
  0
LINE
  8
0
 10
907.80826
 20
389.663042
 30
0.0
 11
907.791076
 21
389.652541
 31
0.0
  0
LINE
  8
0
 10
907.791076
 20
389.652541
 30
0.0
 11
907.773893
 21
389.638698
 31
0.0
  0
LINE
  8
0
 10
907.773893
 20
389.638698
 30
0.0
 11
907.75289
 21
389.628197
 31
0.0
  0
LINE
  8
0
 10
907.75289
 20
389.628197
 30
0.0
 11
907.735229
 21
389.614355
 31
0.0
  0
LINE
  8
0
 10
907.735229
 20
389.614355
 30
0.0
 11
907.718045
 21
389.603853
 31
0.0
  0
LINE
  8
0
 10
907.718045
 20
389.603853
 30
0.0
 11
907.700384
 21
389.590011
 31
0.0
  0
LINE
  8
0
 10
907.700384
 20
389.590011
 30
0.0
 11
907.686542
 21
389.576168
 31
0.0
  0
LINE
  8
0
 10
907.686542
 20
389.576168
 30
0.0
 11
907.669358
 21
389.562326
 31
0.0
  0
LINE
  8
0
 10
907.669358
 20
389.562326
 30
0.0
 11
907.651697
 21
389.544665
 31
0.0
  0
LINE
  8
0
 10
907.651697
 20
389.544665
 30
0.0
 11
907.637854
 21
389.530822
 31
0.0
  0
LINE
  8
0
 10
907.637854
 20
389.530822
 30
0.0
 11
907.620671
 21
389.51698
 31
0.0
  0
LINE
  8
0
 10
907.620671
 20
389.51698
 30
0.0
 11
907.606828
 21
389.499796
 31
0.0
  0
LINE
  8
0
 10
907.606828
 20
389.499796
 30
0.0
 11
907.592508
 21
389.482135
 31
0.0
  0
LINE
  8
0
 10
907.592508
 20
389.482135
 30
0.0
 11
907.578666
 21
389.464951
 31
0.0
  0
LINE
  8
0
 10
907.578666
 20
389.464951
 30
0.0
 11
907.564823
 21
389.44729
 31
0.0
  0
LINE
  8
0
 10
907.564823
 20
389.44729
 30
0.0
 11
907.554322
 21
389.430106
 31
0.0
  0
LINE
  8
0
 10
907.554322
 20
389.430106
 30
0.0
 11
907.54048
 21
389.412445
 31
0.0
  0
LINE
  8
0
 10
907.54048
 20
389.412445
 30
0.0
 11
907.529978
 21
389.395262
 31
0.0
  0
LINE
  8
0
 10
907.529978
 20
389.395262
 30
0.0
 11
907.519477
 21
389.3776
 31
0.0
  0
LINE
  8
0
 10
907.519477
 20
389.3776
 30
0.0
 11
907.508976
 21
389.357075
 31
0.0
  0
LINE
  8
0
 10
907.508976
 20
389.357075
 30
0.0
 11
907.498952
 21
389.339414
 31
0.0
  0
LINE
  8
0
 10
907.498952
 20
389.339414
 30
0.0
 11
907.488451
 21
389.318412
 31
0.0
  0
LINE
  8
0
 10
907.488451
 20
389.318412
 30
0.0
 11
907.47795
 21
389.297887
 31
0.0
  0
LINE
  8
0
 10
907.47795
 20
389.297887
 30
0.0
 11
907.47079
 21
389.280226
 31
0.0
  0
LINE
  8
0
 10
907.47079
 20
389.280226
 30
0.0
 11
907.464107
 21
389.259701
 31
0.0
  0
LINE
  8
0
 10
907.464107
 20
389.259701
 30
0.0
 11
907.453606
 21
389.238698
 31
0.0
  0
LINE
  8
0
 10
907.453606
 20
389.238698
 30
0.0
 11
907.446446
 21
389.217696
 31
0.0
  0
LINE
  8
0
 10
907.446446
 20
389.217696
 30
0.0
 11
907.443105
 21
389.196693
 31
0.0
  0
LINE
  8
0
 10
907.443105
 20
389.196693
 30
0.0
 11
907.435945
 21
389.176168
 31
0.0
  0
LINE
  8
0
 10
907.435945
 20
389.176168
 30
0.0
 11
907.432604
 21
389.155166
 31
0.0
  0
LINE
  8
0
 10
907.432604
 20
389.155166
 30
0.0
 11
907.425444
 21
389.134164
 31
0.0
  0
LINE
  8
0
 10
907.425444
 20
389.134164
 30
0.0
 11
907.422103
 21
389.10982
 31
0.0
  0
LINE
  8
0
 10
907.422103
 20
389.10982
 30
0.0
 11
907.418761
 21
389.092636
 31
0.0
  0
LINE
  8
0
 10
907.418761
 20
389.092636
 30
0.0
 11
907.41542
 21
389.071634
 31
0.0
  0
LINE
  8
0
 10
907.41542
 20
389.071634
 30
0.0
 11
907.41542
 21
389.04729
 31
0.0
  0
LINE
  8
0
 10
907.41542
 20
389.04729
 30
0.0
 11
907.411601
 21
389.026288
 31
0.0
  0
LINE
  8
0
 10
907.411601
 20
389.026288
 30
0.0
 11
907.411601
 21
388.988102
 31
0.0
  0
LINE
  8
0
 10
907.411601
 20
388.988102
 30
0.0
 11
907.411601
 21
388.984283
 31
0.0
  0
LINE
  8
0
 10
908.187735
 20
389.788579
 30
0.0
 11
908.194895
 21
389.79192
 31
0.0
  0
LINE
  8
0
 10
908.194895
 20
389.79192
 30
0.0
 11
908.372461
 21
389.837266
 31
0.0
  0
LINE
  8
0
 10
908.372461
 20
389.837266
 30
0.0
 11
908.473177
 21
389.864951
 31
0.0
  0
LINE
  8
0
 10
908.473177
 20
389.864951
 30
0.0
 11
908.56721
 21
389.889295
 31
0.0
  0
LINE
  8
0
 10
908.56721
 20
389.889295
 30
0.0
 11
908.654083
 21
389.913639
 31
0.0
  0
LINE
  8
0
 10
908.654083
 20
389.913639
 30
0.0
 11
908.734274
 21
389.934641
 31
0.0
  0
LINE
  8
0
 10
908.734274
 20
389.934641
 30
0.0
 11
908.803964
 21
389.955643
 31
0.0
  0
LINE
  8
0
 10
908.803964
 20
389.955643
 30
0.0
 11
908.863153
 21
389.969486
 31
0.0
  0
LINE
  8
0
 10
908.863153
 20
389.969486
 30
0.0
 11
908.91184
 21
389.983328
 31
0.0
  0
LINE
  8
0
 10
908.91184
 20
389.983328
 30
0.0
 11
908.942866
 21
389.990488
 31
0.0
  0
LINE
  8
0
 10
908.942866
 20
389.990488
 30
0.0
 11
908.963869
 21
389.997171
 31
0.0
  0
LINE
  8
0
 10
908.963869
 20
389.997171
 30
0.0
 11
908.971029
 21
389.997171
 31
0.0
  0
LINE
  8
0
 10
908.971029
 20
389.997171
 30
0.0
 11
911.688928
 21
390.727958
 31
0.0
  0
LINE
  8
0
 10
908.187735
 20
383.078794
 30
0.0
 11
908.163391
 21
383.082135
 31
0.0
  0
LINE
  8
0
 10
908.163391
 20
383.082135
 30
0.0
 11
908.135706
 21
383.082135
 31
0.0
  0
LINE
  8
0
 10
908.135706
 20
383.082135
 30
0.0
 11
908.111363
 21
383.085954
 31
0.0
  0
LINE
  8
0
 10
908.111363
 20
383.085954
 30
0.0
 11
908.087019
 21
383.089295
 31
0.0
  0
LINE
  8
0
 10
908.087019
 20
383.089295
 30
0.0
 11
908.058857
 21
383.092636
 31
0.0
  0
LINE
  8
0
 10
908.058857
 20
383.092636
 30
0.0
 11
908.034513
 21
383.095978
 31
0.0
  0
LINE
  8
0
 10
908.034513
 20
383.095978
 30
0.0
 11
908.010169
 21
383.103137
 31
0.0
  0
LINE
  8
0
 10
908.010169
 20
383.103137
 30
0.0
 11
907.982484
 21
383.110297
 31
0.0
  0
LINE
  8
0
 10
907.982484
 20
383.110297
 30
0.0
 11
907.958141
 21
383.11698
 31
0.0
  0
LINE
  8
0
 10
907.958141
 20
383.11698
 30
0.0
 11
907.933797
 21
383.12414
 31
0.0
  0
LINE
  8
0
 10
907.933797
 20
383.12414
 30
0.0
 11
907.909453
 21
383.134641
 31
0.0
  0
LINE
  8
0
 10
907.909453
 20
383.134641
 30
0.0
 11
907.88511
 21
383.141324
 31
0.0
  0
LINE
  8
0
 10
907.88511
 20
383.141324
 30
0.0
 11
907.860766
 21
383.155166
 31
0.0
  0
LINE
  8
0
 10
907.860766
 20
383.155166
 30
0.0
 11
907.839764
 21
383.165667
 31
0.0
  0
LINE
  8
0
 10
907.839764
 20
383.165667
 30
0.0
 11
907.81542
 21
383.176168
 31
0.0
  0
LINE
  8
0
 10
907.81542
 20
383.176168
 30
0.0
 11
907.794418
 21
383.190011
 31
0.0
  0
LINE
  8
0
 10
907.794418
 20
383.190011
 30
0.0
 11
907.770074
 21
383.203853
 31
0.0
  0
LINE
  8
0
 10
907.770074
 20
383.203853
 30
0.0
 11
907.749549
 21
383.218173
 31
0.0
  0
LINE
  8
0
 10
907.749549
 20
383.218173
 30
0.0
 11
907.728546
 21
383.232016
 31
0.0
  0
LINE
  8
0
 10
907.728546
 20
383.232016
 30
0.0
 11
907.707544
 21
383.249199
 31
0.0
  0
LINE
  8
0
 10
907.707544
 20
383.249199
 30
0.0
 11
907.686542
 21
383.266861
 31
0.0
  0
LINE
  8
0
 10
907.686542
 20
383.266861
 30
0.0
 11
907.669358
 21
383.284044
 31
0.0
  0
LINE
  8
0
 10
907.669358
 20
383.284044
 30
0.0
 11
907.648356
 21
383.301705
 31
0.0
  0
LINE
  8
0
 10
907.648356
 20
383.301705
 30
0.0
 11
907.631172
 21
383.318889
 31
0.0
  0
LINE
  8
0
 10
907.631172
 20
383.318889
 30
0.0
 11
907.613511
 21
383.336073
 31
0.0
  0
LINE
  8
0
 10
907.613511
 20
383.336073
 30
0.0
 11
907.596327
 21
383.357075
 31
0.0
  0
LINE
  8
0
 10
907.596327
 20
383.357075
 30
0.0
 11
907.578666
 21
383.378078
 31
0.0
  0
LINE
  8
0
 10
907.578666
 20
383.378078
 30
0.0
 11
907.564823
 21
383.39908
 31
0.0
  0
LINE
  8
0
 10
907.564823
 20
383.39908
 30
0.0
 11
907.54764
 21
383.419605
 31
0.0
  0
LINE
  8
0
 10
907.54764
 20
383.419605
 30
0.0
 11
907.53332
 21
383.440608
 31
0.0
  0
LINE
  8
0
 10
907.53332
 20
383.440608
 30
0.0
 11
907.519477
 21
383.46161
 31
0.0
  0
LINE
  8
0
 10
907.519477
 20
383.46161
 30
0.0
 11
907.508976
 21
383.485954
 31
0.0
  0
LINE
  8
0
 10
907.508976
 20
383.485954
 30
0.0
 11
907.495134
 21
383.510297
 31
0.0
  0
LINE
  8
0
 10
907.495134
 20
383.510297
 30
0.0
 11
907.484632
 21
383.5313
 31
0.0
  0
LINE
  8
0
 10
907.484632
 20
383.5313
 30
0.0
 11
907.474609
 21
383.555643
 31
0.0
  0
LINE
  8
0
 10
907.474609
 20
383.555643
 30
0.0
 11
907.464107
 21
383.579987
 31
0.0
  0
LINE
  8
0
 10
907.464107
 20
383.579987
 30
0.0
 11
907.453606
 21
383.604331
 31
0.0
  0
LINE
  8
0
 10
907.453606
 20
383.604331
 30
0.0
 11
907.446446
 21
383.628674
 31
0.0
  0
LINE
  8
0
 10
907.446446
 20
383.628674
 30
0.0
 11
907.439764
 21
383.653018
 31
0.0
  0
LINE
  8
0
 10
907.439764
 20
383.653018
 30
0.0
 11
907.432604
 21
383.677362
 31
0.0
  0
LINE
  8
0
 10
907.432604
 20
383.677362
 30
0.0
 11
907.429262
 21
383.701705
 31
0.0
  0
LINE
  8
0
 10
907.429262
 20
383.701705
 30
0.0
 11
907.422103
 21
383.72939
 31
0.0
  0
LINE
  8
0
 10
907.422103
 20
383.72939
 30
0.0
 11
907.418761
 21
383.753734
 31
0.0
  0
LINE
  8
0
 10
907.418761
 20
383.753734
 30
0.0
 11
907.41542
 21
383.778078
 31
0.0
  0
LINE
  8
0
 10
907.41542
 20
383.778078
 30
0.0
 11
907.41542
 21
383.802421
 31
0.0
  0
LINE
  8
0
 10
907.41542
 20
383.802421
 30
0.0
 11
907.411601
 21
383.823424
 31
0.0
  0
LINE
  8
0
 10
907.411601
 20
383.823424
 30
0.0
 11
907.411601
 21
383.833925
 31
0.0
  0
LINE
  8
0
 10
907.411601
 20
383.858269
 30
0.0
 11
907.411601
 21
383.86161
 31
0.0
  0
LINE
  8
0
 10
908.187735
 20
383.082135
 30
0.0
 11
908.191554
 21
383.082135
 31
0.0
  0
LINE
  8
0
 10
911.831649
 20
390.916025
 30
0.0
 11
911.824489
 21
390.863997
 31
0.0
  0
LINE
  8
0
 10
911.824489
 20
390.863997
 30
0.0
 11
911.807305
 21
390.818651
 31
0.0
  0
LINE
  8
0
 10
911.807305
 20
390.818651
 30
0.0
 11
911.775802
 21
390.776646
 31
0.0
  0
LINE
  8
0
 10
911.775802
 20
390.776646
 30
0.0
 11
911.734274
 21
390.74562
 31
0.0
  0
LINE
  8
0
 10
911.734274
 20
390.74562
 30
0.0
 11
911.688928
 21
390.727958
 31
0.0
  0
LINE
  8
0
 10
911.831649
 20
394.865906
 30
0.0
 11
911.831649
 21
390.916025
 31
0.0
  0
LINE
  8
0
 10
909.799191
 20
396.706956
 30
0.0
 11
912.130933
 21
396.292636
 31
0.0
  0
LINE
  8
0
 10
909.687974
 20
395.415787
 30
0.0
 11
909.778188
 21
395.422946
 31
0.0
  0
LINE
  8
0
 10
909.778188
 20
395.422946
 30
0.0
 11
909.868881
 21
395.44013
 31
0.0
  0
LINE
  8
0
 10
909.868881
 20
395.44013
 30
0.0
 11
909.955754
 21
395.474975
 31
0.0
  0
LINE
  8
0
 10
909.955754
 20
395.474975
 30
0.0
 11
910.039286
 21
395.516503
 31
0.0
  0
LINE
  8
0
 10
910.039286
 20
395.516503
 30
0.0
 11
910.112317
 21
395.57235
 31
0.0
  0
LINE
  8
0
 10
910.112317
 20
395.57235
 30
0.0
 11
910.178666
 21
395.638698
 31
0.0
  0
LINE
  8
0
 10
910.178666
 20
395.638698
 30
0.0
 11
910.234036
 21
395.715071
 31
0.0
  0
LINE
  8
0
 10
910.234036
 20
395.715071
 30
0.0
 11
910.279382
 21
395.795262
 31
0.0
  0
LINE
  8
0
 10
910.279382
 20
395.795262
 30
0.0
 11
910.310885
 21
395.882135
 31
0.0
  0
LINE
  8
0
 10
910.310885
 20
395.882135
 30
0.0
 11
910.33141
 21
395.972827
 31
0.0
  0
LINE
  8
0
 10
910.33141
 20
395.972827
 30
0.0
 11
910.335229
 21
396.066383
 31
0.0
  0
LINE
  8
0
 10
910.335229
 20
396.066383
 30
0.0
 11
910.33141
 21
396.157075
 31
0.0
  0
LINE
  8
0
 10
910.33141
 20
396.157075
 30
0.0
 11
910.310885
 21
396.247767
 31
0.0
  0
LINE
  8
0
 10
910.310885
 20
396.247767
 30
0.0
 11
910.279382
 21
396.334641
 31
0.0
  0
LINE
  8
0
 10
910.279382
 20
396.334641
 30
0.0
 11
910.234036
 21
396.418173
 31
0.0
  0
LINE
  8
0
 10
910.234036
 20
396.418173
 30
0.0
 11
910.178666
 21
396.491204
 31
0.0
  0
LINE
  8
0
 10
910.178666
 20
396.491204
 30
0.0
 11
910.112317
 21
396.557075
 31
0.0
  0
LINE
  8
0
 10
910.112317
 20
396.557075
 30
0.0
 11
910.039286
 21
396.612923
 31
0.0
  0
LINE
  8
0
 10
910.039286
 20
396.612923
 30
0.0
 11
909.955754
 21
396.658269
 31
0.0
  0
LINE
  8
0
 10
909.955754
 20
396.658269
 30
0.0
 11
909.868881
 21
396.689295
 31
0.0
  0
LINE
  8
0
 10
909.868881
 20
396.689295
 30
0.0
 11
909.778188
 21
396.706956
 31
0.0
  0
LINE
  8
0
 10
909.778188
 20
396.706956
 30
0.0
 11
909.687974
 21
396.714116
 31
0.0
  0
LINE
  8
0
 10
909.687974
 20
396.714116
 30
0.0
 11
909.59394
 21
396.706956
 31
0.0
  0
LINE
  8
0
 10
909.59394
 20
396.706956
 30
0.0
 11
909.503248
 21
396.689295
 31
0.0
  0
LINE
  8
0
 10
909.503248
 20
396.689295
 30
0.0
 11
909.416375
 21
396.658269
 31
0.0
  0
LINE
  8
0
 10
909.416375
 20
396.658269
 30
0.0
 11
909.336184
 21
396.612923
 31
0.0
  0
LINE
  8
0
 10
909.336184
 20
396.612923
 30
0.0
 11
909.259811
 21
396.557075
 31
0.0
  0
LINE
  8
0
 10
909.259811
 20
396.557075
 30
0.0
 11
909.197282
 21
396.491204
 31
0.0
  0
LINE
  8
0
 10
909.197282
 20
396.491204
 30
0.0
 11
909.141434
 21
396.418173
 31
0.0
  0
LINE
  8
0
 10
909.141434
 20
396.418173
 30
0.0
 11
909.096088
 21
396.334641
 31
0.0
  0
LINE
  8
0
 10
909.096088
 20
396.334641
 30
0.0
 11
909.064585
 21
396.247767
 31
0.0
  0
LINE
  8
0
 10
909.064585
 20
396.247767
 30
0.0
 11
909.04406
 21
396.157075
 31
0.0
  0
LINE
  8
0
 10
909.04406
 20
396.157075
 30
0.0
 11
909.0369
 21
396.066383
 31
0.0
  0
LINE
  8
0
 10
909.0369
 20
396.066383
 30
0.0
 11
909.04406
 21
395.972827
 31
0.0
  0
LINE
  8
0
 10
909.04406
 20
395.972827
 30
0.0
 11
909.064585
 21
395.882135
 31
0.0
  0
LINE
  8
0
 10
909.064585
 20
395.882135
 30
0.0
 11
909.096088
 21
395.795262
 31
0.0
  0
LINE
  8
0
 10
909.096088
 20
395.795262
 30
0.0
 11
909.141434
 21
395.715071
 31
0.0
  0
LINE
  8
0
 10
909.141434
 20
395.715071
 30
0.0
 11
909.197282
 21
395.638698
 31
0.0
  0
LINE
  8
0
 10
909.197282
 20
395.638698
 30
0.0
 11
909.259811
 21
395.57235
 31
0.0
  0
LINE
  8
0
 10
909.259811
 20
395.57235
 30
0.0
 11
909.336184
 21
395.516503
 31
0.0
  0
LINE
  8
0
 10
909.336184
 20
395.516503
 30
0.0
 11
909.416375
 21
395.474975
 31
0.0
  0
LINE
  8
0
 10
909.416375
 20
395.474975
 30
0.0
 11
909.503248
 21
395.44013
 31
0.0
  0
LINE
  8
0
 10
909.503248
 20
395.44013
 30
0.0
 11
909.59394
 21
395.422946
 31
0.0
  0
LINE
  8
0
 10
909.59394
 20
395.422946
 30
0.0
 11
909.687974
 21
395.415787
 31
0.0
  0
LINE
  8
0
 10
911.671267
 20
395.053973
 30
0.0
 11
909.572938
 21
395.426288
 31
0.0
  0
LINE
  8
0
 10
911.671267
 20
395.053973
 30
0.0
 11
911.723773
 21
395.04013
 31
0.0
  0
LINE
  8
0
 10
911.723773
 20
395.04013
 30
0.0
 11
911.769119
 21
395.008627
 31
0.0
  0
LINE
  8
0
 10
911.769119
 20
395.008627
 30
0.0
 11
911.803487
 21
394.967099
 31
0.0
  0
LINE
  8
0
 10
911.803487
 20
394.967099
 30
0.0
 11
911.824489
 21
394.917935
 31
0.0
  0
LINE
  8
0
 10
911.824489
 20
394.917935
 30
0.0
 11
911.831649
 21
394.862565
 31
0.0
  0
LINE
  8
0
 10
912.938093
 20
395.335596
 30
0.0
 11
912.93141
 21
395.450631
 31
0.0
  0
LINE
  8
0
 10
912.93141
 20
395.450631
 30
0.0
 11
912.910408
 21
395.561849
 31
0.0
  0
LINE
  8
0
 10
912.910408
 20
395.561849
 30
0.0
 11
912.878904
 21
395.669725
 31
0.0
  0
LINE
  8
0
 10
912.878904
 20
395.669725
 30
0.0
 11
912.833558
 21
395.774259
 31
0.0
  0
LINE
  8
0
 10
912.833558
 20
395.774259
 30
0.0
 11
912.774847
 21
395.871634
 31
0.0
  0
LINE
  8
0
 10
912.774847
 20
395.871634
 30
0.0
 11
912.708499
 21
395.962326
 31
0.0
  0
LINE
  8
0
 10
912.544776
 20
396.115548
 30
0.0
 11
912.447401
 21
396.178078
 31
0.0
  0
LINE
  8
0
 10
912.447401
 20
396.178078
 30
0.0
 11
912.346685
 21
396.230106
 31
0.0
  0
LINE
  8
0
 10
912.346685
 20
396.230106
 30
0.0
 11
912.24215
 21
396.268293
 31
0.0
  0
LINE
  8
0
 10
912.24215
 20
396.268293
 30
0.0
 11
912.130933
 21
396.292636
 31
0.0
  0
LINE
  8
0
 10
912.708499
 20
395.962326
 30
0.0
 11
912.628308
 21
396.04204
 31
0.0
  0
LINE
  8
0
 10
912.628308
 20
396.04204
 30
0.0
 11
912.544776
 21
396.115548
 31
0.0
  0
LINE
  8
0
 10
907.67604
 20
401.56519
 30
0.0
 11
907.603009
 21
401.478316
 31
0.0
  0
LINE
  8
0
 10
907.603009
 20
401.478316
 30
0.0
 11
907.519477
 21
401.398125
 31
0.0
  0
LINE
  8
0
 10
907.224012
 20
401.22772
 30
0.0
 11
907.116136
 21
401.192875
 31
0.0
  0
LINE
  8
0
 10
907.116136
 20
401.192875
 30
0.0
 11
907.0011
 21
401.171872
 31
0.0
  0
LINE
  8
0
 10
908.490838
 20
402.964235
 30
0.0
 11
907.739048
 21
401.662565
 31
0.0
  0
LINE
  8
0
 10
907.739048
 20
401.662565
 30
0.0
 11
907.67604
 21
401.56519
 31
0.0
  0
LINE
  8
0
 10
913.035468
 20
404.662565
 30
0.0
 11
907.537138
 21
404.662565
 31
0.0
  0
LINE
  8
0
 10
907.537138
 20
404.662565
 30
0.0
 11
907.373415
 21
404.655405
 31
0.0
  0
LINE
  8
0
 10
907.046446
 20
404.600035
 30
0.0
 11
906.886064
 21
404.554689
 31
0.0
  0
LINE
  8
0
 10
906.886064
 20
404.554689
 30
0.0
 11
906.73332
 21
404.4955
 31
0.0
  0
LINE
  8
0
 10
906.065062
 20
404.018651
 30
0.0
 11
905.957186
 21
403.889772
 31
0.0
  0
LINE
  8
0
 10
905.957186
 20
403.889772
 30
0.0
 11
905.863153
 21
403.757553
 31
0.0
  0
LINE
  8
0
 10
905.64406
 20
403.312207
 30
0.0
 11
905.598714
 21
403.152302
 31
0.0
  0
LINE
  8
0
 10
905.598714
 20
403.152302
 30
0.0
 11
905.563869
 21
402.99192
 31
0.0
  0
LINE
  8
0
 10
905.536184
 20
402.66161
 30
0.0
 11
905.967687
 21
401.739414
 31
0.0
  0
LINE
  8
0
 10
906.308499
 20
404.241562
 30
0.0
 11
906.183439
 21
404.133686
 31
0.0
  0
LINE
  8
0
 10
907.373415
 20
404.655405
 30
0.0
 11
907.206351
 21
404.63488
 31
0.0
  0
LINE
  8
0
 10
907.206351
 20
404.63488
 30
0.0
 11
907.046446
 21
404.600035
 31
0.0
  0
LINE
  8
0
 10
906.73332
 20
404.4955
 30
0.0
 11
906.583439
 21
404.422469
 31
0.0
  0
LINE
  8
0
 10
906.583439
 20
404.422469
 30
0.0
 11
906.444537
 21
404.335596
 31
0.0
  0
LINE
  8
0
 10
906.444537
 20
404.335596
 30
0.0
 11
906.308499
 21
404.241562
 31
0.0
  0
LINE
  8
0
 10
906.183439
 20
404.133686
 30
0.0
 11
906.065062
 21
404.018651
 31
0.0
  0
LINE
  8
0
 10
905.863153
 20
403.757553
 30
0.0
 11
905.77962
 21
403.614832
 31
0.0
  0
LINE
  8
0
 10
905.77962
 20
403.614832
 30
0.0
 11
905.706589
 21
403.465429
 31
0.0
  0
LINE
  8
0
 10
905.706589
 20
403.465429
 30
0.0
 11
905.64406
 21
403.312207
 31
0.0
  0
LINE
  8
0
 10
905.563869
 20
402.99192
 30
0.0
 11
905.542866
 21
402.828674
 31
0.0
  0
LINE
  8
0
 10
905.542866
 20
402.828674
 30
0.0
 11
905.536184
 21
402.66161
 31
0.0
  0
LINE
  8
0
 10
907.519477
 20
401.398125
 30
0.0
 11
907.429262
 21
401.332254
 31
0.0
  0
LINE
  8
0
 10
907.429262
 20
401.332254
 30
0.0
 11
907.328069
 21
401.273066
 31
0.0
  0
LINE
  8
0
 10
907.328069
 20
401.273066
 30
0.0
 11
907.224012
 21
401.22772
 31
0.0
  0
LINE
  8
0
 10
907.0011
 20
401.171872
 30
0.0
 11
906.886064
 21
401.161371
 31
0.0
  0
LINE
  8
0
 10
906.886064
 20
401.161371
 30
0.0
 11
906.771506
 21
401.168531
 31
0.0
  0
LINE
  8
0
 10
906.771506
 20
401.168531
 30
0.0
 11
906.660289
 21
401.185715
 31
0.0
  0
LINE
  8
0
 10
906.660289
 20
401.185715
 30
0.0
 11
906.548594
 21
401.217219
 31
0.0
  0
LINE
  8
0
 10
906.548594
 20
401.217219
 30
0.0
 11
906.444537
 21
401.258746
 31
0.0
  0
LINE
  8
0
 10
906.444537
 20
401.258746
 30
0.0
 11
906.343344
 21
401.314593
 31
0.0
  0
LINE
  8
0
 10
906.343344
 20
401.314593
 30
0.0
 11
906.24931
 21
401.380942
 31
0.0
  0
LINE
  8
0
 10
906.24931
 20
401.380942
 30
0.0
 11
906.162437
 21
401.457314
 31
0.0
  0
LINE
  8
0
 10
906.162437
 20
401.457314
 30
0.0
 11
906.086064
 21
401.544188
 31
0.0
  0
LINE
  8
0
 10
906.086064
 20
401.544188
 30
0.0
 11
906.023057
 21
401.638221
 31
0.0
  0
LINE
  8
0
 10
906.023057
 20
401.638221
 30
0.0
 11
905.967687
 21
401.739414
 31
0.0
  0
LINE
  8
0
 10
912.137616
 20
402.964235
 30
0.0
 11
908.490838
 21
402.964235
 31
0.0
  0
LINE
  8
0
 10
915.0369
 20
402.66161
 30
0.0
 11
915.02974
 21
402.828674
 31
0.0
  0
LINE
  8
0
 10
915.02974
 20
402.828674
 30
0.0
 11
915.008737
 21
402.99192
 31
0.0
  0
LINE
  8
0
 10
915.008737
 20
402.99192
 30
0.0
 11
914.973893
 21
403.152302
 31
0.0
  0
LINE
  8
0
 10
914.973893
 20
403.152302
 30
0.0
 11
914.929024
 21
403.312207
 31
0.0
  0
LINE
  8
0
 10
914.929024
 20
403.312207
 30
0.0
 11
914.869835
 21
403.465429
 31
0.0
  0
LINE
  8
0
 10
914.869835
 20
403.465429
 30
0.0
 11
914.796804
 21
403.614832
 31
0.0
  0
LINE
  8
0
 10
914.796804
 20
403.614832
 30
0.0
 11
914.709453
 21
403.757553
 31
0.0
  0
LINE
  8
0
 10
914.709453
 20
403.757553
 30
0.0
 11
914.61542
 21
403.889772
 31
0.0
  0
LINE
  8
0
 10
914.61542
 20
403.889772
 30
0.0
 11
914.507544
 21
404.018651
 31
0.0
  0
LINE
  8
0
 10
914.507544
 20
404.018651
 30
0.0
 11
914.392986
 21
404.133686
 31
0.0
  0
LINE
  8
0
 10
914.392986
 20
404.133686
 30
0.0
 11
914.264107
 21
404.241562
 31
0.0
  0
LINE
  8
0
 10
914.264107
 20
404.241562
 30
0.0
 11
914.131888
 21
404.335596
 31
0.0
  0
LINE
  8
0
 10
914.131888
 20
404.335596
 30
0.0
 11
913.989167
 21
404.422469
 31
0.0
  0
LINE
  8
0
 10
913.989167
 20
404.422469
 30
0.0
 11
913.839764
 21
404.4955
 31
0.0
  0
LINE
  8
0
 10
913.839764
 20
404.4955
 30
0.0
 11
913.686542
 21
404.554689
 31
0.0
  0
LINE
  8
0
 10
913.686542
 20
404.554689
 30
0.0
 11
913.52616
 21
404.600035
 31
0.0
  0
LINE
  8
0
 10
913.52616
 20
404.600035
 30
0.0
 11
913.366255
 21
404.63488
 31
0.0
  0
LINE
  8
0
 10
913.366255
 20
404.63488
 30
0.0
 11
913.202532
 21
404.655405
 31
0.0
  0
LINE
  8
0
 10
913.202532
 20
404.655405
 30
0.0
 11
913.035468
 21
404.662565
 31
0.0
  0
LINE
  8
0
 10
913.028785
 20
402.564235
 30
0.0
 11
912.938093
 21
402.65445
 31
0.0
  0
LINE
  8
0
 10
912.938093
 20
402.65445
 30
0.0
 11
912.840718
 21
402.734641
 31
0.0
  0
LINE
  8
0
 10
912.840718
 20
402.734641
 30
0.0
 11
912.736184
 21
402.800512
 31
0.0
  0
LINE
  8
0
 10
912.736184
 20
402.800512
 30
0.0
 11
912.624967
 21
402.859701
 31
0.0
  0
LINE
  8
0
 10
912.624967
 20
402.859701
 30
0.0
 11
912.506589
 21
402.905047
 31
0.0
  0
LINE
  8
0
 10
912.506589
 20
402.905047
 30
0.0
 11
912.384871
 21
402.93655
 31
0.0
  0
LINE
  8
0
 10
912.384871
 20
402.93655
 30
0.0
 11
912.263153
 21
402.957075
 31
0.0
  0
LINE
  8
0
 10
912.263153
 20
402.957075
 30
0.0
 11
912.137616
 21
402.964235
 31
0.0
  0
LINE
  8
0
 10
913.334752
 20
401.763758
 30
0.0
 11
913.33141
 21
401.888818
 31
0.0
  0
LINE
  8
0
 10
913.33141
 20
401.888818
 30
0.0
 11
913.310408
 21
402.010536
 31
0.0
  0
LINE
  8
0
 10
913.310408
 20
402.010536
 30
0.0
 11
913.279382
 21
402.132254
 31
0.0
  0
LINE
  8
0
 10
913.279382
 20
402.132254
 30
0.0
 11
913.234036
 21
402.250631
 31
0.0
  0
LINE
  8
0
 10
913.234036
 20
402.250631
 30
0.0
 11
913.174847
 21
402.362326
 31
0.0
  0
LINE
  8
0
 10
913.174847
 20
402.362326
 30
0.0
 11
913.108499
 21
402.466383
 31
0.0
  0
LINE
  8
0
 10
913.108499
 20
402.466383
 30
0.0
 11
913.028785
 21
402.564235
 31
0.0
  0
LINE
  8
0
 10
913.334752
 20
297.561849
 30
0.0
 11
913.334752
 21
401.763758
 31
0.0
  0
LINE
  8
0
 10
915.0369
 20
402.66161
 30
0.0
 11
915.0369
 21
296.663997
 31
0.0
  0
LINE
  8
0
 10
915.0369
 20
296.663997
 30
0.0
 11
915.02974
 21
296.496932
 31
0.0
  0
LINE
  8
0
 10
915.02974
 20
296.496932
 30
0.0
 11
915.008737
 21
296.333209
 31
0.0
  0
LINE
  8
0
 10
915.008737
 20
296.333209
 30
0.0
 11
914.973893
 21
296.173304
 31
0.0
  0
LINE
  8
0
 10
914.973893
 20
296.173304
 30
0.0
 11
914.929024
 21
296.012923
 31
0.0
  0
LINE
  8
0
 10
914.929024
 20
296.012923
 30
0.0
 11
914.869835
 21
295.859701
 31
0.0
  0
LINE
  8
0
 10
914.869835
 20
295.859701
 30
0.0
 11
914.796804
 21
295.710297
 31
0.0
  0
LINE
  8
0
 10
914.796804
 20
295.710297
 30
0.0
 11
914.709453
 21
295.567577
 31
0.0
  0
LINE
  8
0
 10
914.709453
 20
295.567577
 30
0.0
 11
914.61542
 21
295.435357
 31
0.0
  0
LINE
  8
0
 10
914.61542
 20
295.435357
 30
0.0
 11
914.507544
 21
295.306479
 31
0.0
  0
LINE
  8
0
 10
914.507544
 20
295.306479
 30
0.0
 11
914.392986
 21
295.19192
 31
0.0
  0
LINE
  8
0
 10
914.392986
 20
295.19192
 30
0.0
 11
914.264107
 21
295.084044
 31
0.0
  0
LINE
  8
0
 10
914.264107
 20
295.084044
 30
0.0
 11
914.131888
 21
294.990011
 31
0.0
  0
LINE
  8
0
 10
914.131888
 20
294.990011
 30
0.0
 11
913.989167
 21
294.90266
 31
0.0
  0
LINE
  8
0
 10
913.989167
 20
294.90266
 30
0.0
 11
913.839764
 21
294.829629
 31
0.0
  0
LINE
  8
0
 10
913.839764
 20
294.829629
 30
0.0
 11
913.686542
 21
294.770441
 31
0.0
  0
LINE
  8
0
 10
913.686542
 20
294.770441
 30
0.0
 11
913.52616
 21
294.725572
 31
0.0
  0
LINE
  8
0
 10
913.52616
 20
294.725572
 30
0.0
 11
913.366255
 21
294.690727
 31
0.0
  0
LINE
  8
0
 10
913.366255
 20
294.690727
 30
0.0
 11
913.202532
 21
294.669725
 31
0.0
  0
LINE
  8
0
 10
913.202532
 20
294.669725
 30
0.0
 11
913.035468
 21
294.662565
 31
0.0
  0
LINE
  8
0
 10
912.137616
 20
296.360894
 30
0.0
 11
912.263153
 21
296.368054
 31
0.0
  0
LINE
  8
0
 10
912.263153
 20
296.368054
 30
0.0
 11
912.384871
 21
296.389056
 31
0.0
  0
LINE
  8
0
 10
912.384871
 20
296.389056
 30
0.0
 11
912.506589
 21
296.420083
 31
0.0
  0
LINE
  8
0
 10
912.506589
 20
296.420083
 30
0.0
 11
912.624967
 21
296.465429
 31
0.0
  0
LINE
  8
0
 10
912.624967
 20
296.465429
 30
0.0
 11
912.736184
 21
296.524617
 31
0.0
  0
LINE
  8
0
 10
912.736184
 20
296.524617
 30
0.0
 11
912.840718
 21
296.590488
 31
0.0
  0
LINE
  8
0
 10
912.840718
 20
296.590488
 30
0.0
 11
912.938093
 21
296.670679
 31
0.0
  0
LINE
  8
0
 10
912.938093
 20
296.670679
 30
0.0
 11
913.028785
 21
296.761371
 31
0.0
  0
LINE
  8
0
 10
913.028785
 20
296.761371
 30
0.0
 11
913.108499
 21
296.858746
 31
0.0
  0
LINE
  8
0
 10
913.108499
 20
296.858746
 30
0.0
 11
913.174847
 21
296.963281
 31
0.0
  0
LINE
  8
0
 10
913.174847
 20
296.963281
 30
0.0
 11
913.234036
 21
297.074498
 31
0.0
  0
LINE
  8
0
 10
913.234036
 20
297.074498
 30
0.0
 11
913.279382
 21
297.192875
 31
0.0
  0
LINE
  8
0
 10
913.279382
 20
297.192875
 30
0.0
 11
913.310408
 21
297.314593
 31
0.0
  0
LINE
  8
0
 10
913.310408
 20
297.314593
 30
0.0
 11
913.33141
 21
297.436312
 31
0.0
  0
LINE
  8
0
 10
913.33141
 20
297.436312
 30
0.0
 11
913.334752
 21
297.561849
 31
0.0
  0
LINE
  8
0
 10
908.490838
 20
296.360894
 30
0.0
 11
912.137616
 21
296.360894
 31
0.0
  0
LINE
  8
0
 10
913.035468
 20
294.662565
 30
0.0
 11
907.537138
 21
294.662565
 31
0.0
  0
LINE
  8
0
 10
907.537138
 20
294.662565
 30
0.0
 11
907.373415
 21
294.669725
 31
0.0
  0
LINE
  8
0
 10
907.373415
 20
294.669725
 30
0.0
 11
907.206351
 21
294.690727
 31
0.0
  0
LINE
  8
0
 10
907.206351
 20
294.690727
 30
0.0
 11
907.046446
 21
294.725572
 31
0.0
  0
LINE
  8
0
 10
907.046446
 20
294.725572
 30
0.0
 11
906.886064
 21
294.770441
 31
0.0
  0
LINE
  8
0
 10
906.886064
 20
294.770441
 30
0.0
 11
906.73332
 21
294.829629
 31
0.0
  0
LINE
  8
0
 10
906.73332
 20
294.829629
 30
0.0
 11
906.583439
 21
294.90266
 31
0.0
  0
LINE
  8
0
 10
906.583439
 20
294.90266
 30
0.0
 11
906.444537
 21
294.990011
 31
0.0
  0
LINE
  8
0
 10
906.444537
 20
294.990011
 30
0.0
 11
906.308499
 21
295.084044
 31
0.0
  0
LINE
  8
0
 10
906.308499
 20
295.084044
 30
0.0
 11
906.183439
 21
295.19192
 31
0.0
  0
LINE
  8
0
 10
906.183439
 20
295.19192
 30
0.0
 11
906.065062
 21
295.306479
 31
0.0
  0
LINE
  8
0
 10
906.065062
 20
295.306479
 30
0.0
 11
905.957186
 21
295.435357
 31
0.0
  0
LINE
  8
0
 10
905.957186
 20
295.435357
 30
0.0
 11
905.863153
 21
295.567577
 31
0.0
  0
LINE
  8
0
 10
905.863153
 20
295.567577
 30
0.0
 11
905.77962
 21
295.710297
 31
0.0
  0
LINE
  8
0
 10
905.77962
 20
295.710297
 30
0.0
 11
905.706589
 21
295.859701
 31
0.0
  0
LINE
  8
0
 10
905.706589
 20
295.859701
 30
0.0
 11
905.64406
 21
296.012923
 31
0.0
  0
LINE
  8
0
 10
905.64406
 20
296.012923
 30
0.0
 11
905.598714
 21
296.173304
 31
0.0
  0
LINE
  8
0
 10
905.598714
 20
296.173304
 30
0.0
 11
905.563869
 21
296.333209
 31
0.0
  0
LINE
  8
0
 10
905.563869
 20
296.333209
 30
0.0
 11
905.542866
 21
296.496932
 31
0.0
  0
LINE
  8
0
 10
905.542866
 20
296.496932
 30
0.0
 11
905.536184
 21
296.663997
 31
0.0
  0
LINE
  8
0
 10
905.536184
 20
296.663997
 30
0.0
 11
905.967687
 21
297.586192
 31
0.0
  0
LINE
  8
0
 10
905.967687
 20
297.586192
 30
0.0
 11
906.023057
 21
297.686908
 31
0.0
  0
LINE
  8
0
 10
906.023057
 20
297.686908
 30
0.0
 11
906.086064
 21
297.780942
 31
0.0
  0
LINE
  8
0
 10
906.086064
 20
297.780942
 30
0.0
 11
906.162437
 21
297.867815
 31
0.0
  0
LINE
  8
0
 10
906.162437
 20
297.867815
 30
0.0
 11
906.24931
 21
297.944665
 31
0.0
  0
LINE
  8
0
 10
906.24931
 20
297.944665
 30
0.0
 11
906.343344
 21
298.010536
 31
0.0
  0
LINE
  8
0
 10
906.343344
 20
298.010536
 30
0.0
 11
906.444537
 21
298.066383
 31
0.0
  0
LINE
  8
0
 10
906.444537
 20
298.066383
 30
0.0
 11
906.548594
 21
298.107911
 31
0.0
  0
LINE
  8
0
 10
906.548594
 20
298.107911
 30
0.0
 11
906.660289
 21
298.139414
 31
0.0
  0
LINE
  8
0
 10
906.660289
 20
298.139414
 30
0.0
 11
906.771506
 21
298.156598
 31
0.0
  0
LINE
  8
0
 10
906.771506
 20
298.156598
 30
0.0
 11
906.886064
 21
298.163758
 31
0.0
  0
LINE
  8
0
 10
906.886064
 20
298.163758
 30
0.0
 11
907.0011
 21
298.153257
 31
0.0
  0
LINE
  8
0
 10
907.0011
 20
298.153257
 30
0.0
 11
907.116136
 21
298.132254
 31
0.0
  0
LINE
  8
0
 10
907.116136
 20
298.132254
 30
0.0
 11
907.224012
 21
298.097409
 31
0.0
  0
LINE
  8
0
 10
907.224012
 20
298.097409
 30
0.0
 11
907.328069
 21
298.052541
 31
0.0
  0
LINE
  8
0
 10
907.328069
 20
298.052541
 30
0.0
 11
907.429262
 21
297.993352
 31
0.0
  0
LINE
  8
0
 10
907.429262
 20
297.993352
 30
0.0
 11
907.519477
 21
297.927004
 31
0.0
  0
LINE
  8
0
 10
907.519477
 20
297.927004
 30
0.0
 11
907.603009
 21
297.846813
 31
0.0
  0
LINE
  8
0
 10
907.603009
 20
297.846813
 30
0.0
 11
907.67604
 21
297.759939
 31
0.0
  0
LINE
  8
0
 10
907.739048
 20
297.662565
 30
0.0
 11
908.490838
 21
296.360894
 31
0.0
  0
LINE
  8
0
 10
907.67604
 20
297.759939
 30
0.0
 11
907.739048
 21
297.662565
 31
0.0
  0
ENDSEC
  0
EOF
