  0
SECTION
  2
HEADER
  9
$ACADVER
  1
AC1009
  9
$INSBASE
 10
0.0
 20
0.0
 30
0.0
  9
$EXTMIN
 10
24.059956
 20
-117.473707
 30
0.0
  9
$EXTMAX
 10
124.057092
 20
52.526293
 30
0.0
  9
$LIMMIN
 10
24.059956
 20
-117.473707
  9
$LIMMAX
 10
124.057092
 20
52.526293
  9
$ORTHOMODE
 70
     0
  9
$REGENMODE
 70
     1
  9
$FILLMODE
 70
     1
  9
$QTEXTMODE
 70
     0
  9
$MIRRTEXT
 70
     1
  9
$DRAGMODE
 70
     2
  9
$LTSCALE
 40
1.0
  9
$OSMODE
 70
     0
  9
$ATTMODE
 70
     1
  9
$TEXTSIZE
 40
3.5
  9
$TRACEWID
 40
0.5
  9
$TEXTSTYLE
  7
STANDARD
  9
$CLAYER
  8
0
  9
$CELTYPE
  6
BYLAYER
  9
$CECOLOR
 62
   256
  9
$DIMSCALE
 40
1.0
  9
$DIMASZ
 40
0.18
  9
$DIMEXO
 40
0.0625
  9
$DIMDLI
 40
0.38
  9
$DIMRND
 40
0.0
  9
$DIMDLE
 40
0.0
  9
$DIMEXE
 40
0.18
  9
$DIMTP
 40
0.0
  9
$DIMTM
 40
0.0
  9
$DIMTXT
 40
0.18
  9
$DIMCEN
 40
0.09
  9
$DIMTSZ
 40
0.0
  9
$DIMTOL
 70
     0
  9
$DIMLIM
 70
     0
  9
$DIMTIH
 70
     1
  9
$DIMTOH
 70
     1
  9
$DIMSE1
 70
     0
  9
$DIMSE2
 70
     0
  9
$DIMTAD
 70
     0
  9
$DIMZIN
 70
     0
  9
$DIMBLK
  1

  9
$DIMASO
 70
     1
  9
$DIMSHO
 70
     1
  9
$DIMPOST
  1

  9
$DIMAPOST
  1

  9
$DIMALT
 70
     0
  9
$DIMALTD
 70
     2
  9
$DIMALTF
 40
25.4
  9
$DIMLFAC
 40
1.0
  9
$DIMTOFL
 70
     0
  9
$DIMTVP
 40
0.0
  9
$DIMTIX
 70
     0
  9
$DIMSOXD
 70
     0
  9
$DIMSAH
 70
     0
  9
$DIMBLK1
  1

  9
$DIMBLK2
  1

  9
$DIMSTYLE
  2
*UNNAMED
  9
$DIMCLRD
 70
     0
  9
$DIMCLRE
 70
     0
  9
$DIMCLRT
 70
     0
  9
$DIMTFAC
 40
1.0
  9
$DIMGAP
 40
0.09
  9
$LUNITS
 70
     2
  9
$LUPREC
 70
     4
  9
$SKETCHINC
 40
0.1
  9
$FILLETRAD
 40
2.0
  9
$AUNITS
 70
     0
  9
$AUPREC
 70
     0
  9
$MENU
  1
ACAD
  9
$ELEVATION
 40
0.0
  9
$PELEVATION
 40
0.0
  9
$THICKNESS
 40
0.0
  9
$LIMCHECK
 70
     0
  9
$BLIPMODE
 70
     1
  9
$CHAMFERA
 40
0.0
  9
$CHAMFERB
 40
0.0
  9
$SKPOLY
 70
     0
  9
$TDCREATE
 40
2450952.733159259
  9
$TDUPDATE
 40
2450952.734022569
  9
$TDINDWG
 40
0.0005060185
  9
$TDUSRTIMER
 40
0.0005060185
  9
$USRTIMER
 70
     1
  9
$ANGBASE
 50
0.0
  9
$ANGDIR
 70
     0
  9
$PDMODE
 70
     0
  9
$PDSIZE
 40
0.0
  9
$PLINEWID
 40
0.0
  9
$COORDS
 70
     2
  9
$SPLFRAME
 70
     0
  9
$SPLINETYPE
 70
     6
  9
$SPLINESEGS
 70
     8
  9
$ATTDIA
 70
     0
  9
$ATTREQ
 70
     1
  9
$HANDLING
 70
     0
  9
$HANDSEED
  5
0
  9
$SURFTAB1
 70
     6
  9
$SURFTAB2
 70
     6
  9
$SURFTYPE
 70
     6
  9
$SURFU
 70
     6
  9
$SURFV
 70
     6
  9
$UCSNAME
  2

  9
$UCSORG
 10
0.0
 20
0.0
 30
0.0
  9
$UCSXDIR
 10
1.0
 20
0.0
 30
0.0
  9
$UCSYDIR
 10
0.0
 20
1.0
 30
0.0
  9
$PUCSNAME
  2

  9
$PUCSORG
 10
0.0
 20
0.0
 30
0.0
  9
$PUCSXDIR
 10
1.0
 20
0.0
 30
0.0
  9
$PUCSYDIR
 10
0.0
 20
1.0
 30
0.0
  9
$USERI1
 70
     0
  9
$USERI2
 70
     0
  9
$USERI3
 70
     0
  9
$USERI4
 70
     0
  9
$USERI5
 70
     0
  9
$USERR1
 40
0.0
  9
$USERR2
 40
0.0
  9
$USERR3
 40
0.0
  9
$USERR4
 40
0.0
  9
$USERR5
 40
0.0
  9
$WORLDVIEW
 70
     1
  9
$SHADEDGE
 70
     3
  9
$SHADEDIF
 70
    70
  9
$TILEMODE
 70
     1
  9
$MAXACTVP
 70
    16
  9
$PINSBASE
 10
0.0
 20
0.0
 30
0.0
  9
$PLIMCHECK
 70
     0
  9
$PEXTMIN
 10
1.000000E+20
 20
1.000000E+20
 30
1.000000E+20
  9
$PEXTMAX
 10
-1.000000E+20
 20
-1.000000E+20
 30
-1.000000E+20
  9
$PLIMMIN
 10
0.0
 20
0.0
  9
$PLIMMAX
 10
420.0
 20
297.0
  9
$UNITMODE
 70
     0
  9
$VISRETAIN
 70
     0
  9
$PLINEGEN
 70
     0
  9
$PSLTSCALE
 70
     1
  9
$TREEDEPTH
 70
  3020
  9
$DWGCODEPAGE
  3
iso8859-1
  0
ENDSEC
  0
SECTION
  2
TABLES
  0
TABLE
  2
VPORT
 70
     2
  0
VPORT
  2
*ACTIVE
 70
     0
 10
0.0
 20
0.0
 11
1.0
 21
1.0
 12
151.559779
 22
-45.171298
 13
0.0
 23
0.0
 14
1.0
 24
1.0
 15
0.0
 25
0.0
 16
0.0
 26
0.0
 36
1.0
 17
0.0
 27
0.0
 37
0.0
 40
235.00383
 41
1.748359
 42
50.0
 43
0.0
 44
0.0
 50
0.0
 51
0.0
 71
     0
 72
   100
 73
     1
 74
     0
 75
     0
 76
     0
 77
     0
 78
     0
  0
ENDTAB
  0
TABLE
  2
LTYPE
 70
     1
  0
LTYPE
  2
CONTINUOUS
 70
    64
  3
Solid line
 72
    65
 73
     0
 40
0.0
  0
ENDTAB
  0
TABLE
  2
LAYER
 70
     1
  0
LAYER
  2
0
 70
    64
 62
     7
  6
CONTINUOUS
  0
ENDTAB
  0
TABLE
  2
STYLE
 70
     1
  0
STYLE
  2
STANDARD
 70
     0
 40
0.0
 41
1.0
 50
0.0
 71
     0
 42
3.5
  3
txt
  4

  0
ENDTAB
  0
TABLE
  2
VIEW
 70
     0
  0
ENDTAB
  0
TABLE
  2
UCS
 70
     0
  0
ENDTAB
  0
TABLE
  2
APPID
 70
     1
  0
APPID
  2
ACAD
 70
    64
  0
ENDTAB
  0
TABLE
  2
DIMSTYLE
 70
     0
  0
ENDTAB
  0
ENDSEC
  0
SECTION
  2
BLOCKS
  0
ENDSEC
  0
SECTION
  2
ENTITIES
  0
LINE
  8
0
 10
44.059956
 20
-97.473707
 30
0.0
 11
44.063297
 21
-85.555808
 31
0.0
  0
LINE
  8
0
 10
104.057092
 20
-97.473707
 30
0.0
 11
44.059956
 21
-97.473707
 31
0.0
  0
LINE
  8
0
 10
104.057092
 20
32.526293
 30
0.0
 11
104.057092
 21
-97.473707
 31
0.0
  0
LINE
  8
0
 10
44.059956
 20
32.526293
 30
0.0
 11
104.057092
 21
32.526293
 31
0.0
  0
LINE
  8
0
 10
44.059956
 20
20.525338
 30
0.0
 11
44.059956
 21
32.526293
 31
0.0
  0
LINE
  8
0
 10
24.059956
 20
52.344227
 30
0.0
 11
24.242021
 21
52.526293
 31
0.0
  0
LINE
  8
0
 10
24.059956
 20
45.273159
 30
0.0
 11
31.313089
 21
52.526293
 31
0.0
  0
LINE
  8
0
 10
24.059956
 20
38.202092
 30
0.0
 11
38.384157
 21
52.526293
 31
0.0
  0
LINE
  8
0
 10
24.059956
 20
31.131024
 30
0.0
 11
45.455225
 21
52.526293
 31
0.0
  0
LINE
  8
0
 10
24.059956
 20
24.059956
 30
0.0
 11
52.526293
 21
52.526293
 31
0.0
  0
LINE
  8
0
 10
24.059956
 20
16.988888
 30
0.0
 11
59.59736
 21
52.526293
 31
0.0
  0
LINE
  8
0
 10
46.668428
 20
32.526293
 30
0.0
 11
66.668428
 21
52.526293
 31
0.0
  0
LINE
  8
0
 10
24.059956
 20
9.91782
 30
0.0
 11
44.059956
 21
29.91782
 31
0.0
  0
LINE
  8
0
 10
53.739496
 20
32.526293
 30
0.0
 11
73.739496
 21
52.526293
 31
0.0
  0
LINE
  8
0
 10
24.059956
 20
2.846753
 30
0.0
 11
44.059956
 21
22.846753
 31
0.0
  0
LINE
  8
0
 10
60.810564
 20
32.526293
 30
0.0
 11
80.810564
 21
52.526293
 31
0.0
  0
LINE
  8
0
 10
24.059956
 20
-4.224315
 30
0.0
 11
44.059956
 21
15.775685
 31
0.0
  0
LINE
  8
0
 10
67.881632
 20
32.526293
 30
0.0
 11
87.881632
 21
52.526293
 31
0.0
  0
LINE
  8
0
 10
24.059956
 20
-11.295383
 30
0.0
 11
44.059956
 21
8.704617
 31
0.0
  0
LINE
  8
0
 10
74.9527
 20
32.526293
 30
0.0
 11
94.9527
 21
52.526293
 31
0.0
  0
LINE
  8
0
 10
24.059956
 20
-18.366451
 30
0.0
 11
44.059956
 21
1.633549
 31
0.0
  0
LINE
  8
0
 10
82.023767
 20
32.526293
 30
0.0
 11
102.023767
 21
52.526293
 31
0.0
  0
LINE
  8
0
 10
24.059956
 20
-25.437519
 30
0.0
 11
44.059956
 21
-5.437519
 31
0.0
  0
LINE
  8
0
 10
89.094835
 20
32.526293
 30
0.0
 11
109.094835
 21
52.526293
 31
0.0
  0
LINE
  8
0
 10
24.059956
 20
-32.508586
 30
0.0
 11
44.059956
 21
-12.508586
 31
0.0
  0
LINE
  8
0
 10
96.165903
 20
32.526293
 30
0.0
 11
116.165903
 21
52.526293
 31
0.0
  0
LINE
  8
0
 10
24.059956
 20
-39.579654
 30
0.0
 11
44.059956
 21
-19.579654
 31
0.0
  0
LINE
  8
0
 10
103.236971
 20
32.526293
 30
0.0
 11
123.236971
 21
52.526293
 31
0.0
  0
LINE
  8
0
 10
24.059956
 20
-46.650722
 30
0.0
 11
44.059956
 21
-26.650722
 31
0.0
  0
LINE
  8
0
 10
24.059956
 20
-53.72179
 30
0.0
 11
44.059956
 21
-33.72179
 31
0.0
  0
LINE
  8
0
 10
24.059956
 20
-60.792858
 30
0.0
 11
44.059956
 21
-40.792858
 31
0.0
  0
LINE
  8
0
 10
24.059956
 20
-67.863926
 30
0.0
 11
44.059956
 21
-47.863926
 31
0.0
  0
LINE
  8
0
 10
24.059956
 20
-74.934993
 30
0.0
 11
44.059956
 21
-54.934993
 31
0.0
  0
LINE
  8
0
 10
24.059956
 20
-82.006061
 30
0.0
 11
44.059956
 21
-62.006061
 31
0.0
  0
LINE
  8
0
 10
24.059956
 20
-89.077129
 30
0.0
 11
44.059956
 21
-69.077129
 31
0.0
  0
LINE
  8
0
 10
24.059956
 20
-96.148197
 30
0.0
 11
44.059956
 21
-76.148197
 31
0.0
  0
LINE
  8
0
 10
24.059956
 20
-103.219265
 30
0.0
 11
44.059956
 21
-83.219265
 31
0.0
  0
LINE
  8
0
 10
24.059956
 20
-110.290332
 30
0.0
 11
44.059956
 21
-90.290332
 31
0.0
  0
LINE
  8
0
 10
24.059956
 20
-117.3614
 30
0.0
 11
44.059956
 21
-97.3614
 31
0.0
  0
LINE
  8
0
 10
31.018717
 20
-117.473707
 30
0.0
 11
51.018717
 21
-97.473707
 31
0.0
  0
LINE
  8
0
 10
38.089785
 20
-117.473707
 30
0.0
 11
58.089785
 21
-97.473707
 31
0.0
  0
LINE
  8
0
 10
45.160852
 20
-117.473707
 30
0.0
 11
65.160852
 21
-97.473707
 31
0.0
  0
LINE
  8
0
 10
52.23192
 20
-117.473707
 30
0.0
 11
72.23192
 21
-97.473707
 31
0.0
  0
LINE
  8
0
 10
59.302988
 20
-117.473707
 30
0.0
 11
79.302988
 21
-97.473707
 31
0.0
  0
LINE
  8
0
 10
66.374056
 20
-117.473707
 30
0.0
 11
86.374056
 21
-97.473707
 31
0.0
  0
LINE
  8
0
 10
73.445124
 20
-117.473707
 30
0.0
 11
93.445124
 21
-97.473707
 31
0.0
  0
LINE
  8
0
 10
80.516191
 20
-117.473707
 30
0.0
 11
100.516191
 21
-97.473707
 31
0.0
  0
LINE
  8
0
 10
87.587259
 20
-117.473707
 30
0.0
 11
105.822176
 21
-99.238791
 31
0.0
  0
LINE
  8
0
 10
94.658327
 20
-117.473707
 30
0.0
 11
109.35771
 21
-102.774325
 31
0.0
  0
LINE
  8
0
 10
101.729395
 20
-117.473707
 30
0.0
 11
112.893243
 21
-106.309859
 31
0.0
  0
LINE
  8
0
 10
108.800463
 20
-117.473707
 30
0.0
 11
116.428777
 21
-109.845393
 31
0.0
  0
LINE
  8
0
 10
115.87153
 20
-117.473707
 30
0.0
 11
119.964311
 21
-113.380927
 31
0.0
  0
LINE
  8
0
 10
122.942598
 20
-117.473707
 30
0.0
 11
123.499845
 21
-116.91646
 31
0.0
  0
LINE
  8
0
 10
104.057092
 20
26.275346
 30
0.0
 11
124.057092
 21
46.275346
 31
0.0
  0
LINE
  8
0
 10
104.057092
 20
19.204278
 30
0.0
 11
124.057092
 21
39.204278
 31
0.0
  0
LINE
  8
0
 10
104.057092
 20
12.133211
 30
0.0
 11
124.057092
 21
32.133211
 31
0.0
  0
LINE
  8
0
 10
104.057092
 20
5.062143
 30
0.0
 11
124.057092
 21
25.062143
 31
0.0
  0
LINE
  8
0
 10
104.057092
 20
-2.008925
 30
0.0
 11
124.057092
 21
17.991075
 31
0.0
  0
LINE
  8
0
 10
104.057092
 20
-9.079993
 30
0.0
 11
124.057092
 21
10.920007
 31
0.0
  0
LINE
  8
0
 10
104.057092
 20
-16.151061
 30
0.0
 11
124.057092
 21
3.848939
 31
0.0
  0
LINE
  8
0
 10
104.057092
 20
-23.222129
 30
0.0
 11
124.057092
 21
-3.222129
 31
0.0
  0
LINE
  8
0
 10
104.057092
 20
-30.293196
 30
0.0
 11
124.057092
 21
-10.293196
 31
0.0
  0
LINE
  8
0
 10
104.057092
 20
-37.364264
 30
0.0
 11
124.057092
 21
-17.364264
 31
0.0
  0
LINE
  8
0
 10
104.057092
 20
-44.435332
 30
0.0
 11
124.057092
 21
-24.435332
 31
0.0
  0
LINE
  8
0
 10
104.057092
 20
-51.5064
 30
0.0
 11
124.057092
 21
-31.5064
 31
0.0
  0
LINE
  8
0
 10
104.057092
 20
-58.577468
 30
0.0
 11
124.057092
 21
-38.577468
 31
0.0
  0
LINE
  8
0
 10
104.057092
 20
-65.648535
 30
0.0
 11
124.057092
 21
-45.648535
 31
0.0
  0
LINE
  8
0
 10
104.057092
 20
-72.719603
 30
0.0
 11
124.057092
 21
-52.719603
 31
0.0
  0
LINE
  8
0
 10
104.057092
 20
-79.790671
 30
0.0
 11
124.057092
 21
-59.790671
 31
0.0
  0
LINE
  8
0
 10
104.057092
 20
-86.861739
 30
0.0
 11
124.057092
 21
-66.861739
 31
0.0
  0
LINE
  8
0
 10
104.057092
 20
-93.932807
 30
0.0
 11
124.057092
 21
-73.932807
 31
0.0
  0
LINE
  8
0
 10
105.822176
 20
-99.238791
 30
0.0
 11
124.057092
 21
-81.003874
 31
0.0
  0
LINE
  8
0
 10
109.35771
 20
-102.774325
 30
0.0
 11
124.057092
 21
-88.074942
 31
0.0
  0
LINE
  8
0
 10
112.893243
 20
-106.309859
 30
0.0
 11
124.057092
 21
-95.14601
 31
0.0
  0
LINE
  8
0
 10
116.428777
 20
-109.845393
 30
0.0
 11
124.057092
 21
-102.217078
 31
0.0
  0
LINE
  8
0
 10
119.964311
 20
-113.380927
 30
0.0
 11
124.057092
 21
-109.288146
 31
0.0
  0
LINE
  8
0
 10
123.499845
 20
-116.91646
 30
0.0
 11
124.057092
 21
-116.359214
 31
0.0
  0
LINE
  8
0
 10
46.258107
 20
-33.575996
 30
0.0
 11
61.259028
 21
-33.575996
 31
0.0
  0
LINE
  8
0
 10
79.283272
 20
10.725199
 30
0.0
 11
76.584778
 21
10.725199
 31
0.0
  0
LINE
  8
0
 10
79.283272
 20
14.823371
 30
0.0
 11
79.283272
 21
10.725199
 31
0.0
  0
LINE
  8
0
 10
76.584778
 20
14.823371
 30
0.0
 11
79.283272
 21
14.823371
 31
0.0
  0
LINE
  8
0
 10
76.584778
 20
10.725199
 30
0.0
 11
76.584778
 21
14.823371
 31
0.0
  0
LINE
  8
0
 10
76.584778
 20
-27.673719
 30
0.0
 11
76.584778
 21
-31.775846
 31
0.0
  0
LINE
  8
0
 10
79.283272
 20
-27.673719
 30
0.0
 11
76.584778
 21
-27.673719
 31
0.0
  0
LINE
  8
0
 10
79.283272
 20
-31.775846
 30
0.0
 11
79.283272
 21
-27.673719
 31
0.0
  0
LINE
  8
0
 10
76.584778
 20
-31.775846
 30
0.0
 11
79.283272
 21
-31.775846
 31
0.0
  0
LINE
  8
0
 10
44.066878
 20
-85.638454
 30
0.0
 11
44.059956
 21
-85.476287
 31
0.0
  0
LINE
  8
0
 10
44.087643
 20
-85.804576
 30
0.0
 11
44.066878
 21
-85.638454
 31
0.0
  0
LINE
  8
0
 10
44.122252
 20
-85.966743
 30
0.0
 11
44.087643
 21
-85.804576
 31
0.0
  0
LINE
  8
0
 10
44.167243
 20
-86.122482
 30
0.0
 11
44.122252
 21
-85.966743
 31
0.0
  0
LINE
  8
0
 10
44.229539
 20
-86.277727
 30
0.0
 11
44.167243
 21
-86.122482
 31
0.0
  0
LINE
  8
0
 10
44.302217
 20
-86.426545
 30
0.0
 11
44.229539
 21
-86.277727
 31
0.0
  0
LINE
  8
0
 10
44.384784
 20
-86.567947
 30
0.0
 11
44.302217
 21
-86.426545
 31
0.0
  0
LINE
  8
0
 10
44.481689
 20
-86.702921
 30
0.0
 11
44.384784
 21
-86.567947
 31
0.0
  0
LINE
  8
0
 10
44.588976
 20
-86.830973
 30
0.0
 11
44.481689
 21
-86.702921
 31
0.0
  0
LINE
  8
0
 10
44.706151
 20
-86.944688
 30
0.0
 11
44.588976
 21
-86.830973
 31
0.0
  0
LINE
  8
0
 10
44.830743
 20
-87.051975
 30
0.0
 11
44.706151
 21
-86.944688
 31
0.0
  0
LINE
  8
0
 10
44.965717
 20
-87.148879
 30
0.0
 11
44.830743
 21
-87.051975
 31
0.0
  0
LINE
  8
0
 10
45.107118
 20
-87.234907
 30
0.0
 11
44.965717
 21
-87.148879
 31
0.0
  0
LINE
  8
0
 10
45.255936
 20
-87.307585
 30
0.0
 11
45.107118
 21
-87.234907
 31
0.0
  0
LINE
  8
0
 10
45.411181
 20
-87.36642
 30
0.0
 11
45.255936
 21
-87.307585
 31
0.0
  0
LINE
  8
0
 10
45.570381
 20
-87.414872
 30
0.0
 11
45.411181
 21
-87.36642
 31
0.0
  0
LINE
  8
0
 10
45.729087
 20
-87.44602
 30
0.0
 11
45.570381
 21
-87.414872
 31
0.0
  0
LINE
  8
0
 10
45.895209
 20
-87.466786
 30
0.0
 11
45.729087
 21
-87.44602
 31
0.0
  0
LINE
  8
0
 10
46.060837
 20
-87.473707
 30
0.0
 11
45.895209
 21
-87.466786
 31
0.0
  0
LINE
  8
0
 10
76.584778
 20
-79.774246
 30
0.0
 11
79.283272
 21
-79.774246
 31
0.0
  0
LINE
  8
0
 10
76.584778
 20
-75.676074
 30
0.0
 11
76.584778
 21
-79.774246
 31
0.0
  0
LINE
  8
0
 10
79.283272
 20
-75.676074
 30
0.0
 11
76.584778
 21
-75.676074
 31
0.0
  0
LINE
  8
0
 10
79.283272
 20
-79.774246
 30
0.0
 11
79.283272
 21
-75.676074
 31
0.0
  0
LINE
  8
0
 10
81.356832
 20
-79.774246
 30
0.0
 11
80.68295
 21
-79.774246
 31
0.0
  0
LINE
  8
0
 10
81.471041
 20
-79.781168
 30
0.0
 11
81.356832
 21
-79.774246
 31
0.0
  0
LINE
  8
0
 10
81.581294
 20
-79.798472
 30
0.0
 11
81.471041
 21
-79.781168
 31
0.0
  0
LINE
  8
0
 10
81.688582
 20
-79.82962
 30
0.0
 11
81.581294
 21
-79.798472
 31
0.0
  0
LINE
  8
0
 10
81.792408
 20
-79.874612
 30
0.0
 11
81.688582
 21
-79.82962
 31
0.0
  0
LINE
  8
0
 10
81.888818
 20
-79.926525
 30
0.0
 11
81.792408
 21
-79.874612
 31
0.0
  0
LINE
  8
0
 10
81.982262
 20
-79.992281
 30
0.0
 11
81.888818
 21
-79.926525
 31
0.0
  0
LINE
  8
0
 10
82.065323
 20
-80.067926
 30
0.0
 11
81.982262
 21
-79.992281
 31
0.0
  0
LINE
  8
0
 10
82.141462
 20
-80.150987
 30
0.0
 11
82.065323
 21
-80.067926
 31
0.0
  0
LINE
  8
0
 10
82.203263
 20
-80.24097
 30
0.0
 11
82.141462
 21
-80.150987
 31
0.0
  0
LINE
  8
0
 10
82.258637
 20
-80.341336
 30
0.0
 11
82.203263
 21
-80.24097
 31
0.0
  0
LINE
  8
0
 10
82.303629
 20
-80.444667
 30
0.0
 11
82.258637
 21
-80.341336
 31
0.0
  0
LINE
  8
0
 10
82.334777
 20
-80.551955
 30
0.0
 11
82.303629
 21
-80.444667
 31
0.0
  0
LINE
  8
0
 10
82.352081
 20
-80.662703
 30
0.0
 11
82.334777
 21
-80.551955
 31
0.0
  0
LINE
  8
0
 10
82.359003
 20
-80.772956
 30
0.0
 11
82.352081
 21
-80.662703
 31
0.0
  0
LINE
  8
0
 10
82.359003
 20
-82.860359
 30
0.0
 11
82.359003
 21
-80.772956
 31
0.0
  0
LINE
  8
0
 10
82.352081
 20
-82.970613
 30
0.0
 11
82.359003
 21
-82.860359
 31
0.0
  0
LINE
  8
0
 10
82.334777
 20
-83.081361
 30
0.0
 11
82.352081
 21
-82.970613
 31
0.0
  0
LINE
  8
0
 10
82.303629
 20
-83.192109
 30
0.0
 11
82.334777
 21
-83.081361
 31
0.0
  0
LINE
  8
0
 10
82.258637
 20
-83.295441
 30
0.0
 11
82.303629
 21
-83.192109
 31
0.0
  0
LINE
  8
0
 10
82.203263
 20
-83.392345
 30
0.0
 11
82.258637
 21
-83.295441
 31
0.0
  0
LINE
  8
0
 10
82.141462
 20
-83.482328
 30
0.0
 11
82.203263
 21
-83.392345
 31
0.0
  0
LINE
  8
0
 10
82.065323
 20
-83.56885
 30
0.0
 11
82.141462
 21
-83.482328
 31
0.0
  0
LINE
  8
0
 10
80.150964
 20
-85.483209
 30
0.0
 11
82.065323
 21
-83.56885
 31
0.0
  0
LINE
  8
0
 10
80.067903
 20
-85.555887
 30
0.0
 11
80.150964
 21
-85.483209
 31
0.0
  0
LINE
  8
0
 10
79.974459
 20
-85.62115
 30
0.0
 11
80.067903
 21
-85.555887
 31
0.0
  0
LINE
  8
0
 10
79.878049
 20
-85.676524
 30
0.0
 11
79.974459
 21
-85.62115
 31
0.0
  0
LINE
  8
0
 10
79.774222
 20
-85.718054
 30
0.0
 11
79.878049
 21
-85.676524
 31
0.0
  0
LINE
  8
0
 10
79.666935
 20
-85.749202
 30
0.0
 11
79.774222
 21
-85.718054
 31
0.0
  0
LINE
  8
0
 10
79.556682
 20
-85.769967
 30
0.0
 11
79.666935
 21
-85.749202
 31
0.0
  0
LINE
  8
0
 10
79.445934
 20
-85.773428
 30
0.0
 11
79.556682
 21
-85.769967
 31
0.0
  0
LINE
  8
0
 10
78.157004
 20
-85.773428
 30
0.0
 11
79.445934
 21
-85.773428
 31
0.0
  0
LINE
  8
0
 10
78.053178
 20
-85.766506
 30
0.0
 11
78.157004
 21
-85.773428
 31
0.0
  0
LINE
  8
0
 10
77.953307
 20
-85.745741
 30
0.0
 11
78.053178
 21
-85.766506
 31
0.0
  0
LINE
  8
0
 10
77.852942
 20
-85.714593
 30
0.0
 11
77.953307
 21
-85.745741
 31
0.0
  0
LINE
  8
0
 10
77.759498
 20
-85.666141
 30
0.0
 11
77.852942
 21
-85.714593
 31
0.0
  0
LINE
  8
0
 10
77.672976
 20
-85.610767
 30
0.0
 11
77.759498
 21
-85.666141
 31
0.0
  0
LINE
  8
0
 10
77.59387
 20
-85.542044
 30
0.0
 11
77.672976
 21
-85.610767
 31
0.0
  0
LINE
  8
0
 10
77.524653
 20
-85.462444
 30
0.0
 11
77.59387
 21
-85.542044
 31
0.0
  0
LINE
  8
0
 10
77.465818
 20
-85.375922
 30
0.0
 11
77.524653
 21
-85.462444
 31
0.0
  0
LINE
  8
0
 10
77.420827
 20
-85.279017
 30
0.0
 11
77.465818
 21
-85.375922
 31
0.0
  0
LINE
  8
0
 10
77.386218
 20
-85.182607
 30
0.0
 11
77.420827
 21
-85.279017
 31
0.0
  0
LINE
  8
0
 10
77.365453
 20
-85.078781
 30
0.0
 11
77.386218
 21
-85.182607
 31
0.0
  0
LINE
  8
0
 10
77.358531
 20
-84.974955
 30
0.0
 11
77.365453
 21
-85.078781
 31
0.0
  0
LINE
  8
0
 10
77.365453
 20
-84.871623
 30
0.0
 11
77.358531
 21
-84.974955
 31
0.0
  0
LINE
  8
0
 10
77.386218
 20
-84.767796
 30
0.0
 11
77.365453
 21
-84.871623
 31
0.0
  0
LINE
  8
0
 10
77.420827
 20
-84.667431
 30
0.0
 11
77.386218
 21
-84.767796
 31
0.0
  0
LINE
  8
0
 10
77.465818
 20
-84.574482
 30
0.0
 11
77.420827
 21
-84.667431
 31
0.0
  0
LINE
  8
0
 10
77.524653
 20
-84.48796
 30
0.0
 11
77.465818
 21
-84.574482
 31
0.0
  0
LINE
  8
0
 10
77.59387
 20
-84.40836
 30
0.0
 11
77.524653
 21
-84.48796
 31
0.0
  0
LINE
  8
0
 10
77.672976
 20
-84.339142
 30
0.0
 11
77.59387
 21
-84.40836
 31
0.0
  0
LINE
  8
0
 10
77.759498
 20
-84.280307
 30
0.0
 11
77.672976
 21
-84.339142
 31
0.0
  0
LINE
  8
0
 10
77.852942
 20
-84.23581
 30
0.0
 11
77.759498
 21
-84.280307
 31
0.0
  0
LINE
  8
0
 10
77.953307
 20
-84.201202
 30
0.0
 11
77.852942
 21
-84.23581
 31
0.0
  0
LINE
  8
0
 10
78.053178
 20
-84.180436
 30
0.0
 11
77.953307
 21
-84.201202
 31
0.0
  0
LINE
  8
0
 10
78.157004
 20
-84.173515
 30
0.0
 11
78.053178
 21
-84.180436
 31
0.0
  0
LINE
  8
0
 10
79.197245
 20
-84.173515
 30
0.0
 11
78.157004
 21
-84.173515
 31
0.0
  0
LINE
  8
0
 10
80.759089
 20
-82.61167
 30
0.0
 11
79.197245
 21
-84.173515
 31
0.0
  0
LINE
  8
0
 10
80.759089
 20
-81.37416
 30
0.0
 11
80.759089
 21
-82.61167
 31
0.0
  0
LINE
  8
0
 10
76.204576
 20
-81.37416
 30
0.0
 11
80.759089
 21
-81.37416
 31
0.0
  0
LINE
  8
0
 10
73.896171
 20
-86.319258
 30
0.0
 11
76.204576
 21
-81.37416
 31
0.0
  0
LINE
  8
0
 10
73.823493
 20
-86.464615
 30
0.0
 11
73.896171
 21
-86.319258
 31
0.0
  0
LINE
  8
0
 10
73.736971
 20
-86.602555
 30
0.0
 11
73.823493
 21
-86.464615
 31
0.0
  0
LINE
  8
0
 10
73.640561
 20
-86.730608
 30
0.0
 11
73.736971
 21
-86.602555
 31
0.0
  0
LINE
  8
0
 10
73.533274
 20
-86.851738
 30
0.0
 11
73.640561
 21
-86.730608
 31
0.0
  0
LINE
  8
0
 10
73.415604
 20
-86.965453
 30
0.0
 11
73.533274
 21
-86.851738
 31
0.0
  0
LINE
  8
0
 10
73.291507
 20
-87.069279
 30
0.0
 11
73.415604
 21
-86.965453
 31
0.0
  0
LINE
  8
0
 10
73.159993
 20
-87.162723
 30
0.0
 11
73.291507
 21
-87.069279
 31
0.0
  0
LINE
  8
0
 10
73.018592
 20
-87.241829
 30
0.0
 11
73.159993
 21
-87.162723
 31
0.0
  0
LINE
  8
0
 10
72.873235
 20
-87.311046
 30
0.0
 11
73.018592
 21
-87.241829
 31
0.0
  0
LINE
  8
0
 10
72.721451
 20
-87.369881
 30
0.0
 11
72.873235
 21
-87.311046
 31
0.0
  0
LINE
  8
0
 10
72.565711
 20
-87.414872
 30
0.0
 11
72.721451
 21
-87.369881
 31
0.0
  0
LINE
  8
0
 10
72.406511
 20
-87.449481
 30
0.0
 11
72.565711
 21
-87.414872
 31
0.0
  0
LINE
  8
0
 10
72.247805
 20
-87.466786
 30
0.0
 11
72.406511
 21
-87.449481
 31
0.0
  0
LINE
  8
0
 10
72.085144
 20
-87.473707
 30
0.0
 11
72.247805
 21
-87.466786
 31
0.0
  0
LINE
  8
0
 10
46.060837
 20
-87.473707
 30
0.0
 11
72.085144
 21
-87.473707
 31
0.0
  0
LINE
  8
0
 10
45.895209
 20
-87.466786
 30
0.0
 11
46.060837
 21
-87.473707
 31
0.0
  0
LINE
  8
0
 10
45.729087
 20
-87.44602
 30
0.0
 11
45.895209
 21
-87.466786
 31
0.0
  0
LINE
  8
0
 10
45.570381
 20
-87.414872
 30
0.0
 11
45.729087
 21
-87.44602
 31
0.0
  0
LINE
  8
0
 10
45.411181
 20
-87.36642
 30
0.0
 11
45.570381
 21
-87.414872
 31
0.0
  0
LINE
  8
0
 10
45.255936
 20
-87.307585
 30
0.0
 11
45.411181
 21
-87.36642
 31
0.0
  0
LINE
  8
0
 10
45.107118
 20
-87.234907
 30
0.0
 11
45.255936
 21
-87.307585
 31
0.0
  0
LINE
  8
0
 10
44.965717
 20
-87.148879
 30
0.0
 11
45.107118
 21
-87.234907
 31
0.0
  0
LINE
  8
0
 10
44.830743
 20
-87.051975
 30
0.0
 11
44.965717
 21
-87.148879
 31
0.0
  0
LINE
  8
0
 10
44.706151
 20
-86.944688
 30
0.0
 11
44.830743
 21
-87.051975
 31
0.0
  0
LINE
  8
0
 10
44.588976
 20
-86.830973
 30
0.0
 11
44.706151
 21
-86.944688
 31
0.0
  0
LINE
  8
0
 10
44.481689
 20
-86.702921
 30
0.0
 11
44.588976
 21
-86.830973
 31
0.0
  0
LINE
  8
0
 10
44.384784
 20
-86.567947
 30
0.0
 11
44.481689
 21
-86.702921
 31
0.0
  0
LINE
  8
0
 10
44.302217
 20
-86.426545
 30
0.0
 11
44.384784
 21
-86.567947
 31
0.0
  0
LINE
  8
0
 10
44.229539
 20
-86.277727
 30
0.0
 11
44.302217
 21
-86.426545
 31
0.0
  0
LINE
  8
0
 10
44.167243
 20
-86.122482
 30
0.0
 11
44.229539
 21
-86.277727
 31
0.0
  0
LINE
  8
0
 10
44.122252
 20
-85.966743
 30
0.0
 11
44.167243
 21
-86.122482
 31
0.0
  0
LINE
  8
0
 10
44.087643
 20
-85.804576
 30
0.0
 11
44.122252
 21
-85.966743
 31
0.0
  0
LINE
  8
0
 10
44.066878
 20
-85.638454
 30
0.0
 11
44.087643
 21
-85.804576
 31
0.0
  0
LINE
  8
0
 10
44.059956
 20
-85.476287
 30
0.0
 11
44.066878
 21
-85.638454
 31
0.0
  0
LINE
  8
0
 10
44.059956
 20
20.525412
 30
0.0
 11
44.059956
 21
-85.476287
 31
0.0
  0
LINE
  8
0
 10
44.066878
 20
20.691039
 30
0.0
 11
44.059956
 21
20.525412
 31
0.0
  0
LINE
  8
0
 10
44.087643
 20
20.853701
 30
0.0
 11
44.066878
 21
20.691039
 31
0.0
  0
LINE
  8
0
 10
44.122252
 20
21.015867
 30
0.0
 11
44.087643
 21
20.853701
 31
0.0
  0
LINE
  8
0
 10
44.167243
 20
21.175068
 30
0.0
 11
44.122252
 21
21.015867
 31
0.0
  0
LINE
  8
0
 10
44.229539
 20
21.326852
 30
0.0
 11
44.167243
 21
21.175068
 31
0.0
  0
LINE
  8
0
 10
44.302217
 20
21.475669
 30
0.0
 11
44.229539
 21
21.326852
 31
0.0
  0
LINE
  8
0
 10
44.384784
 20
21.617565
 30
0.0
 11
44.302217
 21
21.475669
 31
0.0
  0
LINE
  8
0
 10
44.481689
 20
21.752045
 30
0.0
 11
44.384784
 21
21.617565
 31
0.0
  0
LINE
  8
0
 10
44.588976
 20
21.880098
 30
0.0
 11
44.481689
 21
21.752045
 31
0.0
  0
LINE
  8
0
 10
44.706151
 20
21.997273
 30
0.0
 11
44.588976
 21
21.880098
 31
0.0
  0
LINE
  8
0
 10
44.830743
 20
22.10456
 30
0.0
 11
44.706151
 21
21.997273
 31
0.0
  0
LINE
  8
0
 10
44.965717
 20
22.198004
 30
0.0
 11
44.830743
 21
22.10456
 31
0.0
  0
LINE
  8
0
 10
45.107118
 20
22.284526
 30
0.0
 11
44.965717
 21
22.198004
 31
0.0
  0
LINE
  8
0
 10
45.255936
 20
22.35671
 30
0.0
 11
45.107118
 21
22.284526
 31
0.0
  0
LINE
  8
0
 10
45.411181
 20
22.415545
 30
0.0
 11
45.255936
 21
22.35671
 31
0.0
  0
LINE
  8
0
 10
45.570381
 20
22.463997
 30
0.0
 11
45.411181
 21
22.415545
 31
0.0
  0
LINE
  8
0
 10
45.729087
 20
22.498606
 30
0.0
 11
45.570381
 21
22.463997
 31
0.0
  0
LINE
  8
0
 10
45.895209
 20
22.519371
 30
0.0
 11
45.729087
 21
22.498606
 31
0.0
  0
LINE
  8
0
 10
46.060837
 20
22.526293
 30
0.0
 11
45.895209
 21
22.519371
 31
0.0
  0
LINE
  8
0
 10
72.085144
 20
22.526293
 30
0.0
 11
46.060837
 21
22.526293
 31
0.0
  0
LINE
  8
0
 10
72.247805
 20
22.519371
 30
0.0
 11
72.085144
 21
22.526293
 31
0.0
  0
LINE
  8
0
 10
72.406511
 20
22.498606
 30
0.0
 11
72.247805
 21
22.519371
 31
0.0
  0
LINE
  8
0
 10
72.565711
 20
22.467458
 30
0.0
 11
72.406511
 21
22.498606
 31
0.0
  0
LINE
  8
0
 10
72.721451
 20
22.419006
 30
0.0
 11
72.565711
 21
22.467458
 31
0.0
  0
LINE
  8
0
 10
72.873235
 20
22.363631
 30
0.0
 11
72.721451
 21
22.419006
 31
0.0
  0
LINE
  8
0
 10
73.018592
 20
22.291447
 30
0.0
 11
72.873235
 21
22.363631
 31
0.0
  0
LINE
  8
0
 10
73.159993
 20
22.211847
 30
0.0
 11
73.018592
 21
22.291447
 31
0.0
  0
LINE
  8
0
 10
73.291507
 20
22.118404
 30
0.0
 11
73.159993
 21
22.211847
 31
0.0
  0
LINE
  8
0
 10
73.415604
 20
22.014577
 30
0.0
 11
73.291507
 21
22.118404
 31
0.0
  0
LINE
  8
0
 10
73.533274
 20
21.904324
 30
0.0
 11
73.415604
 21
22.014577
 31
0.0
  0
LINE
  8
0
 10
73.640561
 20
21.779732
 30
0.0
 11
73.533274
 21
21.904324
 31
0.0
  0
LINE
  8
0
 10
73.736971
 20
21.65168
 30
0.0
 11
73.640561
 21
21.779732
 31
0.0
  0
LINE
  8
0
 10
73.823493
 20
21.513739
 30
0.0
 11
73.736971
 21
21.65168
 31
0.0
  0
LINE
  8
0
 10
73.896171
 20
21.368382
 30
0.0
 11
73.823493
 21
21.513739
 31
0.0
  0
LINE
  8
0
 10
76.204576
 20
16.423779
 30
0.0
 11
73.896171
 21
21.368382
 31
0.0
  0
LINE
  8
0
 10
80.759089
 20
16.423779
 30
0.0
 11
76.204576
 21
16.423779
 31
0.0
  0
LINE
  8
0
 10
80.759089
 20
17.660795
 30
0.0
 11
80.759089
 21
16.423779
 31
0.0
  0
LINE
  8
0
 10
79.197245
 20
19.2261
 30
0.0
 11
80.759089
 21
17.660795
 31
0.0
  0
LINE
  8
0
 10
78.157004
 20
19.2261
 30
0.0
 11
79.197245
 21
19.2261
 31
0.0
  0
LINE
  8
0
 10
78.053178
 20
19.233022
 30
0.0
 11
78.157004
 21
19.2261
 31
0.0
  0
LINE
  8
0
 10
77.953307
 20
19.250326
 30
0.0
 11
78.053178
 21
19.233022
 31
0.0
  0
LINE
  8
0
 10
77.852942
 20
19.284935
 30
0.0
 11
77.953307
 21
19.250326
 31
0.0
  0
LINE
  8
0
 10
77.759498
 20
19.333387
 30
0.0
 11
77.852942
 21
19.284935
 31
0.0
  0
LINE
  8
0
 10
77.672976
 20
19.388267
 30
0.0
 11
77.759498
 21
19.333387
 31
0.0
  0
LINE
  8
0
 10
77.59387
 20
19.457484
 30
0.0
 11
77.672976
 21
19.388267
 31
0.0
  0
LINE
  8
0
 10
77.524653
 20
19.537084
 30
0.0
 11
77.59387
 21
19.457484
 31
0.0
  0
LINE
  8
0
 10
77.465818
 20
19.623606
 30
0.0
 11
77.524653
 21
19.537084
 31
0.0
  0
LINE
  8
0
 10
77.420827
 20
19.720016
 30
0.0
 11
77.465818
 21
19.623606
 31
0.0
  0
LINE
  8
0
 10
77.386218
 20
19.816921
 30
0.0
 11
77.420827
 21
19.720016
 31
0.0
  0
LINE
  8
0
 10
77.365453
 20
19.920747
 30
0.0
 11
77.386218
 21
19.816921
 31
0.0
  0
LINE
  8
0
 10
77.358531
 20
20.024079
 30
0.0
 11
77.365453
 21
19.920747
 31
0.0
  0
LINE
  8
0
 10
77.365453
 20
20.127905
 30
0.0
 11
77.358531
 21
20.024079
 31
0.0
  0
LINE
  8
0
 10
77.386218
 20
20.231732
 30
0.0
 11
77.365453
 21
20.127905
 31
0.0
  0
LINE
  8
0
 10
77.420827
 20
20.332097
 30
0.0
 11
77.386218
 21
20.231732
 31
0.0
  0
LINE
  8
0
 10
77.465818
 20
20.425046
 30
0.0
 11
77.420827
 21
20.332097
 31
0.0
  0
LINE
  8
0
 10
77.524653
 20
20.511568
 30
0.0
 11
77.465818
 21
20.425046
 31
0.0
  0
LINE
  8
0
 10
77.59387
 20
20.591168
 30
0.0
 11
77.524653
 21
20.511568
 31
0.0
  0
LINE
  8
0
 10
77.672976
 20
20.660386
 30
0.0
 11
77.59387
 21
20.591168
 31
0.0
  0
LINE
  8
0
 10
77.759498
 20
20.718726
 30
0.0
 11
77.672976
 21
20.660386
 31
0.0
  0
LINE
  8
0
 10
77.852942
 20
20.763718
 30
0.0
 11
77.759498
 21
20.718726
 31
0.0
  0
LINE
  8
0
 10
77.953307
 20
20.798327
 30
0.0
 11
77.852942
 21
20.763718
 31
0.0
  0
LINE
  8
0
 10
78.053178
 20
20.819092
 30
0.0
 11
77.953307
 21
20.798327
 31
0.0
  0
LINE
  8
0
 10
78.157004
 20
20.826014
 30
0.0
 11
78.053178
 21
20.819092
 31
0.0
  0
LINE
  8
0
 10
79.445934
 20
20.826014
 30
0.0
 11
78.157004
 21
20.826014
 31
0.0
  0
LINE
  8
0
 10
79.556682
 20
20.819092
 30
0.0
 11
79.445934
 21
20.826014
 31
0.0
  0
LINE
  8
0
 10
79.666935
 20
20.798327
 30
0.0
 11
79.556682
 21
20.819092
 31
0.0
  0
LINE
  8
0
 10
79.774222
 20
20.767179
 30
0.0
 11
79.666935
 21
20.798327
 31
0.0
  0
LINE
  8
0
 10
79.878049
 20
20.725648
 30
0.0
 11
79.774222
 21
20.767179
 31
0.0
  0
LINE
  8
0
 10
79.974459
 20
20.670769
 30
0.0
 11
79.878049
 21
20.725648
 31
0.0
  0
LINE
  8
0
 10
80.067903
 20
20.605012
 30
0.0
 11
79.974459
 21
20.670769
 31
0.0
  0
LINE
  8
0
 10
80.150964
 20
20.532333
 30
0.0
 11
80.067903
 21
20.605012
 31
0.0
  0
LINE
  8
0
 10
82.065323
 20
18.617974
 30
0.0
 11
80.150964
 21
20.532333
 31
0.0
  0
LINE
  8
0
 10
82.141462
 20
18.534913
 30
0.0
 11
82.065323
 21
18.617974
 31
0.0
  0
LINE
  8
0
 10
82.203263
 20
18.44147
 30
0.0
 11
82.141462
 21
18.534913
 31
0.0
  0
LINE
  8
0
 10
82.258637
 20
18.34506
 30
0.0
 11
82.203263
 21
18.44147
 31
0.0
  0
LINE
  8
0
 10
82.303629
 20
18.241233
 30
0.0
 11
82.258637
 21
18.34506
 31
0.0
  0
LINE
  8
0
 10
82.334777
 20
18.133946
 30
0.0
 11
82.303629
 21
18.241233
 31
0.0
  0
LINE
  8
0
 10
82.352081
 20
18.023693
 30
0.0
 11
82.334777
 21
18.133946
 31
0.0
  0
LINE
  8
0
 10
82.359003
 20
17.909484
 30
0.0
 11
82.352081
 21
18.023693
 31
0.0
  0
LINE
  8
0
 10
82.359003
 20
15.825542
 30
0.0
 11
82.359003
 21
17.909484
 31
0.0
  0
LINE
  8
0
 10
82.352081
 20
15.711827
 30
0.0
 11
82.359003
 21
15.825542
 31
0.0
  0
LINE
  8
0
 10
82.334777
 20
15.601079
 30
0.0
 11
82.352081
 21
15.711827
 31
0.0
  0
LINE
  8
0
 10
82.303629
 20
15.493792
 30
0.0
 11
82.334777
 21
15.601079
 31
0.0
  0
LINE
  8
0
 10
82.258637
 20
15.39046
 30
0.0
 11
82.303629
 21
15.493792
 31
0.0
  0
LINE
  8
0
 10
82.203263
 20
15.293555
 30
0.0
 11
82.258637
 21
15.39046
 31
0.0
  0
LINE
  8
0
 10
82.141462
 20
15.200112
 30
0.0
 11
82.203263
 21
15.293555
 31
0.0
  0
LINE
  8
0
 10
82.065323
 20
15.117545
 30
0.0
 11
82.141462
 21
15.200112
 31
0.0
  0
LINE
  8
0
 10
81.982262
 20
15.041406
 30
0.0
 11
82.065323
 21
15.117545
 31
0.0
  0
LINE
  8
0
 10
81.888818
 20
14.97911
 30
0.0
 11
81.982262
 21
15.041406
 31
0.0
  0
LINE
  8
0
 10
81.792408
 20
14.923736
 30
0.0
 11
81.888818
 21
14.97911
 31
0.0
  0
LINE
  8
0
 10
81.688582
 20
14.882206
 30
0.0
 11
81.792408
 21
14.923736
 31
0.0
  0
LINE
  8
0
 10
81.581294
 20
14.851058
 30
0.0
 11
81.688582
 21
14.882206
 31
0.0
  0
LINE
  8
0
 10
81.471041
 20
14.830292
 30
0.0
 11
81.581294
 21
14.851058
 31
0.0
  0
LINE
  8
0
 10
81.356832
 20
14.823371
 30
0.0
 11
81.471041
 21
14.830292
 31
0.0
  0
LINE
  8
0
 10
80.68295
 20
14.823371
 30
0.0
 11
81.356832
 21
14.823371
 31
0.0
  0
LINE
  8
0
 10
80.68295
 20
10.324231
 30
0.0
 11
80.68295
 21
14.823371
 31
0.0
  0
LINE
  8
0
 10
80.676028
 20
10.213978
 30
0.0
 11
80.68295
 21
10.324231
 31
0.0
  0
LINE
  8
0
 10
80.658724
 20
10.10323
 30
0.0
 11
80.676028
 21
10.213978
 31
0.0
  0
LINE
  8
0
 10
80.627576
 20
9.995943
 30
0.0
 11
80.658724
 21
10.10323
 31
0.0
  0
LINE
  8
0
 10
80.586045
 20
9.892611
 30
0.0
 11
80.627576
 21
9.995943
 31
0.0
  0
LINE
  8
0
 10
80.531166
 20
9.792245
 30
0.0
 11
80.586045
 21
9.892611
 31
0.0
  0
LINE
  8
0
 10
80.465409
 20
9.702263
 30
0.0
 11
80.531166
 21
9.792245
 31
0.0
  0
LINE
  8
0
 10
80.38927
 20
9.615741
 30
0.0
 11
80.465409
 21
9.702263
 31
0.0
  0
LINE
  8
0
 10
80.306209
 20
9.543557
 30
0.0
 11
80.38927
 21
9.615741
 31
0.0
  0
LINE
  8
0
 10
80.21672
 20
9.4778
 30
0.0
 11
80.306209
 21
9.543557
 31
0.0
  0
LINE
  8
0
 10
80.116355
 20
9.422426
 30
0.0
 11
80.21672
 21
9.4778
 31
0.0
  0
LINE
  8
0
 10
80.012529
 20
9.380895
 30
0.0
 11
80.116355
 21
9.422426
 31
0.0
  0
LINE
  8
0
 10
79.905736
 20
9.349748
 30
0.0
 11
80.012529
 21
9.380895
 31
0.0
  0
LINE
  8
0
 10
79.794988
 20
9.332443
 30
0.0
 11
79.905736
 21
9.349748
 31
0.0
  0
LINE
  8
0
 10
79.68424
 20
9.325521
 30
0.0
 11
79.794988
 21
9.332443
 31
0.0
  0
LINE
  8
0
 10
76.18381
 20
9.325521
 30
0.0
 11
79.68424
 21
9.325521
 31
0.0
  0
LINE
  8
0
 10
76.073062
 20
9.332443
 30
0.0
 11
76.18381
 21
9.325521
 31
0.0
  0
LINE
  8
0
 10
75.962809
 20
9.349748
 30
0.0
 11
76.073062
 21
9.332443
 31
0.0
  0
LINE
  8
0
 10
75.852061
 20
9.380895
 30
0.0
 11
75.962809
 21
9.349748
 31
0.0
  0
LINE
  8
0
 10
75.748234
 20
9.422426
 30
0.0
 11
75.852061
 21
9.380895
 31
0.0
  0
LINE
  8
0
 10
75.651824
 20
9.4778
 30
0.0
 11
75.748234
 21
9.422426
 31
0.0
  0
LINE
  8
0
 10
75.561842
 20
9.543557
 30
0.0
 11
75.651824
 21
9.4778
 31
0.0
  0
LINE
  8
0
 10
75.47532
 20
9.615741
 30
0.0
 11
75.561842
 21
9.543557
 31
0.0
  0
LINE
  8
0
 10
75.402641
 20
9.702263
 30
0.0
 11
75.47532
 21
9.615741
 31
0.0
  0
LINE
  8
0
 10
75.336885
 20
9.792245
 30
0.0
 11
75.402641
 21
9.702263
 31
0.0
  0
LINE
  8
0
 10
75.282005
 20
9.892611
 30
0.0
 11
75.336885
 21
9.792245
 31
0.0
  0
LINE
  8
0
 10
75.240474
 20
9.995943
 30
0.0
 11
75.282005
 21
9.892611
 31
0.0
  0
LINE
  8
0
 10
75.209327
 20
10.10323
 30
0.0
 11
75.240474
 21
9.995943
 31
0.0
  0
LINE
  8
0
 10
75.188561
 20
10.213978
 30
0.0
 11
75.209327
 21
10.10323
 31
0.0
  0
LINE
  8
0
 10
75.1851
 20
10.324231
 30
0.0
 11
75.188561
 21
10.213978
 31
0.0
  0
LINE
  8
0
 10
75.1851
 20
14.823371
 30
0.0
 11
75.1851
 21
10.324231
 31
0.0
  0
LINE
  8
0
 10
72.617625
 20
20.325175
 30
0.0
 11
75.1851
 21
14.823371
 31
0.0
  0
LINE
  8
0
 10
46.258107
 20
20.325175
 30
0.0
 11
72.617625
 21
20.325175
 31
0.0
  0
LINE
  8
0
 10
46.258107
 20
-31.374879
 30
0.0
 11
46.258107
 21
20.325175
 31
0.0
  0
LINE
  8
0
 10
61.259028
 20
-31.374879
 30
0.0
 11
46.258107
 21
-31.374879
 31
0.0
  0
LINE
  8
0
 10
75.1851
 20
-31.775846
 30
0.0
 11
61.259028
 21
-31.374879
 31
0.0
  0
LINE
  8
0
 10
75.1851
 20
-27.276213
 30
0.0
 11
75.1851
 21
-31.775846
 31
0.0
  0
LINE
  8
0
 10
75.188561
 20
-27.162498
 30
0.0
 11
75.1851
 21
-27.276213
 31
0.0
  0
LINE
  8
0
 10
75.209327
 20
-27.05175
 30
0.0
 11
75.188561
 21
-27.162498
 31
0.0
  0
LINE
  8
0
 10
75.240474
 20
-26.944463
 30
0.0
 11
75.209327
 21
-27.05175
 31
0.0
  0
LINE
  8
0
 10
75.282005
 20
-26.841131
 30
0.0
 11
75.240474
 21
-26.944463
 31
0.0
  0
LINE
  8
0
 10
75.336885
 20
-26.744227
 30
0.0
 11
75.282005
 21
-26.841131
 31
0.0
  0
LINE
  8
0
 10
75.402641
 20
-26.650783
 30
0.0
 11
75.336885
 21
-26.744227
 31
0.0
  0
LINE
  8
0
 10
75.47532
 20
-26.568216
 30
0.0
 11
75.402641
 21
-26.650783
 31
0.0
  0
LINE
  8
0
 10
75.561842
 20
-26.492077
 30
0.0
 11
75.47532
 21
-26.568216
 31
0.0
  0
LINE
  8
0
 10
75.651824
 20
-26.429781
 30
0.0
 11
75.561842
 21
-26.492077
 31
0.0
  0
LINE
  8
0
 10
75.748234
 20
-26.374407
 30
0.0
 11
75.651824
 21
-26.429781
 31
0.0
  0
LINE
  8
0
 10
75.852061
 20
-26.329416
 30
0.0
 11
75.748234
 21
-26.374407
 31
0.0
  0
LINE
  8
0
 10
75.962809
 20
-26.298268
 30
0.0
 11
75.852061
 21
-26.329416
 31
0.0
  0
LINE
  8
0
 10
76.073062
 20
-26.280963
 30
0.0
 11
75.962809
 21
-26.298268
 31
0.0
  0
LINE
  8
0
 10
76.18381
 20
-26.274042
 30
0.0
 11
76.073062
 21
-26.280963
 31
0.0
  0
LINE
  8
0
 10
79.68424
 20
-26.274042
 30
0.0
 11
76.18381
 21
-26.274042
 31
0.0
  0
LINE
  8
0
 10
79.794988
 20
-26.280963
 30
0.0
 11
79.68424
 21
-26.274042
 31
0.0
  0
LINE
  8
0
 10
79.905736
 20
-26.298268
 30
0.0
 11
79.794988
 21
-26.280963
 31
0.0
  0
LINE
  8
0
 10
80.012529
 20
-26.329416
 30
0.0
 11
79.905736
 21
-26.298268
 31
0.0
  0
LINE
  8
0
 10
80.116355
 20
-26.374407
 30
0.0
 11
80.012529
 21
-26.329416
 31
0.0
  0
LINE
  8
0
 10
80.21672
 20
-26.429781
 30
0.0
 11
80.116355
 21
-26.374407
 31
0.0
  0
LINE
  8
0
 10
80.306209
 20
-26.492077
 30
0.0
 11
80.21672
 21
-26.429781
 31
0.0
  0
LINE
  8
0
 10
80.38927
 20
-26.568216
 30
0.0
 11
80.306209
 21
-26.492077
 31
0.0
  0
LINE
  8
0
 10
80.465409
 20
-26.650783
 30
0.0
 11
80.38927
 21
-26.568216
 31
0.0
  0
LINE
  8
0
 10
80.531166
 20
-26.744227
 30
0.0
 11
80.465409
 21
-26.650783
 31
0.0
  0
LINE
  8
0
 10
80.586045
 20
-26.841131
 30
0.0
 11
80.531166
 21
-26.744227
 31
0.0
  0
LINE
  8
0
 10
80.627576
 20
-26.944463
 30
0.0
 11
80.586045
 21
-26.841131
 31
0.0
  0
LINE
  8
0
 10
80.658724
 20
-27.05175
 30
0.0
 11
80.627576
 21
-26.944463
 31
0.0
  0
LINE
  8
0
 10
80.676028
 20
-27.162498
 30
0.0
 11
80.658724
 21
-27.05175
 31
0.0
  0
LINE
  8
0
 10
80.68295
 20
-27.276213
 30
0.0
 11
80.676028
 21
-27.162498
 31
0.0
  0
LINE
  8
0
 10
80.68295
 20
-31.775846
 30
0.0
 11
80.68295
 21
-27.276213
 31
0.0
  0
LINE
  8
0
 10
82.359003
 20
-31.775846
 30
0.0
 11
80.68295
 21
-31.775846
 31
0.0
  0
LINE
  8
0
 10
82.359003
 20
-33.175029
 30
0.0
 11
82.359003
 21
-31.775846
 31
0.0
  0
LINE
  8
0
 10
80.68295
 20
-33.175029
 30
0.0
 11
82.359003
 21
-33.175029
 31
0.0
  0
LINE
  8
0
 10
80.68295
 20
-37.674168
 30
0.0
 11
80.68295
 21
-33.175029
 31
0.0
  0
LINE
  8
0
 10
80.676028
 20
-37.788377
 30
0.0
 11
80.68295
 21
-37.674168
 31
0.0
  0
LINE
  8
0
 10
80.658724
 20
-37.899125
 30
0.0
 11
80.676028
 21
-37.788377
 31
0.0
  0
LINE
  8
0
 10
80.627576
 20
-38.005918
 30
0.0
 11
80.658724
 21
-37.899125
 31
0.0
  0
LINE
  8
0
 10
80.586045
 20
-38.109744
 30
0.0
 11
80.627576
 21
-38.005918
 31
0.0
  0
LINE
  8
0
 10
80.531166
 20
-38.206649
 30
0.0
 11
80.586045
 21
-38.109744
 31
0.0
  0
LINE
  8
0
 10
80.465409
 20
-38.300093
 30
0.0
 11
80.531166
 21
-38.206649
 31
0.0
  0
LINE
  8
0
 10
80.38927
 20
-38.382659
 30
0.0
 11
80.465409
 21
-38.300093
 31
0.0
  0
LINE
  8
0
 10
80.306209
 20
-38.455338
 30
0.0
 11
80.38927
 21
-38.382659
 31
0.0
  0
LINE
  8
0
 10
80.21672
 20
-38.521094
 30
0.0
 11
80.306209
 21
-38.455338
 31
0.0
  0
LINE
  8
0
 10
80.116355
 20
-38.576468
 30
0.0
 11
80.21672
 21
-38.521094
 31
0.0
  0
LINE
  8
0
 10
80.012529
 20
-38.617999
 30
0.0
 11
80.116355
 21
-38.576468
 31
0.0
  0
LINE
  8
0
 10
79.905736
 20
-38.648652
 30
0.0
 11
80.012529
 21
-38.617999
 31
0.0
  0
LINE
  8
0
 10
79.794988
 20
-38.669418
 30
0.0
 11
79.905736
 21
-38.648652
 31
0.0
  0
LINE
  8
0
 10
79.68424
 20
-38.676339
 30
0.0
 11
79.794988
 21
-38.669418
 31
0.0
  0
LINE
  8
0
 10
76.18381
 20
-38.676339
 30
0.0
 11
79.68424
 21
-38.676339
 31
0.0
  0
LINE
  8
0
 10
76.073062
 20
-38.669418
 30
0.0
 11
76.18381
 21
-38.676339
 31
0.0
  0
LINE
  8
0
 10
75.962809
 20
-38.648652
 30
0.0
 11
76.073062
 21
-38.669418
 31
0.0
  0
LINE
  8
0
 10
75.852061
 20
-38.617999
 30
0.0
 11
75.962809
 21
-38.648652
 31
0.0
  0
LINE
  8
0
 10
75.748234
 20
-38.576468
 30
0.0
 11
75.852061
 21
-38.617999
 31
0.0
  0
LINE
  8
0
 10
75.651824
 20
-38.521094
 30
0.0
 11
75.748234
 21
-38.576468
 31
0.0
  0
LINE
  8
0
 10
75.561842
 20
-38.455338
 30
0.0
 11
75.651824
 21
-38.521094
 31
0.0
  0
LINE
  8
0
 10
75.47532
 20
-38.382659
 30
0.0
 11
75.561842
 21
-38.455338
 31
0.0
  0
LINE
  8
0
 10
75.402641
 20
-38.300093
 30
0.0
 11
75.47532
 21
-38.382659
 31
0.0
  0
LINE
  8
0
 10
75.336885
 20
-38.206649
 30
0.0
 11
75.402641
 21
-38.300093
 31
0.0
  0
LINE
  8
0
 10
75.282005
 20
-38.109744
 30
0.0
 11
75.336885
 21
-38.206649
 31
0.0
  0
LINE
  8
0
 10
75.240474
 20
-38.005918
 30
0.0
 11
75.282005
 21
-38.109744
 31
0.0
  0
LINE
  8
0
 10
75.209327
 20
-37.899125
 30
0.0
 11
75.240474
 21
-38.005918
 31
0.0
  0
LINE
  8
0
 10
75.188561
 20
-37.788377
 30
0.0
 11
75.209327
 21
-37.899125
 31
0.0
  0
LINE
  8
0
 10
75.1851
 20
-37.674168
 30
0.0
 11
75.188561
 21
-37.788377
 31
0.0
  0
LINE
  8
0
 10
75.1851
 20
-33.175029
 30
0.0
 11
75.1851
 21
-37.674168
 31
0.0
  0
LINE
  8
0
 10
61.259028
 20
-33.575996
 30
0.0
 11
75.1851
 21
-33.175029
 31
0.0
  0
LINE
  8
0
 10
46.258107
 20
-85.275556
 30
0.0
 11
46.258107
 21
-33.575996
 31
0.0
  0
LINE
  8
0
 10
72.617625
 20
-85.275556
 30
0.0
 11
46.258107
 21
-85.275556
 31
0.0
  0
LINE
  8
0
 10
75.1851
 20
-79.774246
 30
0.0
 11
72.617625
 21
-85.275556
 31
0.0
  0
LINE
  8
0
 10
75.1851
 20
-75.275107
 30
0.0
 11
75.1851
 21
-79.774246
 31
0.0
  0
LINE
  8
0
 10
75.188561
 20
-75.160898
 30
0.0
 11
75.1851
 21
-75.275107
 31
0.0
  0
LINE
  8
0
 10
75.209327
 20
-75.050644
 30
0.0
 11
75.188561
 21
-75.160898
 31
0.0
  0
LINE
  8
0
 10
75.240474
 20
-74.943357
 30
0.0
 11
75.209327
 21
-75.050644
 31
0.0
  0
LINE
  8
0
 10
75.282005
 20
-74.839531
 30
0.0
 11
75.240474
 21
-74.943357
 31
0.0
  0
LINE
  8
0
 10
75.336885
 20
-74.743121
 30
0.0
 11
75.282005
 21
-74.839531
 31
0.0
  0
LINE
  8
0
 10
75.402641
 20
-74.649677
 30
0.0
 11
75.336885
 21
-74.743121
 31
0.0
  0
LINE
  8
0
 10
75.47532
 20
-74.566616
 30
0.0
 11
75.402641
 21
-74.649677
 31
0.0
  0
LINE
  8
0
 10
75.561842
 20
-74.493938
 30
0.0
 11
75.47532
 21
-74.566616
 31
0.0
  0
LINE
  8
0
 10
75.651824
 20
-74.428675
 30
0.0
 11
75.561842
 21
-74.493938
 31
0.0
  0
LINE
  8
0
 10
75.748234
 20
-74.373301
 30
0.0
 11
75.651824
 21
-74.428675
 31
0.0
  0
LINE
  8
0
 10
75.852061
 20
-74.331771
 30
0.0
 11
75.748234
 21
-74.373301
 31
0.0
  0
LINE
  8
0
 10
75.962809
 20
-74.300623
 30
0.0
 11
75.852061
 21
-74.331771
 31
0.0
  0
LINE
  8
0
 10
76.073062
 20
-74.279858
 30
0.0
 11
75.962809
 21
-74.300623
 31
0.0
  0
LINE
  8
0
 10
76.18381
 20
-74.272936
 30
0.0
 11
76.073062
 21
-74.279858
 31
0.0
  0
LINE
  8
0
 10
79.68424
 20
-74.272936
 30
0.0
 11
76.18381
 21
-74.272936
 31
0.0
  0
LINE
  8
0
 10
79.794988
 20
-74.279858
 30
0.0
 11
79.68424
 21
-74.272936
 31
0.0
  0
LINE
  8
0
 10
79.905736
 20
-74.300623
 30
0.0
 11
79.794988
 21
-74.279858
 31
0.0
  0
LINE
  8
0
 10
80.012529
 20
-74.331771
 30
0.0
 11
79.905736
 21
-74.300623
 31
0.0
  0
LINE
  8
0
 10
80.116355
 20
-74.373301
 30
0.0
 11
80.012529
 21
-74.331771
 31
0.0
  0
LINE
  8
0
 10
80.21672
 20
-74.428675
 30
0.0
 11
80.116355
 21
-74.373301
 31
0.0
  0
LINE
  8
0
 10
80.306209
 20
-74.493938
 30
0.0
 11
80.21672
 21
-74.428675
 31
0.0
  0
LINE
  8
0
 10
80.38927
 20
-74.566616
 30
0.0
 11
80.306209
 21
-74.493938
 31
0.0
  0
LINE
  8
0
 10
80.465409
 20
-74.649677
 30
0.0
 11
80.38927
 21
-74.566616
 31
0.0
  0
LINE
  8
0
 10
80.531166
 20
-74.743121
 30
0.0
 11
80.465409
 21
-74.649677
 31
0.0
  0
LINE
  8
0
 10
80.586045
 20
-74.839531
 30
0.0
 11
80.531166
 21
-74.743121
 31
0.0
  0
LINE
  8
0
 10
80.627576
 20
-74.943357
 30
0.0
 11
80.586045
 21
-74.839531
 31
0.0
  0
LINE
  8
0
 10
80.658724
 20
-75.050644
 30
0.0
 11
80.627576
 21
-74.943357
 31
0.0
  0
LINE
  8
0
 10
80.676028
 20
-75.160898
 30
0.0
 11
80.658724
 21
-75.050644
 31
0.0
  0
LINE
  8
0
 10
80.68295
 20
-75.275107
 30
0.0
 11
80.676028
 21
-75.160898
 31
0.0
  0
LINE
  8
0
 10
80.68295
 20
-79.774246
 30
0.0
 11
80.68295
 21
-75.275107
 31
0.0
  0
LINE
  8
0
 10
79.283272
 20
-37.273696
 30
0.0
 11
79.283272
 21
-33.175029
 31
0.0
  0
LINE
  8
0
 10
76.584778
 20
-37.273696
 30
0.0
 11
79.283272
 21
-37.273696
 31
0.0
  0
LINE
  8
0
 10
76.584778
 20
-33.175029
 30
0.0
 11
76.584778
 21
-37.273696
 31
0.0
  0
LINE
  8
0
 10
79.283272
 20
-33.175029
 30
0.0
 11
76.584778
 21
-33.175029
 31
0.0
  0
LINE
  8
0
 10
84.059282
 20
-85.476287
 30
0.0
 11
84.059282
 21
20.525412
 31
0.0
  0
LINE
  8
0
 10
76.39443
 20
-87.466786
 30
0.0
 11
76.557091
 21
-87.473707
 31
0.0
  0
LINE
  8
0
 10
76.228802
 20
-87.44602
 30
0.0
 11
76.39443
 21
-87.466786
 31
0.0
  0
LINE
  8
0
 10
76.066141
 20
-87.414872
 30
0.0
 11
76.228802
 21
-87.44602
 31
0.0
  0
LINE
  8
0
 10
75.910896
 20
-87.36642
 30
0.0
 11
76.066141
 21
-87.414872
 31
0.0
  0
LINE
  8
0
 10
75.755156
 20
-87.307585
 30
0.0
 11
75.910896
 21
-87.36642
 31
0.0
  0
LINE
  8
0
 10
75.606833
 20
-87.234907
 30
0.0
 11
75.755156
 21
-87.307585
 31
0.0
  0
LINE
  8
0
 10
75.464937
 20
-87.148879
 30
0.0
 11
75.606833
 21
-87.234907
 31
0.0
  0
LINE
  8
0
 10
75.329963
 20
-87.051975
 30
0.0
 11
75.464937
 21
-87.148879
 31
0.0
  0
LINE
  8
0
 10
75.202405
 20
-86.944688
 30
0.0
 11
75.329963
 21
-87.051975
 31
0.0
  0
LINE
  8
0
 10
75.088196
 20
-86.830973
 30
0.0
 11
75.202405
 21
-86.944688
 31
0.0
  0
LINE
  8
0
 10
74.981403
 20
-86.702921
 30
0.0
 11
75.088196
 21
-86.830973
 31
0.0
  0
LINE
  8
0
 10
74.884499
 20
-86.567947
 30
0.0
 11
74.981403
 21
-86.702921
 31
0.0
  0
LINE
  8
0
 10
74.797977
 20
-86.426545
 30
0.0
 11
74.884499
 21
-86.567947
 31
0.0
  0
LINE
  8
0
 10
74.725298
 20
-86.277727
 30
0.0
 11
74.797977
 21
-86.426545
 31
0.0
  0
LINE
  8
0
 10
74.666958
 20
-86.122482
 30
0.0
 11
74.725298
 21
-86.277727
 31
0.0
  0
LINE
  8
0
 10
74.618506
 20
-85.966743
 30
0.0
 11
74.666958
 21
-86.122482
 31
0.0
  0
LINE
  8
0
 10
74.587358
 20
-85.804576
 30
0.0
 11
74.618506
 21
-85.966743
 31
0.0
  0
LINE
  8
0
 10
74.566592
 20
-85.638454
 30
0.0
 11
74.587358
 21
-85.804576
 31
0.0
  0
LINE
  8
0
 10
74.559671
 20
-85.476287
 30
0.0
 11
74.566592
 21
-85.638454
 31
0.0
  0
LINE
  8
0
 10
74.988325
 20
-84.553716
 30
0.0
 11
74.559671
 21
-85.476287
 31
0.0
  0
LINE
  8
0
 10
75.043204
 20
-84.44989
 30
0.0
 11
74.988325
 21
-84.553716
 31
0.0
  0
LINE
  8
0
 10
75.108961
 20
-84.356447
 30
0.0
 11
75.043204
 21
-84.44989
 31
0.0
  0
LINE
  8
0
 10
75.1851
 20
-84.269925
 30
0.0
 11
75.108961
 21
-84.356447
 31
0.0
  0
LINE
  8
0
 10
75.271622
 20
-84.19428
 30
0.0
 11
75.1851
 21
-84.269925
 31
0.0
  0
LINE
  8
0
 10
75.364572
 20
-84.128523
 30
0.0
 11
75.271622
 21
-84.19428
 31
0.0
  0
LINE
  8
0
 10
75.464937
 20
-84.073149
 30
0.0
 11
75.364572
 21
-84.128523
 31
0.0
  0
LINE
  8
0
 10
75.572224
 20
-84.028158
 30
0.0
 11
75.464937
 21
-84.073149
 31
0.0
  0
LINE
  8
0
 10
75.679017
 20
-83.99701
 30
0.0
 11
75.572224
 21
-84.028158
 31
0.0
  0
LINE
  8
0
 10
75.793226
 20
-83.979705
 30
0.0
 11
75.679017
 21
-83.99701
 31
0.0
  0
LINE
  8
0
 10
75.907435
 20
-83.976245
 30
0.0
 11
75.793226
 21
-83.979705
 31
0.0
  0
LINE
  8
0
 10
76.02461
 20
-83.983166
 30
0.0
 11
75.907435
 21
-83.976245
 31
0.0
  0
LINE
  8
0
 10
76.135358
 20
-84.003932
 30
0.0
 11
76.02461
 21
-83.983166
 31
0.0
  0
LINE
  8
0
 10
76.246106
 20
-84.03854
 30
0.0
 11
76.135358
 21
-84.003932
 31
0.0
  0
LINE
  8
0
 10
76.349438
 20
-84.083532
 30
0.0
 11
76.246106
 21
-84.03854
 31
0.0
  0
LINE
  8
0
 10
76.449804
 20
-84.142367
 30
0.0
 11
76.349438
 21
-84.083532
 31
0.0
  0
LINE
  8
0
 10
76.539786
 20
-84.211584
 30
0.0
 11
76.449804
 21
-84.142367
 31
0.0
  0
LINE
  8
0
 10
76.626308
 20
-84.29069
 30
0.0
 11
76.539786
 21
-84.211584
 31
0.0
  0
LINE
  8
0
 10
76.698492
 20
-84.377212
 30
0.0
 11
76.626308
 21
-84.29069
 31
0.0
  0
LINE
  8
0
 10
76.760788
 20
-84.474116
 30
0.0
 11
76.698492
 21
-84.377212
 31
0.0
  0
LINE
  8
0
 10
77.510809
 20
-85.773428
 30
0.0
 11
76.760788
 21
-84.474116
 31
0.0
  0
LINE
  8
0
 10
81.160056
 20
-85.773428
 30
0.0
 11
77.510809
 21
-85.773428
 31
0.0
  0
LINE
  8
0
 10
81.284153
 20
-85.766506
 30
0.0
 11
81.160056
 21
-85.773428
 31
0.0
  0
LINE
  8
0
 10
81.408745
 20
-85.749202
 30
0.0
 11
81.284153
 21
-85.766506
 31
0.0
  0
LINE
  8
0
 10
81.529876
 20
-85.714593
 30
0.0
 11
81.408745
 21
-85.749202
 31
0.0
  0
LINE
  8
0
 10
81.647051
 20
-85.669602
 30
0.0
 11
81.529876
 21
-85.714593
 31
0.0
  0
LINE
  8
0
 10
81.757799
 20
-85.614228
 30
0.0
 11
81.647051
 21
-85.669602
 31
0.0
  0
LINE
  8
0
 10
81.864592
 20
-85.545505
 30
0.0
 11
81.757799
 21
-85.614228
 31
0.0
  0
LINE
  8
0
 10
81.961496
 20
-85.465905
 30
0.0
 11
81.864592
 21
-85.545505
 31
0.0
  0
LINE
  8
0
 10
82.051479
 20
-85.375922
 30
0.0
 11
81.961496
 21
-85.465905
 31
0.0
  0
LINE
  8
0
 10
82.131079
 20
-85.279017
 30
0.0
 11
82.051479
 21
-85.375922
 31
0.0
  0
LINE
  8
0
 10
82.196342
 20
-85.175685
 30
0.0
 11
82.131079
 21
-85.279017
 31
0.0
  0
LINE
  8
0
 10
82.255176
 20
-85.061476
 30
0.0
 11
82.196342
 21
-85.175685
 31
0.0
  0
LINE
  8
0
 10
82.300168
 20
-84.943807
 30
0.0
 11
82.255176
 21
-85.061476
 31
0.0
  0
LINE
  8
0
 10
82.331316
 20
-84.82317
 30
0.0
 11
82.300168
 21
-84.943807
 31
0.0
  0
LINE
  8
0
 10
82.352081
 20
-84.698579
 30
0.0
 11
82.331316
 21
-84.82317
 31
0.0
  0
LINE
  8
0
 10
82.359003
 20
-84.574482
 30
0.0
 11
82.352081
 21
-84.698579
 31
0.0
  0
LINE
  8
0
 10
84.05236
 20
-85.638454
 30
0.0
 11
84.059282
 21
-85.476287
 31
0.0
  0
LINE
  8
0
 10
84.031595
 20
-85.804576
 30
0.0
 11
84.05236
 21
-85.638454
 31
0.0
  0
LINE
  8
0
 10
83.996986
 20
-85.966743
 30
0.0
 11
84.031595
 21
-85.804576
 31
0.0
  0
LINE
  8
0
 10
83.948534
 20
-86.122482
 30
0.0
 11
83.996986
 21
-85.966743
 31
0.0
  0
LINE
  8
0
 10
83.889699
 20
-86.277727
 30
0.0
 11
83.948534
 21
-86.122482
 31
0.0
  0
LINE
  8
0
 10
83.81702
 20
-86.426545
 30
0.0
 11
83.889699
 21
-86.277727
 31
0.0
  0
LINE
  8
0
 10
83.734454
 20
-86.567947
 30
0.0
 11
83.81702
 21
-86.426545
 31
0.0
  0
LINE
  8
0
 10
83.637549
 20
-86.702921
 30
0.0
 11
83.734454
 21
-86.567947
 31
0.0
  0
LINE
  8
0
 10
83.530262
 20
-86.830973
 30
0.0
 11
83.637549
 21
-86.702921
 31
0.0
  0
LINE
  8
0
 10
83.413087
 20
-86.944688
 30
0.0
 11
83.530262
 21
-86.830973
 31
0.0
  0
LINE
  8
0
 10
83.285034
 20
-87.051975
 30
0.0
 11
83.413087
 21
-86.944688
 31
0.0
  0
LINE
  8
0
 10
83.154015
 20
-87.148879
 30
0.0
 11
83.285034
 21
-87.051975
 31
0.0
  0
LINE
  8
0
 10
83.008659
 20
-87.234907
 30
0.0
 11
83.154015
 21
-87.148879
 31
0.0
  0
LINE
  8
0
 10
82.859841
 20
-87.307585
 30
0.0
 11
83.008659
 21
-87.234907
 31
0.0
  0
LINE
  8
0
 10
82.708057
 20
-87.36642
 30
0.0
 11
82.859841
 21
-87.307585
 31
0.0
  0
LINE
  8
0
 10
82.548857
 20
-87.414872
 30
0.0
 11
82.708057
 21
-87.36642
 31
0.0
  0
LINE
  8
0
 10
82.38669
 20
-87.44602
 30
0.0
 11
82.548857
 21
-87.414872
 31
0.0
  0
LINE
  8
0
 10
82.224029
 20
-87.466786
 30
0.0
 11
82.38669
 21
-87.44602
 31
0.0
  0
LINE
  8
0
 10
82.058401
 20
-87.473707
 30
0.0
 11
82.224029
 21
-87.466786
 31
0.0
  0
LINE
  8
0
 10
76.557091
 20
-87.473707
 30
0.0
 11
82.058401
 21
-87.473707
 31
0.0
  0
LINE
  8
0
 10
82.359003
 20
19.623606
 30
0.0
 11
82.359003
 21
-84.574482
 31
0.0
  0
LINE
  8
0
 10
82.224029
 20
22.519371
 30
0.0
 11
82.058401
 21
22.526293
 31
0.0
  0
LINE
  8
0
 10
82.38669
 20
22.498606
 30
0.0
 11
82.224029
 21
22.519371
 31
0.0
  0
LINE
  8
0
 10
82.548857
 20
22.463997
 30
0.0
 11
82.38669
 21
22.498606
 31
0.0
  0
LINE
  8
0
 10
82.058401
 20
22.526293
 30
0.0
 11
76.557091
 21
22.526293
 31
0.0
  0
LINE
  8
0
 10
76.698492
 20
19.429797
 30
0.0
 11
76.760788
 21
19.523241
 31
0.0
  0
LINE
  8
0
 10
76.626308
 20
19.340309
 30
0.0
 11
76.698492
 21
19.429797
 31
0.0
  0
LINE
  8
0
 10
76.539786
 20
19.260709
 30
0.0
 11
76.626308
 21
19.340309
 31
0.0
  0
LINE
  8
0
 10
76.449804
 20
19.191491
 30
0.0
 11
76.539786
 21
19.260709
 31
0.0
  0
LINE
  8
0
 10
76.349438
 20
19.136117
 30
0.0
 11
76.449804
 21
19.191491
 31
0.0
  0
LINE
  8
0
 10
76.246106
 20
19.087665
 30
0.0
 11
76.349438
 21
19.136117
 31
0.0
  0
LINE
  8
0
 10
76.135358
 20
19.053056
 30
0.0
 11
76.246106
 21
19.087665
 31
0.0
  0
LINE
  8
0
 10
76.02461
 20
19.032785
 30
0.0
 11
76.135358
 21
19.053056
 31
0.0
  0
LINE
  8
0
 10
75.907435
 20
19.025863
 30
0.0
 11
76.02461
 21
19.032785
 31
0.0
  0
LINE
  8
0
 10
75.793226
 20
19.029324
 30
0.0
 11
75.907435
 21
19.025863
 31
0.0
  0
LINE
  8
0
 10
75.679017
 20
19.046629
 30
0.0
 11
75.793226
 21
19.029324
 31
0.0
  0
LINE
  8
0
 10
75.572224
 20
19.077282
 30
0.0
 11
75.679017
 21
19.046629
 31
0.0
  0
LINE
  8
0
 10
75.464937
 20
19.122274
 30
0.0
 11
75.572224
 21
19.077282
 31
0.0
  0
LINE
  8
0
 10
75.364572
 20
19.177648
 30
0.0
 11
75.464937
 21
19.122274
 31
0.0
  0
LINE
  8
0
 10
75.271622
 20
19.243404
 30
0.0
 11
75.364572
 21
19.177648
 31
0.0
  0
LINE
  8
0
 10
75.1851
 20
19.319544
 30
0.0
 11
75.271622
 21
19.243404
 31
0.0
  0
LINE
  8
0
 10
75.108961
 20
19.405571
 30
0.0
 11
75.1851
 21
19.319544
 31
0.0
  0
LINE
  8
0
 10
75.043204
 20
19.502476
 30
0.0
 11
75.108961
 21
19.405571
 31
0.0
  0
LINE
  8
0
 10
74.988325
 20
19.602841
 30
0.0
 11
75.043204
 21
19.502476
 31
0.0
  0
LINE
  8
0
 10
74.559671
 20
20.525412
 30
0.0
 11
74.988325
 21
19.602841
 31
0.0
  0
LINE
  8
0
 10
74.566592
 20
20.691039
 30
0.0
 11
74.559671
 21
20.525412
 31
0.0
  0
LINE
  8
0
 10
74.587358
 20
20.853701
 30
0.0
 11
74.566592
 21
20.691039
 31
0.0
  0
LINE
  8
0
 10
74.618506
 20
21.015867
 30
0.0
 11
74.587358
 21
20.853701
 31
0.0
  0
LINE
  8
0
 10
74.666958
 20
21.175068
 30
0.0
 11
74.618506
 21
21.015867
 31
0.0
  0
LINE
  8
0
 10
74.725298
 20
21.326852
 30
0.0
 11
74.666958
 21
21.175068
 31
0.0
  0
LINE
  8
0
 10
74.797977
 20
21.475669
 30
0.0
 11
74.725298
 21
21.326852
 31
0.0
  0
LINE
  8
0
 10
74.884499
 20
21.617565
 30
0.0
 11
74.797977
 21
21.475669
 31
0.0
  0
LINE
  8
0
 10
74.981403
 20
21.752045
 30
0.0
 11
74.884499
 21
21.617565
 31
0.0
  0
LINE
  8
0
 10
75.088196
 20
21.880098
 30
0.0
 11
74.981403
 21
21.752045
 31
0.0
  0
LINE
  8
0
 10
75.202405
 20
21.997273
 30
0.0
 11
75.088196
 21
21.880098
 31
0.0
  0
LINE
  8
0
 10
75.329963
 20
22.10456
 30
0.0
 11
75.202405
 21
21.997273
 31
0.0
  0
LINE
  8
0
 10
75.464937
 20
22.198004
 30
0.0
 11
75.329963
 21
22.10456
 31
0.0
  0
LINE
  8
0
 10
75.606833
 20
22.284526
 30
0.0
 11
75.464937
 21
22.198004
 31
0.0
  0
LINE
  8
0
 10
75.755156
 20
22.35671
 30
0.0
 11
75.606833
 21
22.284526
 31
0.0
  0
LINE
  8
0
 10
75.910896
 20
22.415545
 30
0.0
 11
75.755156
 21
22.35671
 31
0.0
  0
LINE
  8
0
 10
76.066141
 20
22.463997
 30
0.0
 11
75.910896
 21
22.415545
 31
0.0
  0
LINE
  8
0
 10
76.228802
 20
22.498606
 30
0.0
 11
76.066141
 21
22.463997
 31
0.0
  0
LINE
  8
0
 10
76.39443
 20
22.519371
 30
0.0
 11
76.228802
 21
22.498606
 31
0.0
  0
LINE
  8
0
 10
76.557091
 20
22.526293
 30
0.0
 11
76.39443
 21
22.519371
 31
0.0
  0
LINE
  8
0
 10
76.760788
 20
19.523241
 30
0.0
 11
77.510809
 21
20.826014
 31
0.0
  0
LINE
  8
0
 10
77.510809
 20
20.826014
 30
0.0
 11
81.160056
 21
20.826014
 31
0.0
  0
LINE
  8
0
 10
82.352081
 20
19.751164
 30
0.0
 11
82.359003
 21
19.623606
 31
0.0
  0
LINE
  8
0
 10
82.331316
 20
19.875756
 30
0.0
 11
82.352081
 21
19.751164
 31
0.0
  0
LINE
  8
0
 10
82.300168
 20
19.996886
 30
0.0
 11
82.331316
 21
19.875756
 31
0.0
  0
LINE
  8
0
 10
82.255176
 20
20.114062
 30
0.0
 11
82.300168
 21
19.996886
 31
0.0
  0
LINE
  8
0
 10
82.196342
 20
20.22481
 30
0.0
 11
82.255176
 21
20.114062
 31
0.0
  0
LINE
  8
0
 10
82.131079
 20
20.328636
 30
0.0
 11
82.196342
 21
20.22481
 31
0.0
  0
LINE
  8
0
 10
82.051479
 20
20.428507
 30
0.0
 11
82.131079
 21
20.328636
 31
0.0
  0
LINE
  8
0
 10
81.961496
 20
20.515029
 30
0.0
 11
82.051479
 21
20.428507
 31
0.0
  0
LINE
  8
0
 10
81.864592
 20
20.594629
 30
0.0
 11
81.961496
 21
20.515029
 31
0.0
  0
LINE
  8
0
 10
81.757799
 20
20.663847
 30
0.0
 11
81.864592
 21
20.594629
 31
0.0
  0
LINE
  8
0
 10
81.647051
 20
20.722187
 30
0.0
 11
81.757799
 21
20.663847
 31
0.0
  0
LINE
  8
0
 10
81.529876
 20
20.767179
 30
0.0
 11
81.647051
 21
20.722187
 31
0.0
  0
LINE
  8
0
 10
81.408745
 20
20.798327
 30
0.0
 11
81.529876
 21
20.767179
 31
0.0
  0
LINE
  8
0
 10
81.284153
 20
20.819092
 30
0.0
 11
81.408745
 21
20.798327
 31
0.0
  0
LINE
  8
0
 10
81.160056
 20
20.826014
 30
0.0
 11
81.284153
 21
20.819092
 31
0.0
  0
LINE
  8
0
 10
82.708057
 20
22.415545
 30
0.0
 11
82.548857
 21
22.463997
 31
0.0
  0
LINE
  8
0
 10
82.859841
 20
22.35671
 30
0.0
 11
82.708057
 21
22.415545
 31
0.0
  0
LINE
  8
0
 10
83.008659
 20
22.284526
 30
0.0
 11
82.859841
 21
22.35671
 31
0.0
  0
LINE
  8
0
 10
83.154015
 20
22.198004
 30
0.0
 11
83.008659
 21
22.284526
 31
0.0
  0
LINE
  8
0
 10
83.285034
 20
22.10456
 30
0.0
 11
83.154015
 21
22.198004
 31
0.0
  0
LINE
  8
0
 10
83.413087
 20
21.997273
 30
0.0
 11
83.285034
 21
22.10456
 31
0.0
  0
LINE
  8
0
 10
83.530262
 20
21.880098
 30
0.0
 11
83.413087
 21
21.997273
 31
0.0
  0
LINE
  8
0
 10
83.637549
 20
21.752045
 30
0.0
 11
83.530262
 21
21.880098
 31
0.0
  0
LINE
  8
0
 10
83.734454
 20
21.617565
 30
0.0
 11
83.637549
 21
21.752045
 31
0.0
  0
LINE
  8
0
 10
83.81702
 20
21.475669
 30
0.0
 11
83.734454
 21
21.617565
 31
0.0
  0
LINE
  8
0
 10
83.889699
 20
21.326852
 30
0.0
 11
83.81702
 21
21.475669
 31
0.0
  0
LINE
  8
0
 10
83.948534
 20
21.175068
 30
0.0
 11
83.889699
 21
21.326852
 31
0.0
  0
LINE
  8
0
 10
83.996986
 20
21.015867
 30
0.0
 11
83.948534
 21
21.175068
 31
0.0
  0
LINE
  8
0
 10
84.031595
 20
20.853701
 30
0.0
 11
83.996986
 21
21.015867
 31
0.0
  0
LINE
  8
0
 10
84.05236
 20
20.691039
 30
0.0
 11
84.031595
 21
20.853701
 31
0.0
  0
LINE
  8
0
 10
84.059282
 20
20.525412
 30
0.0
 11
84.05236
 21
20.691039
 31
0.0
  0
LINE
  8
0
 10
79.131488
 20
-79.007415
 30
0.0
 11
79.162636
 21
-78.920893
 31
0.0
  0
LINE
  8
0
 10
79.086497
 20
-79.089982
 30
0.0
 11
79.131488
 21
-79.007415
 31
0.0
  0
LINE
  8
0
 10
79.031123
 20
-79.16266
 30
0.0
 11
79.086497
 21
-79.089982
 31
0.0
  0
LINE
  8
0
 10
78.965861
 20
-79.228417
 30
0.0
 11
79.031123
 21
-79.16266
 31
0.0
  0
LINE
  8
0
 10
78.889721
 20
-79.283791
 30
0.0
 11
78.965861
 21
-79.228417
 31
0.0
  0
LINE
  8
0
 10
78.810121
 20
-79.328782
 30
0.0
 11
78.889721
 21
-79.283791
 31
0.0
  0
LINE
  8
0
 10
78.723599
 20
-79.35993
 30
0.0
 11
78.810121
 21
-79.328782
 31
0.0
  0
LINE
  8
0
 10
78.63065
 20
-79.380201
 30
0.0
 11
78.723599
 21
-79.35993
 31
0.0
  0
LINE
  8
0
 10
78.540667
 20
-79.387122
 30
0.0
 11
78.63065
 21
-79.380201
 31
0.0
  0
LINE
  8
0
 10
78.447224
 20
-79.380201
 30
0.0
 11
78.540667
 21
-79.387122
 31
0.0
  0
LINE
  8
0
 10
78.357241
 20
-79.35993
 30
0.0
 11
78.447224
 21
-79.380201
 31
0.0
  0
LINE
  8
0
 10
78.267752
 20
-79.328782
 30
0.0
 11
78.357241
 21
-79.35993
 31
0.0
  0
LINE
  8
0
 10
78.188152
 20
-79.283791
 30
0.0
 11
78.267752
 21
-79.328782
 31
0.0
  0
LINE
  8
0
 10
78.112013
 20
-79.228417
 30
0.0
 11
78.188152
 21
-79.283791
 31
0.0
  0
LINE
  8
0
 10
78.046256
 20
-79.16266
 30
0.0
 11
78.112013
 21
-79.228417
 31
0.0
  0
LINE
  8
0
 10
77.991377
 20
-79.089982
 30
0.0
 11
78.046256
 21
-79.16266
 31
0.0
  0
LINE
  8
0
 10
77.946385
 20
-79.007415
 30
0.0
 11
77.991377
 21
-79.089982
 31
0.0
  0
LINE
  8
0
 10
77.915237
 20
-78.920893
 30
0.0
 11
77.946385
 21
-79.007415
 31
0.0
  0
LINE
  8
0
 10
77.894472
 20
-78.83091
 30
0.0
 11
77.915237
 21
-78.920893
 31
0.0
  0
LINE
  8
0
 10
77.88755
 20
-78.737467
 30
0.0
 11
77.894472
 21
-78.83091
 31
0.0
  0
LINE
  8
0
 10
77.894472
 20
-78.644517
 30
0.0
 11
77.88755
 21
-78.737467
 31
0.0
  0
LINE
  8
0
 10
77.915237
 20
-78.554535
 30
0.0
 11
77.894472
 21
-78.644517
 31
0.0
  0
LINE
  8
0
 10
77.946385
 20
-78.468013
 30
0.0
 11
77.915237
 21
-78.554535
 31
0.0
  0
LINE
  8
0
 10
77.991377
 20
-78.384952
 30
0.0
 11
77.946385
 21
-78.468013
 31
0.0
  0
LINE
  8
0
 10
78.046256
 20
-78.312768
 30
0.0
 11
77.991377
 21
-78.384952
 31
0.0
  0
LINE
  8
0
 10
78.112013
 20
-78.247011
 30
0.0
 11
78.046256
 21
-78.312768
 31
0.0
  0
LINE
  8
0
 10
78.188152
 20
-78.191637
 30
0.0
 11
78.112013
 21
-78.247011
 31
0.0
  0
LINE
  8
0
 10
78.267752
 20
-78.146646
 30
0.0
 11
78.188152
 21
-78.191637
 31
0.0
  0
LINE
  8
0
 10
78.357241
 20
-78.112037
 30
0.0
 11
78.267752
 21
-78.146646
 31
0.0
  0
LINE
  8
0
 10
78.447224
 20
-78.094732
 30
0.0
 11
78.357241
 21
-78.112037
 31
0.0
  0
LINE
  8
0
 10
78.540667
 20
-78.087811
 30
0.0
 11
78.447224
 21
-78.094732
 31
0.0
  0
LINE
  8
0
 10
78.63065
 20
-78.094732
 30
0.0
 11
78.540667
 21
-78.087811
 31
0.0
  0
LINE
  8
0
 10
78.723599
 20
-78.112037
 30
0.0
 11
78.63065
 21
-78.094732
 31
0.0
  0
LINE
  8
0
 10
78.810121
 20
-78.146646
 30
0.0
 11
78.723599
 21
-78.112037
 31
0.0
  0
LINE
  8
0
 10
78.889721
 20
-78.191637
 30
0.0
 11
78.810121
 21
-78.146646
 31
0.0
  0
LINE
  8
0
 10
78.965861
 20
-78.247011
 30
0.0
 11
78.889721
 21
-78.191637
 31
0.0
  0
LINE
  8
0
 10
79.031123
 20
-78.312768
 30
0.0
 11
78.965861
 21
-78.247011
 31
0.0
  0
LINE
  8
0
 10
79.086497
 20
-78.384952
 30
0.0
 11
79.031123
 21
-78.312768
 31
0.0
  0
LINE
  8
0
 10
79.131488
 20
-78.468013
 30
0.0
 11
79.086497
 21
-78.384952
 31
0.0
  0
LINE
  8
0
 10
79.162636
 20
-78.554535
 30
0.0
 11
79.131488
 21
-78.468013
 31
0.0
  0
LINE
  8
0
 10
79.183401
 20
-78.644517
 30
0.0
 11
79.162636
 21
-78.554535
 31
0.0
  0
LINE
  8
0
 10
79.190323
 20
-78.737467
 30
0.0
 11
79.183401
 21
-78.644517
 31
0.0
  0
LINE
  8
0
 10
79.183401
 20
-78.83091
 30
0.0
 11
79.190323
 21
-78.737467
 31
0.0
  0
LINE
  8
0
 10
79.162636
 20
-78.920893
 30
0.0
 11
79.183401
 21
-78.83091
 31
0.0
  0
LINE
  8
0
 10
78.654382
 20
-79.37674
 30
0.0
 11
80.983552
 21
-78.965884
 31
0.0
  0
LINE
  8
0
 10
80.524244
 20
-77.728868
 30
0.0
 11
78.426458
 21
-78.098193
 31
0.0
  0
LINE
  8
0
 10
81.0943
 20
-78.941658
 30
0.0
 11
80.983552
 21
-78.965884
 31
0.0
  0
LINE
  8
0
 10
81.201587
 20
-78.900128
 30
0.0
 11
81.0943
 21
-78.941658
 31
0.0
  0
LINE
  8
0
 10
81.301458
 20
-78.851675
 30
0.0
 11
81.201587
 21
-78.900128
 31
0.0
  0
LINE
  8
0
 10
81.394901
 20
-78.78938
 30
0.0
 11
81.301458
 21
-78.851675
 31
0.0
  0
LINE
  8
0
 10
81.481423
 20
-78.713735
 30
0.0
 11
81.394901
 21
-78.78938
 31
0.0
  0
LINE
  8
0
 10
81.561024
 20
-78.634135
 30
0.0
 11
81.481423
 21
-78.713735
 31
0.0
  0
LINE
  8
0
 10
81.629747
 20
-78.540691
 30
0.0
 11
81.561024
 21
-78.634135
 31
0.0
  0
LINE
  8
0
 10
81.685121
 20
-78.443786
 30
0.0
 11
81.629747
 21
-78.540691
 31
0.0
  0
LINE
  8
0
 10
81.730112
 20
-78.340455
 30
0.0
 11
81.685121
 21
-78.443786
 31
0.0
  0
LINE
  8
0
 10
81.76126
 20
-78.229707
 30
0.0
 11
81.730112
 21
-78.340455
 31
0.0
  0
LINE
  8
0
 10
81.782025
 20
-78.118959
 30
0.0
 11
81.76126
 21
-78.229707
 31
0.0
  0
LINE
  8
0
 10
81.788947
 20
-78.005244
 30
0.0
 11
81.782025
 21
-78.118959
 31
0.0
  0
LINE
  8
0
 10
80.576157
 20
-77.711564
 30
0.0
 11
80.524244
 21
-77.728868
 31
0.0
  0
LINE
  8
0
 10
80.620654
 20
-77.680416
 30
0.0
 11
80.576157
 21
-77.711564
 31
0.0
  0
LINE
  8
0
 10
80.655263
 20
-77.638886
 30
0.0
 11
80.620654
 21
-77.680416
 31
0.0
  0
LINE
  8
0
 10
80.676028
 20
-77.590433
 30
0.0
 11
80.655263
 21
-77.638886
 31
0.0
  0
LINE
  8
0
 10
80.68295
 20
-77.535059
 30
0.0
 11
80.676028
 21
-77.590433
 31
0.0
  0
LINE
  8
0
 10
81.788947
 20
-78.005244
 30
0.0
 11
81.788947
 21
-34.80263
 31
0.0
  0
LINE
  8
0
 10
80.68295
 20
-74.186414
 30
0.0
 11
80.68295
 21
-77.535059
 31
0.0
  0
LINE
  8
0
 10
80.627576
 20
-74.048473
 30
0.0
 11
80.658724
 21
-74.090004
 31
0.0
  0
LINE
  8
0
 10
80.58654
 20
-74.017326
 30
0.0
 11
80.627576
 21
-74.048473
 31
0.0
  0
LINE
  8
0
 10
77.825255
 20
-73.270765
 30
0.0
 11
80.538087
 21
-74.000021
 31
0.0
  0
LINE
  8
0
 10
77.825255
 20
-68.45372
 30
0.0
 11
78.288518
 21
-68.45372
 31
0.0
  0
LINE
  8
0
 10
77.818333
 20
-68.45372
 30
0.0
 11
77.825255
 21
-68.45372
 31
0.0
  0
LINE
  8
0
 10
77.797568
 20
-68.45372
 30
0.0
 11
77.818333
 21
-68.45372
 31
0.0
  0
LINE
  8
0
 10
77.76642
 20
-68.45372
 30
0.0
 11
77.797568
 21
-68.45372
 31
0.0
  0
LINE
  8
0
 10
77.721428
 20
-68.45372
 30
0.0
 11
77.76642
 21
-68.45372
 31
0.0
  0
LINE
  8
0
 10
77.663088
 20
-68.45372
 30
0.0
 11
77.721428
 21
-68.45372
 31
0.0
  0
LINE
  8
0
 10
77.597331
 20
-68.45372
 30
0.0
 11
77.663088
 21
-68.45372
 31
0.0
  0
LINE
  8
0
 10
77.521192
 20
-68.45372
 30
0.0
 11
77.597331
 21
-68.45372
 31
0.0
  0
LINE
  8
0
 10
77.43467
 20
-68.45372
 30
0.0
 11
77.521192
 21
-68.45372
 31
0.0
  0
LINE
  8
0
 10
77.345182
 20
-68.45372
 30
0.0
 11
77.43467
 21
-68.45372
 31
0.0
  0
LINE
  8
0
 10
77.248277
 20
-68.45372
 30
0.0
 11
77.345182
 21
-68.45372
 31
0.0
  0
LINE
  8
0
 10
77.147912
 20
-68.45372
 30
0.0
 11
77.248277
 21
-68.45372
 31
0.0
  0
LINE
  8
0
 10
77.047546
 20
-68.45372
 30
0.0
 11
77.147912
 21
-68.45372
 31
0.0
  0
LINE
  8
0
 10
77.044085
 20
-68.45372
 30
0.0
 11
77.047546
 21
-68.45372
 31
0.0
  0
LINE
  8
0
 10
77.040625
 20
-68.45372
 30
0.0
 11
77.044085
 21
-68.45372
 31
0.0
  0
LINE
  8
0
 10
77.016893
 20
-68.45372
 30
0.0
 11
77.040625
 21
-68.45372
 31
0.0
  0
LINE
  8
0
 10
76.989206
 20
-68.45372
 30
0.0
 11
77.016893
 21
-68.45372
 31
0.0
  0
LINE
  8
0
 10
76.96498
 20
-68.457181
 30
0.0
 11
76.989206
 21
-68.45372
 31
0.0
  0
LINE
  8
0
 10
76.937293
 20
-68.460641
 30
0.0
 11
76.96498
 21
-68.457181
 31
0.0
  0
LINE
  8
0
 10
76.913067
 20
-68.464102
 30
0.0
 11
76.937293
 21
-68.460641
 31
0.0
  0
LINE
  8
0
 10
76.88538
 20
-68.467563
 30
0.0
 11
76.913067
 21
-68.464102
 31
0.0
  0
LINE
  8
0
 10
76.861153
 20
-68.474485
 30
0.0
 11
76.88538
 21
-68.467563
 31
0.0
  0
LINE
  8
0
 10
76.836927
 20
-68.481407
 30
0.0
 11
76.861153
 21
-68.474485
 31
0.0
  0
LINE
  8
0
 10
76.812701
 20
-68.488328
 30
0.0
 11
76.836927
 21
-68.481407
 31
0.0
  0
LINE
  8
0
 10
76.785014
 20
-68.49525
 30
0.0
 11
76.812701
 21
-68.488328
 31
0.0
  0
LINE
  8
0
 10
76.760788
 20
-68.505633
 30
0.0
 11
76.785014
 21
-68.49525
 31
0.0
  0
LINE
  8
0
 10
76.736562
 20
-68.516015
 30
0.0
 11
76.760788
 21
-68.505633
 31
0.0
  0
LINE
  8
0
 10
76.712336
 20
-68.526398
 30
0.0
 11
76.736562
 21
-68.516015
 31
0.0
  0
LINE
  8
0
 10
76.69157
 20
-68.536781
 30
0.0
 11
76.712336
 21
-68.526398
 31
0.0
  0
LINE
  8
0
 10
76.667839
 20
-68.550624
 30
0.0
 11
76.69157
 21
-68.536781
 31
0.0
  0
LINE
  8
0
 10
76.647073
 20
-68.561007
 30
0.0
 11
76.667839
 21
-68.550624
 31
0.0
  0
LINE
  8
0
 10
76.622847
 20
-68.57485
 30
0.0
 11
76.647073
 21
-68.561007
 31
0.0
  0
LINE
  8
0
 10
76.602082
 20
-68.592155
 30
0.0
 11
76.622847
 21
-68.57485
 31
0.0
  0
LINE
  8
0
 10
76.581317
 20
-68.605998
 30
0.0
 11
76.602082
 21
-68.592155
 31
0.0
  0
LINE
  8
0
 10
76.560552
 20
-68.622808
 30
0.0
 11
76.581317
 21
-68.605998
 31
0.0
  0
LINE
  8
0
 10
76.539786
 20
-68.636652
 30
0.0
 11
76.560552
 21
-68.622808
 31
0.0
  0
LINE
  8
0
 10
76.519021
 20
-68.653956
 30
0.0
 11
76.539786
 21
-68.636652
 31
0.0
  0
LINE
  8
0
 10
76.263411
 20
-72.254751
 30
0.0
 11
76.263411
 21
-69.231428
 31
0.0
  0
LINE
  8
0
 10
77.804489
 20
-73.263843
 30
0.0
 11
77.825255
 21
-73.270765
 31
0.0
  0
LINE
  8
0
 10
77.773342
 20
-73.256922
 30
0.0
 11
77.804489
 21
-73.263843
 31
0.0
  0
LINE
  8
0
 10
77.72835
 20
-73.246539
 30
0.0
 11
77.773342
 21
-73.256922
 31
0.0
  0
LINE
  8
0
 10
77.673471
 20
-73.229235
 30
0.0
 11
77.72835
 21
-73.246539
 31
0.0
  0
LINE
  8
0
 10
77.607714
 20
-73.21193
 30
0.0
 11
77.673471
 21
-73.229235
 31
0.0
  0
LINE
  8
0
 10
77.528114
 20
-73.191165
 30
0.0
 11
77.607714
 21
-73.21193
 31
0.0
  0
LINE
  8
0
 10
77.445053
 20
-73.170894
 30
0.0
 11
77.528114
 21
-73.191165
 31
0.0
  0
LINE
  8
0
 10
77.351609
 20
-73.143207
 30
0.0
 11
77.445053
 21
-73.170894
 31
0.0
  0
LINE
  8
0
 10
77.251738
 20
-73.118981
 30
0.0
 11
77.351609
 21
-73.143207
 31
0.0
  0
LINE
  8
0
 10
77.151373
 20
-73.091294
 30
0.0
 11
77.251738
 21
-73.118981
 31
0.0
  0
LINE
  8
0
 10
77.047546
 20
-73.063607
 30
0.0
 11
77.151373
 21
-73.091294
 31
0.0
  0
LINE
  8
0
 10
77.040625
 20
-73.060146
 30
0.0
 11
77.047546
 21
-73.063607
 31
0.0
  0
LINE
  8
0
 10
76.843849
 20
-73.008233
 30
0.0
 11
77.040625
 21
-73.060146
 31
0.0
  0
LINE
  8
0
 10
76.819623
 20
-73.001311
 30
0.0
 11
76.843849
 21
-73.008233
 31
0.0
  0
LINE
  8
0
 10
76.798858
 20
-72.994389
 30
0.0
 11
76.819623
 21
-73.001311
 31
0.0
  0
LINE
  8
0
 10
76.781553
 20
-72.987468
 30
0.0
 11
76.798858
 21
-72.994389
 31
0.0
  0
LINE
  8
0
 10
76.760788
 20
-72.980546
 30
0.0
 11
76.781553
 21
-72.987468
 31
0.0
  0
LINE
  8
0
 10
76.740023
 20
-72.973624
 30
0.0
 11
76.760788
 21
-72.980546
 31
0.0
  0
LINE
  8
0
 10
76.719257
 20
-72.963242
 30
0.0
 11
76.740023
 21
-72.973624
 31
0.0
  0
LINE
  8
0
 10
76.698492
 20
-72.952859
 30
0.0
 11
76.719257
 21
-72.963242
 31
0.0
  0
LINE
  8
0
 10
76.681682
 20
-72.945937
 30
0.0
 11
76.698492
 21
-72.952859
 31
0.0
  0
LINE
  8
0
 10
76.660917
 20
-72.935555
 30
0.0
 11
76.681682
 21
-72.945937
 31
0.0
  0
LINE
  8
0
 10
76.643613
 20
-72.921711
 30
0.0
 11
76.660917
 21
-72.935555
 31
0.0
  0
LINE
  8
0
 10
76.622847
 20
-72.911328
 30
0.0
 11
76.643613
 21
-72.921711
 31
0.0
  0
LINE
  8
0
 10
76.605543
 20
-72.900946
 30
0.0
 11
76.622847
 21
-72.911328
 31
0.0
  0
LINE
  8
0
 10
76.588239
 20
-72.887102
 30
0.0
 11
76.605543
 21
-72.900946
 31
0.0
  0
LINE
  8
0
 10
76.570934
 20
-72.873259
 30
0.0
 11
76.588239
 21
-72.887102
 31
0.0
  0
LINE
  8
0
 10
76.55363
 20
-72.85991
 30
0.0
 11
76.570934
 21
-72.873259
 31
0.0
  0
LINE
  8
0
 10
76.536325
 20
-72.846066
 30
0.0
 11
76.55363
 21
-72.85991
 31
0.0
  0
LINE
  8
0
 10
76.522482
 20
-72.832223
 30
0.0
 11
76.536325
 21
-72.846066
 31
0.0
  0
LINE
  8
0
 10
76.505178
 20
-72.818379
 30
0.0
 11
76.522482
 21
-72.832223
 31
0.0
  0
LINE
  8
0
 10
76.487873
 20
-72.804536
 30
0.0
 11
76.505178
 21
-72.818379
 31
0.0
  0
LINE
  8
0
 10
76.47403
 20
-72.787231
 30
0.0
 11
76.487873
 21
-72.804536
 31
0.0
  0
LINE
  8
0
 10
76.460186
 20
-72.769927
 30
0.0
 11
76.47403
 21
-72.787231
 31
0.0
  0
LINE
  8
0
 10
76.446343
 20
-72.756083
 30
0.0
 11
76.460186
 21
-72.769927
 31
0.0
  0
LINE
  8
0
 10
76.432499
 20
-72.738779
 30
0.0
 11
76.446343
 21
-72.756083
 31
0.0
  0
LINE
  8
0
 10
76.418656
 20
-72.721475
 30
0.0
 11
76.432499
 21
-72.738779
 31
0.0
  0
LINE
  8
0
 10
76.404812
 20
-72.70417
 30
0.0
 11
76.418656
 21
-72.721475
 31
0.0
  0
LINE
  8
0
 10
76.39443
 20
-72.683405
 30
0.0
 11
76.404812
 21
-72.70417
 31
0.0
  0
LINE
  8
0
 10
76.380586
 20
-72.666101
 30
0.0
 11
76.39443
 21
-72.683405
 31
0.0
  0
LINE
  8
0
 10
76.370698
 20
-72.648796
 30
0.0
 11
76.380586
 21
-72.666101
 31
0.0
  0
LINE
  8
0
 10
76.360315
 20
-72.628031
 30
0.0
 11
76.370698
 21
-72.648796
 31
0.0
  0
LINE
  8
0
 10
76.349933
 20
-72.610727
 30
0.0
 11
76.360315
 21
-72.628031
 31
0.0
  0
LINE
  8
0
 10
76.33955
 20
-72.589961
 30
0.0
 11
76.349933
 21
-72.610727
 31
0.0
  0
LINE
  8
0
 10
76.332628
 20
-72.569196
 30
0.0
 11
76.33955
 21
-72.589961
 31
0.0
  0
LINE
  8
0
 10
76.322246
 20
-72.551892
 30
0.0
 11
76.332628
 21
-72.569196
 31
0.0
  0
LINE
  8
0
 10
76.315324
 20
-72.531126
 30
0.0
 11
76.322246
 21
-72.551892
 31
0.0
  0
LINE
  8
0
 10
76.308402
 20
-72.510856
 30
0.0
 11
76.315324
 21
-72.531126
 31
0.0
  0
LINE
  8
0
 10
76.30148
 20
-72.49009
 30
0.0
 11
76.308402
 21
-72.510856
 31
0.0
  0
LINE
  8
0
 10
76.294559
 20
-72.469325
 30
0.0
 11
76.30148
 21
-72.49009
 31
0.0
  0
LINE
  8
0
 10
76.287637
 20
-72.44856
 30
0.0
 11
76.294559
 21
-72.469325
 31
0.0
  0
LINE
  8
0
 10
76.284176
 20
-72.427795
 30
0.0
 11
76.287637
 21
-72.44856
 31
0.0
  0
LINE
  8
0
 10
76.280715
 20
-72.407029
 30
0.0
 11
76.284176
 21
-72.427795
 31
0.0
  0
LINE
  8
0
 10
76.273793
 20
-72.382803
 30
0.0
 11
76.280715
 21
-72.407029
 31
0.0
  0
LINE
  8
0
 10
76.270332
 20
-72.362038
 30
0.0
 11
76.273793
 21
-72.382803
 31
0.0
  0
LINE
  8
0
 10
76.270332
 20
-72.341273
 30
0.0
 11
76.270332
 21
-72.362038
 31
0.0
  0
LINE
  8
0
 10
76.266871
 20
-72.320507
 30
0.0
 11
76.270332
 21
-72.341273
 31
0.0
  0
LINE
  8
0
 10
76.266871
 20
-72.296281
 30
0.0
 11
76.266871
 21
-72.320507
 31
0.0
  0
LINE
  8
0
 10
76.263411
 20
-72.254751
 30
0.0
 11
76.266871
 21
-72.296281
 31
0.0
  0
LINE
  8
0
 10
76.263411
 20
-69.231428
 30
0.0
 11
76.263411
 21
-72.254751
 31
0.0
  0
LINE
  8
0
 10
76.263411
 20
-69.207202
 30
0.0
 11
76.263411
 21
-69.231428
 31
0.0
  0
LINE
  8
0
 10
76.266871
 20
-69.179515
 30
0.0
 11
76.263411
 21
-69.207202
 31
0.0
  0
LINE
  8
0
 10
76.266871
 20
-69.155289
 30
0.0
 11
76.266871
 21
-69.179515
 31
0.0
  0
LINE
  8
0
 10
76.270332
 20
-69.127602
 30
0.0
 11
76.266871
 21
-69.155289
 31
0.0
  0
LINE
  8
0
 10
76.273793
 20
-69.103376
 30
0.0
 11
76.270332
 21
-69.127602
 31
0.0
  0
LINE
  8
0
 10
76.280715
 20
-69.075689
 30
0.0
 11
76.273793
 21
-69.103376
 31
0.0
  0
LINE
  8
0
 10
76.284176
 20
-69.051462
 30
0.0
 11
76.280715
 21
-69.075689
 31
0.0
  0
LINE
  8
0
 10
76.291098
 20
-69.027236
 30
0.0
 11
76.284176
 21
-69.051462
 31
0.0
  0
LINE
  8
0
 10
76.298019
 20
-68.999549
 30
0.0
 11
76.291098
 21
-69.027236
 31
0.0
  0
LINE
  8
0
 10
76.308402
 20
-68.975323
 30
0.0
 11
76.298019
 21
-68.999549
 31
0.0
  0
LINE
  8
0
 10
76.315324
 20
-68.951097
 30
0.0
 11
76.308402
 21
-68.975323
 31
0.0
  0
LINE
  8
0
 10
76.325706
 20
-68.927365
 30
0.0
 11
76.315324
 21
-68.951097
 31
0.0
  0
LINE
  8
0
 10
76.336089
 20
-68.903139
 30
0.0
 11
76.325706
 21
-68.927365
 31
0.0
  0
LINE
  8
0
 10
76.346472
 20
-68.882374
 30
0.0
 11
76.336089
 21
-68.903139
 31
0.0
  0
LINE
  8
0
 10
76.360315
 20
-68.858148
 30
0.0
 11
76.346472
 21
-68.882374
 31
0.0
  0
LINE
  8
0
 10
76.373664
 20
-68.833922
 30
0.0
 11
76.360315
 21
-68.858148
 31
0.0
  0
LINE
  8
0
 10
76.387508
 20
-68.813156
 30
0.0
 11
76.373664
 21
-68.833922
 31
0.0
  0
LINE
  8
0
 10
76.401351
 20
-68.792391
 30
0.0
 11
76.387508
 21
-68.813156
 31
0.0
  0
LINE
  8
0
 10
76.415195
 20
-68.771626
 30
0.0
 11
76.401351
 21
-68.792391
 31
0.0
  0
LINE
  8
0
 10
76.432499
 20
-68.750861
 30
0.0
 11
76.415195
 21
-68.771626
 31
0.0
  0
LINE
  8
0
 10
76.446343
 20
-68.730095
 30
0.0
 11
76.432499
 21
-68.750861
 31
0.0
  0
LINE
  8
0
 10
76.463647
 20
-68.70933
 30
0.0
 11
76.446343
 21
-68.730095
 31
0.0
  0
LINE
  8
0
 10
76.484412
 20
-68.692026
 30
0.0
 11
76.463647
 21
-68.70933
 31
0.0
  0
LINE
  8
0
 10
76.501717
 20
-68.67126
 30
0.0
 11
76.484412
 21
-68.692026
 31
0.0
  0
LINE
  8
0
 10
76.519021
 20
-68.653956
 30
0.0
 11
76.501717
 21
-68.67126
 31
0.0
  0
LINE
  8
0
 10
77.825255
 20
-68.45372
 30
0.0
 11
77.825255
 21
-73.270765
 31
0.0
  0
LINE
  8
0
 10
78.288518
 20
-68.45372
 30
0.0
 11
78.288518
 21
-44.357615
 31
0.0
  0
LINE
  8
0
 10
77.040625
 20
-44.357615
 30
0.0
 11
77.044085
 21
-44.357615
 31
0.0
  0
LINE
  8
0
 10
76.263411
 20
-43.579907
 30
0.0
 11
76.263411
 21
-43.576446
 31
0.0
  0
LINE
  8
0
 10
76.263411
 20
-43.604133
 30
0.0
 11
76.263411
 21
-43.579907
 31
0.0
  0
LINE
  8
0
 10
76.266871
 20
-43.628359
 30
0.0
 11
76.263411
 21
-43.604133
 31
0.0
  0
LINE
  8
0
 10
76.266871
 20
-43.656046
 30
0.0
 11
76.266871
 21
-43.628359
 31
0.0
  0
LINE
  8
0
 10
76.270332
 20
-43.680272
 30
0.0
 11
76.266871
 21
-43.656046
 31
0.0
  0
LINE
  8
0
 10
76.273793
 20
-43.707959
 30
0.0
 11
76.270332
 21
-43.680272
 31
0.0
  0
LINE
  8
0
 10
76.280715
 20
-43.732185
 30
0.0
 11
76.273793
 21
-43.707959
 31
0.0
  0
LINE
  8
0
 10
76.284176
 20
-43.756411
 30
0.0
 11
76.280715
 21
-43.732185
 31
0.0
  0
LINE
  8
0
 10
76.291098
 20
-43.784098
 30
0.0
 11
76.284176
 21
-43.756411
 31
0.0
  0
LINE
  8
0
 10
76.298019
 20
-43.808325
 30
0.0
 11
76.291098
 21
-43.784098
 31
0.0
  0
LINE
  8
0
 10
76.308402
 20
-43.832551
 30
0.0
 11
76.298019
 21
-43.808325
 31
0.0
  0
LINE
  8
0
 10
76.315324
 20
-43.856282
 30
0.0
 11
76.308402
 21
-43.832551
 31
0.0
  0
LINE
  8
0
 10
76.325706
 20
-43.880509
 30
0.0
 11
76.315324
 21
-43.856282
 31
0.0
  0
LINE
  8
0
 10
76.336089
 20
-43.904735
 30
0.0
 11
76.325706
 21
-43.880509
 31
0.0
  0
LINE
  8
0
 10
76.346472
 20
-43.928961
 30
0.0
 11
76.336089
 21
-43.904735
 31
0.0
  0
LINE
  8
0
 10
76.360315
 20
-43.949726
 30
0.0
 11
76.346472
 21
-43.928961
 31
0.0
  0
LINE
  8
0
 10
76.373664
 20
-43.973952
 30
0.0
 11
76.360315
 21
-43.949726
 31
0.0
  0
LINE
  8
0
 10
76.387508
 20
-43.994718
 30
0.0
 11
76.373664
 21
-43.973952
 31
0.0
  0
LINE
  8
0
 10
76.401351
 20
-44.018944
 30
0.0
 11
76.387508
 21
-43.994718
 31
0.0
  0
LINE
  8
0
 10
76.415195
 20
-44.039709
 30
0.0
 11
76.401351
 21
-44.018944
 31
0.0
  0
LINE
  8
0
 10
76.432499
 20
-44.060474
 30
0.0
 11
76.415195
 21
-44.039709
 31
0.0
  0
LINE
  8
0
 10
76.446343
 20
-44.077779
 30
0.0
 11
76.432499
 21
-44.060474
 31
0.0
  0
LINE
  8
0
 10
76.463647
 20
-44.098544
 30
0.0
 11
76.446343
 21
-44.077779
 31
0.0
  0
LINE
  8
0
 10
76.480951
 20
-44.119309
 30
0.0
 11
76.463647
 21
-44.098544
 31
0.0
  0
LINE
  8
0
 10
76.501717
 20
-44.136613
 30
0.0
 11
76.480951
 21
-44.119309
 31
0.0
  0
LINE
  8
0
 10
76.519021
 20
-44.153918
 30
0.0
 11
76.501717
 21
-44.136613
 31
0.0
  0
LINE
  8
0
 10
76.539786
 20
-44.171222
 30
0.0
 11
76.519021
 21
-44.153918
 31
0.0
  0
LINE
  8
0
 10
76.560552
 20
-44.188032
 30
0.0
 11
76.539786
 21
-44.171222
 31
0.0
  0
LINE
  8
0
 10
76.581317
 20
-44.201876
 30
0.0
 11
76.560552
 21
-44.188032
 31
0.0
  0
LINE
  8
0
 10
76.602082
 20
-44.21918
 30
0.0
 11
76.581317
 21
-44.201876
 31
0.0
  0
LINE
  8
0
 10
76.622847
 20
-44.233024
 30
0.0
 11
76.602082
 21
-44.21918
 31
0.0
  0
LINE
  8
0
 10
76.643613
 20
-44.246867
 30
0.0
 11
76.622847
 21
-44.233024
 31
0.0
  0
LINE
  8
0
 10
76.667839
 20
-44.260711
 30
0.0
 11
76.643613
 21
-44.246867
 31
0.0
  0
LINE
  8
0
 10
76.69157
 20
-44.271093
 30
0.0
 11
76.667839
 21
-44.260711
 31
0.0
  0
LINE
  8
0
 10
76.712336
 20
-44.284937
 30
0.0
 11
76.69157
 21
-44.271093
 31
0.0
  0
LINE
  8
0
 10
76.736562
 20
-44.295319
 30
0.0
 11
76.712336
 21
-44.284937
 31
0.0
  0
LINE
  8
0
 10
76.760788
 20
-44.302241
 30
0.0
 11
76.736562
 21
-44.295319
 31
0.0
  0
LINE
  8
0
 10
76.785014
 20
-44.312624
 30
0.0
 11
76.760788
 21
-44.302241
 31
0.0
  0
LINE
  8
0
 10
76.80924
 20
-44.319546
 30
0.0
 11
76.785014
 21
-44.312624
 31
0.0
  0
LINE
  8
0
 10
76.836927
 20
-44.329928
 30
0.0
 11
76.80924
 21
-44.319546
 31
0.0
  0
LINE
  8
0
 10
76.861153
 20
-44.333389
 30
0.0
 11
76.836927
 21
-44.329928
 31
0.0
  0
LINE
  8
0
 10
76.88538
 20
-44.340311
 30
0.0
 11
76.861153
 21
-44.333389
 31
0.0
  0
LINE
  8
0
 10
76.913067
 20
-44.343772
 30
0.0
 11
76.88538
 21
-44.340311
 31
0.0
  0
LINE
  8
0
 10
76.937293
 20
-44.350693
 30
0.0
 11
76.913067
 21
-44.343772
 31
0.0
  0
LINE
  8
0
 10
76.96498
 20
-44.354154
 30
0.0
 11
76.937293
 21
-44.350693
 31
0.0
  0
LINE
  8
0
 10
76.989206
 20
-44.354154
 30
0.0
 11
76.96498
 21
-44.354154
 31
0.0
  0
LINE
  8
0
 10
77.016893
 20
-44.357615
 30
0.0
 11
76.989206
 21
-44.354154
 31
0.0
  0
LINE
  8
0
 10
77.040625
 20
-44.357615
 30
0.0
 11
77.016893
 21
-44.357615
 31
0.0
  0
LINE
  8
0
 10
77.818333
 20
-39.54057
 30
0.0
 11
77.825255
 21
-39.54057
 31
0.0
  0
LINE
  8
0
 10
77.797568
 20
-39.547491
 30
0.0
 11
77.818333
 21
-39.54057
 31
0.0
  0
LINE
  8
0
 10
77.762959
 20
-39.554413
 30
0.0
 11
77.797568
 21
-39.547491
 31
0.0
  0
LINE
  8
0
 10
77.714507
 20
-39.568257
 30
0.0
 11
77.762959
 21
-39.554413
 31
0.0
  0
LINE
  8
0
 10
77.656166
 20
-39.585561
 30
0.0
 11
77.714507
 21
-39.568257
 31
0.0
  0
LINE
  8
0
 10
77.586949
 20
-39.602865
 30
0.0
 11
77.656166
 21
-39.585561
 31
0.0
  0
LINE
  8
0
 10
77.507348
 20
-39.623136
 30
0.0
 11
77.586949
 21
-39.602865
 31
0.0
  0
LINE
  8
0
 10
77.417366
 20
-39.647362
 30
0.0
 11
77.507348
 21
-39.623136
 31
0.0
  0
LINE
  8
0
 10
77.324416
 20
-39.671589
 30
0.0
 11
77.417366
 21
-39.647362
 31
0.0
  0
LINE
  8
0
 10
77.224051
 20
-39.699276
 30
0.0
 11
77.324416
 21
-39.671589
 31
0.0
  0
LINE
  8
0
 10
77.051007
 20
-39.747728
 30
0.0
 11
77.224051
 21
-39.699276
 31
0.0
  0
LINE
  8
0
 10
76.263411
 20
-40.549662
 30
0.0
 11
76.263411
 21
-40.553123
 31
0.0
  0
LINE
  8
0
 10
76.266871
 20
-40.508132
 30
0.0
 11
76.263411
 21
-40.549662
 31
0.0
  0
LINE
  8
0
 10
76.266871
 20
-40.487367
 30
0.0
 11
76.266871
 21
-40.508132
 31
0.0
  0
LINE
  8
0
 10
76.270332
 20
-40.466601
 30
0.0
 11
76.266871
 21
-40.487367
 31
0.0
  0
LINE
  8
0
 10
76.273793
 20
-40.442375
 30
0.0
 11
76.270332
 21
-40.466601
 31
0.0
  0
LINE
  8
0
 10
76.277254
 20
-40.42161
 30
0.0
 11
76.273793
 21
-40.442375
 31
0.0
  0
LINE
  8
0
 10
76.280715
 20
-40.400845
 30
0.0
 11
76.277254
 21
-40.42161
 31
0.0
  0
LINE
  8
0
 10
76.284176
 20
-40.380079
 30
0.0
 11
76.280715
 21
-40.400845
 31
0.0
  0
LINE
  8
0
 10
76.291098
 20
-40.359314
 30
0.0
 11
76.284176
 21
-40.380079
 31
0.0
  0
LINE
  8
0
 10
76.294559
 20
-40.338549
 30
0.0
 11
76.291098
 21
-40.359314
 31
0.0
  0
LINE
  8
0
 10
76.30148
 20
-40.317784
 30
0.0
 11
76.294559
 21
-40.338549
 31
0.0
  0
LINE
  8
0
 10
76.308402
 20
-40.297018
 30
0.0
 11
76.30148
 21
-40.317784
 31
0.0
  0
LINE
  8
0
 10
76.315324
 20
-40.276253
 30
0.0
 11
76.308402
 21
-40.297018
 31
0.0
  0
LINE
  8
0
 10
76.322246
 20
-40.255488
 30
0.0
 11
76.315324
 21
-40.276253
 31
0.0
  0
LINE
  8
0
 10
76.332628
 20
-40.235217
 30
0.0
 11
76.322246
 21
-40.255488
 31
0.0
  0
LINE
  8
0
 10
76.343011
 20
-40.217913
 30
0.0
 11
76.332628
 21
-40.235217
 31
0.0
  0
LINE
  8
0
 10
76.349933
 20
-40.197147
 30
0.0
 11
76.343011
 21
-40.217913
 31
0.0
  0
LINE
  8
0
 10
76.360315
 20
-40.179843
 30
0.0
 11
76.349933
 21
-40.197147
 31
0.0
  0
LINE
  8
0
 10
76.370698
 20
-40.159078
 30
0.0
 11
76.360315
 21
-40.179843
 31
0.0
  0
LINE
  8
0
 10
76.384047
 20
-40.141773
 30
0.0
 11
76.370698
 21
-40.159078
 31
0.0
  0
LINE
  8
0
 10
76.39443
 20
-40.124469
 30
0.0
 11
76.384047
 21
-40.141773
 31
0.0
  0
LINE
  8
0
 10
76.408273
 20
-40.103704
 30
0.0
 11
76.39443
 21
-40.124469
 31
0.0
  0
LINE
  8
0
 10
76.418656
 20
-40.086399
 30
0.0
 11
76.408273
 21
-40.103704
 31
0.0
  0
LINE
  8
0
 10
76.432499
 20
-40.069095
 30
0.0
 11
76.418656
 21
-40.086399
 31
0.0
  0
LINE
  8
0
 10
76.446343
 20
-40.055251
 30
0.0
 11
76.432499
 21
-40.069095
 31
0.0
  0
LINE
  8
0
 10
76.460186
 20
-40.037947
 30
0.0
 11
76.446343
 21
-40.055251
 31
0.0
  0
LINE
  8
0
 10
76.47403
 20
-40.020643
 30
0.0
 11
76.460186
 21
-40.037947
 31
0.0
  0
LINE
  8
0
 10
76.491334
 20
-40.006799
 30
0.0
 11
76.47403
 21
-40.020643
 31
0.0
  0
LINE
  8
0
 10
76.505178
 20
-39.989495
 30
0.0
 11
76.491334
 21
-40.006799
 31
0.0
  0
LINE
  8
0
 10
76.522482
 20
-39.975651
 30
0.0
 11
76.505178
 21
-39.989495
 31
0.0
  0
LINE
  8
0
 10
76.539786
 20
-39.961808
 30
0.0
 11
76.522482
 21
-39.975651
 31
0.0
  0
LINE
  8
0
 10
76.55363
 20
-39.947964
 30
0.0
 11
76.539786
 21
-39.961808
 31
0.0
  0
LINE
  8
0
 10
76.570934
 20
-39.934615
 30
0.0
 11
76.55363
 21
-39.947964
 31
0.0
  0
LINE
  8
0
 10
76.588239
 20
-39.920772
 30
0.0
 11
76.570934
 21
-39.934615
 31
0.0
  0
LINE
  8
0
 10
76.605543
 20
-39.910389
 30
0.0
 11
76.588239
 21
-39.920772
 31
0.0
  0
LINE
  8
0
 10
76.626308
 20
-39.896546
 30
0.0
 11
76.605543
 21
-39.910389
 31
0.0
  0
LINE
  8
0
 10
76.643613
 20
-39.886163
 30
0.0
 11
76.626308
 21
-39.896546
 31
0.0
  0
LINE
  8
0
 10
76.660917
 20
-39.87578
 30
0.0
 11
76.643613
 21
-39.886163
 31
0.0
  0
LINE
  8
0
 10
76.681682
 20
-39.865398
 30
0.0
 11
76.660917
 21
-39.87578
 31
0.0
  0
LINE
  8
0
 10
76.701953
 20
-39.855015
 30
0.0
 11
76.681682
 21
-39.865398
 31
0.0
  0
LINE
  8
0
 10
76.719257
 20
-39.844632
 30
0.0
 11
76.701953
 21
-39.855015
 31
0.0
  0
LINE
  8
0
 10
76.740023
 20
-39.837711
 30
0.0
 11
76.719257
 21
-39.844632
 31
0.0
  0
LINE
  8
0
 10
76.760788
 20
-39.827328
 30
0.0
 11
76.740023
 21
-39.837711
 31
0.0
  0
LINE
  8
0
 10
76.781553
 20
-39.820406
 30
0.0
 11
76.760788
 21
-39.827328
 31
0.0
  0
LINE
  8
0
 10
76.802319
 20
-39.813484
 30
0.0
 11
76.781553
 21
-39.820406
 31
0.0
  0
LINE
  8
0
 10
76.819623
 20
-39.806563
 30
0.0
 11
76.802319
 21
-39.813484
 31
0.0
  0
LINE
  8
0
 10
76.843849
 20
-39.803102
 30
0.0
 11
76.819623
 21
-39.806563
 31
0.0
  0
LINE
  8
0
 10
77.037164
 20
-39.747728
 30
0.0
 11
76.843849
 21
-39.803102
 31
0.0
  0
LINE
  8
0
 10
77.040625
 20
-39.747728
 30
0.0
 11
77.037164
 21
-39.747728
 31
0.0
  0
LINE
  8
0
 10
77.047546
 20
-39.747728
 30
0.0
 11
77.040625
 21
-39.747728
 31
0.0
  0
LINE
  8
0
 10
77.047546
 20
-44.357615
 30
0.0
 11
77.044085
 21
-44.357615
 31
0.0
  0
LINE
  8
0
 10
77.147912
 20
-44.357615
 30
0.0
 11
77.047546
 21
-44.357615
 31
0.0
  0
LINE
  8
0
 10
77.248277
 20
-44.357615
 30
0.0
 11
77.147912
 21
-44.357615
 31
0.0
  0
LINE
  8
0
 10
77.345182
 20
-44.357615
 30
0.0
 11
77.248277
 21
-44.357615
 31
0.0
  0
LINE
  8
0
 10
77.43467
 20
-44.357615
 30
0.0
 11
77.345182
 21
-44.357615
 31
0.0
  0
LINE
  8
0
 10
77.521192
 20
-44.357615
 30
0.0
 11
77.43467
 21
-44.357615
 31
0.0
  0
LINE
  8
0
 10
77.597331
 20
-44.357615
 30
0.0
 11
77.521192
 21
-44.357615
 31
0.0
  0
LINE
  8
0
 10
77.663088
 20
-44.357615
 30
0.0
 11
77.597331
 21
-44.357615
 31
0.0
  0
LINE
  8
0
 10
77.721428
 20
-44.357615
 30
0.0
 11
77.663088
 21
-44.357615
 31
0.0
  0
LINE
  8
0
 10
77.76642
 20
-44.357615
 30
0.0
 11
77.721428
 21
-44.357615
 31
0.0
  0
LINE
  8
0
 10
77.797568
 20
-44.357615
 30
0.0
 11
77.76642
 21
-44.357615
 31
0.0
  0
LINE
  8
0
 10
77.818333
 20
-44.357615
 30
0.0
 11
77.797568
 21
-44.357615
 31
0.0
  0
LINE
  8
0
 10
77.825255
 20
-44.357615
 30
0.0
 11
77.818333
 21
-44.357615
 31
0.0
  0
LINE
  8
0
 10
78.288518
 20
-44.357615
 30
0.0
 11
77.825255
 21
-44.357615
 31
0.0
  0
LINE
  8
0
 10
76.263411
 20
-40.556584
 30
0.0
 11
76.263411
 21
-43.576446
 31
0.0
  0
LINE
  8
0
 10
76.263411
 20
-43.579907
 30
0.0
 11
76.263411
 21
-40.556584
 31
0.0
  0
LINE
  8
0
 10
77.825255
 20
-39.54057
 30
0.0
 11
77.825255
 21
-44.357615
 31
0.0
  0
LINE
  8
0
 10
77.825255
 20
-39.54057
 30
0.0
 11
80.538087
 21
-38.811314
 31
0.0
  0
LINE
  8
0
 10
80.58654
 20
-38.790548
 30
0.0
 11
80.538087
 21
-38.811314
 31
0.0
  0
LINE
  8
0
 10
80.627576
 20
-38.7594
 30
0.0
 11
80.58654
 21
-38.790548
 31
0.0
  0
LINE
  8
0
 10
80.658724
 20
-38.721331
 30
0.0
 11
80.627576
 21
-38.7594
 31
0.0
  0
LINE
  8
0
 10
80.676028
 20
-38.672879
 30
0.0
 11
80.658724
 21
-38.721331
 31
0.0
  0
LINE
  8
0
 10
80.68295
 20
-38.62146
 30
0.0
 11
80.676028
 21
-38.672879
 31
0.0
  0
LINE
  8
0
 10
80.68295
 20
-35.272815
 30
0.0
 11
80.68295
 21
-38.62146
 31
0.0
  0
LINE
  8
0
 10
81.0943
 20
-33.869677
 30
0.0
 11
80.983552
 21
-33.84199
 31
0.0
  0
LINE
  8
0
 10
81.201587
 20
-33.907746
 30
0.0
 11
81.0943
 21
-33.869677
 31
0.0
  0
LINE
  8
0
 10
81.301458
 20
-33.959659
 30
0.0
 11
81.201587
 21
-33.907746
 31
0.0
  0
LINE
  8
0
 10
81.394901
 20
-34.021955
 30
0.0
 11
81.301458
 21
-33.959659
 31
0.0
  0
LINE
  8
0
 10
81.481423
 20
-34.094139
 30
0.0
 11
81.394901
 21
-34.021955
 31
0.0
  0
LINE
  8
0
 10
81.561024
 20
-34.1772
 30
0.0
 11
81.481423
 21
-34.094139
 31
0.0
  0
LINE
  8
0
 10
81.629747
 20
-34.267183
 30
0.0
 11
81.561024
 21
-34.1772
 31
0.0
  0
LINE
  8
0
 10
81.685121
 20
-34.367548
 30
0.0
 11
81.629747
 21
-34.267183
 31
0.0
  0
LINE
  8
0
 10
81.730112
 20
-34.47088
 30
0.0
 11
81.685121
 21
-34.367548
 31
0.0
  0
LINE
  8
0
 10
81.76126
 20
-34.578167
 30
0.0
 11
81.730112
 21
-34.47088
 31
0.0
  0
LINE
  8
0
 10
81.782025
 20
-34.688915
 30
0.0
 11
81.76126
 21
-34.578167
 31
0.0
  0
LINE
  8
0
 10
81.788947
 20
-34.80263
 30
0.0
 11
81.782025
 21
-34.688915
 31
0.0
  0
LINE
  8
0
 10
80.676028
 20
-35.220902
 30
0.0
 11
80.68295
 21
-35.272815
 31
0.0
  0
LINE
  8
0
 10
80.655263
 20
-35.172449
 30
0.0
 11
80.676028
 21
-35.220902
 31
0.0
  0
LINE
  8
0
 10
80.620654
 20
-35.130919
 30
0.0
 11
80.655263
 21
-35.172449
 31
0.0
  0
LINE
  8
0
 10
80.576157
 20
-35.099771
 30
0.0
 11
80.620654
 21
-35.130919
 31
0.0
  0
LINE
  8
0
 10
80.524244
 20
-35.082466
 30
0.0
 11
80.576157
 21
-35.099771
 31
0.0
  0
LINE
  8
0
 10
78.650921
 20
-33.43064
 30
0.0
 11
80.983552
 21
-33.84199
 31
0.0
  0
LINE
  8
0
 10
80.524244
 20
-35.082466
 30
0.0
 11
78.426458
 21
-34.713142
 31
0.0
  0
LINE
  8
0
 10
78.447224
 20
-34.716602
 30
0.0
 11
78.540667
 21
-34.723524
 31
0.0
  0
LINE
  8
0
 10
78.357241
 20
-34.695837
 30
0.0
 11
78.447224
 21
-34.716602
 31
0.0
  0
LINE
  8
0
 10
78.267752
 20
-34.664689
 30
0.0
 11
78.357241
 21
-34.695837
 31
0.0
  0
LINE
  8
0
 10
78.188152
 20
-34.619698
 30
0.0
 11
78.267752
 21
-34.664689
 31
0.0
  0
LINE
  8
0
 10
78.112013
 20
-34.564324
 30
0.0
 11
78.188152
 21
-34.619698
 31
0.0
  0
LINE
  8
0
 10
78.046256
 20
-34.498567
 30
0.0
 11
78.112013
 21
-34.564324
 31
0.0
  0
LINE
  8
0
 10
77.991377
 20
-34.422428
 30
0.0
 11
78.046256
 21
-34.498567
 31
0.0
  0
LINE
  8
0
 10
77.946385
 20
-34.343322
 30
0.0
 11
77.991377
 21
-34.422428
 31
0.0
  0
LINE
  8
0
 10
77.915237
 20
-34.2568
 30
0.0
 11
77.946385
 21
-34.343322
 31
0.0
  0
LINE
  8
0
 10
77.894472
 20
-34.163357
 30
0.0
 11
77.915237
 21
-34.2568
 31
0.0
  0
LINE
  8
0
 10
77.88755
 20
-34.073374
 30
0.0
 11
77.894472
 21
-34.163357
 31
0.0
  0
LINE
  8
0
 10
77.894472
 20
-33.980425
 30
0.0
 11
77.88755
 21
-34.073374
 31
0.0
  0
LINE
  8
0
 10
77.915237
 20
-33.890442
 30
0.0
 11
77.894472
 21
-33.980425
 31
0.0
  0
LINE
  8
0
 10
77.946385
 20
-33.80392
 30
0.0
 11
77.915237
 21
-33.890442
 31
0.0
  0
LINE
  8
0
 10
77.991377
 20
-33.721353
 30
0.0
 11
77.946385
 21
-33.80392
 31
0.0
  0
LINE
  8
0
 10
78.046256
 20
-33.645214
 30
0.0
 11
77.991377
 21
-33.721353
 31
0.0
  0
LINE
  8
0
 10
78.112013
 20
-33.582918
 30
0.0
 11
78.046256
 21
-33.645214
 31
0.0
  0
LINE
  8
0
 10
78.188152
 20
-33.524083
 30
0.0
 11
78.112013
 21
-33.582918
 31
0.0
  0
LINE
  8
0
 10
78.267752
 20
-33.482553
 30
0.0
 11
78.188152
 21
-33.524083
 31
0.0
  0
LINE
  8
0
 10
78.357241
 20
-33.447944
 30
0.0
 11
78.267752
 21
-33.482553
 31
0.0
  0
LINE
  8
0
 10
78.447224
 20
-33.427179
 30
0.0
 11
78.357241
 21
-33.447944
 31
0.0
  0
LINE
  8
0
 10
78.540667
 20
-33.424212
 30
0.0
 11
78.447224
 21
-33.427179
 31
0.0
  0
LINE
  8
0
 10
78.63065
 20
-33.427179
 30
0.0
 11
78.540667
 21
-33.424212
 31
0.0
  0
LINE
  8
0
 10
78.723599
 20
-33.447944
 30
0.0
 11
78.63065
 21
-33.427179
 31
0.0
  0
LINE
  8
0
 10
78.810121
 20
-33.482553
 30
0.0
 11
78.723599
 21
-33.447944
 31
0.0
  0
LINE
  8
0
 10
78.889721
 20
-33.524083
 30
0.0
 11
78.810121
 21
-33.482553
 31
0.0
  0
LINE
  8
0
 10
78.965861
 20
-33.582918
 30
0.0
 11
78.889721
 21
-33.524083
 31
0.0
  0
LINE
  8
0
 10
79.031123
 20
-33.645214
 30
0.0
 11
78.965861
 21
-33.582918
 31
0.0
  0
LINE
  8
0
 10
79.086497
 20
-33.721353
 30
0.0
 11
79.031123
 21
-33.645214
 31
0.0
  0
LINE
  8
0
 10
79.131488
 20
-33.80392
 30
0.0
 11
79.086497
 21
-33.721353
 31
0.0
  0
LINE
  8
0
 10
79.162636
 20
-33.890442
 30
0.0
 11
79.131488
 21
-33.80392
 31
0.0
  0
LINE
  8
0
 10
79.183401
 20
-33.980425
 30
0.0
 11
79.162636
 21
-33.890442
 31
0.0
  0
LINE
  8
0
 10
79.190323
 20
-34.073374
 30
0.0
 11
79.183401
 21
-33.980425
 31
0.0
  0
LINE
  8
0
 10
79.183401
 20
-34.163357
 30
0.0
 11
79.190323
 21
-34.073374
 31
0.0
  0
LINE
  8
0
 10
79.162636
 20
-34.2568
 30
0.0
 11
79.183401
 21
-34.163357
 31
0.0
  0
LINE
  8
0
 10
79.131488
 20
-34.343322
 30
0.0
 11
79.162636
 21
-34.2568
 31
0.0
  0
LINE
  8
0
 10
79.086497
 20
-34.422428
 30
0.0
 11
79.131488
 21
-34.343322
 31
0.0
  0
LINE
  8
0
 10
79.031123
 20
-34.498567
 30
0.0
 11
79.086497
 21
-34.422428
 31
0.0
  0
LINE
  8
0
 10
78.965861
 20
-34.564324
 30
0.0
 11
79.031123
 21
-34.498567
 31
0.0
  0
LINE
  8
0
 10
78.889721
 20
-34.619698
 30
0.0
 11
78.965861
 21
-34.564324
 31
0.0
  0
LINE
  8
0
 10
78.810121
 20
-34.664689
 30
0.0
 11
78.889721
 21
-34.619698
 31
0.0
  0
LINE
  8
0
 10
78.723599
 20
-34.695837
 30
0.0
 11
78.810121
 21
-34.664689
 31
0.0
  0
LINE
  8
0
 10
78.63065
 20
-34.716602
 30
0.0
 11
78.723599
 21
-34.695837
 31
0.0
  0
LINE
  8
0
 10
78.540667
 20
-34.723524
 30
0.0
 11
78.63065
 21
-34.716602
 31
0.0
  0
LINE
  8
0
 10
80.676028
 20
-74.134995
 30
0.0
 11
80.68295
 21
-74.186414
 31
0.0
  0
LINE
  8
0
 10
80.658724
 20
-74.090004
 30
0.0
 11
80.676028
 21
-74.134995
 31
0.0
  0
LINE
  8
0
 10
80.538087
 20
-74.000021
 30
0.0
 11
80.58654
 21
-74.017326
 31
0.0
  0
LINE
  8
0
 10
80.538087
 20
-25.997666
 30
0.0
 11
80.58654
 21
-26.01497
 31
0.0
  0
LINE
  8
0
 10
80.658724
 20
-26.087649
 30
0.0
 11
80.676028
 21
-26.13264
 31
0.0
  0
LINE
  8
0
 10
80.676028
 20
-26.13264
 30
0.0
 11
80.68295
 21
-26.184059
 31
0.0
  0
LINE
  8
0
 10
78.540667
 20
13.278831
 30
0.0
 11
78.63065
 21
13.285753
 31
0.0
  0
LINE
  8
0
 10
78.63065
 20
13.285753
 30
0.0
 11
78.723599
 21
13.306518
 31
0.0
  0
LINE
  8
0
 10
78.723599
 20
13.306518
 30
0.0
 11
78.810121
 21
13.337666
 31
0.0
  0
LINE
  8
0
 10
78.810121
 20
13.337666
 30
0.0
 11
78.889721
 21
13.382657
 31
0.0
  0
LINE
  8
0
 10
78.889721
 20
13.382657
 30
0.0
 11
78.965861
 21
13.438031
 31
0.0
  0
LINE
  8
0
 10
78.965861
 20
13.438031
 30
0.0
 11
79.031123
 21
13.503788
 31
0.0
  0
LINE
  8
0
 10
79.031123
 20
13.503788
 30
0.0
 11
79.086497
 21
13.579927
 31
0.0
  0
LINE
  8
0
 10
79.086497
 20
13.579927
 30
0.0
 11
79.131488
 21
13.659033
 31
0.0
  0
LINE
  8
0
 10
79.131488
 20
13.659033
 30
0.0
 11
79.162636
 21
13.745555
 31
0.0
  0
LINE
  8
0
 10
79.162636
 20
13.745555
 30
0.0
 11
79.183401
 21
13.838999
 31
0.0
  0
LINE
  8
0
 10
79.183401
 20
13.838999
 30
0.0
 11
79.190323
 21
13.928981
 31
0.0
  0
LINE
  8
0
 10
79.190323
 20
13.928981
 30
0.0
 11
79.183401
 21
14.021931
 31
0.0
  0
LINE
  8
0
 10
79.183401
 20
14.021931
 30
0.0
 11
79.162636
 21
14.111913
 31
0.0
  0
LINE
  8
0
 10
79.162636
 20
14.111913
 30
0.0
 11
79.131488
 21
14.198435
 31
0.0
  0
LINE
  8
0
 10
79.131488
 20
14.198435
 30
0.0
 11
79.086497
 21
14.281002
 31
0.0
  0
LINE
  8
0
 10
79.086497
 20
14.281002
 30
0.0
 11
79.031123
 21
14.357141
 31
0.0
  0
LINE
  8
0
 10
79.031123
 20
14.357141
 30
0.0
 11
78.965861
 21
14.419437
 31
0.0
  0
LINE
  8
0
 10
78.965861
 20
14.419437
 30
0.0
 11
78.889721
 21
14.478272
 31
0.0
  0
LINE
  8
0
 10
78.889721
 20
14.478272
 30
0.0
 11
78.810121
 21
14.519802
 31
0.0
  0
LINE
  8
0
 10
78.810121
 20
14.519802
 30
0.0
 11
78.723599
 21
14.554411
 31
0.0
  0
LINE
  8
0
 10
78.723599
 20
14.554411
 30
0.0
 11
78.63065
 21
14.575176
 31
0.0
  0
LINE
  8
0
 10
78.63065
 20
14.575176
 30
0.0
 11
78.540667
 21
14.578143
 31
0.0
  0
LINE
  8
0
 10
78.540667
 20
14.578143
 30
0.0
 11
78.447224
 21
14.575176
 31
0.0
  0
LINE
  8
0
 10
78.447224
 20
14.575176
 30
0.0
 11
78.357241
 21
14.554411
 31
0.0
  0
LINE
  8
0
 10
78.357241
 20
14.554411
 30
0.0
 11
78.267752
 21
14.519802
 31
0.0
  0
LINE
  8
0
 10
78.267752
 20
14.519802
 30
0.0
 11
78.188152
 21
14.478272
 31
0.0
  0
LINE
  8
0
 10
78.188152
 20
14.478272
 30
0.0
 11
78.112013
 21
14.419437
 31
0.0
  0
LINE
  8
0
 10
78.112013
 20
14.419437
 30
0.0
 11
78.046256
 21
14.357141
 31
0.0
  0
LINE
  8
0
 10
78.046256
 20
14.357141
 30
0.0
 11
77.991377
 21
14.281002
 31
0.0
  0
LINE
  8
0
 10
77.991377
 20
14.281002
 30
0.0
 11
77.946385
 21
14.198435
 31
0.0
  0
LINE
  8
0
 10
77.946385
 20
14.198435
 30
0.0
 11
77.915237
 21
14.111913
 31
0.0
  0
LINE
  8
0
 10
77.915237
 20
14.111913
 30
0.0
 11
77.894472
 21
14.021931
 31
0.0
  0
LINE
  8
0
 10
77.894472
 20
14.021931
 30
0.0
 11
77.88755
 21
13.928981
 31
0.0
  0
LINE
  8
0
 10
77.88755
 20
13.928981
 30
0.0
 11
77.894472
 21
13.838999
 31
0.0
  0
LINE
  8
0
 10
77.894472
 20
13.838999
 30
0.0
 11
77.915237
 21
13.745555
 31
0.0
  0
LINE
  8
0
 10
77.915237
 20
13.745555
 30
0.0
 11
77.946385
 21
13.659033
 31
0.0
  0
LINE
  8
0
 10
77.946385
 20
13.659033
 30
0.0
 11
77.991377
 21
13.579927
 31
0.0
  0
LINE
  8
0
 10
77.991377
 20
13.579927
 30
0.0
 11
78.046256
 21
13.503788
 31
0.0
  0
LINE
  8
0
 10
78.046256
 20
13.503788
 30
0.0
 11
78.112013
 21
13.438031
 31
0.0
  0
LINE
  8
0
 10
78.112013
 20
13.438031
 30
0.0
 11
78.188152
 21
13.382657
 31
0.0
  0
LINE
  8
0
 10
78.188152
 20
13.382657
 30
0.0
 11
78.267752
 21
13.337666
 31
0.0
  0
LINE
  8
0
 10
78.267752
 20
13.337666
 30
0.0
 11
78.357241
 21
13.306518
 31
0.0
  0
LINE
  8
0
 10
78.357241
 20
13.306518
 30
0.0
 11
78.447224
 21
13.285753
 31
0.0
  0
LINE
  8
0
 10
78.447224
 20
13.285753
 30
0.0
 11
78.540667
 21
13.278831
 31
0.0
  0
LINE
  8
0
 10
80.524244
 20
12.919889
 30
0.0
 11
78.426458
 21
13.289214
 31
0.0
  0
LINE
  8
0
 10
78.650921
 20
14.571716
 30
0.0
 11
80.983552
 21
14.160366
 31
0.0
  0
LINE
  8
0
 10
80.524244
 20
12.919889
 30
0.0
 11
80.576157
 21
12.902584
 31
0.0
  0
LINE
  8
0
 10
80.576157
 20
12.902584
 30
0.0
 11
80.620654
 21
12.871436
 31
0.0
  0
LINE
  8
0
 10
80.620654
 20
12.871436
 30
0.0
 11
80.655263
 21
12.829906
 31
0.0
  0
LINE
  8
0
 10
80.655263
 20
12.829906
 30
0.0
 11
80.676028
 21
12.781454
 31
0.0
  0
LINE
  8
0
 10
80.676028
 20
12.781454
 30
0.0
 11
80.68295
 21
12.729541
 31
0.0
  0
LINE
  8
0
 10
81.788947
 20
13.199725
 30
0.0
 11
81.782025
 21
13.31344
 31
0.0
  0
LINE
  8
0
 10
81.782025
 20
13.31344
 30
0.0
 11
81.76126
 21
13.424188
 31
0.0
  0
LINE
  8
0
 10
81.76126
 20
13.424188
 30
0.0
 11
81.730112
 21
13.531475
 31
0.0
  0
LINE
  8
0
 10
81.730112
 20
13.531475
 30
0.0
 11
81.685121
 21
13.634807
 31
0.0
  0
LINE
  8
0
 10
81.685121
 20
13.634807
 30
0.0
 11
81.629747
 21
13.735172
 31
0.0
  0
LINE
  8
0
 10
81.629747
 20
13.735172
 30
0.0
 11
81.561024
 21
13.825155
 31
0.0
  0
LINE
  8
0
 10
81.561024
 20
13.825155
 30
0.0
 11
81.481423
 21
13.908216
 31
0.0
  0
LINE
  8
0
 10
81.481423
 20
13.908216
 30
0.0
 11
81.394901
 21
13.9804
 31
0.0
  0
LINE
  8
0
 10
81.394901
 20
13.9804
 30
0.0
 11
81.301458
 21
14.042696
 31
0.0
  0
LINE
  8
0
 10
81.301458
 20
14.042696
 30
0.0
 11
81.201587
 21
14.094609
 31
0.0
  0
LINE
  8
0
 10
81.201587
 20
14.094609
 30
0.0
 11
81.0943
 21
14.132679
 31
0.0
  0
LINE
  8
0
 10
81.0943
 20
14.132679
 30
0.0
 11
80.983552
 21
14.160366
 31
0.0
  0
LINE
  8
0
 10
80.68295
 20
12.729541
 30
0.0
 11
80.68295
 21
9.380895
 31
0.0
  0
LINE
  8
0
 10
80.68295
 20
9.380895
 30
0.0
 11
80.676028
 21
9.329477
 31
0.0
  0
LINE
  8
0
 10
80.676028
 20
9.329477
 30
0.0
 11
80.658724
 21
9.281024
 31
0.0
  0
LINE
  8
0
 10
80.658724
 20
9.281024
 30
0.0
 11
80.627576
 21
9.242955
 31
0.0
  0
LINE
  8
0
 10
80.627576
 20
9.242955
 30
0.0
 11
80.58654
 21
9.211807
 31
0.0
  0
LINE
  8
0
 10
80.58654
 20
9.211807
 30
0.0
 11
80.538087
 21
9.191042
 31
0.0
  0
LINE
  8
0
 10
77.825255
 20
8.461786
 30
0.0
 11
80.538087
 21
9.191042
 31
0.0
  0
LINE
  8
0
 10
77.825255
 20
8.461786
 30
0.0
 11
77.825255
 21
3.64474
 31
0.0
  0
LINE
  8
0
 10
76.263411
 20
4.422448
 30
0.0
 11
76.263411
 21
7.445771
 31
0.0
  0
LINE
  8
0
 10
76.263411
 20
7.445771
 30
0.0
 11
76.263411
 21
4.425909
 31
0.0
  0
LINE
  8
0
 10
78.288518
 20
3.64474
 30
0.0
 11
77.825255
 21
3.64474
 31
0.0
  0
LINE
  8
0
 10
77.825255
 20
3.64474
 30
0.0
 11
77.818333
 21
3.64474
 31
0.0
  0
LINE
  8
0
 10
77.818333
 20
3.64474
 30
0.0
 11
77.797568
 21
3.64474
 31
0.0
  0
LINE
  8
0
 10
77.797568
 20
3.64474
 30
0.0
 11
77.76642
 21
3.64474
 31
0.0
  0
LINE
  8
0
 10
77.76642
 20
3.64474
 30
0.0
 11
77.721428
 21
3.64474
 31
0.0
  0
LINE
  8
0
 10
77.721428
 20
3.64474
 30
0.0
 11
77.663088
 21
3.64474
 31
0.0
  0
LINE
  8
0
 10
77.663088
 20
3.64474
 30
0.0
 11
77.597331
 21
3.64474
 31
0.0
  0
LINE
  8
0
 10
77.597331
 20
3.64474
 30
0.0
 11
77.521192
 21
3.64474
 31
0.0
  0
LINE
  8
0
 10
77.521192
 20
3.64474
 30
0.0
 11
77.43467
 21
3.64474
 31
0.0
  0
LINE
  8
0
 10
77.43467
 20
3.64474
 30
0.0
 11
77.345182
 21
3.64474
 31
0.0
  0
LINE
  8
0
 10
77.345182
 20
3.64474
 30
0.0
 11
77.248277
 21
3.64474
 31
0.0
  0
LINE
  8
0
 10
77.248277
 20
3.64474
 30
0.0
 11
77.147912
 21
3.64474
 31
0.0
  0
LINE
  8
0
 10
77.147912
 20
3.64474
 30
0.0
 11
77.047546
 21
3.64474
 31
0.0
  0
LINE
  8
0
 10
77.047546
 20
3.64474
 30
0.0
 11
77.044085
 21
3.64474
 31
0.0
  0
LINE
  8
0
 10
77.047546
 20
8.254627
 30
0.0
 11
77.040625
 21
8.254627
 31
0.0
  0
LINE
  8
0
 10
77.040625
 20
8.254627
 30
0.0
 11
77.037164
 21
8.254627
 31
0.0
  0
LINE
  8
0
 10
77.037164
 20
8.254627
 30
0.0
 11
76.843849
 21
8.199253
 31
0.0
  0
LINE
  8
0
 10
76.843849
 20
8.199253
 30
0.0
 11
76.819623
 21
8.195792
 31
0.0
  0
LINE
  8
0
 10
76.819623
 20
8.195792
 30
0.0
 11
76.802319
 21
8.188871
 31
0.0
  0
LINE
  8
0
 10
76.802319
 20
8.188871
 30
0.0
 11
76.781553
 21
8.181949
 31
0.0
  0
LINE
  8
0
 10
76.781553
 20
8.181949
 30
0.0
 11
76.760788
 21
8.175027
 31
0.0
  0
LINE
  8
0
 10
76.760788
 20
8.175027
 30
0.0
 11
76.740023
 21
8.164645
 31
0.0
  0
LINE
  8
0
 10
76.740023
 20
8.164645
 30
0.0
 11
76.719257
 21
8.157723
 31
0.0
  0
LINE
  8
0
 10
76.719257
 20
8.157723
 30
0.0
 11
76.701953
 21
8.14734
 31
0.0
  0
LINE
  8
0
 10
76.701953
 20
8.14734
 30
0.0
 11
76.681682
 21
8.136958
 31
0.0
  0
LINE
  8
0
 10
76.681682
 20
8.136958
 30
0.0
 11
76.660917
 21
8.126575
 31
0.0
  0
LINE
  8
0
 10
76.660917
 20
8.126575
 30
0.0
 11
76.643613
 21
8.116192
 31
0.0
  0
LINE
  8
0
 10
76.643613
 20
8.116192
 30
0.0
 11
76.626308
 21
8.10581
 31
0.0
  0
LINE
  8
0
 10
76.626308
 20
8.10581
 30
0.0
 11
76.605543
 21
8.091966
 31
0.0
  0
LINE
  8
0
 10
76.605543
 20
8.091966
 30
0.0
 11
76.588239
 21
8.081584
 31
0.0
  0
LINE
  8
0
 10
76.588239
 20
8.081584
 30
0.0
 11
76.570934
 21
8.06774
 31
0.0
  0
LINE
  8
0
 10
76.570934
 20
8.06774
 30
0.0
 11
76.55363
 21
8.054391
 31
0.0
  0
LINE
  8
0
 10
76.55363
 20
8.054391
 30
0.0
 11
76.539786
 21
8.040547
 31
0.0
  0
LINE
  8
0
 10
76.539786
 20
8.040547
 30
0.0
 11
76.522482
 21
8.026704
 31
0.0
  0
LINE
  8
0
 10
76.522482
 20
8.026704
 30
0.0
 11
76.505178
 21
8.01286
 31
0.0
  0
LINE
  8
0
 10
76.505178
 20
8.01286
 30
0.0
 11
76.491334
 21
7.995556
 31
0.0
  0
LINE
  8
0
 10
76.491334
 20
7.995556
 30
0.0
 11
76.47403
 21
7.981713
 31
0.0
  0
LINE
  8
0
 10
76.47403
 20
7.981713
 30
0.0
 11
76.460186
 21
7.964408
 31
0.0
  0
LINE
  8
0
 10
76.460186
 20
7.964408
 30
0.0
 11
76.446343
 21
7.947104
 31
0.0
  0
LINE
  8
0
 10
76.446343
 20
7.947104
 30
0.0
 11
76.432499
 21
7.93326
 31
0.0
  0
LINE
  8
0
 10
76.432499
 20
7.93326
 30
0.0
 11
76.418656
 21
7.915956
 31
0.0
  0
LINE
  8
0
 10
76.418656
 20
7.915956
 30
0.0
 11
76.408273
 21
7.898652
 31
0.0
  0
LINE
  8
0
 10
76.408273
 20
7.898652
 30
0.0
 11
76.39443
 21
7.877886
 31
0.0
  0
LINE
  8
0
 10
76.39443
 20
7.877886
 30
0.0
 11
76.384047
 21
7.860582
 31
0.0
  0
LINE
  8
0
 10
76.384047
 20
7.860582
 30
0.0
 11
76.370698
 21
7.843277
 31
0.0
  0
LINE
  8
0
 10
76.370698
 20
7.843277
 30
0.0
 11
76.360315
 21
7.822512
 31
0.0
  0
LINE
  8
0
 10
76.360315
 20
7.822512
 30
0.0
 11
76.349933
 21
7.805208
 31
0.0
  0
LINE
  8
0
 10
76.349933
 20
7.805208
 30
0.0
 11
76.343011
 21
7.784443
 31
0.0
  0
LINE
  8
0
 10
76.343011
 20
7.784443
 30
0.0
 11
76.332628
 21
7.767138
 31
0.0
  0
LINE
  8
0
 10
76.332628
 20
7.767138
 30
0.0
 11
76.322246
 21
7.746867
 31
0.0
  0
LINE
  8
0
 10
76.322246
 20
7.746867
 30
0.0
 11
76.315324
 21
7.726102
 31
0.0
  0
LINE
  8
0
 10
76.315324
 20
7.726102
 30
0.0
 11
76.308402
 21
7.705337
 31
0.0
  0
LINE
  8
0
 10
76.308402
 20
7.705337
 30
0.0
 11
76.30148
 21
7.684572
 31
0.0
  0
LINE
  8
0
 10
76.30148
 20
7.684572
 30
0.0
 11
76.294559
 21
7.663806
 31
0.0
  0
LINE
  8
0
 10
76.294559
 20
7.663806
 30
0.0
 11
76.291098
 21
7.643041
 31
0.0
  0
LINE
  8
0
 10
76.291098
 20
7.643041
 30
0.0
 11
76.284176
 21
7.622276
 31
0.0
  0
LINE
  8
0
 10
76.284176
 20
7.622276
 30
0.0
 11
76.280715
 21
7.601511
 31
0.0
  0
LINE
  8
0
 10
76.280715
 20
7.601511
 30
0.0
 11
76.277254
 21
7.580745
 31
0.0
  0
LINE
  8
0
 10
76.277254
 20
7.580745
 30
0.0
 11
76.273793
 21
7.55998
 31
0.0
  0
LINE
  8
0
 10
76.273793
 20
7.55998
 30
0.0
 11
76.270332
 21
7.535754
 31
0.0
  0
LINE
  8
0
 10
76.270332
 20
7.535754
 30
0.0
 11
76.266871
 21
7.514989
 31
0.0
  0
LINE
  8
0
 10
76.266871
 20
7.514989
 30
0.0
 11
76.266871
 21
7.494223
 31
0.0
  0
LINE
  8
0
 10
76.266871
 20
7.494223
 30
0.0
 11
76.263411
 21
7.452693
 31
0.0
  0
LINE
  8
0
 10
76.263411
 20
7.452693
 30
0.0
 11
76.263411
 21
7.449232
 31
0.0
  0
LINE
  8
0
 10
77.051007
 20
8.254627
 30
0.0
 11
77.224051
 21
8.30308
 31
0.0
  0
LINE
  8
0
 10
77.224051
 20
8.30308
 30
0.0
 11
77.324416
 21
8.330767
 31
0.0
  0
LINE
  8
0
 10
77.324416
 20
8.330767
 30
0.0
 11
77.417366
 21
8.354993
 31
0.0
  0
LINE
  8
0
 10
77.417366
 20
8.354993
 30
0.0
 11
77.507348
 21
8.379219
 31
0.0
  0
LINE
  8
0
 10
77.507348
 20
8.379219
 30
0.0
 11
77.586949
 21
8.39949
 31
0.0
  0
LINE
  8
0
 10
77.586949
 20
8.39949
 30
0.0
 11
77.656166
 21
8.416794
 31
0.0
  0
LINE
  8
0
 10
77.656166
 20
8.416794
 30
0.0
 11
77.714507
 21
8.434099
 31
0.0
  0
LINE
  8
0
 10
77.714507
 20
8.434099
 30
0.0
 11
77.762959
 21
8.447942
 31
0.0
  0
LINE
  8
0
 10
77.762959
 20
8.447942
 30
0.0
 11
77.797568
 21
8.454864
 31
0.0
  0
LINE
  8
0
 10
77.797568
 20
8.454864
 30
0.0
 11
77.818333
 21
8.461786
 31
0.0
  0
LINE
  8
0
 10
77.818333
 20
8.461786
 30
0.0
 11
77.825255
 21
8.461786
 31
0.0
  0
LINE
  8
0
 10
77.040625
 20
3.64474
 30
0.0
 11
77.016893
 21
3.64474
 31
0.0
  0
LINE
  8
0
 10
77.016893
 20
3.64474
 30
0.0
 11
76.989206
 21
3.648201
 31
0.0
  0
LINE
  8
0
 10
76.989206
 20
3.648201
 30
0.0
 11
76.96498
 21
3.648201
 31
0.0
  0
LINE
  8
0
 10
76.96498
 20
3.648201
 30
0.0
 11
76.937293
 21
3.651662
 31
0.0
  0
LINE
  8
0
 10
76.937293
 20
3.651662
 30
0.0
 11
76.913067
 21
3.658584
 31
0.0
  0
LINE
  8
0
 10
76.913067
 20
3.658584
 30
0.0
 11
76.88538
 21
3.662044
 31
0.0
  0
LINE
  8
0
 10
76.88538
 20
3.662044
 30
0.0
 11
76.861153
 21
3.668966
 31
0.0
  0
LINE
  8
0
 10
76.861153
 20
3.668966
 30
0.0
 11
76.836927
 21
3.672427
 31
0.0
  0
LINE
  8
0
 10
76.836927
 20
3.672427
 30
0.0
 11
76.80924
 21
3.68281
 31
0.0
  0
LINE
  8
0
 10
76.80924
 20
3.68281
 30
0.0
 11
76.785014
 21
3.689731
 31
0.0
  0
LINE
  8
0
 10
76.785014
 20
3.689731
 30
0.0
 11
76.760788
 21
3.700114
 31
0.0
  0
LINE
  8
0
 10
76.760788
 20
3.700114
 30
0.0
 11
76.736562
 21
3.707036
 31
0.0
  0
LINE
  8
0
 10
76.736562
 20
3.707036
 30
0.0
 11
76.712336
 21
3.717418
 31
0.0
  0
LINE
  8
0
 10
76.712336
 20
3.717418
 30
0.0
 11
76.69157
 21
3.731262
 31
0.0
  0
LINE
  8
0
 10
76.69157
 20
3.731262
 30
0.0
 11
76.667839
 21
3.741645
 31
0.0
  0
LINE
  8
0
 10
76.667839
 20
3.741645
 30
0.0
 11
76.643613
 21
3.755488
 31
0.0
  0
LINE
  8
0
 10
76.643613
 20
3.755488
 30
0.0
 11
76.622847
 21
3.769332
 31
0.0
  0
LINE
  8
0
 10
76.622847
 20
3.769332
 30
0.0
 11
76.602082
 21
3.783175
 31
0.0
  0
LINE
  8
0
 10
76.602082
 20
3.783175
 30
0.0
 11
76.581317
 21
3.800479
 31
0.0
  0
LINE
  8
0
 10
76.581317
 20
3.800479
 30
0.0
 11
76.560552
 21
3.814323
 31
0.0
  0
LINE
  8
0
 10
76.560552
 20
3.814323
 30
0.0
 11
76.539786
 21
3.831133
 31
0.0
  0
LINE
  8
0
 10
76.539786
 20
3.831133
 30
0.0
 11
76.519021
 21
3.848437
 31
0.0
  0
LINE
  8
0
 10
76.519021
 20
3.848437
 30
0.0
 11
76.501717
 21
3.865742
 31
0.0
  0
LINE
  8
0
 10
76.501717
 20
3.865742
 30
0.0
 11
76.480951
 21
3.883046
 31
0.0
  0
LINE
  8
0
 10
76.480951
 20
3.883046
 30
0.0
 11
76.463647
 21
3.903811
 31
0.0
  0
LINE
  8
0
 10
76.463647
 20
3.903811
 30
0.0
 11
76.446343
 21
3.924577
 31
0.0
  0
LINE
  8
0
 10
76.446343
 20
3.924577
 30
0.0
 11
76.432499
 21
3.941881
 31
0.0
  0
LINE
  8
0
 10
76.432499
 20
3.941881
 30
0.0
 11
76.415195
 21
3.962646
 31
0.0
  0
LINE
  8
0
 10
76.415195
 20
3.962646
 30
0.0
 11
76.401351
 21
3.983412
 31
0.0
  0
LINE
  8
0
 10
76.401351
 20
3.983412
 30
0.0
 11
76.387508
 21
4.007638
 31
0.0
  0
LINE
  8
0
 10
76.387508
 20
4.007638
 30
0.0
 11
76.373664
 21
4.028403
 31
0.0
  0
LINE
  8
0
 10
76.373664
 20
4.028403
 30
0.0
 11
76.360315
 21
4.052629
 31
0.0
  0
LINE
  8
0
 10
76.360315
 20
4.052629
 30
0.0
 11
76.346472
 21
4.073394
 31
0.0
  0
LINE
  8
0
 10
76.346472
 20
4.073394
 30
0.0
 11
76.336089
 21
4.09762
 31
0.0
  0
LINE
  8
0
 10
76.336089
 20
4.09762
 30
0.0
 11
76.325706
 21
4.121847
 31
0.0
  0
LINE
  8
0
 10
76.325706
 20
4.121847
 30
0.0
 11
76.315324
 21
4.146073
 31
0.0
  0
LINE
  8
0
 10
76.315324
 20
4.146073
 30
0.0
 11
76.308402
 21
4.169804
 31
0.0
  0
LINE
  8
0
 10
76.308402
 20
4.169804
 30
0.0
 11
76.298019
 21
4.194031
 31
0.0
  0
LINE
  8
0
 10
76.298019
 20
4.194031
 30
0.0
 11
76.291098
 21
4.218257
 31
0.0
  0
LINE
  8
0
 10
76.291098
 20
4.218257
 30
0.0
 11
76.284176
 21
4.245944
 31
0.0
  0
LINE
  8
0
 10
76.284176
 20
4.245944
 30
0.0
 11
76.280715
 21
4.27017
 31
0.0
  0
LINE
  8
0
 10
76.280715
 20
4.27017
 30
0.0
 11
76.273793
 21
4.294396
 31
0.0
  0
LINE
  8
0
 10
76.273793
 20
4.294396
 30
0.0
 11
76.270332
 21
4.322083
 31
0.0
  0
LINE
  8
0
 10
76.270332
 20
4.322083
 30
0.0
 11
76.266871
 21
4.346309
 31
0.0
  0
LINE
  8
0
 10
76.266871
 20
4.346309
 30
0.0
 11
76.266871
 21
4.373996
 31
0.0
  0
LINE
  8
0
 10
76.266871
 20
4.373996
 30
0.0
 11
76.263411
 21
4.398222
 31
0.0
  0
LINE
  8
0
 10
76.263411
 20
4.398222
 30
0.0
 11
76.263411
 21
4.422448
 31
0.0
  0
LINE
  8
0
 10
76.263411
 20
4.422448
 30
0.0
 11
76.263411
 21
4.425909
 31
0.0
  0
LINE
  8
0
 10
77.040625
 20
3.64474
 30
0.0
 11
77.044085
 21
3.64474
 31
0.0
  0
LINE
  8
0
 10
78.288518
 20
-20.451364
 30
0.0
 11
78.288518
 21
3.64474
 31
0.0
  0
LINE
  8
0
 10
77.825255
 20
-20.451364
 30
0.0
 11
77.825255
 21
-25.26841
 31
0.0
  0
LINE
  8
0
 10
76.519021
 20
-20.651601
 30
0.0
 11
76.501717
 21
-20.668905
 31
0.0
  0
LINE
  8
0
 10
76.501717
 20
-20.668905
 30
0.0
 11
76.484412
 21
-20.689671
 31
0.0
  0
LINE
  8
0
 10
76.484412
 20
-20.689671
 30
0.0
 11
76.463647
 21
-20.706975
 31
0.0
  0
LINE
  8
0
 10
76.463647
 20
-20.706975
 30
0.0
 11
76.446343
 21
-20.72774
 31
0.0
  0
LINE
  8
0
 10
76.446343
 20
-20.72774
 30
0.0
 11
76.432499
 21
-20.748505
 31
0.0
  0
LINE
  8
0
 10
76.432499
 20
-20.748505
 30
0.0
 11
76.415195
 21
-20.769271
 31
0.0
  0
LINE
  8
0
 10
76.415195
 20
-20.769271
 30
0.0
 11
76.401351
 21
-20.790036
 31
0.0
  0
LINE
  8
0
 10
76.401351
 20
-20.790036
 30
0.0
 11
76.387508
 21
-20.810801
 31
0.0
  0
LINE
  8
0
 10
76.387508
 20
-20.810801
 30
0.0
 11
76.373664
 21
-20.831566
 31
0.0
  0
LINE
  8
0
 10
76.373664
 20
-20.831566
 30
0.0
 11
76.360315
 21
-20.855793
 31
0.0
  0
LINE
  8
0
 10
76.360315
 20
-20.855793
 30
0.0
 11
76.346472
 21
-20.880019
 31
0.0
  0
LINE
  8
0
 10
76.346472
 20
-20.880019
 30
0.0
 11
76.336089
 21
-20.900784
 31
0.0
  0
LINE
  8
0
 10
76.336089
 20
-20.900784
 30
0.0
 11
76.325706
 21
-20.92501
 31
0.0
  0
LINE
  8
0
 10
76.325706
 20
-20.92501
 30
0.0
 11
76.315324
 21
-20.948742
 31
0.0
  0
LINE
  8
0
 10
76.315324
 20
-20.948742
 30
0.0
 11
76.308402
 21
-20.972968
 31
0.0
  0
LINE
  8
0
 10
76.308402
 20
-20.972968
 30
0.0
 11
76.298019
 21
-20.997194
 31
0.0
  0
LINE
  8
0
 10
76.298019
 20
-20.997194
 30
0.0
 11
76.291098
 21
-21.024881
 31
0.0
  0
LINE
  8
0
 10
76.291098
 20
-21.024881
 30
0.0
 11
76.284176
 21
-21.049107
 31
0.0
  0
LINE
  8
0
 10
76.284176
 20
-21.049107
 30
0.0
 11
76.280715
 21
-21.073333
 31
0.0
  0
LINE
  8
0
 10
76.280715
 20
-21.073333
 30
0.0
 11
76.273793
 21
-21.10102
 31
0.0
  0
LINE
  8
0
 10
76.273793
 20
-21.10102
 30
0.0
 11
76.270332
 21
-21.125247
 31
0.0
  0
LINE
  8
0
 10
76.270332
 20
-21.125247
 30
0.0
 11
76.266871
 21
-21.152934
 31
0.0
  0
LINE
  8
0
 10
76.266871
 20
-21.152934
 30
0.0
 11
76.266871
 21
-21.17716
 31
0.0
  0
LINE
  8
0
 10
76.266871
 20
-21.17716
 30
0.0
 11
76.263411
 21
-21.204847
 31
0.0
  0
LINE
  8
0
 10
76.263411
 20
-21.204847
 30
0.0
 11
76.263411
 21
-21.229073
 31
0.0
  0
LINE
  8
0
 10
76.263411
 20
-21.229073
 30
0.0
 11
76.263411
 21
-24.252396
 31
0.0
  0
LINE
  8
0
 10
76.263411
 20
-24.252396
 30
0.0
 11
76.266871
 21
-24.293926
 31
0.0
  0
LINE
  8
0
 10
76.266871
 20
-24.293926
 30
0.0
 11
76.266871
 21
-24.318152
 31
0.0
  0
LINE
  8
0
 10
76.266871
 20
-24.318152
 30
0.0
 11
76.270332
 21
-24.338917
 31
0.0
  0
LINE
  8
0
 10
76.270332
 20
-24.338917
 30
0.0
 11
76.270332
 21
-24.359683
 31
0.0
  0
LINE
  8
0
 10
76.270332
 20
-24.359683
 30
0.0
 11
76.273793
 21
-24.380448
 31
0.0
  0
LINE
  8
0
 10
76.273793
 20
-24.380448
 30
0.0
 11
76.280715
 21
-24.404674
 31
0.0
  0
LINE
  8
0
 10
76.280715
 20
-24.404674
 30
0.0
 11
76.284176
 21
-24.425439
 31
0.0
  0
LINE
  8
0
 10
76.284176
 20
-24.425439
 30
0.0
 11
76.287637
 21
-24.446205
 31
0.0
  0
LINE
  8
0
 10
76.287637
 20
-24.446205
 30
0.0
 11
76.294559
 21
-24.46697
 31
0.0
  0
LINE
  8
0
 10
76.294559
 20
-24.46697
 30
0.0
 11
76.30148
 21
-24.487735
 31
0.0
  0
LINE
  8
0
 10
76.30148
 20
-24.487735
 30
0.0
 11
76.308402
 21
-24.5085
 31
0.0
  0
LINE
  8
0
 10
76.308402
 20
-24.5085
 30
0.0
 11
76.315324
 21
-24.528771
 31
0.0
  0
LINE
  8
0
 10
76.315324
 20
-24.528771
 30
0.0
 11
76.322246
 21
-24.549536
 31
0.0
  0
LINE
  8
0
 10
76.322246
 20
-24.549536
 30
0.0
 11
76.332628
 21
-24.566841
 31
0.0
  0
LINE
  8
0
 10
76.332628
 20
-24.566841
 30
0.0
 11
76.33955
 21
-24.587606
 31
0.0
  0
LINE
  8
0
 10
76.33955
 20
-24.587606
 30
0.0
 11
76.349933
 21
-24.608371
 31
0.0
  0
LINE
  8
0
 10
76.349933
 20
-24.608371
 30
0.0
 11
76.360315
 21
-24.625676
 31
0.0
  0
LINE
  8
0
 10
76.360315
 20
-24.625676
 30
0.0
 11
76.370698
 21
-24.646441
 31
0.0
  0
LINE
  8
0
 10
76.370698
 20
-24.646441
 30
0.0
 11
76.380586
 21
-24.663745
 31
0.0
  0
LINE
  8
0
 10
76.380586
 20
-24.663745
 30
0.0
 11
76.39443
 21
-24.68105
 31
0.0
  0
LINE
  8
0
 10
76.39443
 20
-24.68105
 30
0.0
 11
76.404812
 21
-24.701815
 31
0.0
  0
LINE
  8
0
 10
76.404812
 20
-24.701815
 30
0.0
 11
76.418656
 21
-24.719119
 31
0.0
  0
LINE
  8
0
 10
76.418656
 20
-24.719119
 30
0.0
 11
76.432499
 21
-24.736424
 31
0.0
  0
LINE
  8
0
 10
76.432499
 20
-24.736424
 30
0.0
 11
76.446343
 21
-24.753728
 31
0.0
  0
LINE
  8
0
 10
76.446343
 20
-24.753728
 30
0.0
 11
76.460186
 21
-24.767572
 31
0.0
  0
LINE
  8
0
 10
76.460186
 20
-24.767572
 30
0.0
 11
76.47403
 21
-24.784876
 31
0.0
  0
LINE
  8
0
 10
76.47403
 20
-24.784876
 30
0.0
 11
76.487873
 21
-24.80218
 31
0.0
  0
LINE
  8
0
 10
76.487873
 20
-24.80218
 30
0.0
 11
76.505178
 21
-24.816024
 31
0.0
  0
LINE
  8
0
 10
76.505178
 20
-24.816024
 30
0.0
 11
76.522482
 21
-24.829867
 31
0.0
  0
LINE
  8
0
 10
76.522482
 20
-24.829867
 30
0.0
 11
76.536325
 21
-24.843711
 31
0.0
  0
LINE
  8
0
 10
76.536325
 20
-24.843711
 30
0.0
 11
76.55363
 21
-24.857554
 31
0.0
  0
LINE
  8
0
 10
76.55363
 20
-24.857554
 30
0.0
 11
76.570934
 21
-24.870904
 31
0.0
  0
LINE
  8
0
 10
76.570934
 20
-24.870904
 30
0.0
 11
76.588239
 21
-24.884747
 31
0.0
  0
LINE
  8
0
 10
76.588239
 20
-24.884747
 30
0.0
 11
76.605543
 21
-24.898591
 31
0.0
  0
LINE
  8
0
 10
76.605543
 20
-24.898591
 30
0.0
 11
76.622847
 21
-24.908973
 31
0.0
  0
LINE
  8
0
 10
76.622847
 20
-24.908973
 30
0.0
 11
76.643613
 21
-24.919356
 31
0.0
  0
LINE
  8
0
 10
76.643613
 20
-24.919356
 30
0.0
 11
76.660917
 21
-24.933199
 31
0.0
  0
LINE
  8
0
 10
76.660917
 20
-24.933199
 30
0.0
 11
76.681682
 21
-24.943582
 31
0.0
  0
LINE
  8
0
 10
76.681682
 20
-24.943582
 30
0.0
 11
76.698492
 21
-24.950504
 31
0.0
  0
LINE
  8
0
 10
76.698492
 20
-24.950504
 30
0.0
 11
76.719257
 21
-24.960886
 31
0.0
  0
LINE
  8
0
 10
76.719257
 20
-24.960886
 30
0.0
 11
76.740023
 21
-24.971269
 31
0.0
  0
LINE
  8
0
 10
76.740023
 20
-24.971269
 30
0.0
 11
76.760788
 21
-24.978191
 31
0.0
  0
LINE
  8
0
 10
76.760788
 20
-24.978191
 30
0.0
 11
76.781553
 21
-24.985112
 31
0.0
  0
LINE
  8
0
 10
76.781553
 20
-24.985112
 30
0.0
 11
76.798858
 21
-24.992034
 31
0.0
  0
LINE
  8
0
 10
76.798858
 20
-24.992034
 30
0.0
 11
76.819623
 21
-24.998956
 31
0.0
  0
LINE
  8
0
 10
76.819623
 20
-24.998956
 30
0.0
 11
76.843849
 21
-25.005878
 31
0.0
  0
LINE
  8
0
 10
76.843849
 20
-25.005878
 30
0.0
 11
77.040625
 21
-25.057791
 31
0.0
  0
LINE
  8
0
 10
77.040625
 20
-25.057791
 30
0.0
 11
77.047546
 21
-25.061252
 31
0.0
  0
LINE
  8
0
 10
77.047546
 20
-25.061252
 30
0.0
 11
77.151373
 21
-25.088939
 31
0.0
  0
LINE
  8
0
 10
77.151373
 20
-25.088939
 30
0.0
 11
77.251738
 21
-25.116626
 31
0.0
  0
LINE
  8
0
 10
77.251738
 20
-25.116626
 30
0.0
 11
77.351609
 21
-25.140852
 31
0.0
  0
LINE
  8
0
 10
77.351609
 20
-25.140852
 30
0.0
 11
77.445053
 21
-25.168539
 31
0.0
  0
LINE
  8
0
 10
77.445053
 20
-25.168539
 30
0.0
 11
77.528114
 21
-25.18881
 31
0.0
  0
LINE
  8
0
 10
77.528114
 20
-25.18881
 30
0.0
 11
77.607714
 21
-25.209575
 31
0.0
  0
LINE
  8
0
 10
77.607714
 20
-25.209575
 30
0.0
 11
77.673471
 21
-25.226879
 31
0.0
  0
LINE
  8
0
 10
77.673471
 20
-25.226879
 30
0.0
 11
77.72835
 21
-25.244184
 31
0.0
  0
LINE
  8
0
 10
77.72835
 20
-25.244184
 30
0.0
 11
77.773342
 21
-25.254566
 31
0.0
  0
LINE
  8
0
 10
77.773342
 20
-25.254566
 30
0.0
 11
77.804489
 21
-25.261488
 31
0.0
  0
LINE
  8
0
 10
77.804489
 20
-25.261488
 30
0.0
 11
77.825255
 21
-25.26841
 31
0.0
  0
LINE
  8
0
 10
76.263411
 20
-24.252396
 30
0.0
 11
76.263411
 21
-21.229073
 31
0.0
  0
LINE
  8
0
 10
76.519021
 20
-20.651601
 30
0.0
 11
76.539786
 21
-20.634296
 31
0.0
  0
LINE
  8
0
 10
76.539786
 20
-20.634296
 30
0.0
 11
76.560552
 21
-20.620453
 31
0.0
  0
LINE
  8
0
 10
76.560552
 20
-20.620453
 30
0.0
 11
76.581317
 21
-20.603643
 31
0.0
  0
LINE
  8
0
 10
76.581317
 20
-20.603643
 30
0.0
 11
76.602082
 21
-20.5898
 31
0.0
  0
LINE
  8
0
 10
76.602082
 20
-20.5898
 30
0.0
 11
76.622847
 21
-20.572495
 31
0.0
  0
LINE
  8
0
 10
76.622847
 20
-20.572495
 30
0.0
 11
76.647073
 21
-20.558652
 31
0.0
  0
LINE
  8
0
 10
76.647073
 20
-20.558652
 30
0.0
 11
76.667839
 21
-20.548269
 31
0.0
  0
LINE
  8
0
 10
76.667839
 20
-20.548269
 30
0.0
 11
76.69157
 21
-20.534425
 31
0.0
  0
LINE
  8
0
 10
76.69157
 20
-20.534425
 30
0.0
 11
76.712336
 21
-20.524043
 31
0.0
  0
LINE
  8
0
 10
76.712336
 20
-20.524043
 30
0.0
 11
76.736562
 21
-20.51366
 31
0.0
  0
LINE
  8
0
 10
76.736562
 20
-20.51366
 30
0.0
 11
76.760788
 21
-20.503278
 31
0.0
  0
LINE
  8
0
 10
76.760788
 20
-20.503278
 30
0.0
 11
76.785014
 21
-20.492895
 31
0.0
  0
LINE
  8
0
 10
76.785014
 20
-20.492895
 30
0.0
 11
76.812701
 21
-20.485973
 31
0.0
  0
LINE
  8
0
 10
76.812701
 20
-20.485973
 30
0.0
 11
76.836927
 21
-20.479051
 31
0.0
  0
LINE
  8
0
 10
76.836927
 20
-20.479051
 30
0.0
 11
76.861153
 21
-20.47213
 31
0.0
  0
LINE
  8
0
 10
76.861153
 20
-20.47213
 30
0.0
 11
76.88538
 21
-20.465208
 31
0.0
  0
LINE
  8
0
 10
76.88538
 20
-20.465208
 30
0.0
 11
76.913067
 21
-20.461747
 31
0.0
  0
LINE
  8
0
 10
76.913067
 20
-20.461747
 30
0.0
 11
76.937293
 21
-20.458286
 31
0.0
  0
LINE
  8
0
 10
76.937293
 20
-20.458286
 30
0.0
 11
76.96498
 21
-20.454825
 31
0.0
  0
LINE
  8
0
 10
76.96498
 20
-20.454825
 30
0.0
 11
76.989206
 21
-20.451364
 31
0.0
  0
LINE
  8
0
 10
76.989206
 20
-20.451364
 30
0.0
 11
77.016893
 21
-20.451364
 31
0.0
  0
LINE
  8
0
 10
77.016893
 20
-20.451364
 30
0.0
 11
77.040625
 21
-20.451364
 31
0.0
  0
LINE
  8
0
 10
77.040625
 20
-20.451364
 30
0.0
 11
77.044085
 21
-20.451364
 31
0.0
  0
LINE
  8
0
 10
77.044085
 20
-20.451364
 30
0.0
 11
77.047546
 21
-20.451364
 31
0.0
  0
LINE
  8
0
 10
77.047546
 20
-20.451364
 30
0.0
 11
77.147912
 21
-20.451364
 31
0.0
  0
LINE
  8
0
 10
77.147912
 20
-20.451364
 30
0.0
 11
77.248277
 21
-20.451364
 31
0.0
  0
LINE
  8
0
 10
77.248277
 20
-20.451364
 30
0.0
 11
77.345182
 21
-20.451364
 31
0.0
  0
LINE
  8
0
 10
77.345182
 20
-20.451364
 30
0.0
 11
77.43467
 21
-20.451364
 31
0.0
  0
LINE
  8
0
 10
77.43467
 20
-20.451364
 30
0.0
 11
77.521192
 21
-20.451364
 31
0.0
  0
LINE
  8
0
 10
77.521192
 20
-20.451364
 30
0.0
 11
77.597331
 21
-20.451364
 31
0.0
  0
LINE
  8
0
 10
77.597331
 20
-20.451364
 30
0.0
 11
77.663088
 21
-20.451364
 31
0.0
  0
LINE
  8
0
 10
77.663088
 20
-20.451364
 30
0.0
 11
77.721428
 21
-20.451364
 31
0.0
  0
LINE
  8
0
 10
77.721428
 20
-20.451364
 30
0.0
 11
77.76642
 21
-20.451364
 31
0.0
  0
LINE
  8
0
 10
77.76642
 20
-20.451364
 30
0.0
 11
77.797568
 21
-20.451364
 31
0.0
  0
LINE
  8
0
 10
77.797568
 20
-20.451364
 30
0.0
 11
77.818333
 21
-20.451364
 31
0.0
  0
LINE
  8
0
 10
77.818333
 20
-20.451364
 30
0.0
 11
77.825255
 21
-20.451364
 31
0.0
  0
LINE
  8
0
 10
77.825255
 20
-20.451364
 30
0.0
 11
78.288518
 21
-20.451364
 31
0.0
  0
LINE
  8
0
 10
77.825255
 20
-25.26841
 30
0.0
 11
80.538087
 21
-25.997666
 31
0.0
  0
LINE
  8
0
 10
80.58654
 20
-26.01497
 30
0.0
 11
80.627576
 21
-26.046118
 31
0.0
  0
LINE
  8
0
 10
80.627576
 20
-26.046118
 30
0.0
 11
80.658724
 21
-26.087649
 31
0.0
  0
LINE
  8
0
 10
80.68295
 20
-26.184059
 30
0.0
 11
80.68295
 21
-29.532704
 31
0.0
  0
LINE
  8
0
 10
81.788947
 20
-30.002889
 30
0.0
 11
81.788947
 21
13.199725
 31
0.0
  0
LINE
  8
0
 10
80.68295
 20
-29.532704
 30
0.0
 11
80.676028
 21
-29.588078
 31
0.0
  0
LINE
  8
0
 10
80.676028
 20
-29.588078
 30
0.0
 11
80.655263
 21
-29.63653
 31
0.0
  0
LINE
  8
0
 10
80.655263
 20
-29.63653
 30
0.0
 11
80.620654
 21
-29.678061
 31
0.0
  0
LINE
  8
0
 10
80.620654
 20
-29.678061
 30
0.0
 11
80.576157
 21
-29.709209
 31
0.0
  0
LINE
  8
0
 10
80.576157
 20
-29.709209
 30
0.0
 11
80.524244
 21
-29.726513
 31
0.0
  0
LINE
  8
0
 10
81.788947
 20
-30.002889
 30
0.0
 11
81.782025
 21
-30.116603
 31
0.0
  0
LINE
  8
0
 10
81.782025
 20
-30.116603
 30
0.0
 11
81.76126
 21
-30.227351
 31
0.0
  0
LINE
  8
0
 10
81.76126
 20
-30.227351
 30
0.0
 11
81.730112
 21
-30.338099
 31
0.0
  0
LINE
  8
0
 10
81.730112
 20
-30.338099
 30
0.0
 11
81.685121
 21
-30.441431
 31
0.0
  0
LINE
  8
0
 10
81.685121
 20
-30.441431
 30
0.0
 11
81.629747
 21
-30.538336
 31
0.0
  0
LINE
  8
0
 10
81.629747
 20
-30.538336
 30
0.0
 11
81.561024
 21
-30.631779
 31
0.0
  0
LINE
  8
0
 10
81.561024
 20
-30.631779
 30
0.0
 11
81.481423
 21
-30.71138
 31
0.0
  0
LINE
  8
0
 10
81.481423
 20
-30.71138
 30
0.0
 11
81.394901
 21
-30.787025
 31
0.0
  0
LINE
  8
0
 10
81.394901
 20
-30.787025
 30
0.0
 11
81.301458
 21
-30.84932
 31
0.0
  0
LINE
  8
0
 10
81.301458
 20
-30.84932
 30
0.0
 11
81.201587
 21
-30.897773
 31
0.0
  0
LINE
  8
0
 10
81.201587
 20
-30.897773
 30
0.0
 11
81.0943
 21
-30.939303
 31
0.0
  0
LINE
  8
0
 10
81.0943
 20
-30.939303
 30
0.0
 11
80.983552
 21
-30.963529
 31
0.0
  0
LINE
  8
0
 10
80.524244
 20
-29.726513
 30
0.0
 11
78.426458
 21
-30.095838
 31
0.0
  0
LINE
  8
0
 10
78.654382
 20
-31.374385
 30
0.0
 11
80.983552
 21
-30.963529
 31
0.0
  0
LINE
  8
0
 10
79.162636
 20
-30.918538
 30
0.0
 11
79.183401
 21
-30.828555
 31
0.0
  0
LINE
  8
0
 10
79.183401
 20
-30.828555
 30
0.0
 11
79.190323
 21
-30.735111
 31
0.0
  0
LINE
  8
0
 10
79.190323
 20
-30.735111
 30
0.0
 11
79.183401
 21
-30.642162
 31
0.0
  0
LINE
  8
0
 10
79.183401
 20
-30.642162
 30
0.0
 11
79.162636
 21
-30.552179
 31
0.0
  0
LINE
  8
0
 10
79.162636
 20
-30.552179
 30
0.0
 11
79.131488
 21
-30.465657
 31
0.0
  0
LINE
  8
0
 10
79.131488
 20
-30.465657
 30
0.0
 11
79.086497
 21
-30.382596
 31
0.0
  0
LINE
  8
0
 10
79.086497
 20
-30.382596
 30
0.0
 11
79.031123
 21
-30.310412
 31
0.0
  0
LINE
  8
0
 10
79.031123
 20
-30.310412
 30
0.0
 11
78.965861
 21
-30.244656
 31
0.0
  0
LINE
  8
0
 10
78.965861
 20
-30.244656
 30
0.0
 11
78.889721
 21
-30.189282
 31
0.0
  0
LINE
  8
0
 10
78.889721
 20
-30.189282
 30
0.0
 11
78.810121
 21
-30.14429
 31
0.0
  0
LINE
  8
0
 10
78.810121
 20
-30.14429
 30
0.0
 11
78.723599
 21
-30.109682
 31
0.0
  0
LINE
  8
0
 10
78.723599
 20
-30.109682
 30
0.0
 11
78.63065
 21
-30.092377
 31
0.0
  0
LINE
  8
0
 10
78.63065
 20
-30.092377
 30
0.0
 11
78.540667
 21
-30.085455
 31
0.0
  0
LINE
  8
0
 10
78.540667
 20
-30.085455
 30
0.0
 11
78.447224
 21
-30.092377
 31
0.0
  0
LINE
  8
0
 10
78.447224
 20
-30.092377
 30
0.0
 11
78.357241
 21
-30.109682
 31
0.0
  0
LINE
  8
0
 10
78.357241
 20
-30.109682
 30
0.0
 11
78.267752
 21
-30.14429
 31
0.0
  0
LINE
  8
0
 10
78.267752
 20
-30.14429
 30
0.0
 11
78.188152
 21
-30.189282
 31
0.0
  0
LINE
  8
0
 10
78.188152
 20
-30.189282
 30
0.0
 11
78.112013
 21
-30.244656
 31
0.0
  0
LINE
  8
0
 10
78.112013
 20
-30.244656
 30
0.0
 11
78.046256
 21
-30.310412
 31
0.0
  0
LINE
  8
0
 10
78.046256
 20
-30.310412
 30
0.0
 11
77.991377
 21
-30.382596
 31
0.0
  0
LINE
  8
0
 10
77.991377
 20
-30.382596
 30
0.0
 11
77.946385
 21
-30.465657
 31
0.0
  0
LINE
  8
0
 10
77.946385
 20
-30.465657
 30
0.0
 11
77.915237
 21
-30.552179
 31
0.0
  0
LINE
  8
0
 10
77.915237
 20
-30.552179
 30
0.0
 11
77.894472
 21
-30.642162
 31
0.0
  0
LINE
  8
0
 10
77.894472
 20
-30.642162
 30
0.0
 11
77.88755
 21
-30.735111
 31
0.0
  0
LINE
  8
0
 10
77.88755
 20
-30.735111
 30
0.0
 11
77.894472
 21
-30.828555
 31
0.0
  0
LINE
  8
0
 10
77.894472
 20
-30.828555
 30
0.0
 11
77.915237
 21
-30.918538
 31
0.0
  0
LINE
  8
0
 10
77.915237
 20
-30.918538
 30
0.0
 11
77.946385
 21
-31.00506
 31
0.0
  0
LINE
  8
0
 10
77.946385
 20
-31.00506
 30
0.0
 11
77.991377
 21
-31.087626
 31
0.0
  0
LINE
  8
0
 10
77.991377
 20
-31.087626
 30
0.0
 11
78.046256
 21
-31.160305
 31
0.0
  0
LINE
  8
0
 10
78.046256
 20
-31.160305
 30
0.0
 11
78.112013
 21
-31.226061
 31
0.0
  0
LINE
  8
0
 10
78.112013
 20
-31.226061
 30
0.0
 11
78.188152
 21
-31.281435
 31
0.0
  0
LINE
  8
0
 10
78.188152
 20
-31.281435
 30
0.0
 11
78.267752
 21
-31.326427
 31
0.0
  0
LINE
  8
0
 10
78.267752
 20
-31.326427
 30
0.0
 11
78.357241
 21
-31.357575
 31
0.0
  0
LINE
  8
0
 10
78.357241
 20
-31.357575
 30
0.0
 11
78.447224
 21
-31.377846
 31
0.0
  0
LINE
  8
0
 10
78.447224
 20
-31.377846
 30
0.0
 11
78.540667
 21
-31.384767
 31
0.0
  0
LINE
  8
0
 10
78.540667
 20
-31.384767
 30
0.0
 11
78.63065
 21
-31.377846
 31
0.0
  0
LINE
  8
0
 10
78.63065
 20
-31.377846
 30
0.0
 11
78.723599
 21
-31.357575
 31
0.0
  0
LINE
  8
0
 10
78.723599
 20
-31.357575
 30
0.0
 11
78.810121
 21
-31.326427
 31
0.0
  0
LINE
  8
0
 10
78.810121
 20
-31.326427
 30
0.0
 11
78.889721
 21
-31.281435
 31
0.0
  0
LINE
  8
0
 10
78.889721
 20
-31.281435
 30
0.0
 11
78.965861
 21
-31.226061
 31
0.0
  0
LINE
  8
0
 10
78.965861
 20
-31.226061
 30
0.0
 11
79.031123
 21
-31.160305
 31
0.0
  0
LINE
  8
0
 10
79.031123
 20
-31.160305
 30
0.0
 11
79.086497
 21
-31.087626
 31
0.0
  0
LINE
  8
0
 10
79.086497
 20
-31.087626
 30
0.0
 11
79.131488
 21
-31.00506
 31
0.0
  0
LINE
  8
0
 10
79.131488
 20
-31.00506
 30
0.0
 11
79.162636
 21
-30.918538
 31
0.0
  0
ENDSEC
  0
EOF
