  0
SECTION
  2
HEADER
  9
$ACADVER
  1
AC1009
  9
$INSBASE
 10
0.0
 20
0.0
 30
0.0
  9
$EXTMIN
 10
-140.162305
 20
-107.473707
 30
0.0
  9
$EXTMAX
 10
-80.162979
 20
42.526293
 30
0.0
  9
$LIMMIN
 10
-140.162305
 20
-107.473707
  9
$LIMMAX
 10
-80.162979
 20
42.526293
  9
$ORTHOMODE
 70
     0
  9
$REGENMODE
 70
     1
  9
$FILLMODE
 70
     1
  9
$QTEXTMODE
 70
     0
  9
$MIRRTEXT
 70
     1
  9
$DRAGMODE
 70
     2
  9
$LTSCALE
 40
1.0
  9
$OSMODE
 70
     0
  9
$ATTMODE
 70
     1
  9
$TEXTSIZE
 40
3.5
  9
$TRACEWID
 40
0.5
  9
$TEXTSTYLE
  7
STANDARD
  9
$CLAYER
  8
0
  9
$CELTYPE
  6
BYLAYER
  9
$CECOLOR
 62
   256
  9
$DIMSCALE
 40
1.0
  9
$DIMASZ
 40
0.18
  9
$DIMEXO
 40
0.0625
  9
$DIMDLI
 40
0.38
  9
$DIMRND
 40
0.0
  9
$DIMDLE
 40
0.0
  9
$DIMEXE
 40
0.18
  9
$DIMTP
 40
0.0
  9
$DIMTM
 40
0.0
  9
$DIMTXT
 40
0.18
  9
$DIMCEN
 40
0.09
  9
$DIMTSZ
 40
0.0
  9
$DIMTOL
 70
     0
  9
$DIMLIM
 70
     0
  9
$DIMTIH
 70
     1
  9
$DIMTOH
 70
     1
  9
$DIMSE1
 70
     0
  9
$DIMSE2
 70
     0
  9
$DIMTAD
 70
     0
  9
$DIMZIN
 70
     0
  9
$DIMBLK
  1

  9
$DIMASO
 70
     1
  9
$DIMSHO
 70
     1
  9
$DIMPOST
  1

  9
$DIMAPOST
  1

  9
$DIMALT
 70
     0
  9
$DIMALTD
 70
     2
  9
$DIMALTF
 40
25.4
  9
$DIMLFAC
 40
1.0
  9
$DIMTOFL
 70
     0
  9
$DIMTVP
 40
0.0
  9
$DIMTIX
 70
     0
  9
$DIMSOXD
 70
     0
  9
$DIMSAH
 70
     0
  9
$DIMBLK1
  1

  9
$DIMBLK2
  1

  9
$DIMSTYLE
  2
*UNNAMED
  9
$DIMCLRD
 70
     0
  9
$DIMCLRE
 70
     0
  9
$DIMCLRT
 70
     0
  9
$DIMTFAC
 40
1.0
  9
$DIMGAP
 40
0.09
  9
$LUNITS
 70
     2
  9
$LUPREC
 70
     4
  9
$SKETCHINC
 40
0.1
  9
$FILLETRAD
 40
2.0
  9
$AUNITS
 70
     0
  9
$AUPREC
 70
     0
  9
$MENU
  1
ACAD
  9
$ELEVATION
 40
0.0
  9
$PELEVATION
 40
0.0
  9
$THICKNESS
 40
0.0
  9
$LIMCHECK
 70
     0
  9
$BLIPMODE
 70
     1
  9
$CHAMFERA
 40
0.0
  9
$CHAMFERB
 40
0.0
  9
$SKPOLY
 70
     0
  9
$TDCREATE
 40
2450952.725199537
  9
$TDUPDATE
 40
2450952.725860648
  9
$TDINDWG
 40
0.0004399306
  9
$TDUSRTIMER
 40
0.0004399306
  9
$USRTIMER
 70
     1
  9
$ANGBASE
 50
0.0
  9
$ANGDIR
 70
     0
  9
$PDMODE
 70
     0
  9
$PDSIZE
 40
0.0
  9
$PLINEWID
 40
0.0
  9
$COORDS
 70
     2
  9
$SPLFRAME
 70
     0
  9
$SPLINETYPE
 70
     6
  9
$SPLINESEGS
 70
     8
  9
$ATTDIA
 70
     0
  9
$ATTREQ
 70
     1
  9
$HANDLING
 70
     0
  9
$HANDSEED
  5
0
  9
$SURFTAB1
 70
     6
  9
$SURFTAB2
 70
     6
  9
$SURFTYPE
 70
     6
  9
$SURFU
 70
     6
  9
$SURFV
 70
     6
  9
$UCSNAME
  2

  9
$UCSORG
 10
0.0
 20
0.0
 30
0.0
  9
$UCSXDIR
 10
1.0
 20
0.0
 30
0.0
  9
$UCSYDIR
 10
0.0
 20
1.0
 30
0.0
  9
$PUCSNAME
  2

  9
$PUCSORG
 10
0.0
 20
0.0
 30
0.0
  9
$PUCSXDIR
 10
1.0
 20
0.0
 30
0.0
  9
$PUCSYDIR
 10
0.0
 20
1.0
 30
0.0
  9
$USERI1
 70
     0
  9
$USERI2
 70
     0
  9
$USERI3
 70
     0
  9
$USERI4
 70
     0
  9
$USERI5
 70
     0
  9
$USERR1
 40
0.0
  9
$USERR2
 40
0.0
  9
$USERR3
 40
0.0
  9
$USERR4
 40
0.0
  9
$USERR5
 40
0.0
  9
$WORLDVIEW
 70
     1
  9
$SHADEDGE
 70
     3
  9
$SHADEDIF
 70
    70
  9
$TILEMODE
 70
     1
  9
$MAXACTVP
 70
    16
  9
$PINSBASE
 10
0.0
 20
0.0
 30
0.0
  9
$PLIMCHECK
 70
     0
  9
$PEXTMIN
 10
1.000000E+20
 20
1.000000E+20
 30
1.000000E+20
  9
$PEXTMAX
 10
-1.000000E+20
 20
-1.000000E+20
 30
-1.000000E+20
  9
$PLIMMIN
 10
0.0
 20
0.0
  9
$PLIMMAX
 10
420.0
 20
297.0
  9
$UNITMODE
 70
     0
  9
$VISRETAIN
 70
     0
  9
$PLINEGEN
 70
     0
  9
$PSLTSCALE
 70
     1
  9
$TREEDEPTH
 70
  3020
  9
$DWGCODEPAGE
  3
iso8859-1
  0
ENDSEC
  0
SECTION
  2
TABLES
  0
TABLE
  2
VPORT
 70
     2
  0
VPORT
  2
*ACTIVE
 70
     0
 10
0.0
 20
0.0
 11
1.0
 21
1.0
 12
-9.764381
 22
-41.636791
 13
0.0
 23
0.0
 14
1.0
 24
1.0
 15
0.0
 25
0.0
 16
0.0
 26
0.0
 36
1.0
 17
0.0
 27
0.0
 37
0.0
 40
212.413792
 41
1.748359
 42
50.0
 43
0.0
 44
0.0
 50
0.0
 51
0.0
 71
     0
 72
   100
 73
     1
 74
     0
 75
     0
 76
     0
 77
     0
 78
     0
  0
ENDTAB
  0
TABLE
  2
LTYPE
 70
     1
  0
LTYPE
  2
CONTINUOUS
 70
    64
  3
Solid line
 72
    65
 73
     0
 40
0.0
  0
ENDTAB
  0
TABLE
  2
LAYER
 70
     1
  0
LAYER
  2
0
 70
    64
 62
     7
  6
CONTINUOUS
  0
ENDTAB
  0
TABLE
  2
STYLE
 70
     1
  0
STYLE
  2
STANDARD
 70
     0
 40
0.0
 41
1.0
 50
0.0
 71
     0
 42
3.5
  3
txt
  4

  0
ENDTAB
  0
TABLE
  2
VIEW
 70
     0
  0
ENDTAB
  0
TABLE
  2
UCS
 70
     0
  0
ENDTAB
  0
TABLE
  2
APPID
 70
     1
  0
APPID
  2
ACAD
 70
    64
  0
ENDTAB
  0
TABLE
  2
DIMSTYLE
 70
     0
  0
ENDTAB
  0
ENDSEC
  0
SECTION
  2
BLOCKS
  0
ENDSEC
  0
SECTION
  2
ENTITIES
  0
LINE
  8
0
 10
-117.964154
 20
-35.015958
 30
0.0
 11
-102.963232
 21
-35.015958
 31
0.0
  0
LINE
  8
0
 10
-120.134618
 20
19.413739
 30
0.0
 11
-120.067672
 21
42.526293
 31
0.0
  0
LINE
  8
0
 10
-119.992722
 20
-87.717689
 30
0.0
 11
-120.067672
 21
-107.473707
 31
0.0
  0
LINE
  8
0
 10
-84.938988
 20
9.285237
 30
0.0
 11
-87.637483
 21
9.285237
 31
0.0
  0
LINE
  8
0
 10
-84.938988
 20
13.383409
 30
0.0
 11
-84.938988
 21
9.285237
 31
0.0
  0
LINE
  8
0
 10
-87.637483
 20
13.383409
 30
0.0
 11
-84.938988
 21
13.383409
 31
0.0
  0
LINE
  8
0
 10
-87.637483
 20
9.285237
 30
0.0
 11
-87.637483
 21
13.383409
 31
0.0
  0
LINE
  8
0
 10
-87.637483
 20
-29.11368
 30
0.0
 11
-87.637483
 21
-33.215808
 31
0.0
  0
LINE
  8
0
 10
-84.938988
 20
-29.11368
 30
0.0
 11
-87.637483
 21
-29.11368
 31
0.0
  0
LINE
  8
0
 10
-84.938988
 20
-33.215808
 30
0.0
 11
-84.938988
 21
-29.11368
 31
0.0
  0
LINE
  8
0
 10
-87.637483
 20
-33.215808
 30
0.0
 11
-84.938988
 21
-33.215808
 31
0.0
  0
LINE
  8
0
 10
-120.155383
 20
-87.078415
 30
0.0
 11
-120.162305
 21
-86.916249
 31
0.0
  0
LINE
  8
0
 10
-120.134618
 20
-87.244538
 30
0.0
 11
-120.155383
 21
-87.078415
 31
0.0
  0
LINE
  8
0
 10
-120.100009
 20
-87.406704
 30
0.0
 11
-120.134618
 21
-87.244538
 31
0.0
  0
LINE
  8
0
 10
-120.055017
 20
-87.562444
 30
0.0
 11
-120.100009
 21
-87.406704
 31
0.0
  0
LINE
  8
0
 10
-119.992722
 20
-87.717689
 30
0.0
 11
-120.055017
 21
-87.562444
 31
0.0
  0
LINE
  8
0
 10
-119.920043
 20
-87.866506
 30
0.0
 11
-119.992722
 21
-87.717689
 31
0.0
  0
LINE
  8
0
 10
-119.837477
 20
-88.007908
 30
0.0
 11
-119.920043
 21
-87.866506
 31
0.0
  0
LINE
  8
0
 10
-119.740572
 20
-88.142882
 30
0.0
 11
-119.837477
 21
-88.007908
 31
0.0
  0
LINE
  8
0
 10
-119.633285
 20
-88.270935
 30
0.0
 11
-119.740572
 21
-88.142882
 31
0.0
  0
LINE
  8
0
 10
-119.51611
 20
-88.384649
 30
0.0
 11
-119.633285
 21
-88.270935
 31
0.0
  0
LINE
  8
0
 10
-119.391518
 20
-88.491936
 30
0.0
 11
-119.51611
 21
-88.384649
 31
0.0
  0
LINE
  8
0
 10
-119.256544
 20
-88.588841
 30
0.0
 11
-119.391518
 21
-88.491936
 31
0.0
  0
LINE
  8
0
 10
-119.115142
 20
-88.674868
 30
0.0
 11
-119.256544
 21
-88.588841
 31
0.0
  0
LINE
  8
0
 10
-118.966325
 20
-88.747547
 30
0.0
 11
-119.115142
 21
-88.674868
 31
0.0
  0
LINE
  8
0
 10
-118.81108
 20
-88.806382
 30
0.0
 11
-118.966325
 21
-88.747547
 31
0.0
  0
LINE
  8
0
 10
-118.651879
 20
-88.854834
 30
0.0
 11
-118.81108
 21
-88.806382
 31
0.0
  0
LINE
  8
0
 10
-118.493173
 20
-88.885982
 30
0.0
 11
-118.651879
 21
-88.854834
 31
0.0
  0
LINE
  8
0
 10
-118.327051
 20
-88.906747
 30
0.0
 11
-118.493173
 21
-88.885982
 31
0.0
  0
LINE
  8
0
 10
-118.161424
 20
-88.913669
 30
0.0
 11
-118.327051
 21
-88.906747
 31
0.0
  0
LINE
  8
0
 10
-87.637483
 20
-81.214208
 30
0.0
 11
-84.938988
 21
-81.214208
 31
0.0
  0
LINE
  8
0
 10
-87.637483
 20
-77.116036
 30
0.0
 11
-87.637483
 21
-81.214208
 31
0.0
  0
LINE
  8
0
 10
-84.938988
 20
-77.116036
 30
0.0
 11
-87.637483
 21
-77.116036
 31
0.0
  0
LINE
  8
0
 10
-84.938988
 20
-81.214208
 30
0.0
 11
-84.938988
 21
-77.116036
 31
0.0
  0
LINE
  8
0
 10
-82.865429
 20
-81.214208
 30
0.0
 11
-83.539311
 21
-81.214208
 31
0.0
  0
LINE
  8
0
 10
-82.75122
 20
-81.221129
 30
0.0
 11
-82.865429
 21
-81.214208
 31
0.0
  0
LINE
  8
0
 10
-82.640966
 20
-81.238434
 30
0.0
 11
-82.75122
 21
-81.221129
 31
0.0
  0
LINE
  8
0
 10
-82.533679
 20
-81.269582
 30
0.0
 11
-82.640966
 21
-81.238434
 31
0.0
  0
LINE
  8
0
 10
-82.429853
 20
-81.314573
 30
0.0
 11
-82.533679
 21
-81.269582
 31
0.0
  0
LINE
  8
0
 10
-82.333443
 20
-81.366486
 30
0.0
 11
-82.429853
 21
-81.314573
 31
0.0
  0
LINE
  8
0
 10
-82.239999
 20
-81.432243
 30
0.0
 11
-82.333443
 21
-81.366486
 31
0.0
  0
LINE
  8
0
 10
-82.156938
 20
-81.507888
 30
0.0
 11
-82.239999
 21
-81.432243
 31
0.0
  0
LINE
  8
0
 10
-82.080799
 20
-81.590949
 30
0.0
 11
-82.156938
 21
-81.507888
 31
0.0
  0
LINE
  8
0
 10
-82.018997
 20
-81.680932
 30
0.0
 11
-82.080799
 21
-81.590949
 31
0.0
  0
LINE
  8
0
 10
-81.963623
 20
-81.781297
 30
0.0
 11
-82.018997
 21
-81.680932
 31
0.0
  0
LINE
  8
0
 10
-81.918632
 20
-81.884629
 30
0.0
 11
-81.963623
 21
-81.781297
 31
0.0
  0
LINE
  8
0
 10
-81.887484
 20
-81.991916
 30
0.0
 11
-81.918632
 21
-81.884629
 31
0.0
  0
LINE
  8
0
 10
-81.87018
 20
-82.102664
 30
0.0
 11
-81.887484
 21
-81.991916
 31
0.0
  0
LINE
  8
0
 10
-81.863258
 20
-82.212918
 30
0.0
 11
-81.87018
 21
-82.102664
 31
0.0
  0
LINE
  8
0
 10
-81.863258
 20
-84.300321
 30
0.0
 11
-81.863258
 21
-82.212918
 31
0.0
  0
LINE
  8
0
 10
-81.87018
 20
-84.410574
 30
0.0
 11
-81.863258
 21
-84.300321
 31
0.0
  0
LINE
  8
0
 10
-81.887484
 20
-84.521322
 30
0.0
 11
-81.87018
 21
-84.410574
 31
0.0
  0
LINE
  8
0
 10
-81.918632
 20
-84.63207
 30
0.0
 11
-81.887484
 21
-84.521322
 31
0.0
  0
LINE
  8
0
 10
-81.963623
 20
-84.735402
 30
0.0
 11
-81.918632
 21
-84.63207
 31
0.0
  0
LINE
  8
0
 10
-82.018997
 20
-84.832307
 30
0.0
 11
-81.963623
 21
-84.735402
 31
0.0
  0
LINE
  8
0
 10
-82.080799
 20
-84.922289
 30
0.0
 11
-82.018997
 21
-84.832307
 31
0.0
  0
LINE
  8
0
 10
-82.156938
 20
-85.008811
 30
0.0
 11
-82.080799
 21
-84.922289
 31
0.0
  0
LINE
  8
0
 10
-84.071297
 20
-86.92317
 30
0.0
 11
-82.156938
 21
-85.008811
 31
0.0
  0
LINE
  8
0
 10
-84.154358
 20
-86.995849
 30
0.0
 11
-84.071297
 21
-86.92317
 31
0.0
  0
LINE
  8
0
 10
-84.247802
 20
-87.061111
 30
0.0
 11
-84.154358
 21
-86.995849
 31
0.0
  0
LINE
  8
0
 10
-84.344212
 20
-87.116485
 30
0.0
 11
-84.247802
 21
-87.061111
 31
0.0
  0
LINE
  8
0
 10
-84.448038
 20
-87.158016
 30
0.0
 11
-84.344212
 21
-87.116485
 31
0.0
  0
LINE
  8
0
 10
-84.555325
 20
-87.189164
 30
0.0
 11
-84.448038
 21
-87.158016
 31
0.0
  0
LINE
  8
0
 10
-84.665579
 20
-87.209929
 30
0.0
 11
-84.555325
 21
-87.189164
 31
0.0
  0
LINE
  8
0
 10
-84.776327
 20
-87.21339
 30
0.0
 11
-84.665579
 21
-87.209929
 31
0.0
  0
LINE
  8
0
 10
-86.065256
 20
-87.21339
 30
0.0
 11
-84.776327
 21
-87.21339
 31
0.0
  0
LINE
  8
0
 10
-86.169083
 20
-87.206468
 30
0.0
 11
-86.065256
 21
-87.21339
 31
0.0
  0
LINE
  8
0
 10
-86.268954
 20
-87.185703
 30
0.0
 11
-86.169083
 21
-87.206468
 31
0.0
  0
LINE
  8
0
 10
-86.369319
 20
-87.154555
 30
0.0
 11
-86.268954
 21
-87.185703
 31
0.0
  0
LINE
  8
0
 10
-86.462763
 20
-87.106102
 30
0.0
 11
-86.369319
 21
-87.154555
 31
0.0
  0
LINE
  8
0
 10
-86.549285
 20
-87.050728
 30
0.0
 11
-86.462763
 21
-87.106102
 31
0.0
  0
LINE
  8
0
 10
-86.62839
 20
-86.982005
 30
0.0
 11
-86.549285
 21
-87.050728
 31
0.0
  0
LINE
  8
0
 10
-86.697608
 20
-86.902405
 30
0.0
 11
-86.62839
 21
-86.982005
 31
0.0
  0
LINE
  8
0
 10
-86.756443
 20
-86.815883
 30
0.0
 11
-86.697608
 21
-86.902405
 31
0.0
  0
LINE
  8
0
 10
-86.801434
 20
-86.718979
 30
0.0
 11
-86.756443
 21
-86.815883
 31
0.0
  0
LINE
  8
0
 10
-86.836043
 20
-86.622569
 30
0.0
 11
-86.801434
 21
-86.718979
 31
0.0
  0
LINE
  8
0
 10
-86.856808
 20
-86.518742
 30
0.0
 11
-86.836043
 21
-86.622569
 31
0.0
  0
LINE
  8
0
 10
-86.86373
 20
-86.414916
 30
0.0
 11
-86.856808
 21
-86.518742
 31
0.0
  0
LINE
  8
0
 10
-86.856808
 20
-86.311584
 30
0.0
 11
-86.86373
 21
-86.414916
 31
0.0
  0
LINE
  8
0
 10
-86.836043
 20
-86.207758
 30
0.0
 11
-86.856808
 21
-86.311584
 31
0.0
  0
LINE
  8
0
 10
-86.801434
 20
-86.107392
 30
0.0
 11
-86.836043
 21
-86.207758
 31
0.0
  0
LINE
  8
0
 10
-86.756443
 20
-86.014443
 30
0.0
 11
-86.801434
 21
-86.107392
 31
0.0
  0
LINE
  8
0
 10
-86.697608
 20
-85.927921
 30
0.0
 11
-86.756443
 21
-86.014443
 31
0.0
  0
LINE
  8
0
 10
-86.62839
 20
-85.848321
 30
0.0
 11
-86.697608
 21
-85.927921
 31
0.0
  0
LINE
  8
0
 10
-86.549285
 20
-85.779104
 30
0.0
 11
-86.62839
 21
-85.848321
 31
0.0
  0
LINE
  8
0
 10
-86.462763
 20
-85.720269
 30
0.0
 11
-86.549285
 21
-85.779104
 31
0.0
  0
LINE
  8
0
 10
-86.369319
 20
-85.675772
 30
0.0
 11
-86.462763
 21
-85.720269
 31
0.0
  0
LINE
  8
0
 10
-86.268954
 20
-85.641163
 30
0.0
 11
-86.369319
 21
-85.675772
 31
0.0
  0
LINE
  8
0
 10
-86.169083
 20
-85.620398
 30
0.0
 11
-86.268954
 21
-85.641163
 31
0.0
  0
LINE
  8
0
 10
-86.065256
 20
-85.613476
 30
0.0
 11
-86.169083
 21
-85.620398
 31
0.0
  0
LINE
  8
0
 10
-85.025016
 20
-85.613476
 30
0.0
 11
-86.065256
 21
-85.613476
 31
0.0
  0
LINE
  8
0
 10
-83.463172
 20
-84.051632
 30
0.0
 11
-85.025016
 21
-85.613476
 31
0.0
  0
LINE
  8
0
 10
-83.463172
 20
-82.814121
 30
0.0
 11
-83.463172
 21
-84.051632
 31
0.0
  0
LINE
  8
0
 10
-88.017685
 20
-82.814121
 30
0.0
 11
-83.463172
 21
-82.814121
 31
0.0
  0
LINE
  8
0
 10
-90.326089
 20
-87.759219
 30
0.0
 11
-88.017685
 21
-82.814121
 31
0.0
  0
LINE
  8
0
 10
-90.398768
 20
-87.904576
 30
0.0
 11
-90.326089
 21
-87.759219
 31
0.0
  0
LINE
  8
0
 10
-90.48529
 20
-88.042517
 30
0.0
 11
-90.398768
 21
-87.904576
 31
0.0
  0
LINE
  8
0
 10
-90.5817
 20
-88.170569
 30
0.0
 11
-90.48529
 21
-88.042517
 31
0.0
  0
LINE
  8
0
 10
-90.688987
 20
-88.2917
 30
0.0
 11
-90.5817
 21
-88.170569
 31
0.0
  0
LINE
  8
0
 10
-90.806657
 20
-88.405414
 30
0.0
 11
-90.688987
 21
-88.2917
 31
0.0
  0
LINE
  8
0
 10
-90.930754
 20
-88.509241
 30
0.0
 11
-90.806657
 21
-88.405414
 31
0.0
  0
LINE
  8
0
 10
-91.062267
 20
-88.602684
 30
0.0
 11
-90.930754
 21
-88.509241
 31
0.0
  0
LINE
  8
0
 10
-91.203669
 20
-88.68179
 30
0.0
 11
-91.062267
 21
-88.602684
 31
0.0
  0
LINE
  8
0
 10
-91.349026
 20
-88.751008
 30
0.0
 11
-91.203669
 21
-88.68179
 31
0.0
  0
LINE
  8
0
 10
-91.50081
 20
-88.809842
 30
0.0
 11
-91.349026
 21
-88.751008
 31
0.0
  0
LINE
  8
0
 10
-91.656549
 20
-88.854834
 30
0.0
 11
-91.50081
 21
-88.809842
 31
0.0
  0
LINE
  8
0
 10
-91.81575
 20
-88.889443
 30
0.0
 11
-91.656549
 21
-88.854834
 31
0.0
  0
LINE
  8
0
 10
-91.974455
 20
-88.906747
 30
0.0
 11
-91.81575
 21
-88.889443
 31
0.0
  0
LINE
  8
0
 10
-92.137117
 20
-88.913669
 30
0.0
 11
-91.974455
 21
-88.906747
 31
0.0
  0
LINE
  8
0
 10
-118.161424
 20
-88.913669
 30
0.0
 11
-92.137117
 21
-88.913669
 31
0.0
  0
LINE
  8
0
 10
-118.327051
 20
-88.906747
 30
0.0
 11
-118.161424
 21
-88.913669
 31
0.0
  0
LINE
  8
0
 10
-118.493173
 20
-88.885982
 30
0.0
 11
-118.327051
 21
-88.906747
 31
0.0
  0
LINE
  8
0
 10
-118.651879
 20
-88.854834
 30
0.0
 11
-118.493173
 21
-88.885982
 31
0.0
  0
LINE
  8
0
 10
-118.81108
 20
-88.806382
 30
0.0
 11
-118.651879
 21
-88.854834
 31
0.0
  0
LINE
  8
0
 10
-118.966325
 20
-88.747547
 30
0.0
 11
-118.81108
 21
-88.806382
 31
0.0
  0
LINE
  8
0
 10
-119.115142
 20
-88.674868
 30
0.0
 11
-118.966325
 21
-88.747547
 31
0.0
  0
LINE
  8
0
 10
-119.256544
 20
-88.588841
 30
0.0
 11
-119.115142
 21
-88.674868
 31
0.0
  0
LINE
  8
0
 10
-119.391518
 20
-88.491936
 30
0.0
 11
-119.256544
 21
-88.588841
 31
0.0
  0
LINE
  8
0
 10
-119.51611
 20
-88.384649
 30
0.0
 11
-119.391518
 21
-88.491936
 31
0.0
  0
LINE
  8
0
 10
-119.633285
 20
-88.270935
 30
0.0
 11
-119.51611
 21
-88.384649
 31
0.0
  0
LINE
  8
0
 10
-119.740572
 20
-88.142882
 30
0.0
 11
-119.633285
 21
-88.270935
 31
0.0
  0
LINE
  8
0
 10
-119.837477
 20
-88.007908
 30
0.0
 11
-119.740572
 21
-88.142882
 31
0.0
  0
LINE
  8
0
 10
-119.920043
 20
-87.866506
 30
0.0
 11
-119.837477
 21
-88.007908
 31
0.0
  0
LINE
  8
0
 10
-119.992722
 20
-87.717689
 30
0.0
 11
-119.920043
 21
-87.866506
 31
0.0
  0
LINE
  8
0
 10
-120.055017
 20
-87.562444
 30
0.0
 11
-119.992722
 21
-87.717689
 31
0.0
  0
LINE
  8
0
 10
-120.100009
 20
-87.406704
 30
0.0
 11
-120.055017
 21
-87.562444
 31
0.0
  0
LINE
  8
0
 10
-120.134618
 20
-87.244538
 30
0.0
 11
-120.100009
 21
-87.406704
 31
0.0
  0
LINE
  8
0
 10
-120.155383
 20
-87.078415
 30
0.0
 11
-120.134618
 21
-87.244538
 31
0.0
  0
LINE
  8
0
 10
-120.162305
 20
-86.916249
 30
0.0
 11
-120.155383
 21
-87.078415
 31
0.0
  0
LINE
  8
0
 10
-120.162305
 20
19.08545
 30
0.0
 11
-120.162305
 21
-86.916249
 31
0.0
  0
LINE
  8
0
 10
-120.155383
 20
19.251078
 30
0.0
 11
-120.162305
 21
19.08545
 31
0.0
  0
LINE
  8
0
 10
-120.134618
 20
19.413739
 30
0.0
 11
-120.155383
 21
19.251078
 31
0.0
  0
LINE
  8
0
 10
-120.100009
 20
19.575906
 30
0.0
 11
-120.134618
 21
19.413739
 31
0.0
  0
LINE
  8
0
 10
-120.055017
 20
19.735106
 30
0.0
 11
-120.100009
 21
19.575906
 31
0.0
  0
LINE
  8
0
 10
-119.992722
 20
19.88689
 30
0.0
 11
-120.055017
 21
19.735106
 31
0.0
  0
LINE
  8
0
 10
-119.920043
 20
20.035708
 30
0.0
 11
-119.992722
 21
19.88689
 31
0.0
  0
LINE
  8
0
 10
-119.837477
 20
20.177604
 30
0.0
 11
-119.920043
 21
20.035708
 31
0.0
  0
LINE
  8
0
 10
-119.740572
 20
20.312084
 30
0.0
 11
-119.837477
 21
20.177604
 31
0.0
  0
LINE
  8
0
 10
-119.633285
 20
20.440136
 30
0.0
 11
-119.740572
 21
20.312084
 31
0.0
  0
LINE
  8
0
 10
-119.51611
 20
20.557312
 30
0.0
 11
-119.633285
 21
20.440136
 31
0.0
  0
LINE
  8
0
 10
-119.391518
 20
20.664599
 30
0.0
 11
-119.51611
 21
20.557312
 31
0.0
  0
LINE
  8
0
 10
-119.256544
 20
20.758042
 30
0.0
 11
-119.391518
 21
20.664599
 31
0.0
  0
LINE
  8
0
 10
-119.115142
 20
20.844564
 30
0.0
 11
-119.256544
 21
20.758042
 31
0.0
  0
LINE
  8
0
 10
-118.966325
 20
20.916748
 30
0.0
 11
-119.115142
 21
20.844564
 31
0.0
  0
LINE
  8
0
 10
-118.81108
 20
20.975583
 30
0.0
 11
-118.966325
 21
20.916748
 31
0.0
  0
LINE
  8
0
 10
-118.651879
 20
21.024035
 30
0.0
 11
-118.81108
 21
20.975583
 31
0.0
  0
LINE
  8
0
 10
-118.493173
 20
21.058644
 30
0.0
 11
-118.651879
 21
21.024035
 31
0.0
  0
LINE
  8
0
 10
-118.327051
 20
21.079409
 30
0.0
 11
-118.493173
 21
21.058644
 31
0.0
  0
LINE
  8
0
 10
-118.161424
 20
21.086331
 30
0.0
 11
-118.327051
 21
21.079409
 31
0.0
  0
LINE
  8
0
 10
-92.137117
 20
21.086331
 30
0.0
 11
-118.161424
 21
21.086331
 31
0.0
  0
LINE
  8
0
 10
-91.974455
 20
21.079409
 30
0.0
 11
-92.137117
 21
21.086331
 31
0.0
  0
LINE
  8
0
 10
-91.81575
 20
21.058644
 30
0.0
 11
-91.974455
 21
21.079409
 31
0.0
  0
LINE
  8
0
 10
-91.656549
 20
21.027496
 30
0.0
 11
-91.81575
 21
21.058644
 31
0.0
  0
LINE
  8
0
 10
-91.50081
 20
20.979044
 30
0.0
 11
-91.656549
 21
21.027496
 31
0.0
  0
LINE
  8
0
 10
-91.349026
 20
20.92367
 30
0.0
 11
-91.50081
 21
20.979044
 31
0.0
  0
LINE
  8
0
 10
-91.203669
 20
20.851486
 30
0.0
 11
-91.349026
 21
20.92367
 31
0.0
  0
LINE
  8
0
 10
-91.062267
 20
20.771886
 30
0.0
 11
-91.203669
 21
20.851486
 31
0.0
  0
LINE
  8
0
 10
-90.930754
 20
20.678442
 30
0.0
 11
-91.062267
 21
20.771886
 31
0.0
  0
LINE
  8
0
 10
-90.806657
 20
20.574616
 30
0.0
 11
-90.930754
 21
20.678442
 31
0.0
  0
LINE
  8
0
 10
-90.688987
 20
20.464362
 30
0.0
 11
-90.806657
 21
20.574616
 31
0.0
  0
LINE
  8
0
 10
-90.5817
 20
20.339771
 30
0.0
 11
-90.688987
 21
20.464362
 31
0.0
  0
LINE
  8
0
 10
-90.48529
 20
20.211718
 30
0.0
 11
-90.5817
 21
20.339771
 31
0.0
  0
LINE
  8
0
 10
-90.398768
 20
20.073778
 30
0.0
 11
-90.48529
 21
20.211718
 31
0.0
  0
LINE
  8
0
 10
-90.326089
 20
19.928421
 30
0.0
 11
-90.398768
 21
20.073778
 31
0.0
  0
LINE
  8
0
 10
-88.017685
 20
14.983817
 30
0.0
 11
-90.326089
 21
19.928421
 31
0.0
  0
LINE
  8
0
 10
-83.463172
 20
14.983817
 30
0.0
 11
-88.017685
 21
14.983817
 31
0.0
  0
LINE
  8
0
 10
-83.463172
 20
16.220833
 30
0.0
 11
-83.463172
 21
14.983817
 31
0.0
  0
LINE
  8
0
 10
-85.025016
 20
17.786138
 30
0.0
 11
-83.463172
 21
16.220833
 31
0.0
  0
LINE
  8
0
 10
-86.065256
 20
17.786138
 30
0.0
 11
-85.025016
 21
17.786138
 31
0.0
  0
LINE
  8
0
 10
-86.169083
 20
17.79306
 30
0.0
 11
-86.065256
 21
17.786138
 31
0.0
  0
LINE
  8
0
 10
-86.268954
 20
17.810365
 30
0.0
 11
-86.169083
 21
17.79306
 31
0.0
  0
LINE
  8
0
 10
-86.369319
 20
17.844973
 30
0.0
 11
-86.268954
 21
17.810365
 31
0.0
  0
LINE
  8
0
 10
-86.462763
 20
17.893426
 30
0.0
 11
-86.369319
 21
17.844973
 31
0.0
  0
LINE
  8
0
 10
-86.549285
 20
17.948305
 30
0.0
 11
-86.462763
 21
17.893426
 31
0.0
  0
LINE
  8
0
 10
-86.62839
 20
18.017523
 30
0.0
 11
-86.549285
 21
17.948305
 31
0.0
  0
LINE
  8
0
 10
-86.697608
 20
18.097123
 30
0.0
 11
-86.62839
 21
18.017523
 31
0.0
  0
LINE
  8
0
 10
-86.756443
 20
18.183645
 30
0.0
 11
-86.697608
 21
18.097123
 31
0.0
  0
LINE
  8
0
 10
-86.801434
 20
18.280055
 30
0.0
 11
-86.756443
 21
18.183645
 31
0.0
  0
LINE
  8
0
 10
-86.836043
 20
18.376959
 30
0.0
 11
-86.801434
 21
18.280055
 31
0.0
  0
LINE
  8
0
 10
-86.856808
 20
18.480786
 30
0.0
 11
-86.836043
 21
18.376959
 31
0.0
  0
LINE
  8
0
 10
-86.86373
 20
18.584118
 30
0.0
 11
-86.856808
 21
18.480786
 31
0.0
  0
LINE
  8
0
 10
-86.856808
 20
18.687944
 30
0.0
 11
-86.86373
 21
18.584118
 31
0.0
  0
LINE
  8
0
 10
-86.836043
 20
18.79177
 30
0.0
 11
-86.856808
 21
18.687944
 31
0.0
  0
LINE
  8
0
 10
-86.801434
 20
18.892136
 30
0.0
 11
-86.836043
 21
18.79177
 31
0.0
  0
LINE
  8
0
 10
-86.756443
 20
18.985085
 30
0.0
 11
-86.801434
 21
18.892136
 31
0.0
  0
LINE
  8
0
 10
-86.697608
 20
19.071607
 30
0.0
 11
-86.756443
 21
18.985085
 31
0.0
  0
LINE
  8
0
 10
-86.62839
 20
19.151207
 30
0.0
 11
-86.697608
 21
19.071607
 31
0.0
  0
LINE
  8
0
 10
-86.549285
 20
19.220424
 30
0.0
 11
-86.62839
 21
19.151207
 31
0.0
  0
LINE
  8
0
 10
-86.462763
 20
19.278765
 30
0.0
 11
-86.549285
 21
19.220424
 31
0.0
  0
LINE
  8
0
 10
-86.369319
 20
19.323756
 30
0.0
 11
-86.462763
 21
19.278765
 31
0.0
  0
LINE
  8
0
 10
-86.268954
 20
19.358365
 30
0.0
 11
-86.369319
 21
19.323756
 31
0.0
  0
LINE
  8
0
 10
-86.169083
 20
19.37913
 30
0.0
 11
-86.268954
 21
19.358365
 31
0.0
  0
LINE
  8
0
 10
-86.065256
 20
19.386052
 30
0.0
 11
-86.169083
 21
19.37913
 31
0.0
  0
LINE
  8
0
 10
-84.776327
 20
19.386052
 30
0.0
 11
-86.065256
 21
19.386052
 31
0.0
  0
LINE
  8
0
 10
-84.665579
 20
19.37913
 30
0.0
 11
-84.776327
 21
19.386052
 31
0.0
  0
LINE
  8
0
 10
-84.555325
 20
19.358365
 30
0.0
 11
-84.665579
 21
19.37913
 31
0.0
  0
LINE
  8
0
 10
-84.448038
 20
19.327217
 30
0.0
 11
-84.555325
 21
19.358365
 31
0.0
  0
LINE
  8
0
 10
-84.344212
 20
19.285687
 30
0.0
 11
-84.448038
 21
19.327217
 31
0.0
  0
LINE
  8
0
 10
-84.247802
 20
19.230807
 30
0.0
 11
-84.344212
 21
19.285687
 31
0.0
  0
LINE
  8
0
 10
-84.154358
 20
19.16505
 30
0.0
 11
-84.247802
 21
19.230807
 31
0.0
  0
LINE
  8
0
 10
-84.071297
 20
19.092372
 30
0.0
 11
-84.154358
 21
19.16505
 31
0.0
  0
LINE
  8
0
 10
-82.156938
 20
17.178013
 30
0.0
 11
-84.071297
 21
19.092372
 31
0.0
  0
LINE
  8
0
 10
-82.080799
 20
17.094952
 30
0.0
 11
-82.156938
 21
17.178013
 31
0.0
  0
LINE
  8
0
 10
-82.018997
 20
17.001508
 30
0.0
 11
-82.080799
 21
17.094952
 31
0.0
  0
LINE
  8
0
 10
-81.963623
 20
16.905098
 30
0.0
 11
-82.018997
 21
17.001508
 31
0.0
  0
LINE
  8
0
 10
-81.918632
 20
16.801272
 30
0.0
 11
-81.963623
 21
16.905098
 31
0.0
  0
LINE
  8
0
 10
-81.887484
 20
16.693985
 30
0.0
 11
-81.918632
 21
16.801272
 31
0.0
  0
LINE
  8
0
 10
-81.87018
 20
16.583731
 30
0.0
 11
-81.887484
 21
16.693985
 31
0.0
  0
LINE
  8
0
 10
-81.863258
 20
16.469522
 30
0.0
 11
-81.87018
 21
16.583731
 31
0.0
  0
LINE
  8
0
 10
-81.863258
 20
14.38558
 30
0.0
 11
-81.863258
 21
16.469522
 31
0.0
  0
LINE
  8
0
 10
-81.87018
 20
14.271866
 30
0.0
 11
-81.863258
 21
14.38558
 31
0.0
  0
LINE
  8
0
 10
-81.887484
 20
14.161118
 30
0.0
 11
-81.87018
 21
14.271866
 31
0.0
  0
LINE
  8
0
 10
-81.918632
 20
14.05383
 30
0.0
 11
-81.887484
 21
14.161118
 31
0.0
  0
LINE
  8
0
 10
-81.963623
 20
13.950499
 30
0.0
 11
-81.918632
 21
14.05383
 31
0.0
  0
LINE
  8
0
 10
-82.018997
 20
13.853594
 30
0.0
 11
-81.963623
 21
13.950499
 31
0.0
  0
LINE
  8
0
 10
-82.080799
 20
13.76015
 30
0.0
 11
-82.018997
 21
13.853594
 31
0.0
  0
LINE
  8
0
 10
-82.156938
 20
13.677584
 30
0.0
 11
-82.080799
 21
13.76015
 31
0.0
  0
LINE
  8
0
 10
-82.239999
 20
13.601444
 30
0.0
 11
-82.156938
 21
13.677584
 31
0.0
  0
LINE
  8
0
 10
-82.333443
 20
13.539149
 30
0.0
 11
-82.239999
 21
13.601444
 31
0.0
  0
LINE
  8
0
 10
-82.429853
 20
13.483775
 30
0.0
 11
-82.333443
 21
13.539149
 31
0.0
  0
LINE
  8
0
 10
-82.533679
 20
13.442244
 30
0.0
 11
-82.429853
 21
13.483775
 31
0.0
  0
LINE
  8
0
 10
-82.640966
 20
13.411096
 30
0.0
 11
-82.533679
 21
13.442244
 31
0.0
  0
LINE
  8
0
 10
-82.75122
 20
13.390331
 30
0.0
 11
-82.640966
 21
13.411096
 31
0.0
  0
LINE
  8
0
 10
-82.865429
 20
13.383409
 30
0.0
 11
-82.75122
 21
13.390331
 31
0.0
  0
LINE
  8
0
 10
-83.539311
 20
13.383409
 30
0.0
 11
-82.865429
 21
13.383409
 31
0.0
  0
LINE
  8
0
 10
-83.539311
 20
8.88427
 30
0.0
 11
-83.539311
 21
13.383409
 31
0.0
  0
LINE
  8
0
 10
-83.546233
 20
8.774016
 30
0.0
 11
-83.539311
 21
8.88427
 31
0.0
  0
LINE
  8
0
 10
-83.563537
 20
8.663268
 30
0.0
 11
-83.546233
 21
8.774016
 31
0.0
  0
LINE
  8
0
 10
-83.594685
 20
8.555981
 30
0.0
 11
-83.563537
 21
8.663268
 31
0.0
  0
LINE
  8
0
 10
-83.636215
 20
8.452649
 30
0.0
 11
-83.594685
 21
8.555981
 31
0.0
  0
LINE
  8
0
 10
-83.691095
 20
8.352284
 30
0.0
 11
-83.636215
 21
8.452649
 31
0.0
  0
LINE
  8
0
 10
-83.756852
 20
8.262301
 30
0.0
 11
-83.691095
 21
8.352284
 31
0.0
  0
LINE
  8
0
 10
-83.832991
 20
8.175779
 30
0.0
 11
-83.756852
 21
8.262301
 31
0.0
  0
LINE
  8
0
 10
-83.916052
 20
8.103595
 30
0.0
 11
-83.832991
 21
8.175779
 31
0.0
  0
LINE
  8
0
 10
-84.00554
 20
8.037839
 30
0.0
 11
-83.916052
 21
8.103595
 31
0.0
  0
LINE
  8
0
 10
-84.105906
 20
7.982465
 30
0.0
 11
-84.00554
 21
8.037839
 31
0.0
  0
LINE
  8
0
 10
-84.209732
 20
7.940934
 30
0.0
 11
-84.105906
 21
7.982465
 31
0.0
  0
LINE
  8
0
 10
-84.316525
 20
7.909786
 30
0.0
 11
-84.209732
 21
7.940934
 31
0.0
  0
LINE
  8
0
 10
-84.427273
 20
7.892482
 30
0.0
 11
-84.316525
 21
7.909786
 31
0.0
  0
LINE
  8
0
 10
-84.538021
 20
7.88556
 30
0.0
 11
-84.427273
 21
7.892482
 31
0.0
  0
LINE
  8
0
 10
-88.03845
 20
7.88556
 30
0.0
 11
-84.538021
 21
7.88556
 31
0.0
  0
LINE
  8
0
 10
-88.149198
 20
7.892482
 30
0.0
 11
-88.03845
 21
7.88556
 31
0.0
  0
LINE
  8
0
 10
-88.259452
 20
7.909786
 30
0.0
 11
-88.149198
 21
7.892482
 31
0.0
  0
LINE
  8
0
 10
-88.3702
 20
7.940934
 30
0.0
 11
-88.259452
 21
7.909786
 31
0.0
  0
LINE
  8
0
 10
-88.474026
 20
7.982465
 30
0.0
 11
-88.3702
 21
7.940934
 31
0.0
  0
LINE
  8
0
 10
-88.570436
 20
8.037839
 30
0.0
 11
-88.474026
 21
7.982465
 31
0.0
  0
LINE
  8
0
 10
-88.660419
 20
8.103595
 30
0.0
 11
-88.570436
 21
8.037839
 31
0.0
  0
LINE
  8
0
 10
-88.746941
 20
8.175779
 30
0.0
 11
-88.660419
 21
8.103595
 31
0.0
  0
LINE
  8
0
 10
-88.819619
 20
8.262301
 30
0.0
 11
-88.746941
 21
8.175779
 31
0.0
  0
LINE
  8
0
 10
-88.885376
 20
8.352284
 30
0.0
 11
-88.819619
 21
8.262301
 31
0.0
  0
LINE
  8
0
 10
-88.940256
 20
8.452649
 30
0.0
 11
-88.885376
 21
8.352284
 31
0.0
  0
LINE
  8
0
 10
-88.981786
 20
8.555981
 30
0.0
 11
-88.940256
 21
8.452649
 31
0.0
  0
LINE
  8
0
 10
-89.012934
 20
8.663268
 30
0.0
 11
-88.981786
 21
8.555981
 31
0.0
  0
LINE
  8
0
 10
-89.033699
 20
8.774016
 30
0.0
 11
-89.012934
 21
8.663268
 31
0.0
  0
LINE
  8
0
 10
-89.03716
 20
8.88427
 30
0.0
 11
-89.033699
 21
8.774016
 31
0.0
  0
LINE
  8
0
 10
-89.03716
 20
13.383409
 30
0.0
 11
-89.03716
 21
8.88427
 31
0.0
  0
LINE
  8
0
 10
-91.604636
 20
18.885214
 30
0.0
 11
-89.03716
 21
13.383409
 31
0.0
  0
LINE
  8
0
 10
-117.964154
 20
18.885214
 30
0.0
 11
-91.604636
 21
18.885214
 31
0.0
  0
LINE
  8
0
 10
-117.964154
 20
-32.814841
 30
0.0
 11
-117.964154
 21
18.885214
 31
0.0
  0
LINE
  8
0
 10
-102.963232
 20
-32.814841
 30
0.0
 11
-117.964154
 21
-32.814841
 31
0.0
  0
LINE
  8
0
 10
-89.03716
 20
-33.215808
 30
0.0
 11
-102.963232
 21
-32.814841
 31
0.0
  0
LINE
  8
0
 10
-89.03716
 20
-28.716174
 30
0.0
 11
-89.03716
 21
-33.215808
 31
0.0
  0
LINE
  8
0
 10
-89.033699
 20
-28.60246
 30
0.0
 11
-89.03716
 21
-28.716174
 31
0.0
  0
LINE
  8
0
 10
-89.012934
 20
-28.491712
 30
0.0
 11
-89.033699
 21
-28.60246
 31
0.0
  0
LINE
  8
0
 10
-88.981786
 20
-28.384424
 30
0.0
 11
-89.012934
 21
-28.491712
 31
0.0
  0
LINE
  8
0
 10
-88.940256
 20
-28.281092
 30
0.0
 11
-88.981786
 21
-28.384424
 31
0.0
  0
LINE
  8
0
 10
-88.885376
 20
-28.184188
 30
0.0
 11
-88.940256
 21
-28.281092
 31
0.0
  0
LINE
  8
0
 10
-88.819619
 20
-28.090744
 30
0.0
 11
-88.885376
 21
-28.184188
 31
0.0
  0
LINE
  8
0
 10
-88.746941
 20
-28.008178
 30
0.0
 11
-88.819619
 21
-28.090744
 31
0.0
  0
LINE
  8
0
 10
-88.660419
 20
-27.932038
 30
0.0
 11
-88.746941
 21
-28.008178
 31
0.0
  0
LINE
  8
0
 10
-88.570436
 20
-27.869743
 30
0.0
 11
-88.660419
 21
-27.932038
 31
0.0
  0
LINE
  8
0
 10
-88.474026
 20
-27.814369
 30
0.0
 11
-88.570436
 21
-27.869743
 31
0.0
  0
LINE
  8
0
 10
-88.3702
 20
-27.769377
 30
0.0
 11
-88.474026
 21
-27.814369
 31
0.0
  0
LINE
  8
0
 10
-88.259452
 20
-27.738229
 30
0.0
 11
-88.3702
 21
-27.769377
 31
0.0
  0
LINE
  8
0
 10
-88.149198
 20
-27.720925
 30
0.0
 11
-88.259452
 21
-27.738229
 31
0.0
  0
LINE
  8
0
 10
-88.03845
 20
-27.714003
 30
0.0
 11
-88.149198
 21
-27.720925
 31
0.0
  0
LINE
  8
0
 10
-84.538021
 20
-27.714003
 30
0.0
 11
-88.03845
 21
-27.714003
 31
0.0
  0
LINE
  8
0
 10
-84.427273
 20
-27.720925
 30
0.0
 11
-84.538021
 21
-27.714003
 31
0.0
  0
LINE
  8
0
 10
-84.316525
 20
-27.738229
 30
0.0
 11
-84.427273
 21
-27.720925
 31
0.0
  0
LINE
  8
0
 10
-84.209732
 20
-27.769377
 30
0.0
 11
-84.316525
 21
-27.738229
 31
0.0
  0
LINE
  8
0
 10
-84.105906
 20
-27.814369
 30
0.0
 11
-84.209732
 21
-27.769377
 31
0.0
  0
LINE
  8
0
 10
-84.00554
 20
-27.869743
 30
0.0
 11
-84.105906
 21
-27.814369
 31
0.0
  0
LINE
  8
0
 10
-83.916052
 20
-27.932038
 30
0.0
 11
-84.00554
 21
-27.869743
 31
0.0
  0
LINE
  8
0
 10
-83.832991
 20
-28.008178
 30
0.0
 11
-83.916052
 21
-27.932038
 31
0.0
  0
LINE
  8
0
 10
-83.756852
 20
-28.090744
 30
0.0
 11
-83.832991
 21
-28.008178
 31
0.0
  0
LINE
  8
0
 10
-83.691095
 20
-28.184188
 30
0.0
 11
-83.756852
 21
-28.090744
 31
0.0
  0
LINE
  8
0
 10
-83.636215
 20
-28.281092
 30
0.0
 11
-83.691095
 21
-28.184188
 31
0.0
  0
LINE
  8
0
 10
-83.594685
 20
-28.384424
 30
0.0
 11
-83.636215
 21
-28.281092
 31
0.0
  0
LINE
  8
0
 10
-83.563537
 20
-28.491712
 30
0.0
 11
-83.594685
 21
-28.384424
 31
0.0
  0
LINE
  8
0
 10
-83.546233
 20
-28.60246
 30
0.0
 11
-83.563537
 21
-28.491712
 31
0.0
  0
LINE
  8
0
 10
-83.539311
 20
-28.716174
 30
0.0
 11
-83.546233
 21
-28.60246
 31
0.0
  0
LINE
  8
0
 10
-83.539311
 20
-33.215808
 30
0.0
 11
-83.539311
 21
-28.716174
 31
0.0
  0
LINE
  8
0
 10
-81.863258
 20
-33.215808
 30
0.0
 11
-83.539311
 21
-33.215808
 31
0.0
  0
LINE
  8
0
 10
-81.863258
 20
-34.614991
 30
0.0
 11
-81.863258
 21
-33.215808
 31
0.0
  0
LINE
  8
0
 10
-83.539311
 20
-34.614991
 30
0.0
 11
-81.863258
 21
-34.614991
 31
0.0
  0
LINE
  8
0
 10
-83.539311
 20
-39.11413
 30
0.0
 11
-83.539311
 21
-34.614991
 31
0.0
  0
LINE
  8
0
 10
-83.546233
 20
-39.228339
 30
0.0
 11
-83.539311
 21
-39.11413
 31
0.0
  0
LINE
  8
0
 10
-83.563537
 20
-39.339087
 30
0.0
 11
-83.546233
 21
-39.228339
 31
0.0
  0
LINE
  8
0
 10
-83.594685
 20
-39.44588
 30
0.0
 11
-83.563537
 21
-39.339087
 31
0.0
  0
LINE
  8
0
 10
-83.636215
 20
-39.549706
 30
0.0
 11
-83.594685
 21
-39.44588
 31
0.0
  0
LINE
  8
0
 10
-83.691095
 20
-39.64661
 30
0.0
 11
-83.636215
 21
-39.549706
 31
0.0
  0
LINE
  8
0
 10
-83.756852
 20
-39.740054
 30
0.0
 11
-83.691095
 21
-39.64661
 31
0.0
  0
LINE
  8
0
 10
-83.832991
 20
-39.822621
 30
0.0
 11
-83.756852
 21
-39.740054
 31
0.0
  0
LINE
  8
0
 10
-83.916052
 20
-39.895299
 30
0.0
 11
-83.832991
 21
-39.822621
 31
0.0
  0
LINE
  8
0
 10
-84.00554
 20
-39.961056
 30
0.0
 11
-83.916052
 21
-39.895299
 31
0.0
  0
LINE
  8
0
 10
-84.105906
 20
-40.01643
 30
0.0
 11
-84.00554
 21
-39.961056
 31
0.0
  0
LINE
  8
0
 10
-84.209732
 20
-40.05796
 30
0.0
 11
-84.105906
 21
-40.01643
 31
0.0
  0
LINE
  8
0
 10
-84.316525
 20
-40.088614
 30
0.0
 11
-84.209732
 21
-40.05796
 31
0.0
  0
LINE
  8
0
 10
-84.427273
 20
-40.109379
 30
0.0
 11
-84.316525
 21
-40.088614
 31
0.0
  0
LINE
  8
0
 10
-84.538021
 20
-40.116301
 30
0.0
 11
-84.427273
 21
-40.109379
 31
0.0
  0
LINE
  8
0
 10
-88.03845
 20
-40.116301
 30
0.0
 11
-84.538021
 21
-40.116301
 31
0.0
  0
LINE
  8
0
 10
-88.149198
 20
-40.109379
 30
0.0
 11
-88.03845
 21
-40.116301
 31
0.0
  0
LINE
  8
0
 10
-88.259452
 20
-40.088614
 30
0.0
 11
-88.149198
 21
-40.109379
 31
0.0
  0
LINE
  8
0
 10
-88.3702
 20
-40.05796
 30
0.0
 11
-88.259452
 21
-40.088614
 31
0.0
  0
LINE
  8
0
 10
-88.474026
 20
-40.01643
 30
0.0
 11
-88.3702
 21
-40.05796
 31
0.0
  0
LINE
  8
0
 10
-88.570436
 20
-39.961056
 30
0.0
 11
-88.474026
 21
-40.01643
 31
0.0
  0
LINE
  8
0
 10
-88.660419
 20
-39.895299
 30
0.0
 11
-88.570436
 21
-39.961056
 31
0.0
  0
LINE
  8
0
 10
-88.746941
 20
-39.822621
 30
0.0
 11
-88.660419
 21
-39.895299
 31
0.0
  0
LINE
  8
0
 10
-88.819619
 20
-39.740054
 30
0.0
 11
-88.746941
 21
-39.822621
 31
0.0
  0
LINE
  8
0
 10
-88.885376
 20
-39.64661
 30
0.0
 11
-88.819619
 21
-39.740054
 31
0.0
  0
LINE
  8
0
 10
-88.940256
 20
-39.549706
 30
0.0
 11
-88.885376
 21
-39.64661
 31
0.0
  0
LINE
  8
0
 10
-88.981786
 20
-39.44588
 30
0.0
 11
-88.940256
 21
-39.549706
 31
0.0
  0
LINE
  8
0
 10
-89.012934
 20
-39.339087
 30
0.0
 11
-88.981786
 21
-39.44588
 31
0.0
  0
LINE
  8
0
 10
-89.033699
 20
-39.228339
 30
0.0
 11
-89.012934
 21
-39.339087
 31
0.0
  0
LINE
  8
0
 10
-89.03716
 20
-39.11413
 30
0.0
 11
-89.033699
 21
-39.228339
 31
0.0
  0
LINE
  8
0
 10
-89.03716
 20
-34.614991
 30
0.0
 11
-89.03716
 21
-39.11413
 31
0.0
  0
LINE
  8
0
 10
-102.963232
 20
-35.015958
 30
0.0
 11
-89.03716
 21
-34.614991
 31
0.0
  0
LINE
  8
0
 10
-117.964154
 20
-86.715518
 30
0.0
 11
-117.964154
 21
-35.015958
 31
0.0
  0
LINE
  8
0
 10
-91.604636
 20
-86.715518
 30
0.0
 11
-117.964154
 21
-86.715518
 31
0.0
  0
LINE
  8
0
 10
-89.03716
 20
-81.214208
 30
0.0
 11
-91.604636
 21
-86.715518
 31
0.0
  0
LINE
  8
0
 10
-89.03716
 20
-76.715068
 30
0.0
 11
-89.03716
 21
-81.214208
 31
0.0
  0
LINE
  8
0
 10
-89.033699
 20
-76.600859
 30
0.0
 11
-89.03716
 21
-76.715068
 31
0.0
  0
LINE
  8
0
 10
-89.012934
 20
-76.490606
 30
0.0
 11
-89.033699
 21
-76.600859
 31
0.0
  0
LINE
  8
0
 10
-88.981786
 20
-76.383319
 30
0.0
 11
-89.012934
 21
-76.490606
 31
0.0
  0
LINE
  8
0
 10
-88.940256
 20
-76.279492
 30
0.0
 11
-88.981786
 21
-76.383319
 31
0.0
  0
LINE
  8
0
 10
-88.885376
 20
-76.183082
 30
0.0
 11
-88.940256
 21
-76.279492
 31
0.0
  0
LINE
  8
0
 10
-88.819619
 20
-76.089639
 30
0.0
 11
-88.885376
 21
-76.183082
 31
0.0
  0
LINE
  8
0
 10
-88.746941
 20
-76.006578
 30
0.0
 11
-88.819619
 21
-76.089639
 31
0.0
  0
LINE
  8
0
 10
-88.660419
 20
-75.933899
 30
0.0
 11
-88.746941
 21
-76.006578
 31
0.0
  0
LINE
  8
0
 10
-88.570436
 20
-75.868637
 30
0.0
 11
-88.660419
 21
-75.933899
 31
0.0
  0
LINE
  8
0
 10
-88.474026
 20
-75.813263
 30
0.0
 11
-88.570436
 21
-75.868637
 31
0.0
  0
LINE
  8
0
 10
-88.3702
 20
-75.771732
 30
0.0
 11
-88.474026
 21
-75.813263
 31
0.0
  0
LINE
  8
0
 10
-88.259452
 20
-75.740584
 30
0.0
 11
-88.3702
 21
-75.771732
 31
0.0
  0
LINE
  8
0
 10
-88.149198
 20
-75.719819
 30
0.0
 11
-88.259452
 21
-75.740584
 31
0.0
  0
LINE
  8
0
 10
-88.03845
 20
-75.712897
 30
0.0
 11
-88.149198
 21
-75.719819
 31
0.0
  0
LINE
  8
0
 10
-84.538021
 20
-75.712897
 30
0.0
 11
-88.03845
 21
-75.712897
 31
0.0
  0
LINE
  8
0
 10
-84.427273
 20
-75.719819
 30
0.0
 11
-84.538021
 21
-75.712897
 31
0.0
  0
LINE
  8
0
 10
-84.316525
 20
-75.740584
 30
0.0
 11
-84.427273
 21
-75.719819
 31
0.0
  0
LINE
  8
0
 10
-84.209732
 20
-75.771732
 30
0.0
 11
-84.316525
 21
-75.740584
 31
0.0
  0
LINE
  8
0
 10
-84.105906
 20
-75.813263
 30
0.0
 11
-84.209732
 21
-75.771732
 31
0.0
  0
LINE
  8
0
 10
-84.00554
 20
-75.868637
 30
0.0
 11
-84.105906
 21
-75.813263
 31
0.0
  0
LINE
  8
0
 10
-83.916052
 20
-75.933899
 30
0.0
 11
-84.00554
 21
-75.868637
 31
0.0
  0
LINE
  8
0
 10
-83.832991
 20
-76.006578
 30
0.0
 11
-83.916052
 21
-75.933899
 31
0.0
  0
LINE
  8
0
 10
-83.756852
 20
-76.089639
 30
0.0
 11
-83.832991
 21
-76.006578
 31
0.0
  0
LINE
  8
0
 10
-83.691095
 20
-76.183082
 30
0.0
 11
-83.756852
 21
-76.089639
 31
0.0
  0
LINE
  8
0
 10
-83.636215
 20
-76.279492
 30
0.0
 11
-83.691095
 21
-76.183082
 31
0.0
  0
LINE
  8
0
 10
-83.594685
 20
-76.383319
 30
0.0
 11
-83.636215
 21
-76.279492
 31
0.0
  0
LINE
  8
0
 10
-83.563537
 20
-76.490606
 30
0.0
 11
-83.594685
 21
-76.383319
 31
0.0
  0
LINE
  8
0
 10
-83.546233
 20
-76.600859
 30
0.0
 11
-83.563537
 21
-76.490606
 31
0.0
  0
LINE
  8
0
 10
-83.539311
 20
-76.715068
 30
0.0
 11
-83.546233
 21
-76.600859
 31
0.0
  0
LINE
  8
0
 10
-83.539311
 20
-81.214208
 30
0.0
 11
-83.539311
 21
-76.715068
 31
0.0
  0
LINE
  8
0
 10
-84.938988
 20
-38.713657
 30
0.0
 11
-84.938988
 21
-34.614991
 31
0.0
  0
LINE
  8
0
 10
-87.637483
 20
-38.713657
 30
0.0
 11
-84.938988
 21
-38.713657
 31
0.0
  0
LINE
  8
0
 10
-87.637483
 20
-34.614991
 30
0.0
 11
-87.637483
 21
-38.713657
 31
0.0
  0
LINE
  8
0
 10
-84.938988
 20
-34.614991
 30
0.0
 11
-87.637483
 21
-34.614991
 31
0.0
  0
LINE
  8
0
 10
-140.162305
 20
36.614391
 30
0.0
 11
-134.250403
 21
42.526293
 31
0.0
  0
LINE
  8
0
 10
-140.162305
 20
29.543323
 30
0.0
 11
-127.179335
 21
42.526293
 31
0.0
  0
LINE
  8
0
 10
-140.162305
 20
22.472255
 30
0.0
 11
-120.108267
 21
42.526293
 31
0.0
  0
LINE
  8
0
 10
-140.162305
 20
15.401187
 30
0.0
 11
-120.088095
 21
35.475397
 31
0.0
  0
LINE
  8
0
 10
-140.162305
 20
8.330119
 30
0.0
 11
-120.108636
 21
28.383788
 31
0.0
  0
LINE
  8
0
 10
-140.162305
 20
1.259052
 30
0.0
 11
-120.129177
 21
21.29218
 31
0.0
  0
LINE
  8
0
 10
-140.162305
 20
-5.812016
 30
0.0
 11
-120.120279
 21
14.23001
 31
0.0
  0
LINE
  8
0
 10
-140.162305
 20
-12.883084
 30
0.0
 11
-120.100773
 21
7.178447
 31
0.0
  0
LINE
  8
0
 10
-140.162305
 20
-19.954152
 30
0.0
 11
-120.081268
 21
0.126885
 31
0.0
  0
LINE
  8
0
 10
-140.162305
 20
-27.02522
 30
0.0
 11
-120.061762
 21
-6.924677
 31
0.0
  0
LINE
  8
0
 10
-140.162305
 20
-34.096287
 30
0.0
 11
-120.042257
 21
-13.97624
 31
0.0
  0
LINE
  8
0
 10
-140.162305
 20
-41.167355
 30
0.0
 11
-120.022752
 21
-21.027802
 31
0.0
  0
LINE
  8
0
 10
-140.162305
 20
-48.238423
 30
0.0
 11
-120.003246
 21
-28.079365
 31
0.0
  0
LINE
  8
0
 10
-140.162305
 20
-55.309491
 30
0.0
 11
-119.983741
 21
-35.130927
 31
0.0
  0
LINE
  8
0
 10
-140.162305
 20
-62.380559
 30
0.0
 11
-119.964235
 21
-42.182489
 31
0.0
  0
LINE
  8
0
 10
-140.162305
 20
-69.451626
 30
0.0
 11
-119.94473
 21
-49.234052
 31
0.0
  0
LINE
  8
0
 10
-140.162305
 20
-76.522694
 30
0.0
 11
-119.925224
 21
-56.285614
 31
0.0
  0
LINE
  8
0
 10
-140.162305
 20
-83.593762
 30
0.0
 11
-119.905719
 21
-63.337176
 31
0.0
  0
LINE
  8
0
 10
-140.162305
 20
-90.66483
 30
0.0
 11
-119.886213
 21
-70.388739
 31
0.0
  0
LINE
  8
0
 10
-140.162305
 20
-97.735898
 30
0.0
 11
-119.866708
 21
-77.440301
 31
0.0
  0
LINE
  8
0
 10
-140.162305
 20
-104.806966
 30
0.0
 11
-119.847202
 21
-84.491863
 31
0.0
  0
LINE
  8
0
 10
-135.757979
 20
-107.473707
 30
0.0
 11
-119.879904
 21
-91.595632
 31
0.0
  0
LINE
  8
0
 10
-128.686911
 20
-107.473707
 30
0.0
 11
-119.964524
 21
-98.751321
 31
0.0
  0
LINE
  8
0
 10
-121.615843
 20
-107.473707
 30
0.0
 11
-120.049145
 21
-105.907009
 31
0.0
  0
LINE
  8
0
 10
-83.684173
 20
-27.437627
 30
0.0
 11
-83.635721
 21
-27.454932
 31
0.0
  0
LINE
  8
0
 10
-83.563537
 20
-27.52761
 30
0.0
 11
-83.546233
 21
-27.572602
 31
0.0
  0
LINE
  8
0
 10
-83.546233
 20
-27.572602
 30
0.0
 11
-83.539311
 21
-27.62402
 31
0.0
  0
LINE
  8
0
 10
-85.681593
 20
11.83887
 30
0.0
 11
-85.591611
 21
11.845791
 31
0.0
  0
LINE
  8
0
 10
-85.591611
 20
11.845791
 30
0.0
 11
-85.498661
 21
11.866557
 31
0.0
  0
LINE
  8
0
 10
-85.498661
 20
11.866557
 30
0.0
 11
-85.412139
 21
11.897704
 31
0.0
  0
LINE
  8
0
 10
-85.412139
 20
11.897704
 30
0.0
 11
-85.332539
 21
11.942696
 31
0.0
  0
LINE
  8
0
 10
-85.332539
 20
11.942696
 30
0.0
 11
-85.2564
 21
11.99807
 31
0.0
  0
LINE
  8
0
 10
-85.2564
 20
11.99807
 30
0.0
 11
-85.191138
 21
12.063827
 31
0.0
  0
LINE
  8
0
 10
-85.191138
 20
12.063827
 30
0.0
 11
-85.135764
 21
12.139966
 31
0.0
  0
LINE
  8
0
 10
-85.135764
 20
12.139966
 30
0.0
 11
-85.090772
 21
12.219072
 31
0.0
  0
LINE
  8
0
 10
-85.090772
 20
12.219072
 30
0.0
 11
-85.059624
 21
12.305593
 31
0.0
  0
LINE
  8
0
 10
-85.059624
 20
12.305593
 30
0.0
 11
-85.038859
 21
12.399037
 31
0.0
  0
LINE
  8
0
 10
-85.038859
 20
12.399037
 30
0.0
 11
-85.031937
 21
12.48902
 31
0.0
  0
LINE
  8
0
 10
-85.031937
 20
12.48902
 30
0.0
 11
-85.038859
 21
12.581969
 31
0.0
  0
LINE
  8
0
 10
-85.038859
 20
12.581969
 30
0.0
 11
-85.059624
 21
12.671952
 31
0.0
  0
LINE
  8
0
 10
-85.059624
 20
12.671952
 30
0.0
 11
-85.090772
 21
12.758474
 31
0.0
  0
LINE
  8
0
 10
-85.090772
 20
12.758474
 30
0.0
 11
-85.135764
 21
12.841041
 31
0.0
  0
LINE
  8
0
 10
-85.135764
 20
12.841041
 30
0.0
 11
-85.191138
 21
12.91718
 31
0.0
  0
LINE
  8
0
 10
-85.191138
 20
12.91718
 30
0.0
 11
-85.2564
 21
12.979476
 31
0.0
  0
LINE
  8
0
 10
-85.2564
 20
12.979476
 30
0.0
 11
-85.332539
 21
13.03831
 31
0.0
  0
LINE
  8
0
 10
-85.332539
 20
13.03831
 30
0.0
 11
-85.412139
 21
13.079841
 31
0.0
  0
LINE
  8
0
 10
-85.412139
 20
13.079841
 30
0.0
 11
-85.498661
 21
13.11445
 31
0.0
  0
LINE
  8
0
 10
-85.498661
 20
13.11445
 30
0.0
 11
-85.591611
 21
13.135215
 31
0.0
  0
LINE
  8
0
 10
-85.591611
 20
13.135215
 30
0.0
 11
-85.681593
 21
13.138181
 31
0.0
  0
LINE
  8
0
 10
-85.681593
 20
13.138181
 30
0.0
 11
-85.775037
 21
13.135215
 31
0.0
  0
LINE
  8
0
 10
-85.775037
 20
13.135215
 30
0.0
 11
-85.86502
 21
13.11445
 31
0.0
  0
LINE
  8
0
 10
-85.86502
 20
13.11445
 30
0.0
 11
-85.954508
 21
13.079841
 31
0.0
  0
LINE
  8
0
 10
-85.954508
 20
13.079841
 30
0.0
 11
-86.034108
 21
13.03831
 31
0.0
  0
LINE
  8
0
 10
-86.034108
 20
13.03831
 30
0.0
 11
-86.110248
 21
12.979476
 31
0.0
  0
LINE
  8
0
 10
-86.110248
 20
12.979476
 30
0.0
 11
-86.176004
 21
12.91718
 31
0.0
  0
LINE
  8
0
 10
-86.176004
 20
12.91718
 30
0.0
 11
-86.230884
 21
12.841041
 31
0.0
  0
LINE
  8
0
 10
-86.230884
 20
12.841041
 30
0.0
 11
-86.275875
 21
12.758474
 31
0.0
  0
LINE
  8
0
 10
-86.275875
 20
12.758474
 30
0.0
 11
-86.307023
 21
12.671952
 31
0.0
  0
LINE
  8
0
 10
-86.307023
 20
12.671952
 30
0.0
 11
-86.327788
 21
12.581969
 31
0.0
  0
LINE
  8
0
 10
-86.327788
 20
12.581969
 30
0.0
 11
-86.33471
 21
12.48902
 31
0.0
  0
LINE
  8
0
 10
-86.33471
 20
12.48902
 30
0.0
 11
-86.327788
 21
12.399037
 31
0.0
  0
LINE
  8
0
 10
-86.327788
 20
12.399037
 30
0.0
 11
-86.307023
 21
12.305593
 31
0.0
  0
LINE
  8
0
 10
-86.307023
 20
12.305593
 30
0.0
 11
-86.275875
 21
12.219072
 31
0.0
  0
LINE
  8
0
 10
-86.275875
 20
12.219072
 30
0.0
 11
-86.230884
 21
12.139966
 31
0.0
  0
LINE
  8
0
 10
-86.230884
 20
12.139966
 30
0.0
 11
-86.176004
 21
12.063827
 31
0.0
  0
LINE
  8
0
 10
-86.176004
 20
12.063827
 30
0.0
 11
-86.110248
 21
11.99807
 31
0.0
  0
LINE
  8
0
 10
-86.110248
 20
11.99807
 30
0.0
 11
-86.034108
 21
11.942696
 31
0.0
  0
LINE
  8
0
 10
-86.034108
 20
11.942696
 30
0.0
 11
-85.954508
 21
11.897704
 31
0.0
  0
LINE
  8
0
 10
-85.954508
 20
11.897704
 30
0.0
 11
-85.86502
 21
11.866557
 31
0.0
  0
LINE
  8
0
 10
-85.86502
 20
11.866557
 30
0.0
 11
-85.775037
 21
11.845791
 31
0.0
  0
LINE
  8
0
 10
-85.775037
 20
11.845791
 30
0.0
 11
-85.681593
 21
11.83887
 31
0.0
  0
LINE
  8
0
 10
-83.698017
 20
11.479927
 30
0.0
 11
-85.795802
 21
11.849252
 31
0.0
  0
LINE
  8
0
 10
-85.57134
 20
13.131754
 30
0.0
 11
-83.238709
 21
12.720404
 31
0.0
  0
LINE
  8
0
 10
-83.698017
 20
11.479927
 30
0.0
 11
-83.646104
 21
11.462623
 31
0.0
  0
LINE
  8
0
 10
-83.646104
 20
11.462623
 30
0.0
 11
-83.601607
 21
11.431475
 31
0.0
  0
LINE
  8
0
 10
-83.601607
 20
11.431475
 30
0.0
 11
-83.566998
 21
11.389944
 31
0.0
  0
LINE
  8
0
 10
-83.566998
 20
11.389944
 30
0.0
 11
-83.546233
 21
11.341492
 31
0.0
  0
LINE
  8
0
 10
-83.546233
 20
11.341492
 30
0.0
 11
-83.539311
 21
11.289579
 31
0.0
  0
LINE
  8
0
 10
-82.433314
 20
11.759764
 30
0.0
 11
-82.440235
 21
11.873478
 31
0.0
  0
LINE
  8
0
 10
-82.440235
 20
11.873478
 30
0.0
 11
-82.461001
 21
11.984226
 31
0.0
  0
LINE
  8
0
 10
-82.461001
 20
11.984226
 30
0.0
 11
-82.492149
 21
12.091514
 31
0.0
  0
LINE
  8
0
 10
-82.492149
 20
12.091514
 30
0.0
 11
-82.53714
 21
12.194845
 31
0.0
  0
LINE
  8
0
 10
-82.53714
 20
12.194845
 30
0.0
 11
-82.592514
 21
12.295211
 31
0.0
  0
LINE
  8
0
 10
-82.592514
 20
12.295211
 30
0.0
 11
-82.661237
 21
12.385194
 31
0.0
  0
LINE
  8
0
 10
-82.661237
 20
12.385194
 30
0.0
 11
-82.740837
 21
12.468255
 31
0.0
  0
LINE
  8
0
 10
-82.740837
 20
12.468255
 30
0.0
 11
-82.827359
 21
12.540439
 31
0.0
  0
LINE
  8
0
 10
-82.827359
 20
12.540439
 30
0.0
 11
-82.920803
 21
12.602734
 31
0.0
  0
LINE
  8
0
 10
-82.920803
 20
12.602734
 30
0.0
 11
-83.020674
 21
12.654648
 31
0.0
  0
LINE
  8
0
 10
-83.020674
 20
12.654648
 30
0.0
 11
-83.127961
 21
12.692717
 31
0.0
  0
LINE
  8
0
 10
-83.127961
 20
12.692717
 30
0.0
 11
-83.238709
 21
12.720404
 31
0.0
  0
LINE
  8
0
 10
-83.539311
 20
11.289579
 30
0.0
 11
-83.539311
 21
7.940934
 31
0.0
  0
LINE
  8
0
 10
-83.539311
 20
7.940934
 30
0.0
 11
-83.546233
 21
7.889515
 31
0.0
  0
LINE
  8
0
 10
-83.546233
 20
7.889515
 30
0.0
 11
-83.563537
 21
7.841063
 31
0.0
  0
LINE
  8
0
 10
-83.563537
 20
7.841063
 30
0.0
 11
-83.594685
 21
7.802993
 31
0.0
  0
LINE
  8
0
 10
-83.594685
 20
7.802993
 30
0.0
 11
-83.635721
 21
7.771845
 31
0.0
  0
LINE
  8
0
 10
-83.635721
 20
7.771845
 30
0.0
 11
-83.684173
 21
7.75108
 31
0.0
  0
LINE
  8
0
 10
-86.397006
 20
7.021824
 30
0.0
 11
-83.684173
 21
7.75108
 31
0.0
  0
LINE
  8
0
 10
-86.397006
 20
7.021824
 30
0.0
 11
-86.397006
 21
2.204779
 31
0.0
  0
LINE
  8
0
 10
-87.95885
 20
2.982487
 30
0.0
 11
-87.95885
 21
6.00581
 31
0.0
  0
LINE
  8
0
 10
-87.95885
 20
6.00581
 30
0.0
 11
-87.95885
 21
2.985948
 31
0.0
  0
LINE
  8
0
 10
-85.933743
 20
2.204779
 30
0.0
 11
-86.397006
 21
2.204779
 31
0.0
  0
LINE
  8
0
 10
-86.397006
 20
2.204779
 30
0.0
 11
-86.403928
 21
2.204779
 31
0.0
  0
LINE
  8
0
 10
-86.403928
 20
2.204779
 30
0.0
 11
-86.424693
 21
2.204779
 31
0.0
  0
LINE
  8
0
 10
-86.424693
 20
2.204779
 30
0.0
 11
-86.455841
 21
2.204779
 31
0.0
  0
LINE
  8
0
 10
-86.455841
 20
2.204779
 30
0.0
 11
-86.500832
 21
2.204779
 31
0.0
  0
LINE
  8
0
 10
-86.500832
 20
2.204779
 30
0.0
 11
-86.559173
 21
2.204779
 31
0.0
  0
LINE
  8
0
 10
-86.559173
 20
2.204779
 30
0.0
 11
-86.624929
 21
2.204779
 31
0.0
  0
LINE
  8
0
 10
-86.624929
 20
2.204779
 30
0.0
 11
-86.701069
 21
2.204779
 31
0.0
  0
LINE
  8
0
 10
-86.701069
 20
2.204779
 30
0.0
 11
-86.787591
 21
2.204779
 31
0.0
  0
LINE
  8
0
 10
-86.787591
 20
2.204779
 30
0.0
 11
-86.877079
 21
2.204779
 31
0.0
  0
LINE
  8
0
 10
-86.877079
 20
2.204779
 30
0.0
 11
-86.973983
 21
2.204779
 31
0.0
  0
LINE
  8
0
 10
-86.973983
 20
2.204779
 30
0.0
 11
-87.074349
 21
2.204779
 31
0.0
  0
LINE
  8
0
 10
-87.074349
 20
2.204779
 30
0.0
 11
-87.174714
 21
2.204779
 31
0.0
  0
LINE
  8
0
 10
-87.174714
 20
2.204779
 30
0.0
 11
-87.178175
 21
2.204779
 31
0.0
  0
LINE
  8
0
 10
-87.174714
 20
6.814666
 30
0.0
 11
-87.181636
 21
6.814666
 31
0.0
  0
LINE
  8
0
 10
-87.181636
 20
6.814666
 30
0.0
 11
-87.185097
 21
6.814666
 31
0.0
  0
LINE
  8
0
 10
-87.185097
 20
6.814666
 30
0.0
 11
-87.378412
 21
6.759292
 31
0.0
  0
LINE
  8
0
 10
-87.378412
 20
6.759292
 30
0.0
 11
-87.402638
 21
6.755831
 31
0.0
  0
LINE
  8
0
 10
-87.402638
 20
6.755831
 30
0.0
 11
-87.419942
 21
6.748909
 31
0.0
  0
LINE
  8
0
 10
-87.419942
 20
6.748909
 30
0.0
 11
-87.440707
 21
6.741988
 31
0.0
  0
LINE
  8
0
 10
-87.440707
 20
6.741988
 30
0.0
 11
-87.461473
 21
6.735066
 31
0.0
  0
LINE
  8
0
 10
-87.461473
 20
6.735066
 30
0.0
 11
-87.482238
 21
6.724683
 31
0.0
  0
LINE
  8
0
 10
-87.482238
 20
6.724683
 30
0.0
 11
-87.503003
 21
6.717761
 31
0.0
  0
LINE
  8
0
 10
-87.503003
 20
6.717761
 30
0.0
 11
-87.520308
 21
6.707379
 31
0.0
  0
LINE
  8
0
 10
-87.520308
 20
6.707379
 30
0.0
 11
-87.540578
 21
6.696996
 31
0.0
  0
LINE
  8
0
 10
-87.540578
 20
6.696996
 30
0.0
 11
-87.561344
 21
6.686614
 31
0.0
  0
LINE
  8
0
 10
-87.561344
 20
6.686614
 30
0.0
 11
-87.578648
 21
6.676231
 31
0.0
  0
LINE
  8
0
 10
-87.578648
 20
6.676231
 30
0.0
 11
-87.595952
 21
6.665848
 31
0.0
  0
LINE
  8
0
 10
-87.595952
 20
6.665848
 30
0.0
 11
-87.616718
 21
6.652005
 31
0.0
  0
LINE
  8
0
 10
-87.616718
 20
6.652005
 30
0.0
 11
-87.634022
 21
6.641622
 31
0.0
  0
LINE
  8
0
 10
-87.634022
 20
6.641622
 30
0.0
 11
-87.651326
 21
6.627779
 31
0.0
  0
LINE
  8
0
 10
-87.651326
 20
6.627779
 30
0.0
 11
-87.668631
 21
6.61443
 31
0.0
  0
LINE
  8
0
 10
-87.668631
 20
6.61443
 30
0.0
 11
-87.682474
 21
6.600586
 31
0.0
  0
LINE
  8
0
 10
-87.682474
 20
6.600586
 30
0.0
 11
-87.699779
 21
6.586743
 31
0.0
  0
LINE
  8
0
 10
-87.699779
 20
6.586743
 30
0.0
 11
-87.717083
 21
6.572899
 31
0.0
  0
LINE
  8
0
 10
-87.717083
 20
6.572899
 30
0.0
 11
-87.730927
 21
6.555595
 31
0.0
  0
LINE
  8
0
 10
-87.730927
 20
6.555595
 30
0.0
 11
-87.748231
 21
6.541751
 31
0.0
  0
LINE
  8
0
 10
-87.748231
 20
6.541751
 30
0.0
 11
-87.762074
 21
6.524447
 31
0.0
  0
LINE
  8
0
 10
-87.762074
 20
6.524447
 30
0.0
 11
-87.775918
 21
6.507142
 31
0.0
  0
LINE
  8
0
 10
-87.775918
 20
6.507142
 30
0.0
 11
-87.789761
 21
6.493299
 31
0.0
  0
LINE
  8
0
 10
-87.789761
 20
6.493299
 30
0.0
 11
-87.803605
 21
6.475994
 31
0.0
  0
LINE
  8
0
 10
-87.803605
 20
6.475994
 30
0.0
 11
-87.813988
 21
6.45869
 31
0.0
  0
LINE
  8
0
 10
-87.813988
 20
6.45869
 30
0.0
 11
-87.827831
 21
6.437925
 31
0.0
  0
LINE
  8
0
 10
-87.827831
 20
6.437925
 30
0.0
 11
-87.838214
 21
6.42062
 31
0.0
  0
LINE
  8
0
 10
-87.838214
 20
6.42062
 30
0.0
 11
-87.851563
 21
6.403316
 31
0.0
  0
LINE
  8
0
 10
-87.851563
 20
6.403316
 30
0.0
 11
-87.861945
 21
6.382551
 31
0.0
  0
LINE
  8
0
 10
-87.861945
 20
6.382551
 30
0.0
 11
-87.872328
 21
6.365246
 31
0.0
  0
LINE
  8
0
 10
-87.872328
 20
6.365246
 30
0.0
 11
-87.87925
 21
6.344481
 31
0.0
  0
LINE
  8
0
 10
-87.87925
 20
6.344481
 30
0.0
 11
-87.889632
 21
6.327177
 31
0.0
  0
LINE
  8
0
 10
-87.889632
 20
6.327177
 30
0.0
 11
-87.900015
 21
6.306906
 31
0.0
  0
LINE
  8
0
 10
-87.900015
 20
6.306906
 30
0.0
 11
-87.906937
 21
6.286141
 31
0.0
  0
LINE
  8
0
 10
-87.906937
 20
6.286141
 30
0.0
 11
-87.913859
 21
6.265375
 31
0.0
  0
LINE
  8
0
 10
-87.913859
 20
6.265375
 30
0.0
 11
-87.92078
 21
6.24461
 31
0.0
  0
LINE
  8
0
 10
-87.92078
 20
6.24461
 30
0.0
 11
-87.927702
 21
6.223845
 31
0.0
  0
LINE
  8
0
 10
-87.927702
 20
6.223845
 30
0.0
 11
-87.931163
 21
6.20308
 31
0.0
  0
LINE
  8
0
 10
-87.931163
 20
6.20308
 30
0.0
 11
-87.938085
 21
6.182314
 31
0.0
  0
LINE
  8
0
 10
-87.938085
 20
6.182314
 30
0.0
 11
-87.941546
 21
6.161549
 31
0.0
  0
LINE
  8
0
 10
-87.941546
 20
6.161549
 30
0.0
 11
-87.945007
 21
6.140784
 31
0.0
  0
LINE
  8
0
 10
-87.945007
 20
6.140784
 30
0.0
 11
-87.948467
 21
6.120019
 31
0.0
  0
LINE
  8
0
 10
-87.948467
 20
6.120019
 30
0.0
 11
-87.951928
 21
6.095792
 31
0.0
  0
LINE
  8
0
 10
-87.951928
 20
6.095792
 30
0.0
 11
-87.955389
 21
6.075027
 31
0.0
  0
LINE
  8
0
 10
-87.955389
 20
6.075027
 30
0.0
 11
-87.955389
 21
6.054262
 31
0.0
  0
LINE
  8
0
 10
-87.955389
 20
6.054262
 30
0.0
 11
-87.95885
 21
6.012731
 31
0.0
  0
LINE
  8
0
 10
-87.95885
 20
6.012731
 30
0.0
 11
-87.95885
 21
6.009271
 31
0.0
  0
LINE
  8
0
 10
-87.171253
 20
6.814666
 30
0.0
 11
-86.99821
 21
6.863118
 31
0.0
  0
LINE
  8
0
 10
-86.99821
 20
6.863118
 30
0.0
 11
-86.897844
 21
6.890805
 31
0.0
  0
LINE
  8
0
 10
-86.897844
 20
6.890805
 30
0.0
 11
-86.804895
 21
6.915031
 31
0.0
  0
LINE
  8
0
 10
-86.804895
 20
6.915031
 30
0.0
 11
-86.714912
 21
6.939257
 31
0.0
  0
LINE
  8
0
 10
-86.714912
 20
6.939257
 30
0.0
 11
-86.635312
 21
6.959528
 31
0.0
  0
LINE
  8
0
 10
-86.635312
 20
6.959528
 30
0.0
 11
-86.566094
 21
6.976833
 31
0.0
  0
LINE
  8
0
 10
-86.566094
 20
6.976833
 30
0.0
 11
-86.507754
 21
6.994137
 31
0.0
  0
LINE
  8
0
 10
-86.507754
 20
6.994137
 30
0.0
 11
-86.459302
 21
7.007981
 31
0.0
  0
LINE
  8
0
 10
-86.459302
 20
7.007981
 30
0.0
 11
-86.424693
 21
7.014902
 31
0.0
  0
LINE
  8
0
 10
-86.424693
 20
7.014902
 30
0.0
 11
-86.403928
 21
7.021824
 31
0.0
  0
LINE
  8
0
 10
-86.403928
 20
7.021824
 30
0.0
 11
-86.397006
 21
7.021824
 31
0.0
  0
LINE
  8
0
 10
-87.181636
 20
2.204779
 30
0.0
 11
-87.205368
 21
2.204779
 31
0.0
  0
LINE
  8
0
 10
-87.205368
 20
2.204779
 30
0.0
 11
-87.233055
 21
2.208239
 31
0.0
  0
LINE
  8
0
 10
-87.233055
 20
2.208239
 30
0.0
 11
-87.257281
 21
2.208239
 31
0.0
  0
LINE
  8
0
 10
-87.257281
 20
2.208239
 30
0.0
 11
-87.284968
 21
2.2117
 31
0.0
  0
LINE
  8
0
 10
-87.284968
 20
2.2117
 30
0.0
 11
-87.309194
 21
2.218622
 31
0.0
  0
LINE
  8
0
 10
-87.309194
 20
2.218622
 30
0.0
 11
-87.336881
 21
2.222083
 31
0.0
  0
LINE
  8
0
 10
-87.336881
 20
2.222083
 30
0.0
 11
-87.361107
 21
2.229005
 31
0.0
  0
LINE
  8
0
 10
-87.361107
 20
2.229005
 30
0.0
 11
-87.385333
 21
2.232466
 31
0.0
  0
LINE
  8
0
 10
-87.385333
 20
2.232466
 30
0.0
 11
-87.41302
 21
2.242848
 31
0.0
  0
LINE
  8
0
 10
-87.41302
 20
2.242848
 30
0.0
 11
-87.437247
 21
2.24977
 31
0.0
  0
LINE
  8
0
 10
-87.437247
 20
2.24977
 30
0.0
 11
-87.461473
 21
2.260153
 31
0.0
  0
LINE
  8
0
 10
-87.461473
 20
2.260153
 30
0.0
 11
-87.485699
 21
2.267074
 31
0.0
  0
LINE
  8
0
 10
-87.485699
 20
2.267074
 30
0.0
 11
-87.509925
 21
2.277457
 31
0.0
  0
LINE
  8
0
 10
-87.509925
 20
2.277457
 30
0.0
 11
-87.53069
 21
2.291301
 31
0.0
  0
LINE
  8
0
 10
-87.53069
 20
2.291301
 30
0.0
 11
-87.554422
 21
2.301683
 31
0.0
  0
LINE
  8
0
 10
-87.554422
 20
2.301683
 30
0.0
 11
-87.578648
 21
2.315527
 31
0.0
  0
LINE
  8
0
 10
-87.578648
 20
2.315527
 30
0.0
 11
-87.599413
 21
2.32937
 31
0.0
  0
LINE
  8
0
 10
-87.599413
 20
2.32937
 30
0.0
 11
-87.620179
 21
2.343214
 31
0.0
  0
LINE
  8
0
 10
-87.620179
 20
2.343214
 30
0.0
 11
-87.640944
 21
2.360518
 31
0.0
  0
LINE
  8
0
 10
-87.640944
 20
2.360518
 30
0.0
 11
-87.661709
 21
2.374362
 31
0.0
  0
LINE
  8
0
 10
-87.661709
 20
2.374362
 30
0.0
 11
-87.682474
 21
2.391172
 31
0.0
  0
LINE
  8
0
 10
-87.682474
 20
2.391172
 30
0.0
 11
-87.70324
 21
2.408476
 31
0.0
  0
LINE
  8
0
 10
-87.70324
 20
2.408476
 30
0.0
 11
-87.720544
 21
2.42578
 31
0.0
  0
LINE
  8
0
 10
-87.720544
 20
2.42578
 30
0.0
 11
-87.741309
 21
2.443085
 31
0.0
  0
LINE
  8
0
 10
-87.741309
 20
2.443085
 30
0.0
 11
-87.758614
 21
2.46385
 31
0.0
  0
LINE
  8
0
 10
-87.758614
 20
2.46385
 30
0.0
 11
-87.775918
 21
2.484615
 31
0.0
  0
LINE
  8
0
 10
-87.775918
 20
2.484615
 30
0.0
 11
-87.789761
 21
2.50192
 31
0.0
  0
LINE
  8
0
 10
-87.789761
 20
2.50192
 30
0.0
 11
-87.807066
 21
2.522685
 31
0.0
  0
LINE
  8
0
 10
-87.807066
 20
2.522685
 30
0.0
 11
-87.820909
 21
2.54345
 31
0.0
  0
LINE
  8
0
 10
-87.820909
 20
2.54345
 30
0.0
 11
-87.834753
 21
2.567676
 31
0.0
  0
LINE
  8
0
 10
-87.834753
 20
2.567676
 30
0.0
 11
-87.848596
 21
2.588441
 31
0.0
  0
LINE
  8
0
 10
-87.848596
 20
2.588441
 30
0.0
 11
-87.861945
 21
2.612668
 31
0.0
  0
LINE
  8
0
 10
-87.861945
 20
2.612668
 30
0.0
 11
-87.875789
 21
2.633433
 31
0.0
  0
LINE
  8
0
 10
-87.875789
 20
2.633433
 30
0.0
 11
-87.886172
 21
2.657659
 31
0.0
  0
LINE
  8
0
 10
-87.886172
 20
2.657659
 30
0.0
 11
-87.896554
 21
2.681885
 31
0.0
  0
LINE
  8
0
 10
-87.896554
 20
2.681885
 30
0.0
 11
-87.906937
 21
2.706111
 31
0.0
  0
LINE
  8
0
 10
-87.906937
 20
2.706111
 30
0.0
 11
-87.913859
 21
2.729843
 31
0.0
  0
LINE
  8
0
 10
-87.913859
 20
2.729843
 30
0.0
 11
-87.924241
 21
2.754069
 31
0.0
  0
LINE
  8
0
 10
-87.924241
 20
2.754069
 30
0.0
 11
-87.931163
 21
2.778295
 31
0.0
  0
LINE
  8
0
 10
-87.931163
 20
2.778295
 30
0.0
 11
-87.938085
 21
2.805982
 31
0.0
  0
LINE
  8
0
 10
-87.938085
 20
2.805982
 30
0.0
 11
-87.941546
 21
2.830208
 31
0.0
  0
LINE
  8
0
 10
-87.941546
 20
2.830208
 30
0.0
 11
-87.948467
 21
2.854435
 31
0.0
  0
LINE
  8
0
 10
-87.948467
 20
2.854435
 30
0.0
 11
-87.951928
 21
2.882122
 31
0.0
  0
LINE
  8
0
 10
-87.951928
 20
2.882122
 30
0.0
 11
-87.955389
 21
2.906348
 31
0.0
  0
LINE
  8
0
 10
-87.955389
 20
2.906348
 30
0.0
 11
-87.955389
 21
2.934035
 31
0.0
  0
LINE
  8
0
 10
-87.955389
 20
2.934035
 30
0.0
 11
-87.95885
 21
2.958261
 31
0.0
  0
LINE
  8
0
 10
-87.95885
 20
2.958261
 30
0.0
 11
-87.95885
 21
2.982487
 31
0.0
  0
LINE
  8
0
 10
-87.95885
 20
2.982487
 30
0.0
 11
-87.95885
 21
2.985948
 31
0.0
  0
LINE
  8
0
 10
-87.181636
 20
2.204779
 30
0.0
 11
-87.178175
 21
2.204779
 31
0.0
  0
LINE
  8
0
 10
-85.933743
 20
-21.891326
 30
0.0
 11
-85.933743
 21
2.204779
 31
0.0
  0
LINE
  8
0
 10
-86.397006
 20
-21.891326
 30
0.0
 11
-86.397006
 21
-26.708371
 31
0.0
  0
LINE
  8
0
 10
-87.70324
 20
-22.091562
 30
0.0
 11
-87.720544
 21
-22.108867
 31
0.0
  0
LINE
  8
0
 10
-87.720544
 20
-22.108867
 30
0.0
 11
-87.737848
 21
-22.129632
 31
0.0
  0
LINE
  8
0
 10
-87.737848
 20
-22.129632
 30
0.0
 11
-87.758614
 21
-22.146936
 31
0.0
  0
LINE
  8
0
 10
-87.758614
 20
-22.146936
 30
0.0
 11
-87.775918
 21
-22.167702
 31
0.0
  0
LINE
  8
0
 10
-87.775918
 20
-22.167702
 30
0.0
 11
-87.789761
 21
-22.188467
 31
0.0
  0
LINE
  8
0
 10
-87.789761
 20
-22.188467
 30
0.0
 11
-87.807066
 21
-22.209232
 31
0.0
  0
LINE
  8
0
 10
-87.807066
 20
-22.209232
 30
0.0
 11
-87.820909
 21
-22.229997
 31
0.0
  0
LINE
  8
0
 10
-87.820909
 20
-22.229997
 30
0.0
 11
-87.834753
 21
-22.250763
 31
0.0
  0
LINE
  8
0
 10
-87.834753
 20
-22.250763
 30
0.0
 11
-87.848596
 21
-22.271528
 31
0.0
  0
LINE
  8
0
 10
-87.848596
 20
-22.271528
 30
0.0
 11
-87.861945
 21
-22.295754
 31
0.0
  0
LINE
  8
0
 10
-87.861945
 20
-22.295754
 30
0.0
 11
-87.875789
 21
-22.31998
 31
0.0
  0
LINE
  8
0
 10
-87.875789
 20
-22.31998
 30
0.0
 11
-87.886172
 21
-22.340745
 31
0.0
  0
LINE
  8
0
 10
-87.886172
 20
-22.340745
 30
0.0
 11
-87.896554
 21
-22.364972
 31
0.0
  0
LINE
  8
0
 10
-87.896554
 20
-22.364972
 30
0.0
 11
-87.906937
 21
-22.388703
 31
0.0
  0
LINE
  8
0
 10
-87.906937
 20
-22.388703
 30
0.0
 11
-87.913859
 21
-22.412929
 31
0.0
  0
LINE
  8
0
 10
-87.913859
 20
-22.412929
 30
0.0
 11
-87.924241
 21
-22.437156
 31
0.0
  0
LINE
  8
0
 10
-87.924241
 20
-22.437156
 30
0.0
 11
-87.931163
 21
-22.464843
 31
0.0
  0
LINE
  8
0
 10
-87.931163
 20
-22.464843
 30
0.0
 11
-87.938085
 21
-22.489069
 31
0.0
  0
LINE
  8
0
 10
-87.938085
 20
-22.489069
 30
0.0
 11
-87.941546
 21
-22.513295
 31
0.0
  0
LINE
  8
0
 10
-87.941546
 20
-22.513295
 30
0.0
 11
-87.948467
 21
-22.540982
 31
0.0
  0
LINE
  8
0
 10
-87.948467
 20
-22.540982
 30
0.0
 11
-87.951928
 21
-22.565208
 31
0.0
  0
LINE
  8
0
 10
-87.951928
 20
-22.565208
 30
0.0
 11
-87.955389
 21
-22.592895
 31
0.0
  0
LINE
  8
0
 10
-87.955389
 20
-22.592895
 30
0.0
 11
-87.955389
 21
-22.617121
 31
0.0
  0
LINE
  8
0
 10
-87.955389
 20
-22.617121
 30
0.0
 11
-87.95885
 21
-22.644808
 31
0.0
  0
LINE
  8
0
 10
-87.95885
 20
-22.644808
 30
0.0
 11
-87.95885
 21
-22.669034
 31
0.0
  0
LINE
  8
0
 10
-87.95885
 20
-22.669034
 30
0.0
 11
-87.95885
 21
-25.692357
 31
0.0
  0
LINE
  8
0
 10
-87.95885
 20
-25.692357
 30
0.0
 11
-87.955389
 21
-25.733887
 31
0.0
  0
LINE
  8
0
 10
-87.955389
 20
-25.733887
 30
0.0
 11
-87.955389
 21
-25.758114
 31
0.0
  0
LINE
  8
0
 10
-87.955389
 20
-25.758114
 30
0.0
 11
-87.951928
 21
-25.778879
 31
0.0
  0
LINE
  8
0
 10
-87.951928
 20
-25.778879
 30
0.0
 11
-87.951928
 21
-25.799644
 31
0.0
  0
LINE
  8
0
 10
-87.951928
 20
-25.799644
 30
0.0
 11
-87.948467
 21
-25.820409
 31
0.0
  0
LINE
  8
0
 10
-87.948467
 20
-25.820409
 30
0.0
 11
-87.941546
 21
-25.844636
 31
0.0
  0
LINE
  8
0
 10
-87.941546
 20
-25.844636
 30
0.0
 11
-87.938085
 21
-25.865401
 31
0.0
  0
LINE
  8
0
 10
-87.938085
 20
-25.865401
 30
0.0
 11
-87.934624
 21
-25.886166
 31
0.0
  0
LINE
  8
0
 10
-87.934624
 20
-25.886166
 30
0.0
 11
-87.927702
 21
-25.906931
 31
0.0
  0
LINE
  8
0
 10
-87.927702
 20
-25.906931
 30
0.0
 11
-87.92078
 21
-25.927697
 31
0.0
  0
LINE
  8
0
 10
-87.92078
 20
-25.927697
 30
0.0
 11
-87.913859
 21
-25.948462
 31
0.0
  0
LINE
  8
0
 10
-87.913859
 20
-25.948462
 30
0.0
 11
-87.906937
 21
-25.968733
 31
0.0
  0
LINE
  8
0
 10
-87.906937
 20
-25.968733
 30
0.0
 11
-87.900015
 21
-25.989498
 31
0.0
  0
LINE
  8
0
 10
-87.900015
 20
-25.989498
 30
0.0
 11
-87.889632
 21
-26.006802
 31
0.0
  0
LINE
  8
0
 10
-87.889632
 20
-26.006802
 30
0.0
 11
-87.882711
 21
-26.027568
 31
0.0
  0
LINE
  8
0
 10
-87.882711
 20
-26.027568
 30
0.0
 11
-87.872328
 21
-26.048333
 31
0.0
  0
LINE
  8
0
 10
-87.872328
 20
-26.048333
 30
0.0
 11
-87.861945
 21
-26.065637
 31
0.0
  0
LINE
  8
0
 10
-87.861945
 20
-26.065637
 30
0.0
 11
-87.851563
 21
-26.086402
 31
0.0
  0
LINE
  8
0
 10
-87.851563
 20
-26.086402
 30
0.0
 11
-87.841675
 21
-26.103707
 31
0.0
  0
LINE
  8
0
 10
-87.841675
 20
-26.103707
 30
0.0
 11
-87.827831
 21
-26.121011
 31
0.0
  0
LINE
  8
0
 10
-87.827831
 20
-26.121011
 30
0.0
 11
-87.817448
 21
-26.141776
 31
0.0
  0
LINE
  8
0
 10
-87.817448
 20
-26.141776
 30
0.0
 11
-87.803605
 21
-26.159081
 31
0.0
  0
LINE
  8
0
 10
-87.803605
 20
-26.159081
 30
0.0
 11
-87.789761
 21
-26.176385
 31
0.0
  0
LINE
  8
0
 10
-87.789761
 20
-26.176385
 30
0.0
 11
-87.775918
 21
-26.19369
 31
0.0
  0
LINE
  8
0
 10
-87.775918
 20
-26.19369
 30
0.0
 11
-87.762074
 21
-26.207533
 31
0.0
  0
LINE
  8
0
 10
-87.762074
 20
-26.207533
 30
0.0
 11
-87.748231
 21
-26.224837
 31
0.0
  0
LINE
  8
0
 10
-87.748231
 20
-26.224837
 30
0.0
 11
-87.734387
 21
-26.242142
 31
0.0
  0
LINE
  8
0
 10
-87.734387
 20
-26.242142
 30
0.0
 11
-87.717083
 21
-26.255985
 31
0.0
  0
LINE
  8
0
 10
-87.717083
 20
-26.255985
 30
0.0
 11
-87.699779
 21
-26.269829
 31
0.0
  0
LINE
  8
0
 10
-87.699779
 20
-26.269829
 30
0.0
 11
-87.685935
 21
-26.283672
 31
0.0
  0
LINE
  8
0
 10
-87.685935
 20
-26.283672
 30
0.0
 11
-87.668631
 21
-26.297516
 31
0.0
  0
LINE
  8
0
 10
-87.668631
 20
-26.297516
 30
0.0
 11
-87.651326
 21
-26.310865
 31
0.0
  0
LINE
  8
0
 10
-87.651326
 20
-26.310865
 30
0.0
 11
-87.634022
 21
-26.324709
 31
0.0
  0
LINE
  8
0
 10
-87.634022
 20
-26.324709
 30
0.0
 11
-87.616718
 21
-26.338552
 31
0.0
  0
LINE
  8
0
 10
-87.616718
 20
-26.338552
 30
0.0
 11
-87.599413
 21
-26.348935
 31
0.0
  0
LINE
  8
0
 10
-87.599413
 20
-26.348935
 30
0.0
 11
-87.578648
 21
-26.359317
 31
0.0
  0
LINE
  8
0
 10
-87.578648
 20
-26.359317
 30
0.0
 11
-87.561344
 21
-26.373161
 31
0.0
  0
LINE
  8
0
 10
-87.561344
 20
-26.373161
 30
0.0
 11
-87.540578
 21
-26.383543
 31
0.0
  0
LINE
  8
0
 10
-87.540578
 20
-26.383543
 30
0.0
 11
-87.523768
 21
-26.390465
 31
0.0
  0
LINE
  8
0
 10
-87.523768
 20
-26.390465
 30
0.0
 11
-87.503003
 21
-26.400848
 31
0.0
  0
LINE
  8
0
 10
-87.503003
 20
-26.400848
 30
0.0
 11
-87.482238
 21
-26.41123
 31
0.0
  0
LINE
  8
0
 10
-87.482238
 20
-26.41123
 30
0.0
 11
-87.461473
 21
-26.418152
 31
0.0
  0
LINE
  8
0
 10
-87.461473
 20
-26.418152
 30
0.0
 11
-87.440707
 21
-26.425074
 31
0.0
  0
LINE
  8
0
 10
-87.440707
 20
-26.425074
 30
0.0
 11
-87.423403
 21
-26.431996
 31
0.0
  0
LINE
  8
0
 10
-87.423403
 20
-26.431996
 30
0.0
 11
-87.402638
 21
-26.438917
 31
0.0
  0
LINE
  8
0
 10
-87.402638
 20
-26.438917
 30
0.0
 11
-87.378412
 21
-26.445839
 31
0.0
  0
LINE
  8
0
 10
-87.378412
 20
-26.445839
 30
0.0
 11
-87.181636
 21
-26.497752
 31
0.0
  0
LINE
  8
0
 10
-87.181636
 20
-26.497752
 30
0.0
 11
-87.174714
 21
-26.501213
 31
0.0
  0
LINE
  8
0
 10
-87.174714
 20
-26.501213
 30
0.0
 11
-87.070888
 21
-26.5289
 31
0.0
  0
LINE
  8
0
 10
-87.070888
 20
-26.5289
 30
0.0
 11
-86.970523
 21
-26.556587
 31
0.0
  0
LINE
  8
0
 10
-86.970523
 20
-26.556587
 30
0.0
 11
-86.870652
 21
-26.580813
 31
0.0
  0
LINE
  8
0
 10
-86.870652
 20
-26.580813
 30
0.0
 11
-86.777208
 21
-26.6085
 31
0.0
  0
LINE
  8
0
 10
-86.777208
 20
-26.6085
 30
0.0
 11
-86.694147
 21
-26.628771
 31
0.0
  0
LINE
  8
0
 10
-86.694147
 20
-26.628771
 30
0.0
 11
-86.614547
 21
-26.649536
 31
0.0
  0
LINE
  8
0
 10
-86.614547
 20
-26.649536
 30
0.0
 11
-86.54879
 21
-26.666841
 31
0.0
  0
LINE
  8
0
 10
-86.54879
 20
-26.666841
 30
0.0
 11
-86.49391
 21
-26.684145
 31
0.0
  0
LINE
  8
0
 10
-86.49391
 20
-26.684145
 30
0.0
 11
-86.448919
 21
-26.694528
 31
0.0
  0
LINE
  8
0
 10
-86.448919
 20
-26.694528
 30
0.0
 11
-86.417771
 21
-26.70145
 31
0.0
  0
LINE
  8
0
 10
-86.417771
 20
-26.70145
 30
0.0
 11
-86.397006
 21
-26.708371
 31
0.0
  0
LINE
  8
0
 10
-87.95885
 20
-25.692357
 30
0.0
 11
-87.95885
 21
-22.669034
 31
0.0
  0
LINE
  8
0
 10
-87.70324
 20
-22.091562
 30
0.0
 11
-87.682474
 21
-22.074258
 31
0.0
  0
LINE
  8
0
 10
-87.682474
 20
-22.074258
 30
0.0
 11
-87.661709
 21
-22.060414
 31
0.0
  0
LINE
  8
0
 10
-87.661709
 20
-22.060414
 30
0.0
 11
-87.640944
 21
-22.043604
 31
0.0
  0
LINE
  8
0
 10
-87.640944
 20
-22.043604
 30
0.0
 11
-87.620179
 21
-22.029761
 31
0.0
  0
LINE
  8
0
 10
-87.620179
 20
-22.029761
 30
0.0
 11
-87.599413
 21
-22.012457
 31
0.0
  0
LINE
  8
0
 10
-87.599413
 20
-22.012457
 30
0.0
 11
-87.575187
 21
-21.998613
 31
0.0
  0
LINE
  8
0
 10
-87.575187
 20
-21.998613
 30
0.0
 11
-87.554422
 21
-21.98823
 31
0.0
  0
LINE
  8
0
 10
-87.554422
 20
-21.98823
 30
0.0
 11
-87.53069
 21
-21.974387
 31
0.0
  0
LINE
  8
0
 10
-87.53069
 20
-21.974387
 30
0.0
 11
-87.509925
 21
-21.964004
 31
0.0
  0
LINE
  8
0
 10
-87.509925
 20
-21.964004
 30
0.0
 11
-87.485699
 21
-21.953622
 31
0.0
  0
LINE
  8
0
 10
-87.485699
 20
-21.953622
 30
0.0
 11
-87.461473
 21
-21.943239
 31
0.0
  0
LINE
  8
0
 10
-87.461473
 20
-21.943239
 30
0.0
 11
-87.437247
 21
-21.932856
 31
0.0
  0
LINE
  8
0
 10
-87.437247
 20
-21.932856
 30
0.0
 11
-87.409559
 21
-21.925935
 31
0.0
  0
LINE
  8
0
 10
-87.409559
 20
-21.925935
 30
0.0
 11
-87.385333
 21
-21.919013
 31
0.0
  0
LINE
  8
0
 10
-87.385333
 20
-21.919013
 30
0.0
 11
-87.361107
 21
-21.912091
 31
0.0
  0
LINE
  8
0
 10
-87.361107
 20
-21.912091
 30
0.0
 11
-87.336881
 21
-21.905169
 31
0.0
  0
LINE
  8
0
 10
-87.336881
 20
-21.905169
 30
0.0
 11
-87.309194
 21
-21.901709
 31
0.0
  0
LINE
  8
0
 10
-87.309194
 20
-21.901709
 30
0.0
 11
-87.284968
 21
-21.898248
 31
0.0
  0
LINE
  8
0
 10
-87.284968
 20
-21.898248
 30
0.0
 11
-87.257281
 21
-21.894787
 31
0.0
  0
LINE
  8
0
 10
-87.257281
 20
-21.894787
 30
0.0
 11
-87.233055
 21
-21.891326
 31
0.0
  0
LINE
  8
0
 10
-87.233055
 20
-21.891326
 30
0.0
 11
-87.205368
 21
-21.891326
 31
0.0
  0
LINE
  8
0
 10
-87.205368
 20
-21.891326
 30
0.0
 11
-87.181636
 21
-21.891326
 31
0.0
  0
LINE
  8
0
 10
-87.181636
 20
-21.891326
 30
0.0
 11
-87.178175
 21
-21.891326
 31
0.0
  0
LINE
  8
0
 10
-87.178175
 20
-21.891326
 30
0.0
 11
-87.174714
 21
-21.891326
 31
0.0
  0
LINE
  8
0
 10
-87.174714
 20
-21.891326
 30
0.0
 11
-87.074349
 21
-21.891326
 31
0.0
  0
LINE
  8
0
 10
-87.074349
 20
-21.891326
 30
0.0
 11
-86.973983
 21
-21.891326
 31
0.0
  0
LINE
  8
0
 10
-86.973983
 20
-21.891326
 30
0.0
 11
-86.877079
 21
-21.891326
 31
0.0
  0
LINE
  8
0
 10
-86.877079
 20
-21.891326
 30
0.0
 11
-86.787591
 21
-21.891326
 31
0.0
  0
LINE
  8
0
 10
-86.787591
 20
-21.891326
 30
0.0
 11
-86.701069
 21
-21.891326
 31
0.0
  0
LINE
  8
0
 10
-86.701069
 20
-21.891326
 30
0.0
 11
-86.624929
 21
-21.891326
 31
0.0
  0
LINE
  8
0
 10
-86.624929
 20
-21.891326
 30
0.0
 11
-86.559173
 21
-21.891326
 31
0.0
  0
LINE
  8
0
 10
-86.559173
 20
-21.891326
 30
0.0
 11
-86.500832
 21
-21.891326
 31
0.0
  0
LINE
  8
0
 10
-86.500832
 20
-21.891326
 30
0.0
 11
-86.455841
 21
-21.891326
 31
0.0
  0
LINE
  8
0
 10
-86.455841
 20
-21.891326
 30
0.0
 11
-86.424693
 21
-21.891326
 31
0.0
  0
LINE
  8
0
 10
-86.424693
 20
-21.891326
 30
0.0
 11
-86.403928
 21
-21.891326
 31
0.0
  0
LINE
  8
0
 10
-86.403928
 20
-21.891326
 30
0.0
 11
-86.397006
 21
-21.891326
 31
0.0
  0
LINE
  8
0
 10
-86.397006
 20
-21.891326
 30
0.0
 11
-85.933743
 21
-21.891326
 31
0.0
  0
LINE
  8
0
 10
-86.397006
 20
-26.708371
 30
0.0
 11
-83.684173
 21
-27.437627
 31
0.0
  0
LINE
  8
0
 10
-83.635721
 20
-27.454932
 30
0.0
 11
-83.594685
 21
-27.48608
 31
0.0
  0
LINE
  8
0
 10
-83.594685
 20
-27.48608
 30
0.0
 11
-83.563537
 21
-27.52761
 31
0.0
  0
LINE
  8
0
 10
-83.539311
 20
-27.62402
 30
0.0
 11
-83.539311
 21
-30.972665
 31
0.0
  0
LINE
  8
0
 10
-82.433314
 20
-31.44285
 30
0.0
 11
-82.433314
 21
11.759764
 31
0.0
  0
LINE
  8
0
 10
-83.539311
 20
-30.972665
 30
0.0
 11
-83.546233
 21
-31.028039
 31
0.0
  0
LINE
  8
0
 10
-83.546233
 20
-31.028039
 30
0.0
 11
-83.566998
 21
-31.076492
 31
0.0
  0
LINE
  8
0
 10
-83.566998
 20
-31.076492
 30
0.0
 11
-83.601607
 21
-31.118022
 31
0.0
  0
LINE
  8
0
 10
-83.601607
 20
-31.118022
 30
0.0
 11
-83.646104
 21
-31.14917
 31
0.0
  0
LINE
  8
0
 10
-83.646104
 20
-31.14917
 30
0.0
 11
-83.698017
 21
-31.166475
 31
0.0
  0
LINE
  8
0
 10
-82.433314
 20
-31.44285
 30
0.0
 11
-82.440235
 21
-31.556565
 31
0.0
  0
LINE
  8
0
 10
-82.440235
 20
-31.556565
 30
0.0
 11
-82.461001
 21
-31.667313
 31
0.0
  0
LINE
  8
0
 10
-82.461001
 20
-31.667313
 30
0.0
 11
-82.492149
 21
-31.778061
 31
0.0
  0
LINE
  8
0
 10
-82.492149
 20
-31.778061
 30
0.0
 11
-82.53714
 21
-31.881393
 31
0.0
  0
LINE
  8
0
 10
-82.53714
 20
-31.881393
 30
0.0
 11
-82.592514
 21
-31.978297
 31
0.0
  0
LINE
  8
0
 10
-82.592514
 20
-31.978297
 30
0.0
 11
-82.661237
 21
-32.071741
 31
0.0
  0
LINE
  8
0
 10
-82.661237
 20
-32.071741
 30
0.0
 11
-82.740837
 21
-32.151341
 31
0.0
  0
LINE
  8
0
 10
-82.740837
 20
-32.151341
 30
0.0
 11
-82.827359
 21
-32.226986
 31
0.0
  0
LINE
  8
0
 10
-82.827359
 20
-32.226986
 30
0.0
 11
-82.920803
 21
-32.289282
 31
0.0
  0
LINE
  8
0
 10
-82.920803
 20
-32.289282
 30
0.0
 11
-83.020674
 21
-32.337734
 31
0.0
  0
LINE
  8
0
 10
-83.020674
 20
-32.337734
 30
0.0
 11
-83.127961
 21
-32.379264
 31
0.0
  0
LINE
  8
0
 10
-83.127961
 20
-32.379264
 30
0.0
 11
-83.238709
 21
-32.403491
 31
0.0
  0
LINE
  8
0
 10
-83.698017
 20
-31.166475
 30
0.0
 11
-85.795802
 21
-31.535799
 31
0.0
  0
LINE
  8
0
 10
-85.567879
 20
-32.814346
 30
0.0
 11
-83.238709
 21
-32.403491
 31
0.0
  0
LINE
  8
0
 10
-85.059624
 20
-32.358499
 30
0.0
 11
-85.038859
 21
-32.268516
 31
0.0
  0
LINE
  8
0
 10
-85.038859
 20
-32.268516
 30
0.0
 11
-85.031937
 21
-32.175073
 31
0.0
  0
LINE
  8
0
 10
-85.031937
 20
-32.175073
 30
0.0
 11
-85.038859
 21
-32.082124
 31
0.0
  0
LINE
  8
0
 10
-85.038859
 20
-32.082124
 30
0.0
 11
-85.059624
 21
-31.992141
 31
0.0
  0
LINE
  8
0
 10
-85.059624
 20
-31.992141
 30
0.0
 11
-85.090772
 21
-31.905619
 31
0.0
  0
LINE
  8
0
 10
-85.090772
 20
-31.905619
 30
0.0
 11
-85.135764
 21
-31.822558
 31
0.0
  0
LINE
  8
0
 10
-85.135764
 20
-31.822558
 30
0.0
 11
-85.191138
 21
-31.750374
 31
0.0
  0
LINE
  8
0
 10
-85.191138
 20
-31.750374
 30
0.0
 11
-85.2564
 21
-31.684617
 31
0.0
  0
LINE
  8
0
 10
-85.2564
 20
-31.684617
 30
0.0
 11
-85.332539
 21
-31.629243
 31
0.0
  0
LINE
  8
0
 10
-85.332539
 20
-31.629243
 30
0.0
 11
-85.412139
 21
-31.584252
 31
0.0
  0
LINE
  8
0
 10
-85.412139
 20
-31.584252
 30
0.0
 11
-85.498661
 21
-31.549643
 31
0.0
  0
LINE
  8
0
 10
-85.498661
 20
-31.549643
 30
0.0
 11
-85.591611
 21
-31.532339
 31
0.0
  0
LINE
  8
0
 10
-85.591611
 20
-31.532339
 30
0.0
 11
-85.681593
 21
-31.525417
 31
0.0
  0
LINE
  8
0
 10
-85.681593
 20
-31.525417
 30
0.0
 11
-85.775037
 21
-31.532339
 31
0.0
  0
LINE
  8
0
 10
-85.775037
 20
-31.532339
 30
0.0
 11
-85.86502
 21
-31.549643
 31
0.0
  0
LINE
  8
0
 10
-85.86502
 20
-31.549643
 30
0.0
 11
-85.954508
 21
-31.584252
 31
0.0
  0
LINE
  8
0
 10
-85.954508
 20
-31.584252
 30
0.0
 11
-86.034108
 21
-31.629243
 31
0.0
  0
LINE
  8
0
 10
-86.034108
 20
-31.629243
 30
0.0
 11
-86.110248
 21
-31.684617
 31
0.0
  0
LINE
  8
0
 10
-86.110248
 20
-31.684617
 30
0.0
 11
-86.176004
 21
-31.750374
 31
0.0
  0
LINE
  8
0
 10
-86.176004
 20
-31.750374
 30
0.0
 11
-86.230884
 21
-31.822558
 31
0.0
  0
LINE
  8
0
 10
-86.230884
 20
-31.822558
 30
0.0
 11
-86.275875
 21
-31.905619
 31
0.0
  0
LINE
  8
0
 10
-86.275875
 20
-31.905619
 30
0.0
 11
-86.307023
 21
-31.992141
 31
0.0
  0
LINE
  8
0
 10
-86.307023
 20
-31.992141
 30
0.0
 11
-86.327788
 21
-32.082124
 31
0.0
  0
LINE
  8
0
 10
-86.327788
 20
-32.082124
 30
0.0
 11
-86.33471
 21
-32.175073
 31
0.0
  0
LINE
  8
0
 10
-86.33471
 20
-32.175073
 30
0.0
 11
-86.327788
 21
-32.268516
 31
0.0
  0
LINE
  8
0
 10
-86.327788
 20
-32.268516
 30
0.0
 11
-86.307023
 21
-32.358499
 31
0.0
  0
LINE
  8
0
 10
-86.307023
 20
-32.358499
 30
0.0
 11
-86.275875
 21
-32.445021
 31
0.0
  0
LINE
  8
0
 10
-86.275875
 20
-32.445021
 30
0.0
 11
-86.230884
 21
-32.527588
 31
0.0
  0
LINE
  8
0
 10
-86.230884
 20
-32.527588
 30
0.0
 11
-86.176004
 21
-32.600266
 31
0.0
  0
LINE
  8
0
 10
-86.176004
 20
-32.600266
 30
0.0
 11
-86.110248
 21
-32.666023
 31
0.0
  0
LINE
  8
0
 10
-86.110248
 20
-32.666023
 30
0.0
 11
-86.034108
 21
-32.721397
 31
0.0
  0
LINE
  8
0
 10
-86.034108
 20
-32.721397
 30
0.0
 11
-85.954508
 21
-32.766388
 31
0.0
  0
LINE
  8
0
 10
-85.954508
 20
-32.766388
 30
0.0
 11
-85.86502
 21
-32.797536
 31
0.0
  0
LINE
  8
0
 10
-85.86502
 20
-32.797536
 30
0.0
 11
-85.775037
 21
-32.817807
 31
0.0
  0
LINE
  8
0
 10
-85.775037
 20
-32.817807
 30
0.0
 11
-85.681593
 21
-32.824729
 31
0.0
  0
LINE
  8
0
 10
-85.681593
 20
-32.824729
 30
0.0
 11
-85.591611
 21
-32.817807
 31
0.0
  0
LINE
  8
0
 10
-85.591611
 20
-32.817807
 30
0.0
 11
-85.498661
 21
-32.797536
 31
0.0
  0
LINE
  8
0
 10
-85.498661
 20
-32.797536
 30
0.0
 11
-85.412139
 21
-32.766388
 31
0.0
  0
LINE
  8
0
 10
-85.412139
 20
-32.766388
 30
0.0
 11
-85.332539
 21
-32.721397
 31
0.0
  0
LINE
  8
0
 10
-85.332539
 20
-32.721397
 30
0.0
 11
-85.2564
 21
-32.666023
 31
0.0
  0
LINE
  8
0
 10
-85.2564
 20
-32.666023
 30
0.0
 11
-85.191138
 21
-32.600266
 31
0.0
  0
LINE
  8
0
 10
-85.191138
 20
-32.600266
 30
0.0
 11
-85.135764
 21
-32.527588
 31
0.0
  0
LINE
  8
0
 10
-85.135764
 20
-32.527588
 30
0.0
 11
-85.090772
 21
-32.445021
 31
0.0
  0
LINE
  8
0
 10
-85.090772
 20
-32.445021
 30
0.0
 11
-85.059624
 21
-32.358499
 31
0.0
  0
LINE
  8
0
 10
-80.162979
 20
-86.916249
 30
0.0
 11
-80.162979
 21
19.08545
 31
0.0
  0
LINE
  8
0
 10
-87.827831
 20
-88.906747
 30
0.0
 11
-87.66517
 21
-88.913669
 31
0.0
  0
LINE
  8
0
 10
-87.993459
 20
-88.885982
 30
0.0
 11
-87.827831
 21
-88.906747
 31
0.0
  0
LINE
  8
0
 10
-88.15612
 20
-88.854834
 30
0.0
 11
-87.993459
 21
-88.885982
 31
0.0
  0
LINE
  8
0
 10
-88.311365
 20
-88.806382
 30
0.0
 11
-88.15612
 21
-88.854834
 31
0.0
  0
LINE
  8
0
 10
-88.467104
 20
-88.747547
 30
0.0
 11
-88.311365
 21
-88.806382
 31
0.0
  0
LINE
  8
0
 10
-88.615428
 20
-88.674868
 30
0.0
 11
-88.467104
 21
-88.747547
 31
0.0
  0
LINE
  8
0
 10
-88.757324
 20
-88.588841
 30
0.0
 11
-88.615428
 21
-88.674868
 31
0.0
  0
LINE
  8
0
 10
-88.892298
 20
-88.491936
 30
0.0
 11
-88.757324
 21
-88.588841
 31
0.0
  0
LINE
  8
0
 10
-89.019856
 20
-88.384649
 30
0.0
 11
-88.892298
 21
-88.491936
 31
0.0
  0
LINE
  8
0
 10
-89.134065
 20
-88.270935
 30
0.0
 11
-89.019856
 21
-88.384649
 31
0.0
  0
LINE
  8
0
 10
-89.240858
 20
-88.142882
 30
0.0
 11
-89.134065
 21
-88.270935
 31
0.0
  0
LINE
  8
0
 10
-89.337762
 20
-88.007908
 30
0.0
 11
-89.240858
 21
-88.142882
 31
0.0
  0
LINE
  8
0
 10
-89.424284
 20
-87.866506
 30
0.0
 11
-89.337762
 21
-88.007908
 31
0.0
  0
LINE
  8
0
 10
-89.496962
 20
-87.717689
 30
0.0
 11
-89.424284
 21
-87.866506
 31
0.0
  0
LINE
  8
0
 10
-89.555303
 20
-87.562444
 30
0.0
 11
-89.496962
 21
-87.717689
 31
0.0
  0
LINE
  8
0
 10
-89.603755
 20
-87.406704
 30
0.0
 11
-89.555303
 21
-87.562444
 31
0.0
  0
LINE
  8
0
 10
-89.634903
 20
-87.244538
 30
0.0
 11
-89.603755
 21
-87.406704
 31
0.0
  0
LINE
  8
0
 10
-89.655668
 20
-87.078415
 30
0.0
 11
-89.634903
 21
-87.244538
 31
0.0
  0
LINE
  8
0
 10
-89.66259
 20
-86.916249
 30
0.0
 11
-89.655668
 21
-87.078415
 31
0.0
  0
LINE
  8
0
 10
-89.233936
 20
-85.993678
 30
0.0
 11
-89.66259
 21
-86.916249
 31
0.0
  0
LINE
  8
0
 10
-89.179056
 20
-85.889852
 30
0.0
 11
-89.233936
 21
-85.993678
 31
0.0
  0
LINE
  8
0
 10
-89.113299
 20
-85.796408
 30
0.0
 11
-89.179056
 21
-85.889852
 31
0.0
  0
LINE
  8
0
 10
-89.03716
 20
-85.709886
 30
0.0
 11
-89.113299
 21
-85.796408
 31
0.0
  0
LINE
  8
0
 10
-88.950638
 20
-85.634241
 30
0.0
 11
-89.03716
 21
-85.709886
 31
0.0
  0
LINE
  8
0
 10
-88.857689
 20
-85.568485
 30
0.0
 11
-88.950638
 21
-85.634241
 31
0.0
  0
LINE
  8
0
 10
-88.757324
 20
-85.513111
 30
0.0
 11
-88.857689
 21
-85.568485
 31
0.0
  0
LINE
  8
0
 10
-88.650036
 20
-85.468119
 30
0.0
 11
-88.757324
 21
-85.513111
 31
0.0
  0
LINE
  8
0
 10
-88.543244
 20
-85.436971
 30
0.0
 11
-88.650036
 21
-85.468119
 31
0.0
  0
LINE
  8
0
 10
-88.429035
 20
-85.419667
 30
0.0
 11
-88.543244
 21
-85.436971
 31
0.0
  0
LINE
  8
0
 10
-88.314826
 20
-85.416206
 30
0.0
 11
-88.429035
 21
-85.419667
 31
0.0
  0
LINE
  8
0
 10
-88.19765
 20
-85.423128
 30
0.0
 11
-88.314826
 21
-85.416206
 31
0.0
  0
LINE
  8
0
 10
-88.086902
 20
-85.443893
 30
0.0
 11
-88.19765
 21
-85.423128
 31
0.0
  0
LINE
  8
0
 10
-87.976154
 20
-85.478502
 30
0.0
 11
-88.086902
 21
-85.443893
 31
0.0
  0
LINE
  8
0
 10
-87.872823
 20
-85.523493
 30
0.0
 11
-87.976154
 21
-85.478502
 31
0.0
  0
LINE
  8
0
 10
-87.772457
 20
-85.582328
 30
0.0
 11
-87.872823
 21
-85.523493
 31
0.0
  0
LINE
  8
0
 10
-87.682474
 20
-85.651546
 30
0.0
 11
-87.772457
 21
-85.582328
 31
0.0
  0
LINE
  8
0
 10
-87.595952
 20
-85.730651
 30
0.0
 11
-87.682474
 21
-85.651546
 31
0.0
  0
LINE
  8
0
 10
-87.523768
 20
-85.817173
 30
0.0
 11
-87.595952
 21
-85.730651
 31
0.0
  0
LINE
  8
0
 10
-87.461473
 20
-85.914078
 30
0.0
 11
-87.523768
 21
-85.817173
 31
0.0
  0
LINE
  8
0
 10
-86.711451
 20
-87.21339
 30
0.0
 11
-87.461473
 21
-85.914078
 31
0.0
  0
LINE
  8
0
 10
-83.062204
 20
-87.21339
 30
0.0
 11
-86.711451
 21
-87.21339
 31
0.0
  0
LINE
  8
0
 10
-82.938107
 20
-87.206468
 30
0.0
 11
-83.062204
 21
-87.21339
 31
0.0
  0
LINE
  8
0
 10
-82.813516
 20
-87.189164
 30
0.0
 11
-82.938107
 21
-87.206468
 31
0.0
  0
LINE
  8
0
 10
-82.692385
 20
-87.154555
 30
0.0
 11
-82.813516
 21
-87.189164
 31
0.0
  0
LINE
  8
0
 10
-82.57521
 20
-87.109563
 30
0.0
 11
-82.692385
 21
-87.154555
 31
0.0
  0
LINE
  8
0
 10
-82.464462
 20
-87.054189
 30
0.0
 11
-82.57521
 21
-87.109563
 31
0.0
  0
LINE
  8
0
 10
-82.357669
 20
-86.985466
 30
0.0
 11
-82.464462
 21
-87.054189
 31
0.0
  0
LINE
  8
0
 10
-82.260764
 20
-86.905866
 30
0.0
 11
-82.357669
 21
-86.985466
 31
0.0
  0
LINE
  8
0
 10
-82.170782
 20
-86.815883
 30
0.0
 11
-82.260764
 21
-86.905866
 31
0.0
  0
LINE
  8
0
 10
-82.091181
 20
-86.718979
 30
0.0
 11
-82.170782
 21
-86.815883
 31
0.0
  0
LINE
  8
0
 10
-82.025919
 20
-86.615647
 30
0.0
 11
-82.091181
 21
-86.718979
 31
0.0
  0
LINE
  8
0
 10
-81.967084
 20
-86.501438
 30
0.0
 11
-82.025919
 21
-86.615647
 31
0.0
  0
LINE
  8
0
 10
-81.922093
 20
-86.383768
 30
0.0
 11
-81.967084
 21
-86.501438
 31
0.0
  0
LINE
  8
0
 10
-81.890945
 20
-86.263132
 30
0.0
 11
-81.922093
 21
-86.383768
 31
0.0
  0
LINE
  8
0
 10
-81.87018
 20
-86.13854
 30
0.0
 11
-81.890945
 21
-86.263132
 31
0.0
  0
LINE
  8
0
 10
-81.863258
 20
-86.014443
 30
0.0
 11
-81.87018
 21
-86.13854
 31
0.0
  0
LINE
  8
0
 10
-80.169901
 20
-87.078415
 30
0.0
 11
-80.162979
 21
-86.916249
 31
0.0
  0
LINE
  8
0
 10
-80.190666
 20
-87.244538
 30
0.0
 11
-80.169901
 21
-87.078415
 31
0.0
  0
LINE
  8
0
 10
-80.225275
 20
-87.406704
 30
0.0
 11
-80.190666
 21
-87.244538
 31
0.0
  0
LINE
  8
0
 10
-80.273727
 20
-87.562444
 30
0.0
 11
-80.225275
 21
-87.406704
 31
0.0
  0
LINE
  8
0
 10
-80.332562
 20
-87.717689
 30
0.0
 11
-80.273727
 21
-87.562444
 31
0.0
  0
LINE
  8
0
 10
-80.40524
 20
-87.866506
 30
0.0
 11
-80.332562
 21
-87.717689
 31
0.0
  0
LINE
  8
0
 10
-80.487807
 20
-88.007908
 30
0.0
 11
-80.40524
 21
-87.866506
 31
0.0
  0
LINE
  8
0
 10
-80.584711
 20
-88.142882
 30
0.0
 11
-80.487807
 21
-88.007908
 31
0.0
  0
LINE
  8
0
 10
-80.691998
 20
-88.270935
 30
0.0
 11
-80.584711
 21
-88.142882
 31
0.0
  0
LINE
  8
0
 10
-80.809174
 20
-88.384649
 30
0.0
 11
-80.691998
 21
-88.270935
 31
0.0
  0
LINE
  8
0
 10
-80.937226
 20
-88.491936
 30
0.0
 11
-80.809174
 21
-88.384649
 31
0.0
  0
LINE
  8
0
 10
-81.068245
 20
-88.588841
 30
0.0
 11
-80.937226
 21
-88.491936
 31
0.0
  0
LINE
  8
0
 10
-81.213602
 20
-88.674868
 30
0.0
 11
-81.068245
 21
-88.588841
 31
0.0
  0
LINE
  8
0
 10
-81.36242
 20
-88.747547
 30
0.0
 11
-81.213602
 21
-88.674868
 31
0.0
  0
LINE
  8
0
 10
-81.514204
 20
-88.806382
 30
0.0
 11
-81.36242
 21
-88.747547
 31
0.0
  0
LINE
  8
0
 10
-81.673404
 20
-88.854834
 30
0.0
 11
-81.514204
 21
-88.806382
 31
0.0
  0
LINE
  8
0
 10
-81.835571
 20
-88.885982
 30
0.0
 11
-81.673404
 21
-88.854834
 31
0.0
  0
LINE
  8
0
 10
-81.998232
 20
-88.906747
 30
0.0
 11
-81.835571
 21
-88.885982
 31
0.0
  0
LINE
  8
0
 10
-82.16386
 20
-88.913669
 30
0.0
 11
-81.998232
 21
-88.906747
 31
0.0
  0
LINE
  8
0
 10
-87.66517
 20
-88.913669
 30
0.0
 11
-82.16386
 21
-88.913669
 31
0.0
  0
LINE
  8
0
 10
-81.863258
 20
18.183645
 30
0.0
 11
-81.863258
 21
-86.014443
 31
0.0
  0
LINE
  8
0
 10
-81.998232
 20
21.079409
 30
0.0
 11
-82.16386
 21
21.086331
 31
0.0
  0
LINE
  8
0
 10
-81.835571
 20
21.058644
 30
0.0
 11
-81.998232
 21
21.079409
 31
0.0
  0
LINE
  8
0
 10
-81.673404
 20
21.024035
 30
0.0
 11
-81.835571
 21
21.058644
 31
0.0
  0
LINE
  8
0
 10
-82.16386
 20
21.086331
 30
0.0
 11
-87.66517
 21
21.086331
 31
0.0
  0
LINE
  8
0
 10
-87.523768
 20
17.989836
 30
0.0
 11
-87.461473
 21
18.083279
 31
0.0
  0
LINE
  8
0
 10
-87.595952
 20
17.900347
 30
0.0
 11
-87.523768
 21
17.989836
 31
0.0
  0
LINE
  8
0
 10
-87.682474
 20
17.820747
 30
0.0
 11
-87.595952
 21
17.900347
 31
0.0
  0
LINE
  8
0
 10
-87.772457
 20
17.75153
 30
0.0
 11
-87.682474
 21
17.820747
 31
0.0
  0
LINE
  8
0
 10
-87.872823
 20
17.696156
 30
0.0
 11
-87.772457
 21
17.75153
 31
0.0
  0
LINE
  8
0
 10
-87.976154
 20
17.647703
 30
0.0
 11
-87.872823
 21
17.696156
 31
0.0
  0
LINE
  8
0
 10
-88.086902
 20
17.613095
 30
0.0
 11
-87.976154
 21
17.647703
 31
0.0
  0
LINE
  8
0
 10
-88.19765
 20
17.592824
 30
0.0
 11
-88.086902
 21
17.613095
 31
0.0
  0
LINE
  8
0
 10
-88.314826
 20
17.585902
 30
0.0
 11
-88.19765
 21
17.592824
 31
0.0
  0
LINE
  8
0
 10
-88.429035
 20
17.589363
 30
0.0
 11
-88.314826
 21
17.585902
 31
0.0
  0
LINE
  8
0
 10
-88.543244
 20
17.606667
 30
0.0
 11
-88.429035
 21
17.589363
 31
0.0
  0
LINE
  8
0
 10
-88.650036
 20
17.637321
 30
0.0
 11
-88.543244
 21
17.606667
 31
0.0
  0
LINE
  8
0
 10
-88.757324
 20
17.682312
 30
0.0
 11
-88.650036
 21
17.637321
 31
0.0
  0
LINE
  8
0
 10
-88.857689
 20
17.737686
 30
0.0
 11
-88.757324
 21
17.682312
 31
0.0
  0
LINE
  8
0
 10
-88.950638
 20
17.803443
 30
0.0
 11
-88.857689
 21
17.737686
 31
0.0
  0
LINE
  8
0
 10
-89.03716
 20
17.879582
 30
0.0
 11
-88.950638
 21
17.803443
 31
0.0
  0
LINE
  8
0
 10
-89.113299
 20
17.96561
 30
0.0
 11
-89.03716
 21
17.879582
 31
0.0
  0
LINE
  8
0
 10
-89.179056
 20
18.062514
 30
0.0
 11
-89.113299
 21
17.96561
 31
0.0
  0
LINE
  8
0
 10
-89.233936
 20
18.16288
 30
0.0
 11
-89.179056
 21
18.062514
 31
0.0
  0
LINE
  8
0
 10
-89.66259
 20
19.08545
 30
0.0
 11
-89.233936
 21
18.16288
 31
0.0
  0
LINE
  8
0
 10
-89.655668
 20
19.251078
 30
0.0
 11
-89.66259
 21
19.08545
 31
0.0
  0
LINE
  8
0
 10
-89.634903
 20
19.413739
 30
0.0
 11
-89.655668
 21
19.251078
 31
0.0
  0
LINE
  8
0
 10
-89.603755
 20
19.575906
 30
0.0
 11
-89.634903
 21
19.413739
 31
0.0
  0
LINE
  8
0
 10
-89.555303
 20
19.735106
 30
0.0
 11
-89.603755
 21
19.575906
 31
0.0
  0
LINE
  8
0
 10
-89.496962
 20
19.88689
 30
0.0
 11
-89.555303
 21
19.735106
 31
0.0
  0
LINE
  8
0
 10
-89.424284
 20
20.035708
 30
0.0
 11
-89.496962
 21
19.88689
 31
0.0
  0
LINE
  8
0
 10
-89.337762
 20
20.177604
 30
0.0
 11
-89.424284
 21
20.035708
 31
0.0
  0
LINE
  8
0
 10
-89.240858
 20
20.312084
 30
0.0
 11
-89.337762
 21
20.177604
 31
0.0
  0
LINE
  8
0
 10
-89.134065
 20
20.440136
 30
0.0
 11
-89.240858
 21
20.312084
 31
0.0
  0
LINE
  8
0
 10
-89.019856
 20
20.557312
 30
0.0
 11
-89.134065
 21
20.440136
 31
0.0
  0
LINE
  8
0
 10
-88.892298
 20
20.664599
 30
0.0
 11
-89.019856
 21
20.557312
 31
0.0
  0
LINE
  8
0
 10
-88.757324
 20
20.758042
 30
0.0
 11
-88.892298
 21
20.664599
 31
0.0
  0
LINE
  8
0
 10
-88.615428
 20
20.844564
 30
0.0
 11
-88.757324
 21
20.758042
 31
0.0
  0
LINE
  8
0
 10
-88.467104
 20
20.916748
 30
0.0
 11
-88.615428
 21
20.844564
 31
0.0
  0
LINE
  8
0
 10
-88.311365
 20
20.975583
 30
0.0
 11
-88.467104
 21
20.916748
 31
0.0
  0
LINE
  8
0
 10
-88.15612
 20
21.024035
 30
0.0
 11
-88.311365
 21
20.975583
 31
0.0
  0
LINE
  8
0
 10
-87.993459
 20
21.058644
 30
0.0
 11
-88.15612
 21
21.024035
 31
0.0
  0
LINE
  8
0
 10
-87.827831
 20
21.079409
 30
0.0
 11
-87.993459
 21
21.058644
 31
0.0
  0
LINE
  8
0
 10
-87.66517
 20
21.086331
 30
0.0
 11
-87.827831
 21
21.079409
 31
0.0
  0
LINE
  8
0
 10
-87.461473
 20
18.083279
 30
0.0
 11
-86.711451
 21
19.386052
 31
0.0
  0
LINE
  8
0
 10
-86.711451
 20
19.386052
 30
0.0
 11
-83.062204
 21
19.386052
 31
0.0
  0
LINE
  8
0
 10
-81.87018
 20
18.311203
 30
0.0
 11
-81.863258
 21
18.183645
 31
0.0
  0
LINE
  8
0
 10
-81.890945
 20
18.435794
 30
0.0
 11
-81.87018
 21
18.311203
 31
0.0
  0
LINE
  8
0
 10
-81.922093
 20
18.556925
 30
0.0
 11
-81.890945
 21
18.435794
 31
0.0
  0
LINE
  8
0
 10
-81.967084
 20
18.6741
 30
0.0
 11
-81.922093
 21
18.556925
 31
0.0
  0
LINE
  8
0
 10
-82.025919
 20
18.784848
 30
0.0
 11
-81.967084
 21
18.6741
 31
0.0
  0
LINE
  8
0
 10
-82.091181
 20
18.888675
 30
0.0
 11
-82.025919
 21
18.784848
 31
0.0
  0
LINE
  8
0
 10
-82.170782
 20
18.988546
 30
0.0
 11
-82.091181
 21
18.888675
 31
0.0
  0
LINE
  8
0
 10
-82.260764
 20
19.075068
 30
0.0
 11
-82.170782
 21
18.988546
 31
0.0
  0
LINE
  8
0
 10
-82.357669
 20
19.154668
 30
0.0
 11
-82.260764
 21
19.075068
 31
0.0
  0
LINE
  8
0
 10
-82.464462
 20
19.223885
 30
0.0
 11
-82.357669
 21
19.154668
 31
0.0
  0
LINE
  8
0
 10
-82.57521
 20
19.282226
 30
0.0
 11
-82.464462
 21
19.223885
 31
0.0
  0
LINE
  8
0
 10
-82.692385
 20
19.327217
 30
0.0
 11
-82.57521
 21
19.282226
 31
0.0
  0
LINE
  8
0
 10
-82.813516
 20
19.358365
 30
0.0
 11
-82.692385
 21
19.327217
 31
0.0
  0
LINE
  8
0
 10
-82.938107
 20
19.37913
 30
0.0
 11
-82.813516
 21
19.358365
 31
0.0
  0
LINE
  8
0
 10
-83.062204
 20
19.386052
 30
0.0
 11
-82.938107
 21
19.37913
 31
0.0
  0
LINE
  8
0
 10
-81.514204
 20
20.975583
 30
0.0
 11
-81.673404
 21
21.024035
 31
0.0
  0
LINE
  8
0
 10
-81.36242
 20
20.916748
 30
0.0
 11
-81.514204
 21
20.975583
 31
0.0
  0
LINE
  8
0
 10
-81.213602
 20
20.844564
 30
0.0
 11
-81.36242
 21
20.916748
 31
0.0
  0
LINE
  8
0
 10
-81.068245
 20
20.758042
 30
0.0
 11
-81.213602
 21
20.844564
 31
0.0
  0
LINE
  8
0
 10
-80.937226
 20
20.664599
 30
0.0
 11
-81.068245
 21
20.758042
 31
0.0
  0
LINE
  8
0
 10
-80.809174
 20
20.557312
 30
0.0
 11
-80.937226
 21
20.664599
 31
0.0
  0
LINE
  8
0
 10
-80.691998
 20
20.440136
 30
0.0
 11
-80.809174
 21
20.557312
 31
0.0
  0
LINE
  8
0
 10
-80.584711
 20
20.312084
 30
0.0
 11
-80.691998
 21
20.440136
 31
0.0
  0
LINE
  8
0
 10
-80.487807
 20
20.177604
 30
0.0
 11
-80.584711
 21
20.312084
 31
0.0
  0
LINE
  8
0
 10
-80.40524
 20
20.035708
 30
0.0
 11
-80.487807
 21
20.177604
 31
0.0
  0
LINE
  8
0
 10
-80.332562
 20
19.88689
 30
0.0
 11
-80.40524
 21
20.035708
 31
0.0
  0
LINE
  8
0
 10
-80.273727
 20
19.735106
 30
0.0
 11
-80.332562
 21
19.88689
 31
0.0
  0
LINE
  8
0
 10
-80.225275
 20
19.575906
 30
0.0
 11
-80.273727
 21
19.735106
 31
0.0
  0
LINE
  8
0
 10
-80.190666
 20
19.413739
 30
0.0
 11
-80.225275
 21
19.575906
 31
0.0
  0
LINE
  8
0
 10
-80.169901
 20
19.251078
 30
0.0
 11
-80.190666
 21
19.413739
 31
0.0
  0
LINE
  8
0
 10
-80.162979
 20
19.08545
 30
0.0
 11
-80.169901
 21
19.251078
 31
0.0
  0
LINE
  8
0
 10
-85.090772
 20
-80.447376
 30
0.0
 11
-85.059624
 21
-80.360854
 31
0.0
  0
LINE
  8
0
 10
-85.135764
 20
-80.529943
 30
0.0
 11
-85.090772
 21
-80.447376
 31
0.0
  0
LINE
  8
0
 10
-85.191138
 20
-80.602621
 30
0.0
 11
-85.135764
 21
-80.529943
 31
0.0
  0
LINE
  8
0
 10
-85.2564
 20
-80.668378
 30
0.0
 11
-85.191138
 21
-80.602621
 31
0.0
  0
LINE
  8
0
 10
-85.332539
 20
-80.723752
 30
0.0
 11
-85.2564
 21
-80.668378
 31
0.0
  0
LINE
  8
0
 10
-85.412139
 20
-80.768743
 30
0.0
 11
-85.332539
 21
-80.723752
 31
0.0
  0
LINE
  8
0
 10
-85.498661
 20
-80.799891
 30
0.0
 11
-85.412139
 21
-80.768743
 31
0.0
  0
LINE
  8
0
 10
-85.591611
 20
-80.820162
 30
0.0
 11
-85.498661
 21
-80.799891
 31
0.0
  0
LINE
  8
0
 10
-85.681593
 20
-80.827084
 30
0.0
 11
-85.591611
 21
-80.820162
 31
0.0
  0
LINE
  8
0
 10
-85.775037
 20
-80.820162
 30
0.0
 11
-85.681593
 21
-80.827084
 31
0.0
  0
LINE
  8
0
 10
-85.86502
 20
-80.799891
 30
0.0
 11
-85.775037
 21
-80.820162
 31
0.0
  0
LINE
  8
0
 10
-85.954508
 20
-80.768743
 30
0.0
 11
-85.86502
 21
-80.799891
 31
0.0
  0
LINE
  8
0
 10
-86.034108
 20
-80.723752
 30
0.0
 11
-85.954508
 21
-80.768743
 31
0.0
  0
LINE
  8
0
 10
-86.110248
 20
-80.668378
 30
0.0
 11
-86.034108
 21
-80.723752
 31
0.0
  0
LINE
  8
0
 10
-86.176004
 20
-80.602621
 30
0.0
 11
-86.110248
 21
-80.668378
 31
0.0
  0
LINE
  8
0
 10
-86.230884
 20
-80.529943
 30
0.0
 11
-86.176004
 21
-80.602621
 31
0.0
  0
LINE
  8
0
 10
-86.275875
 20
-80.447376
 30
0.0
 11
-86.230884
 21
-80.529943
 31
0.0
  0
LINE
  8
0
 10
-86.307023
 20
-80.360854
 30
0.0
 11
-86.275875
 21
-80.447376
 31
0.0
  0
LINE
  8
0
 10
-86.327788
 20
-80.270872
 30
0.0
 11
-86.307023
 21
-80.360854
 31
0.0
  0
LINE
  8
0
 10
-86.33471
 20
-80.177428
 30
0.0
 11
-86.327788
 21
-80.270872
 31
0.0
  0
LINE
  8
0
 10
-86.327788
 20
-80.084479
 30
0.0
 11
-86.33471
 21
-80.177428
 31
0.0
  0
LINE
  8
0
 10
-86.307023
 20
-79.994496
 30
0.0
 11
-86.327788
 21
-80.084479
 31
0.0
  0
LINE
  8
0
 10
-86.275875
 20
-79.907974
 30
0.0
 11
-86.307023
 21
-79.994496
 31
0.0
  0
LINE
  8
0
 10
-86.230884
 20
-79.824913
 30
0.0
 11
-86.275875
 21
-79.907974
 31
0.0
  0
LINE
  8
0
 10
-86.176004
 20
-79.752729
 30
0.0
 11
-86.230884
 21
-79.824913
 31
0.0
  0
LINE
  8
0
 10
-86.110248
 20
-79.686972
 30
0.0
 11
-86.176004
 21
-79.752729
 31
0.0
  0
LINE
  8
0
 10
-86.034108
 20
-79.631598
 30
0.0
 11
-86.110248
 21
-79.686972
 31
0.0
  0
LINE
  8
0
 10
-85.954508
 20
-79.586607
 30
0.0
 11
-86.034108
 21
-79.631598
 31
0.0
  0
LINE
  8
0
 10
-85.86502
 20
-79.551998
 30
0.0
 11
-85.954508
 21
-79.586607
 31
0.0
  0
LINE
  8
0
 10
-85.775037
 20
-79.534694
 30
0.0
 11
-85.86502
 21
-79.551998
 31
0.0
  0
LINE
  8
0
 10
-85.681593
 20
-79.527772
 30
0.0
 11
-85.775037
 21
-79.534694
 31
0.0
  0
LINE
  8
0
 10
-85.591611
 20
-79.534694
 30
0.0
 11
-85.681593
 21
-79.527772
 31
0.0
  0
LINE
  8
0
 10
-85.498661
 20
-79.551998
 30
0.0
 11
-85.591611
 21
-79.534694
 31
0.0
  0
LINE
  8
0
 10
-85.412139
 20
-79.586607
 30
0.0
 11
-85.498661
 21
-79.551998
 31
0.0
  0
LINE
  8
0
 10
-85.332539
 20
-79.631598
 30
0.0
 11
-85.412139
 21
-79.586607
 31
0.0
  0
LINE
  8
0
 10
-85.2564
 20
-79.686972
 30
0.0
 11
-85.332539
 21
-79.631598
 31
0.0
  0
LINE
  8
0
 10
-85.191138
 20
-79.752729
 30
0.0
 11
-85.2564
 21
-79.686972
 31
0.0
  0
LINE
  8
0
 10
-85.135764
 20
-79.824913
 30
0.0
 11
-85.191138
 21
-79.752729
 31
0.0
  0
LINE
  8
0
 10
-85.090772
 20
-79.907974
 30
0.0
 11
-85.135764
 21
-79.824913
 31
0.0
  0
LINE
  8
0
 10
-85.059624
 20
-79.994496
 30
0.0
 11
-85.090772
 21
-79.907974
 31
0.0
  0
LINE
  8
0
 10
-85.038859
 20
-80.084479
 30
0.0
 11
-85.059624
 21
-79.994496
 31
0.0
  0
LINE
  8
0
 10
-85.031937
 20
-80.177428
 30
0.0
 11
-85.038859
 21
-80.084479
 31
0.0
  0
LINE
  8
0
 10
-85.038859
 20
-80.270872
 30
0.0
 11
-85.031937
 21
-80.177428
 31
0.0
  0
LINE
  8
0
 10
-85.059624
 20
-80.360854
 30
0.0
 11
-85.038859
 21
-80.270872
 31
0.0
  0
LINE
  8
0
 10
-85.567879
 20
-80.816701
 30
0.0
 11
-83.238709
 21
-80.405846
 31
0.0
  0
LINE
  8
0
 10
-83.698017
 20
-79.16883
 30
0.0
 11
-85.795802
 21
-79.538155
 31
0.0
  0
LINE
  8
0
 10
-83.127961
 20
-80.38162
 30
0.0
 11
-83.238709
 21
-80.405846
 31
0.0
  0
LINE
  8
0
 10
-83.020674
 20
-80.340089
 30
0.0
 11
-83.127961
 21
-80.38162
 31
0.0
  0
LINE
  8
0
 10
-82.920803
 20
-80.291637
 30
0.0
 11
-83.020674
 21
-80.340089
 31
0.0
  0
LINE
  8
0
 10
-82.827359
 20
-80.229341
 30
0.0
 11
-82.920803
 21
-80.291637
 31
0.0
  0
LINE
  8
0
 10
-82.740837
 20
-80.153696
 30
0.0
 11
-82.827359
 21
-80.229341
 31
0.0
  0
LINE
  8
0
 10
-82.661237
 20
-80.074096
 30
0.0
 11
-82.740837
 21
-80.153696
 31
0.0
  0
LINE
  8
0
 10
-82.592514
 20
-79.980652
 30
0.0
 11
-82.661237
 21
-80.074096
 31
0.0
  0
LINE
  8
0
 10
-82.53714
 20
-79.883748
 30
0.0
 11
-82.592514
 21
-79.980652
 31
0.0
  0
LINE
  8
0
 10
-82.492149
 20
-79.780416
 30
0.0
 11
-82.53714
 21
-79.883748
 31
0.0
  0
LINE
  8
0
 10
-82.461001
 20
-79.669668
 30
0.0
 11
-82.492149
 21
-79.780416
 31
0.0
  0
LINE
  8
0
 10
-82.440235
 20
-79.55892
 30
0.0
 11
-82.461001
 21
-79.669668
 31
0.0
  0
LINE
  8
0
 10
-82.433314
 20
-79.445205
 30
0.0
 11
-82.440235
 21
-79.55892
 31
0.0
  0
LINE
  8
0
 10
-83.646104
 20
-79.151525
 30
0.0
 11
-83.698017
 21
-79.16883
 31
0.0
  0
LINE
  8
0
 10
-83.601607
 20
-79.120377
 30
0.0
 11
-83.646104
 21
-79.151525
 31
0.0
  0
LINE
  8
0
 10
-83.566998
 20
-79.078847
 30
0.0
 11
-83.601607
 21
-79.120377
 31
0.0
  0
LINE
  8
0
 10
-83.546233
 20
-79.030395
 30
0.0
 11
-83.566998
 21
-79.078847
 31
0.0
  0
LINE
  8
0
 10
-83.539311
 20
-78.975021
 30
0.0
 11
-83.546233
 21
-79.030395
 31
0.0
  0
LINE
  8
0
 10
-82.433314
 20
-79.445205
 30
0.0
 11
-82.433314
 21
-36.242591
 31
0.0
  0
LINE
  8
0
 10
-83.539311
 20
-75.626376
 30
0.0
 11
-83.539311
 21
-78.975021
 31
0.0
  0
LINE
  8
0
 10
-83.594685
 20
-75.488435
 30
0.0
 11
-83.563537
 21
-75.529965
 31
0.0
  0
LINE
  8
0
 10
-83.635721
 20
-75.457287
 30
0.0
 11
-83.594685
 21
-75.488435
 31
0.0
  0
LINE
  8
0
 10
-86.397006
 20
-74.710727
 30
0.0
 11
-83.684173
 21
-75.439983
 31
0.0
  0
LINE
  8
0
 10
-86.397006
 20
-69.893681
 30
0.0
 11
-85.933743
 21
-69.893681
 31
0.0
  0
LINE
  8
0
 10
-86.403928
 20
-69.893681
 30
0.0
 11
-86.397006
 21
-69.893681
 31
0.0
  0
LINE
  8
0
 10
-86.424693
 20
-69.893681
 30
0.0
 11
-86.403928
 21
-69.893681
 31
0.0
  0
LINE
  8
0
 10
-86.455841
 20
-69.893681
 30
0.0
 11
-86.424693
 21
-69.893681
 31
0.0
  0
LINE
  8
0
 10
-86.500832
 20
-69.893681
 30
0.0
 11
-86.455841
 21
-69.893681
 31
0.0
  0
LINE
  8
0
 10
-86.559173
 20
-69.893681
 30
0.0
 11
-86.500832
 21
-69.893681
 31
0.0
  0
LINE
  8
0
 10
-86.624929
 20
-69.893681
 30
0.0
 11
-86.559173
 21
-69.893681
 31
0.0
  0
LINE
  8
0
 10
-86.701069
 20
-69.893681
 30
0.0
 11
-86.624929
 21
-69.893681
 31
0.0
  0
LINE
  8
0
 10
-86.787591
 20
-69.893681
 30
0.0
 11
-86.701069
 21
-69.893681
 31
0.0
  0
LINE
  8
0
 10
-86.877079
 20
-69.893681
 30
0.0
 11
-86.787591
 21
-69.893681
 31
0.0
  0
LINE
  8
0
 10
-86.973983
 20
-69.893681
 30
0.0
 11
-86.877079
 21
-69.893681
 31
0.0
  0
LINE
  8
0
 10
-87.074349
 20
-69.893681
 30
0.0
 11
-86.973983
 21
-69.893681
 31
0.0
  0
LINE
  8
0
 10
-87.174714
 20
-69.893681
 30
0.0
 11
-87.074349
 21
-69.893681
 31
0.0
  0
LINE
  8
0
 10
-87.178175
 20
-69.893681
 30
0.0
 11
-87.174714
 21
-69.893681
 31
0.0
  0
LINE
  8
0
 10
-87.181636
 20
-69.893681
 30
0.0
 11
-87.178175
 21
-69.893681
 31
0.0
  0
LINE
  8
0
 10
-87.205368
 20
-69.893681
 30
0.0
 11
-87.181636
 21
-69.893681
 31
0.0
  0
LINE
  8
0
 10
-87.233055
 20
-69.893681
 30
0.0
 11
-87.205368
 21
-69.893681
 31
0.0
  0
LINE
  8
0
 10
-87.257281
 20
-69.897142
 30
0.0
 11
-87.233055
 21
-69.893681
 31
0.0
  0
LINE
  8
0
 10
-87.284968
 20
-69.900603
 30
0.0
 11
-87.257281
 21
-69.897142
 31
0.0
  0
LINE
  8
0
 10
-87.309194
 20
-69.904064
 30
0.0
 11
-87.284968
 21
-69.900603
 31
0.0
  0
LINE
  8
0
 10
-87.336881
 20
-69.907525
 30
0.0
 11
-87.309194
 21
-69.904064
 31
0.0
  0
LINE
  8
0
 10
-87.361107
 20
-69.914446
 30
0.0
 11
-87.336881
 21
-69.907525
 31
0.0
  0
LINE
  8
0
 10
-87.385333
 20
-69.921368
 30
0.0
 11
-87.361107
 21
-69.914446
 31
0.0
  0
LINE
  8
0
 10
-87.409559
 20
-69.92829
 30
0.0
 11
-87.385333
 21
-69.921368
 31
0.0
  0
LINE
  8
0
 10
-87.437247
 20
-69.935212
 30
0.0
 11
-87.409559
 21
-69.92829
 31
0.0
  0
LINE
  8
0
 10
-87.461473
 20
-69.945594
 30
0.0
 11
-87.437247
 21
-69.935212
 31
0.0
  0
LINE
  8
0
 10
-87.485699
 20
-69.955977
 30
0.0
 11
-87.461473
 21
-69.945594
 31
0.0
  0
LINE
  8
0
 10
-87.509925
 20
-69.966359
 30
0.0
 11
-87.485699
 21
-69.955977
 31
0.0
  0
LINE
  8
0
 10
-87.53069
 20
-69.976742
 30
0.0
 11
-87.509925
 21
-69.966359
 31
0.0
  0
LINE
  8
0
 10
-87.554422
 20
-69.990586
 30
0.0
 11
-87.53069
 21
-69.976742
 31
0.0
  0
LINE
  8
0
 10
-87.575187
 20
-70.000968
 30
0.0
 11
-87.554422
 21
-69.990586
 31
0.0
  0
LINE
  8
0
 10
-87.599413
 20
-70.014812
 30
0.0
 11
-87.575187
 21
-70.000968
 31
0.0
  0
LINE
  8
0
 10
-87.620179
 20
-70.032116
 30
0.0
 11
-87.599413
 21
-70.014812
 31
0.0
  0
LINE
  8
0
 10
-87.640944
 20
-70.04596
 30
0.0
 11
-87.620179
 21
-70.032116
 31
0.0
  0
LINE
  8
0
 10
-87.661709
 20
-70.06277
 30
0.0
 11
-87.640944
 21
-70.04596
 31
0.0
  0
LINE
  8
0
 10
-87.682474
 20
-70.076613
 30
0.0
 11
-87.661709
 21
-70.06277
 31
0.0
  0
LINE
  8
0
 10
-87.70324
 20
-70.093917
 30
0.0
 11
-87.682474
 21
-70.076613
 31
0.0
  0
LINE
  8
0
 10
-87.95885
 20
-73.694712
 30
0.0
 11
-87.95885
 21
-70.671389
 31
0.0
  0
LINE
  8
0
 10
-86.417771
 20
-74.703805
 30
0.0
 11
-86.397006
 21
-74.710727
 31
0.0
  0
LINE
  8
0
 10
-86.448919
 20
-74.696883
 30
0.0
 11
-86.417771
 21
-74.703805
 31
0.0
  0
LINE
  8
0
 10
-86.49391
 20
-74.6865
 30
0.0
 11
-86.448919
 21
-74.696883
 31
0.0
  0
LINE
  8
0
 10
-86.54879
 20
-74.669196
 30
0.0
 11
-86.49391
 21
-74.6865
 31
0.0
  0
LINE
  8
0
 10
-86.614547
 20
-74.651892
 30
0.0
 11
-86.54879
 21
-74.669196
 31
0.0
  0
LINE
  8
0
 10
-86.694147
 20
-74.631126
 30
0.0
 11
-86.614547
 21
-74.651892
 31
0.0
  0
LINE
  8
0
 10
-86.777208
 20
-74.610856
 30
0.0
 11
-86.694147
 21
-74.631126
 31
0.0
  0
LINE
  8
0
 10
-86.870652
 20
-74.583169
 30
0.0
 11
-86.777208
 21
-74.610856
 31
0.0
  0
LINE
  8
0
 10
-86.970523
 20
-74.558942
 30
0.0
 11
-86.870652
 21
-74.583169
 31
0.0
  0
LINE
  8
0
 10
-87.070888
 20
-74.531255
 30
0.0
 11
-86.970523
 21
-74.558942
 31
0.0
  0
LINE
  8
0
 10
-87.174714
 20
-74.503568
 30
0.0
 11
-87.070888
 21
-74.531255
 31
0.0
  0
LINE
  8
0
 10
-87.181636
 20
-74.500108
 30
0.0
 11
-87.174714
 21
-74.503568
 31
0.0
  0
LINE
  8
0
 10
-87.378412
 20
-74.448194
 30
0.0
 11
-87.181636
 21
-74.500108
 31
0.0
  0
LINE
  8
0
 10
-87.402638
 20
-74.441273
 30
0.0
 11
-87.378412
 21
-74.448194
 31
0.0
  0
LINE
  8
0
 10
-87.423403
 20
-74.434351
 30
0.0
 11
-87.402638
 21
-74.441273
 31
0.0
  0
LINE
  8
0
 10
-87.440707
 20
-74.427429
 30
0.0
 11
-87.423403
 21
-74.434351
 31
0.0
  0
LINE
  8
0
 10
-87.461473
 20
-74.420507
 30
0.0
 11
-87.440707
 21
-74.427429
 31
0.0
  0
LINE
  8
0
 10
-87.482238
 20
-74.413586
 30
0.0
 11
-87.461473
 21
-74.420507
 31
0.0
  0
LINE
  8
0
 10
-87.503003
 20
-74.403203
 30
0.0
 11
-87.482238
 21
-74.413586
 31
0.0
  0
LINE
  8
0
 10
-87.523768
 20
-74.39282
 30
0.0
 11
-87.503003
 21
-74.403203
 31
0.0
  0
LINE
  8
0
 10
-87.540578
 20
-74.385899
 30
0.0
 11
-87.523768
 21
-74.39282
 31
0.0
  0
LINE
  8
0
 10
-87.561344
 20
-74.375516
 30
0.0
 11
-87.540578
 21
-74.385899
 31
0.0
  0
LINE
  8
0
 10
-87.578648
 20
-74.361672
 30
0.0
 11
-87.561344
 21
-74.375516
 31
0.0
  0
LINE
  8
0
 10
-87.599413
 20
-74.35129
 30
0.0
 11
-87.578648
 21
-74.361672
 31
0.0
  0
LINE
  8
0
 10
-87.616718
 20
-74.340907
 30
0.0
 11
-87.599413
 21
-74.35129
 31
0.0
  0
LINE
  8
0
 10
-87.634022
 20
-74.327064
 30
0.0
 11
-87.616718
 21
-74.340907
 31
0.0
  0
LINE
  8
0
 10
-87.651326
 20
-74.31322
 30
0.0
 11
-87.634022
 21
-74.327064
 31
0.0
  0
LINE
  8
0
 10
-87.668631
 20
-74.299871
 30
0.0
 11
-87.651326
 21
-74.31322
 31
0.0
  0
LINE
  8
0
 10
-87.685935
 20
-74.286028
 30
0.0
 11
-87.668631
 21
-74.299871
 31
0.0
  0
LINE
  8
0
 10
-87.699779
 20
-74.272184
 30
0.0
 11
-87.685935
 21
-74.286028
 31
0.0
  0
LINE
  8
0
 10
-87.717083
 20
-74.258341
 30
0.0
 11
-87.699779
 21
-74.272184
 31
0.0
  0
LINE
  8
0
 10
-87.734387
 20
-74.244497
 30
0.0
 11
-87.717083
 21
-74.258341
 31
0.0
  0
LINE
  8
0
 10
-87.748231
 20
-74.227193
 30
0.0
 11
-87.734387
 21
-74.244497
 31
0.0
  0
LINE
  8
0
 10
-87.762074
 20
-74.209888
 30
0.0
 11
-87.748231
 21
-74.227193
 31
0.0
  0
LINE
  8
0
 10
-87.775918
 20
-74.196045
 30
0.0
 11
-87.762074
 21
-74.209888
 31
0.0
  0
LINE
  8
0
 10
-87.789761
 20
-74.17874
 30
0.0
 11
-87.775918
 21
-74.196045
 31
0.0
  0
LINE
  8
0
 10
-87.803605
 20
-74.161436
 30
0.0
 11
-87.789761
 21
-74.17874
 31
0.0
  0
LINE
  8
0
 10
-87.817448
 20
-74.144132
 30
0.0
 11
-87.803605
 21
-74.161436
 31
0.0
  0
LINE
  8
0
 10
-87.827831
 20
-74.123366
 30
0.0
 11
-87.817448
 21
-74.144132
 31
0.0
  0
LINE
  8
0
 10
-87.841675
 20
-74.106062
 30
0.0
 11
-87.827831
 21
-74.123366
 31
0.0
  0
LINE
  8
0
 10
-87.851563
 20
-74.088758
 30
0.0
 11
-87.841675
 21
-74.106062
 31
0.0
  0
LINE
  8
0
 10
-87.861945
 20
-74.067992
 30
0.0
 11
-87.851563
 21
-74.088758
 31
0.0
  0
LINE
  8
0
 10
-87.872328
 20
-74.050688
 30
0.0
 11
-87.861945
 21
-74.067992
 31
0.0
  0
LINE
  8
0
 10
-87.882711
 20
-74.029923
 30
0.0
 11
-87.872328
 21
-74.050688
 31
0.0
  0
LINE
  8
0
 10
-87.889632
 20
-74.009157
 30
0.0
 11
-87.882711
 21
-74.029923
 31
0.0
  0
LINE
  8
0
 10
-87.900015
 20
-73.991853
 30
0.0
 11
-87.889632
 21
-74.009157
 31
0.0
  0
LINE
  8
0
 10
-87.906937
 20
-73.971088
 30
0.0
 11
-87.900015
 21
-73.991853
 31
0.0
  0
LINE
  8
0
 10
-87.913859
 20
-73.950817
 30
0.0
 11
-87.906937
 21
-73.971088
 31
0.0
  0
LINE
  8
0
 10
-87.92078
 20
-73.930052
 30
0.0
 11
-87.913859
 21
-73.950817
 31
0.0
  0
LINE
  8
0
 10
-87.927702
 20
-73.909286
 30
0.0
 11
-87.92078
 21
-73.930052
 31
0.0
  0
LINE
  8
0
 10
-87.934624
 20
-73.888521
 30
0.0
 11
-87.927702
 21
-73.909286
 31
0.0
  0
LINE
  8
0
 10
-87.938085
 20
-73.867756
 30
0.0
 11
-87.934624
 21
-73.888521
 31
0.0
  0
LINE
  8
0
 10
-87.941546
 20
-73.846991
 30
0.0
 11
-87.938085
 21
-73.867756
 31
0.0
  0
LINE
  8
0
 10
-87.948467
 20
-73.822765
 30
0.0
 11
-87.941546
 21
-73.846991
 31
0.0
  0
LINE
  8
0
 10
-87.951928
 20
-73.801999
 30
0.0
 11
-87.948467
 21
-73.822765
 31
0.0
  0
LINE
  8
0
 10
-87.951928
 20
-73.781234
 30
0.0
 11
-87.951928
 21
-73.801999
 31
0.0
  0
LINE
  8
0
 10
-87.955389
 20
-73.760469
 30
0.0
 11
-87.951928
 21
-73.781234
 31
0.0
  0
LINE
  8
0
 10
-87.955389
 20
-73.736243
 30
0.0
 11
-87.955389
 21
-73.760469
 31
0.0
  0
LINE
  8
0
 10
-87.95885
 20
-73.694712
 30
0.0
 11
-87.955389
 21
-73.736243
 31
0.0
  0
LINE
  8
0
 10
-87.95885
 20
-70.671389
 30
0.0
 11
-87.95885
 21
-73.694712
 31
0.0
  0
LINE
  8
0
 10
-87.95885
 20
-70.647163
 30
0.0
 11
-87.95885
 21
-70.671389
 31
0.0
  0
LINE
  8
0
 10
-87.955389
 20
-70.619476
 30
0.0
 11
-87.95885
 21
-70.647163
 31
0.0
  0
LINE
  8
0
 10
-87.955389
 20
-70.59525
 30
0.0
 11
-87.955389
 21
-70.619476
 31
0.0
  0
LINE
  8
0
 10
-87.951928
 20
-70.567563
 30
0.0
 11
-87.955389
 21
-70.59525
 31
0.0
  0
LINE
  8
0
 10
-87.948467
 20
-70.543337
 30
0.0
 11
-87.951928
 21
-70.567563
 31
0.0
  0
LINE
  8
0
 10
-87.941546
 20
-70.51565
 30
0.0
 11
-87.948467
 21
-70.543337
 31
0.0
  0
LINE
  8
0
 10
-87.938085
 20
-70.491424
 30
0.0
 11
-87.941546
 21
-70.51565
 31
0.0
  0
LINE
  8
0
 10
-87.931163
 20
-70.467198
 30
0.0
 11
-87.938085
 21
-70.491424
 31
0.0
  0
LINE
  8
0
 10
-87.924241
 20
-70.439511
 30
0.0
 11
-87.931163
 21
-70.467198
 31
0.0
  0
LINE
  8
0
 10
-87.913859
 20
-70.415285
 30
0.0
 11
-87.924241
 21
-70.439511
 31
0.0
  0
LINE
  8
0
 10
-87.906937
 20
-70.391058
 30
0.0
 11
-87.913859
 21
-70.415285
 31
0.0
  0
LINE
  8
0
 10
-87.896554
 20
-70.367327
 30
0.0
 11
-87.906937
 21
-70.391058
 31
0.0
  0
LINE
  8
0
 10
-87.886172
 20
-70.343101
 30
0.0
 11
-87.896554
 21
-70.367327
 31
0.0
  0
LINE
  8
0
 10
-87.875789
 20
-70.322335
 30
0.0
 11
-87.886172
 21
-70.343101
 31
0.0
  0
LINE
  8
0
 10
-87.861945
 20
-70.298109
 30
0.0
 11
-87.875789
 21
-70.322335
 31
0.0
  0
LINE
  8
0
 10
-87.848596
 20
-70.273883
 30
0.0
 11
-87.861945
 21
-70.298109
 31
0.0
  0
LINE
  8
0
 10
-87.834753
 20
-70.253118
 30
0.0
 11
-87.848596
 21
-70.273883
 31
0.0
  0
LINE
  8
0
 10
-87.820909
 20
-70.232353
 30
0.0
 11
-87.834753
 21
-70.253118
 31
0.0
  0
LINE
  8
0
 10
-87.807066
 20
-70.211587
 30
0.0
 11
-87.820909
 21
-70.232353
 31
0.0
  0
LINE
  8
0
 10
-87.789761
 20
-70.190822
 30
0.0
 11
-87.807066
 21
-70.211587
 31
0.0
  0
LINE
  8
0
 10
-87.775918
 20
-70.170057
 30
0.0
 11
-87.789761
 21
-70.190822
 31
0.0
  0
LINE
  8
0
 10
-87.758614
 20
-70.149292
 30
0.0
 11
-87.775918
 21
-70.170057
 31
0.0
  0
LINE
  8
0
 10
-87.737848
 20
-70.131987
 30
0.0
 11
-87.758614
 21
-70.149292
 31
0.0
  0
LINE
  8
0
 10
-87.720544
 20
-70.111222
 30
0.0
 11
-87.737848
 21
-70.131987
 31
0.0
  0
LINE
  8
0
 10
-87.70324
 20
-70.093917
 30
0.0
 11
-87.720544
 21
-70.111222
 31
0.0
  0
LINE
  8
0
 10
-86.397006
 20
-69.893681
 30
0.0
 11
-86.397006
 21
-74.710727
 31
0.0
  0
LINE
  8
0
 10
-85.933743
 20
-69.893681
 30
0.0
 11
-85.933743
 21
-45.797577
 31
0.0
  0
LINE
  8
0
 10
-87.181636
 20
-45.797577
 30
0.0
 11
-87.178175
 21
-45.797577
 31
0.0
  0
LINE
  8
0
 10
-87.95885
 20
-45.019868
 30
0.0
 11
-87.95885
 21
-45.016407
 31
0.0
  0
LINE
  8
0
 10
-87.95885
 20
-45.044094
 30
0.0
 11
-87.95885
 21
-45.019868
 31
0.0
  0
LINE
  8
0
 10
-87.955389
 20
-45.06832
 30
0.0
 11
-87.95885
 21
-45.044094
 31
0.0
  0
LINE
  8
0
 10
-87.955389
 20
-45.096007
 30
0.0
 11
-87.955389
 21
-45.06832
 31
0.0
  0
LINE
  8
0
 10
-87.951928
 20
-45.120234
 30
0.0
 11
-87.955389
 21
-45.096007
 31
0.0
  0
LINE
  8
0
 10
-87.948467
 20
-45.147921
 30
0.0
 11
-87.951928
 21
-45.120234
 31
0.0
  0
LINE
  8
0
 10
-87.941546
 20
-45.172147
 30
0.0
 11
-87.948467
 21
-45.147921
 31
0.0
  0
LINE
  8
0
 10
-87.938085
 20
-45.196373
 30
0.0
 11
-87.941546
 21
-45.172147
 31
0.0
  0
LINE
  8
0
 10
-87.931163
 20
-45.22406
 30
0.0
 11
-87.938085
 21
-45.196373
 31
0.0
  0
LINE
  8
0
 10
-87.924241
 20
-45.248286
 30
0.0
 11
-87.931163
 21
-45.22406
 31
0.0
  0
LINE
  8
0
 10
-87.913859
 20
-45.272512
 30
0.0
 11
-87.924241
 21
-45.248286
 31
0.0
  0
LINE
  8
0
 10
-87.906937
 20
-45.296244
 30
0.0
 11
-87.913859
 21
-45.272512
 31
0.0
  0
LINE
  8
0
 10
-87.896554
 20
-45.32047
 30
0.0
 11
-87.906937
 21
-45.296244
 31
0.0
  0
LINE
  8
0
 10
-87.886172
 20
-45.344696
 30
0.0
 11
-87.896554
 21
-45.32047
 31
0.0
  0
LINE
  8
0
 10
-87.875789
 20
-45.368922
 30
0.0
 11
-87.886172
 21
-45.344696
 31
0.0
  0
LINE
  8
0
 10
-87.861945
 20
-45.389688
 30
0.0
 11
-87.875789
 21
-45.368922
 31
0.0
  0
LINE
  8
0
 10
-87.848596
 20
-45.413914
 30
0.0
 11
-87.861945
 21
-45.389688
 31
0.0
  0
LINE
  8
0
 10
-87.834753
 20
-45.434679
 30
0.0
 11
-87.848596
 21
-45.413914
 31
0.0
  0
LINE
  8
0
 10
-87.820909
 20
-45.458905
 30
0.0
 11
-87.834753
 21
-45.434679
 31
0.0
  0
LINE
  8
0
 10
-87.807066
 20
-45.47967
 30
0.0
 11
-87.820909
 21
-45.458905
 31
0.0
  0
LINE
  8
0
 10
-87.789761
 20
-45.500436
 30
0.0
 11
-87.807066
 21
-45.47967
 31
0.0
  0
LINE
  8
0
 10
-87.775918
 20
-45.51774
 30
0.0
 11
-87.789761
 21
-45.500436
 31
0.0
  0
LINE
  8
0
 10
-87.758614
 20
-45.538505
 30
0.0
 11
-87.775918
 21
-45.51774
 31
0.0
  0
LINE
  8
0
 10
-87.741309
 20
-45.559271
 30
0.0
 11
-87.758614
 21
-45.538505
 31
0.0
  0
LINE
  8
0
 10
-87.720544
 20
-45.576575
 30
0.0
 11
-87.741309
 21
-45.559271
 31
0.0
  0
LINE
  8
0
 10
-87.70324
 20
-45.593879
 30
0.0
 11
-87.720544
 21
-45.576575
 31
0.0
  0
LINE
  8
0
 10
-87.682474
 20
-45.611184
 30
0.0
 11
-87.70324
 21
-45.593879
 31
0.0
  0
LINE
  8
0
 10
-87.661709
 20
-45.627994
 30
0.0
 11
-87.682474
 21
-45.611184
 31
0.0
  0
LINE
  8
0
 10
-87.640944
 20
-45.641837
 30
0.0
 11
-87.661709
 21
-45.627994
 31
0.0
  0
LINE
  8
0
 10
-87.620179
 20
-45.659142
 30
0.0
 11
-87.640944
 21
-45.641837
 31
0.0
  0
LINE
  8
0
 10
-87.599413
 20
-45.672985
 30
0.0
 11
-87.620179
 21
-45.659142
 31
0.0
  0
LINE
  8
0
 10
-87.578648
 20
-45.686829
 30
0.0
 11
-87.599413
 21
-45.672985
 31
0.0
  0
LINE
  8
0
 10
-87.554422
 20
-45.700672
 30
0.0
 11
-87.578648
 21
-45.686829
 31
0.0
  0
LINE
  8
0
 10
-87.53069
 20
-45.711055
 30
0.0
 11
-87.554422
 21
-45.700672
 31
0.0
  0
LINE
  8
0
 10
-87.509925
 20
-45.724898
 30
0.0
 11
-87.53069
 21
-45.711055
 31
0.0
  0
LINE
  8
0
 10
-87.485699
 20
-45.735281
 30
0.0
 11
-87.509925
 21
-45.724898
 31
0.0
  0
LINE
  8
0
 10
-87.461473
 20
-45.742203
 30
0.0
 11
-87.485699
 21
-45.735281
 31
0.0
  0
LINE
  8
0
 10
-87.437247
 20
-45.752585
 30
0.0
 11
-87.461473
 21
-45.742203
 31
0.0
  0
LINE
  8
0
 10
-87.41302
 20
-45.759507
 30
0.0
 11
-87.437247
 21
-45.752585
 31
0.0
  0
LINE
  8
0
 10
-87.385333
 20
-45.76989
 30
0.0
 11
-87.41302
 21
-45.759507
 31
0.0
  0
LINE
  8
0
 10
-87.361107
 20
-45.77335
 30
0.0
 11
-87.385333
 21
-45.76989
 31
0.0
  0
LINE
  8
0
 10
-87.336881
 20
-45.780272
 30
0.0
 11
-87.361107
 21
-45.77335
 31
0.0
  0
LINE
  8
0
 10
-87.309194
 20
-45.783733
 30
0.0
 11
-87.336881
 21
-45.780272
 31
0.0
  0
LINE
  8
0
 10
-87.284968
 20
-45.790655
 30
0.0
 11
-87.309194
 21
-45.783733
 31
0.0
  0
LINE
  8
0
 10
-87.257281
 20
-45.794116
 30
0.0
 11
-87.284968
 21
-45.790655
 31
0.0
  0
LINE
  8
0
 10
-87.233055
 20
-45.794116
 30
0.0
 11
-87.257281
 21
-45.794116
 31
0.0
  0
LINE
  8
0
 10
-87.205368
 20
-45.797577
 30
0.0
 11
-87.233055
 21
-45.794116
 31
0.0
  0
LINE
  8
0
 10
-87.181636
 20
-45.797577
 30
0.0
 11
-87.205368
 21
-45.797577
 31
0.0
  0
LINE
  8
0
 10
-86.403928
 20
-40.980531
 30
0.0
 11
-86.397006
 21
-40.980531
 31
0.0
  0
LINE
  8
0
 10
-86.424693
 20
-40.987453
 30
0.0
 11
-86.403928
 21
-40.980531
 31
0.0
  0
LINE
  8
0
 10
-86.459302
 20
-40.994375
 30
0.0
 11
-86.424693
 21
-40.987453
 31
0.0
  0
LINE
  8
0
 10
-86.507754
 20
-41.008218
 30
0.0
 11
-86.459302
 21
-40.994375
 31
0.0
  0
LINE
  8
0
 10
-86.566094
 20
-41.025522
 30
0.0
 11
-86.507754
 21
-41.008218
 31
0.0
  0
LINE
  8
0
 10
-86.635312
 20
-41.042827
 30
0.0
 11
-86.566094
 21
-41.025522
 31
0.0
  0
LINE
  8
0
 10
-86.714912
 20
-41.063098
 30
0.0
 11
-86.635312
 21
-41.042827
 31
0.0
  0
LINE
  8
0
 10
-86.804895
 20
-41.087324
 30
0.0
 11
-86.714912
 21
-41.063098
 31
0.0
  0
LINE
  8
0
 10
-86.897844
 20
-41.11155
 30
0.0
 11
-86.804895
 21
-41.087324
 31
0.0
  0
LINE
  8
0
 10
-86.99821
 20
-41.139237
 30
0.0
 11
-86.897844
 21
-41.11155
 31
0.0
  0
LINE
  8
0
 10
-87.171253
 20
-41.187689
 30
0.0
 11
-86.99821
 21
-41.139237
 31
0.0
  0
LINE
  8
0
 10
-87.95885
 20
-41.989624
 30
0.0
 11
-87.95885
 21
-41.993085
 31
0.0
  0
LINE
  8
0
 10
-87.955389
 20
-41.948093
 30
0.0
 11
-87.95885
 21
-41.989624
 31
0.0
  0
LINE
  8
0
 10
-87.955389
 20
-41.927328
 30
0.0
 11
-87.955389
 21
-41.948093
 31
0.0
  0
LINE
  8
0
 10
-87.951928
 20
-41.906563
 30
0.0
 11
-87.955389
 21
-41.927328
 31
0.0
  0
LINE
  8
0
 10
-87.948467
 20
-41.882337
 30
0.0
 11
-87.951928
 21
-41.906563
 31
0.0
  0
LINE
  8
0
 10
-87.945007
 20
-41.861571
 30
0.0
 11
-87.948467
 21
-41.882337
 31
0.0
  0
LINE
  8
0
 10
-87.941546
 20
-41.840806
 30
0.0
 11
-87.945007
 21
-41.861571
 31
0.0
  0
LINE
  8
0
 10
-87.938085
 20
-41.820041
 30
0.0
 11
-87.941546
 21
-41.840806
 31
0.0
  0
LINE
  8
0
 10
-87.931163
 20
-41.799276
 30
0.0
 11
-87.938085
 21
-41.820041
 31
0.0
  0
LINE
  8
0
 10
-87.927702
 20
-41.77851
 30
0.0
 11
-87.931163
 21
-41.799276
 31
0.0
  0
LINE
  8
0
 10
-87.92078
 20
-41.757745
 30
0.0
 11
-87.927702
 21
-41.77851
 31
0.0
  0
LINE
  8
0
 10
-87.913859
 20
-41.73698
 30
0.0
 11
-87.92078
 21
-41.757745
 31
0.0
  0
LINE
  8
0
 10
-87.906937
 20
-41.716215
 30
0.0
 11
-87.913859
 21
-41.73698
 31
0.0
  0
LINE
  8
0
 10
-87.900015
 20
-41.695449
 30
0.0
 11
-87.906937
 21
-41.716215
 31
0.0
  0
LINE
  8
0
 10
-87.889632
 20
-41.675178
 30
0.0
 11
-87.900015
 21
-41.695449
 31
0.0
  0
LINE
  8
0
 10
-87.87925
 20
-41.657874
 30
0.0
 11
-87.889632
 21
-41.675178
 31
0.0
  0
LINE
  8
0
 10
-87.872328
 20
-41.637109
 30
0.0
 11
-87.87925
 21
-41.657874
 31
0.0
  0
LINE
  8
0
 10
-87.861945
 20
-41.619804
 30
0.0
 11
-87.872328
 21
-41.637109
 31
0.0
  0
LINE
  8
0
 10
-87.851563
 20
-41.599039
 30
0.0
 11
-87.861945
 21
-41.619804
 31
0.0
  0
LINE
  8
0
 10
-87.838214
 20
-41.581735
 30
0.0
 11
-87.851563
 21
-41.599039
 31
0.0
  0
LINE
  8
0
 10
-87.827831
 20
-41.56443
 30
0.0
 11
-87.838214
 21
-41.581735
 31
0.0
  0
LINE
  8
0
 10
-87.813988
 20
-41.543665
 30
0.0
 11
-87.827831
 21
-41.56443
 31
0.0
  0
LINE
  8
0
 10
-87.803605
 20
-41.526361
 30
0.0
 11
-87.813988
 21
-41.543665
 31
0.0
  0
LINE
  8
0
 10
-87.789761
 20
-41.509056
 30
0.0
 11
-87.803605
 21
-41.526361
 31
0.0
  0
LINE
  8
0
 10
-87.775918
 20
-41.495213
 30
0.0
 11
-87.789761
 21
-41.509056
 31
0.0
  0
LINE
  8
0
 10
-87.762074
 20
-41.477908
 30
0.0
 11
-87.775918
 21
-41.495213
 31
0.0
  0
LINE
  8
0
 10
-87.748231
 20
-41.460604
 30
0.0
 11
-87.762074
 21
-41.477908
 31
0.0
  0
LINE
  8
0
 10
-87.730927
 20
-41.446761
 30
0.0
 11
-87.748231
 21
-41.460604
 31
0.0
  0
LINE
  8
0
 10
-87.717083
 20
-41.429456
 30
0.0
 11
-87.730927
 21
-41.446761
 31
0.0
  0
LINE
  8
0
 10
-87.699779
 20
-41.415613
 30
0.0
 11
-87.717083
 21
-41.429456
 31
0.0
  0
LINE
  8
0
 10
-87.682474
 20
-41.401769
 30
0.0
 11
-87.699779
 21
-41.415613
 31
0.0
  0
LINE
  8
0
 10
-87.668631
 20
-41.387926
 30
0.0
 11
-87.682474
 21
-41.401769
 31
0.0
  0
LINE
  8
0
 10
-87.651326
 20
-41.374577
 30
0.0
 11
-87.668631
 21
-41.387926
 31
0.0
  0
LINE
  8
0
 10
-87.634022
 20
-41.360733
 30
0.0
 11
-87.651326
 21
-41.374577
 31
0.0
  0
LINE
  8
0
 10
-87.616718
 20
-41.35035
 30
0.0
 11
-87.634022
 21
-41.360733
 31
0.0
  0
LINE
  8
0
 10
-87.595952
 20
-41.336507
 30
0.0
 11
-87.616718
 21
-41.35035
 31
0.0
  0
LINE
  8
0
 10
-87.578648
 20
-41.326124
 30
0.0
 11
-87.595952
 21
-41.336507
 31
0.0
  0
LINE
  8
0
 10
-87.561344
 20
-41.315742
 30
0.0
 11
-87.578648
 21
-41.326124
 31
0.0
  0
LINE
  8
0
 10
-87.540578
 20
-41.305359
 30
0.0
 11
-87.561344
 21
-41.315742
 31
0.0
  0
LINE
  8
0
 10
-87.520308
 20
-41.294976
 30
0.0
 11
-87.540578
 21
-41.305359
 31
0.0
  0
LINE
  8
0
 10
-87.503003
 20
-41.284594
 30
0.0
 11
-87.520308
 21
-41.294976
 31
0.0
  0
LINE
  8
0
 10
-87.482238
 20
-41.277672
 30
0.0
 11
-87.503003
 21
-41.284594
 31
0.0
  0
LINE
  8
0
 10
-87.461473
 20
-41.267289
 30
0.0
 11
-87.482238
 21
-41.277672
 31
0.0
  0
LINE
  8
0
 10
-87.440707
 20
-41.260368
 30
0.0
 11
-87.461473
 21
-41.267289
 31
0.0
  0
LINE
  8
0
 10
-87.419942
 20
-41.253446
 30
0.0
 11
-87.440707
 21
-41.260368
 31
0.0
  0
LINE
  8
0
 10
-87.402638
 20
-41.246524
 30
0.0
 11
-87.419942
 21
-41.253446
 31
0.0
  0
LINE
  8
0
 10
-87.378412
 20
-41.243063
 30
0.0
 11
-87.402638
 21
-41.246524
 31
0.0
  0
LINE
  8
0
 10
-87.185097
 20
-41.187689
 30
0.0
 11
-87.378412
 21
-41.243063
 31
0.0
  0
LINE
  8
0
 10
-87.181636
 20
-41.187689
 30
0.0
 11
-87.185097
 21
-41.187689
 31
0.0
  0
LINE
  8
0
 10
-87.174714
 20
-41.187689
 30
0.0
 11
-87.181636
 21
-41.187689
 31
0.0
  0
LINE
  8
0
 10
-87.174714
 20
-45.797577
 30
0.0
 11
-87.178175
 21
-45.797577
 31
0.0
  0
LINE
  8
0
 10
-87.074349
 20
-45.797577
 30
0.0
 11
-87.174714
 21
-45.797577
 31
0.0
  0
LINE
  8
0
 10
-86.973983
 20
-45.797577
 30
0.0
 11
-87.074349
 21
-45.797577
 31
0.0
  0
LINE
  8
0
 10
-86.877079
 20
-45.797577
 30
0.0
 11
-86.973983
 21
-45.797577
 31
0.0
  0
LINE
  8
0
 10
-86.787591
 20
-45.797577
 30
0.0
 11
-86.877079
 21
-45.797577
 31
0.0
  0
LINE
  8
0
 10
-86.701069
 20
-45.797577
 30
0.0
 11
-86.787591
 21
-45.797577
 31
0.0
  0
LINE
  8
0
 10
-86.624929
 20
-45.797577
 30
0.0
 11
-86.701069
 21
-45.797577
 31
0.0
  0
LINE
  8
0
 10
-86.559173
 20
-45.797577
 30
0.0
 11
-86.624929
 21
-45.797577
 31
0.0
  0
LINE
  8
0
 10
-86.500832
 20
-45.797577
 30
0.0
 11
-86.559173
 21
-45.797577
 31
0.0
  0
LINE
  8
0
 10
-86.455841
 20
-45.797577
 30
0.0
 11
-86.500832
 21
-45.797577
 31
0.0
  0
LINE
  8
0
 10
-86.424693
 20
-45.797577
 30
0.0
 11
-86.455841
 21
-45.797577
 31
0.0
  0
LINE
  8
0
 10
-86.403928
 20
-45.797577
 30
0.0
 11
-86.424693
 21
-45.797577
 31
0.0
  0
LINE
  8
0
 10
-86.397006
 20
-45.797577
 30
0.0
 11
-86.403928
 21
-45.797577
 31
0.0
  0
LINE
  8
0
 10
-85.933743
 20
-45.797577
 30
0.0
 11
-86.397006
 21
-45.797577
 31
0.0
  0
LINE
  8
0
 10
-87.95885
 20
-41.996546
 30
0.0
 11
-87.95885
 21
-45.016407
 31
0.0
  0
LINE
  8
0
 10
-87.95885
 20
-45.019868
 30
0.0
 11
-87.95885
 21
-41.996546
 31
0.0
  0
LINE
  8
0
 10
-86.397006
 20
-40.980531
 30
0.0
 11
-86.397006
 21
-45.797577
 31
0.0
  0
LINE
  8
0
 10
-86.397006
 20
-40.980531
 30
0.0
 11
-83.684173
 21
-40.251275
 31
0.0
  0
LINE
  8
0
 10
-83.635721
 20
-40.23051
 30
0.0
 11
-83.684173
 21
-40.251275
 31
0.0
  0
LINE
  8
0
 10
-83.594685
 20
-40.199362
 30
0.0
 11
-83.635721
 21
-40.23051
 31
0.0
  0
LINE
  8
0
 10
-83.563537
 20
-40.161292
 30
0.0
 11
-83.594685
 21
-40.199362
 31
0.0
  0
LINE
  8
0
 10
-83.546233
 20
-40.11284
 30
0.0
 11
-83.563537
 21
-40.161292
 31
0.0
  0
LINE
  8
0
 10
-83.539311
 20
-40.061421
 30
0.0
 11
-83.546233
 21
-40.11284
 31
0.0
  0
LINE
  8
0
 10
-83.539311
 20
-36.712776
 30
0.0
 11
-83.539311
 21
-40.061421
 31
0.0
  0
LINE
  8
0
 10
-83.127961
 20
-35.309638
 30
0.0
 11
-83.238709
 21
-35.281951
 31
0.0
  0
LINE
  8
0
 10
-83.020674
 20
-35.347708
 30
0.0
 11
-83.127961
 21
-35.309638
 31
0.0
  0
LINE
  8
0
 10
-82.920803
 20
-35.399621
 30
0.0
 11
-83.020674
 21
-35.347708
 31
0.0
  0
LINE
  8
0
 10
-82.827359
 20
-35.461917
 30
0.0
 11
-82.920803
 21
-35.399621
 31
0.0
  0
LINE
  8
0
 10
-82.740837
 20
-35.534101
 30
0.0
 11
-82.827359
 21
-35.461917
 31
0.0
  0
LINE
  8
0
 10
-82.661237
 20
-35.617162
 30
0.0
 11
-82.740837
 21
-35.534101
 31
0.0
  0
LINE
  8
0
 10
-82.592514
 20
-35.707144
 30
0.0
 11
-82.661237
 21
-35.617162
 31
0.0
  0
LINE
  8
0
 10
-82.53714
 20
-35.80751
 30
0.0
 11
-82.592514
 21
-35.707144
 31
0.0
  0
LINE
  8
0
 10
-82.492149
 20
-35.910842
 30
0.0
 11
-82.53714
 21
-35.80751
 31
0.0
  0
LINE
  8
0
 10
-82.461001
 20
-36.018129
 30
0.0
 11
-82.492149
 21
-35.910842
 31
0.0
  0
LINE
  8
0
 10
-82.440235
 20
-36.128877
 30
0.0
 11
-82.461001
 21
-36.018129
 31
0.0
  0
LINE
  8
0
 10
-82.433314
 20
-36.242591
 30
0.0
 11
-82.440235
 21
-36.128877
 31
0.0
  0
LINE
  8
0
 10
-83.546233
 20
-36.660863
 30
0.0
 11
-83.539311
 21
-36.712776
 31
0.0
  0
LINE
  8
0
 10
-83.566998
 20
-36.612411
 30
0.0
 11
-83.546233
 21
-36.660863
 31
0.0
  0
LINE
  8
0
 10
-83.601607
 20
-36.57088
 30
0.0
 11
-83.566998
 21
-36.612411
 31
0.0
  0
LINE
  8
0
 10
-83.646104
 20
-36.539732
 30
0.0
 11
-83.601607
 21
-36.57088
 31
0.0
  0
LINE
  8
0
 10
-83.698017
 20
-36.522428
 30
0.0
 11
-83.646104
 21
-36.539732
 31
0.0
  0
LINE
  8
0
 10
-85.57134
 20
-34.870601
 30
0.0
 11
-83.238709
 21
-35.281951
 31
0.0
  0
LINE
  8
0
 10
-83.698017
 20
-36.522428
 30
0.0
 11
-85.795802
 21
-36.153103
 31
0.0
  0
LINE
  8
0
 10
-85.775037
 20
-36.156564
 30
0.0
 11
-85.681593
 21
-36.163486
 31
0.0
  0
LINE
  8
0
 10
-85.86502
 20
-36.135799
 30
0.0
 11
-85.775037
 21
-36.156564
 31
0.0
  0
LINE
  8
0
 10
-85.954508
 20
-36.104651
 30
0.0
 11
-85.86502
 21
-36.135799
 31
0.0
  0
LINE
  8
0
 10
-86.034108
 20
-36.059659
 30
0.0
 11
-85.954508
 21
-36.104651
 31
0.0
  0
LINE
  8
0
 10
-86.110248
 20
-36.004285
 30
0.0
 11
-86.034108
 21
-36.059659
 31
0.0
  0
LINE
  8
0
 10
-86.176004
 20
-35.938529
 30
0.0
 11
-86.110248
 21
-36.004285
 31
0.0
  0
LINE
  8
0
 10
-86.230884
 20
-35.862389
 30
0.0
 11
-86.176004
 21
-35.938529
 31
0.0
  0
LINE
  8
0
 10
-86.275875
 20
-35.783284
 30
0.0
 11
-86.230884
 21
-35.862389
 31
0.0
  0
LINE
  8
0
 10
-86.307023
 20
-35.696762
 30
0.0
 11
-86.275875
 21
-35.783284
 31
0.0
  0
LINE
  8
0
 10
-86.327788
 20
-35.603318
 30
0.0
 11
-86.307023
 21
-35.696762
 31
0.0
  0
LINE
  8
0
 10
-86.33471
 20
-35.513335
 30
0.0
 11
-86.327788
 21
-35.603318
 31
0.0
  0
LINE
  8
0
 10
-86.327788
 20
-35.420386
 30
0.0
 11
-86.33471
 21
-35.513335
 31
0.0
  0
LINE
  8
0
 10
-86.307023
 20
-35.330403
 30
0.0
 11
-86.327788
 21
-35.420386
 31
0.0
  0
LINE
  8
0
 10
-86.275875
 20
-35.243881
 30
0.0
 11
-86.307023
 21
-35.330403
 31
0.0
  0
LINE
  8
0
 10
-86.230884
 20
-35.161315
 30
0.0
 11
-86.275875
 21
-35.243881
 31
0.0
  0
LINE
  8
0
 10
-86.176004
 20
-35.085175
 30
0.0
 11
-86.230884
 21
-35.161315
 31
0.0
  0
LINE
  8
0
 10
-86.110248
 20
-35.02288
 30
0.0
 11
-86.176004
 21
-35.085175
 31
0.0
  0
LINE
  8
0
 10
-86.034108
 20
-34.964045
 30
0.0
 11
-86.110248
 21
-35.02288
 31
0.0
  0
LINE
  8
0
 10
-85.954508
 20
-34.922514
 30
0.0
 11
-86.034108
 21
-34.964045
 31
0.0
  0
LINE
  8
0
 10
-85.86502
 20
-34.887905
 30
0.0
 11
-85.954508
 21
-34.922514
 31
0.0
  0
LINE
  8
0
 10
-85.775037
 20
-34.86714
 30
0.0
 11
-85.86502
 21
-34.887905
 31
0.0
  0
LINE
  8
0
 10
-85.681593
 20
-34.864174
 30
0.0
 11
-85.775037
 21
-34.86714
 31
0.0
  0
LINE
  8
0
 10
-85.591611
 20
-34.86714
 30
0.0
 11
-85.681593
 21
-34.864174
 31
0.0
  0
LINE
  8
0
 10
-85.498661
 20
-34.887905
 30
0.0
 11
-85.591611
 21
-34.86714
 31
0.0
  0
LINE
  8
0
 10
-85.412139
 20
-34.922514
 30
0.0
 11
-85.498661
 21
-34.887905
 31
0.0
  0
LINE
  8
0
 10
-85.332539
 20
-34.964045
 30
0.0
 11
-85.412139
 21
-34.922514
 31
0.0
  0
LINE
  8
0
 10
-85.2564
 20
-35.02288
 30
0.0
 11
-85.332539
 21
-34.964045
 31
0.0
  0
LINE
  8
0
 10
-85.191138
 20
-35.085175
 30
0.0
 11
-85.2564
 21
-35.02288
 31
0.0
  0
LINE
  8
0
 10
-85.135764
 20
-35.161315
 30
0.0
 11
-85.191138
 21
-35.085175
 31
0.0
  0
LINE
  8
0
 10
-85.090772
 20
-35.243881
 30
0.0
 11
-85.135764
 21
-35.161315
 31
0.0
  0
LINE
  8
0
 10
-85.059624
 20
-35.330403
 30
0.0
 11
-85.090772
 21
-35.243881
 31
0.0
  0
LINE
  8
0
 10
-85.038859
 20
-35.420386
 30
0.0
 11
-85.059624
 21
-35.330403
 31
0.0
  0
LINE
  8
0
 10
-85.031937
 20
-35.513335
 30
0.0
 11
-85.038859
 21
-35.420386
 31
0.0
  0
LINE
  8
0
 10
-85.038859
 20
-35.603318
 30
0.0
 11
-85.031937
 21
-35.513335
 31
0.0
  0
LINE
  8
0
 10
-85.059624
 20
-35.696762
 30
0.0
 11
-85.038859
 21
-35.603318
 31
0.0
  0
LINE
  8
0
 10
-85.090772
 20
-35.783284
 30
0.0
 11
-85.059624
 21
-35.696762
 31
0.0
  0
LINE
  8
0
 10
-85.135764
 20
-35.862389
 30
0.0
 11
-85.090772
 21
-35.783284
 31
0.0
  0
LINE
  8
0
 10
-85.191138
 20
-35.938529
 30
0.0
 11
-85.135764
 21
-35.862389
 31
0.0
  0
LINE
  8
0
 10
-85.2564
 20
-36.004285
 30
0.0
 11
-85.191138
 21
-35.938529
 31
0.0
  0
LINE
  8
0
 10
-85.332539
 20
-36.059659
 30
0.0
 11
-85.2564
 21
-36.004285
 31
0.0
  0
LINE
  8
0
 10
-85.412139
 20
-36.104651
 30
0.0
 11
-85.332539
 21
-36.059659
 31
0.0
  0
LINE
  8
0
 10
-85.498661
 20
-36.135799
 30
0.0
 11
-85.412139
 21
-36.104651
 31
0.0
  0
LINE
  8
0
 10
-85.591611
 20
-36.156564
 30
0.0
 11
-85.498661
 21
-36.135799
 31
0.0
  0
LINE
  8
0
 10
-85.681593
 20
-36.163486
 30
0.0
 11
-85.591611
 21
-36.156564
 31
0.0
  0
LINE
  8
0
 10
-83.546233
 20
-75.574957
 30
0.0
 11
-83.539311
 21
-75.626376
 31
0.0
  0
LINE
  8
0
 10
-83.563537
 20
-75.529965
 30
0.0
 11
-83.546233
 21
-75.574957
 31
0.0
  0
LINE
  8
0
 10
-83.684173
 20
-75.439983
 30
0.0
 11
-83.635721
 21
-75.457287
 31
0.0
  0
ENDSEC
  0
EOF
