  0
SECTION
  2
HEADER
  9
$ACADVER
  1
AC1009
  9
$INSBASE
 10
0.0
 20
0.0
 30
0.0
  9
$EXTMIN
 10
24.059956
 20
-107.473707
 30
0.0
  9
$EXTMAX
 10
84.057092
 20
42.526293
 30
0.0
  9
$LIMMIN
 10
24.059956
 20
-107.473707
  9
$LIMMAX
 10
84.057092
 20
42.526293
  9
$ORTHOMODE
 70
     0
  9
$REGENMODE
 70
     1
  9
$FILLMODE
 70
     1
  9
$QTEXTMODE
 70
     0
  9
$MIRRTEXT
 70
     1
  9
$DRAGMODE
 70
     2
  9
$LTSCALE
 40
1.0
  9
$OSMODE
 70
     0
  9
$ATTMODE
 70
     1
  9
$TEXTSIZE
 40
3.5
  9
$TRACEWID
 40
0.5
  9
$TEXTSTYLE
  7
STANDARD
  9
$CLAYER
  8
0
  9
$CELTYPE
  6
BYLAYER
  9
$CECOLOR
 62
   256
  9
$DIMSCALE
 40
1.0
  9
$DIMASZ
 40
0.18
  9
$DIMEXO
 40
0.0625
  9
$DIMDLI
 40
0.38
  9
$DIMRND
 40
0.0
  9
$DIMDLE
 40
0.0
  9
$DIMEXE
 40
0.18
  9
$DIMTP
 40
0.0
  9
$DIMTM
 40
0.0
  9
$DIMTXT
 40
0.18
  9
$DIMCEN
 40
0.09
  9
$DIMTSZ
 40
0.0
  9
$DIMTOL
 70
     0
  9
$DIMLIM
 70
     0
  9
$DIMTIH
 70
     1
  9
$DIMTOH
 70
     1
  9
$DIMSE1
 70
     0
  9
$DIMSE2
 70
     0
  9
$DIMTAD
 70
     0
  9
$DIMZIN
 70
     0
  9
$DIMBLK
  1

  9
$DIMASO
 70
     1
  9
$DIMSHO
 70
     1
  9
$DIMPOST
  1

  9
$DIMAPOST
  1

  9
$DIMALT
 70
     0
  9
$DIMALTD
 70
     2
  9
$DIMALTF
 40
25.4
  9
$DIMLFAC
 40
1.0
  9
$DIMTOFL
 70
     0
  9
$DIMTVP
 40
0.0
  9
$DIMTIX
 70
     0
  9
$DIMSOXD
 70
     0
  9
$DIMSAH
 70
     0
  9
$DIMBLK1
  1

  9
$DIMBLK2
  1

  9
$DIMSTYLE
  2
*UNNAMED
  9
$DIMCLRD
 70
     0
  9
$DIMCLRE
 70
     0
  9
$DIMCLRT
 70
     0
  9
$DIMTFAC
 40
1.0
  9
$DIMGAP
 40
0.09
  9
$LUNITS
 70
     2
  9
$LUPREC
 70
     4
  9
$SKETCHINC
 40
0.1
  9
$FILLETRAD
 40
2.0
  9
$AUNITS
 70
     0
  9
$AUPREC
 70
     0
  9
$MENU
  1
ACAD
  9
$ELEVATION
 40
0.0
  9
$PELEVATION
 40
0.0
  9
$THICKNESS
 40
0.0
  9
$LIMCHECK
 70
     0
  9
$BLIPMODE
 70
     1
  9
$CHAMFERA
 40
0.0
  9
$CHAMFERB
 40
0.0
  9
$SKPOLY
 70
     0
  9
$TDCREATE
 40
2450952.718483217
  9
$TDUPDATE
 40
2450952.718803009
  9
$TDINDWG
 40
0.0002422454
  9
$TDUSRTIMER
 40
0.0002422454
  9
$USRTIMER
 70
     1
  9
$ANGBASE
 50
0.0
  9
$ANGDIR
 70
     0
  9
$PDMODE
 70
     0
  9
$PDSIZE
 40
0.0
  9
$PLINEWID
 40
0.0
  9
$COORDS
 70
     2
  9
$SPLFRAME
 70
     0
  9
$SPLINETYPE
 70
     6
  9
$SPLINESEGS
 70
     8
  9
$ATTDIA
 70
     0
  9
$ATTREQ
 70
     1
  9
$HANDLING
 70
     0
  9
$HANDSEED
  5
0
  9
$SURFTAB1
 70
     6
  9
$SURFTAB2
 70
     6
  9
$SURFTYPE
 70
     6
  9
$SURFU
 70
     6
  9
$SURFV
 70
     6
  9
$UCSNAME
  2

  9
$UCSORG
 10
0.0
 20
0.0
 30
0.0
  9
$UCSXDIR
 10
1.0
 20
0.0
 30
0.0
  9
$UCSYDIR
 10
0.0
 20
1.0
 30
0.0
  9
$PUCSNAME
  2

  9
$PUCSORG
 10
0.0
 20
0.0
 30
0.0
  9
$PUCSXDIR
 10
1.0
 20
0.0
 30
0.0
  9
$PUCSYDIR
 10
0.0
 20
1.0
 30
0.0
  9
$USERI1
 70
     0
  9
$USERI2
 70
     0
  9
$USERI3
 70
     0
  9
$USERI4
 70
     0
  9
$USERI5
 70
     0
  9
$USERR1
 40
0.0
  9
$USERR2
 40
0.0
  9
$USERR3
 40
0.0
  9
$USERR4
 40
0.0
  9
$USERR5
 40
0.0
  9
$WORLDVIEW
 70
     1
  9
$SHADEDGE
 70
     3
  9
$SHADEDIF
 70
    70
  9
$TILEMODE
 70
     1
  9
$MAXACTVP
 70
    16
  9
$PINSBASE
 10
0.0
 20
0.0
 30
0.0
  9
$PLIMCHECK
 70
     0
  9
$PEXTMIN
 10
1.000000E+20
 20
1.000000E+20
 30
1.000000E+20
  9
$PEXTMAX
 10
-1.000000E+20
 20
-1.000000E+20
 30
-1.000000E+20
  9
$PLIMMIN
 10
0.0
 20
0.0
  9
$PLIMMAX
 10
420.0
 20
297.0
  9
$UNITMODE
 70
     0
  9
$VISRETAIN
 70
     0
  9
$PLINEGEN
 70
     0
  9
$PSLTSCALE
 70
     1
  9
$TREEDEPTH
 70
  3020
  9
$DWGCODEPAGE
  3
iso8859-1
  0
ENDSEC
  0
SECTION
  2
TABLES
  0
TABLE
  2
VPORT
 70
     2
  0
VPORT
  2
*ACTIVE
 70
     0
 10
0.0
 20
0.0
 11
1.0
 21
1.0
 12
159.26237
 22
-39.740865
 13
0.0
 23
0.0
 14
1.0
 24
1.0
 15
0.0
 25
0.0
 16
0.0
 26
0.0
 36
1.0
 17
0.0
 27
0.0
 37
0.0
 40
203.563218
 41
1.748359
 42
50.0
 43
0.0
 44
0.0
 50
0.0
 51
0.0
 71
     0
 72
   100
 73
     1
 74
     0
 75
     0
 76
     0
 77
     0
 78
     0
  0
ENDTAB
  0
TABLE
  2
LTYPE
 70
     1
  0
LTYPE
  2
CONTINUOUS
 70
    64
  3
Solid line
 72
    65
 73
     0
 40
0.0
  0
ENDTAB
  0
TABLE
  2
LAYER
 70
     1
  0
LAYER
  2
0
 70
    64
 62
     7
  6
CONTINUOUS
  0
ENDTAB
  0
TABLE
  2
STYLE
 70
     1
  0
STYLE
  2
STANDARD
 70
    64
 40
0.0
 41
1.0
 50
0.0
 71
     0
 42
3.5
  3
txt
  4

  0
ENDTAB
  0
TABLE
  2
VIEW
 70
     0
  0
ENDTAB
  0
TABLE
  2
UCS
 70
     0
  0
ENDTAB
  0
TABLE
  2
APPID
 70
     1
  0
APPID
  2
ACAD
 70
    64
  0
ENDTAB
  0
TABLE
  2
DIMSTYLE
 70
     0
  0
ENDTAB
  0
ENDSEC
  0
SECTION
  2
BLOCKS
  0
ENDSEC
  0
SECTION
  2
ENTITIES
  0
LINE
  8
0
 10
72.081913
 20
-87.473707
 30
0.0
 11
46.057569
 21
-87.473707
 31
0.0
  0
LINE
  8
0
 10
72.245159
 20
-87.466547
 30
0.0
 11
72.081913
 21
-87.473707
 31
0.0
  0
LINE
  8
0
 10
72.405541
 20
-87.445545
 30
0.0
 11
72.245159
 21
-87.466547
 31
0.0
  0
LINE
  8
0
 10
72.565445
 20
-87.414519
 30
0.0
 11
72.405541
 21
-87.445545
 31
0.0
  0
LINE
  8
0
 10
72.718667
 20
-87.369173
 30
0.0
 11
72.565445
 21
-87.414519
 31
0.0
  0
LINE
  8
0
 10
72.871889
 20
-87.309984
 30
0.0
 11
72.718667
 21
-87.369173
 31
0.0
  0
LINE
  8
0
 10
73.017951
 20
-87.240294
 30
0.0
 11
72.871889
 21
-87.309984
 31
0.0
  0
LINE
  8
0
 10
73.157331
 20
-87.160104
 30
0.0
 11
73.017951
 21
-87.240294
 31
0.0
  0
LINE
  8
0
 10
73.28955
 20
-87.066547
 30
0.0
 11
73.157331
 21
-87.160104
 31
0.0
  0
LINE
  8
0
 10
73.41461
 20
-86.965354
 30
0.0
 11
73.28955
 21
-87.066547
 31
0.0
  0
LINE
  8
0
 10
73.532987
 20
-86.850796
 30
0.0
 11
73.41461
 21
-86.965354
 31
0.0
  0
LINE
  8
0
 10
73.637522
 20
-86.7286
 30
0.0
 11
73.532987
 21
-86.850796
 31
0.0
  0
LINE
  8
0
 10
73.734896
 20
-86.600199
 30
0.0
 11
73.637522
 21
-86.7286
 31
0.0
  0
LINE
  8
0
 10
73.82177
 20
-86.464161
 30
0.0
 11
73.734896
 21
-86.600199
 31
0.0
  0
LINE
  8
0
 10
73.894801
 20
-86.318099
 30
0.0
 11
73.82177
 21
-86.464161
 31
0.0
  0
LINE
  8
0
 10
76.202199
 20
-81.372991
 30
0.0
 11
73.894801
 21
-86.318099
 31
0.0
  0
LINE
  8
0
 10
80.757808
 20
-81.372991
 30
0.0
 11
76.202199
 21
-81.372991
 31
0.0
  0
LINE
  8
0
 10
80.757808
 20
-82.611655
 30
0.0
 11
80.757808
 21
-81.372991
 31
0.0
  0
LINE
  8
0
 10
79.19504
 20
-84.174423
 30
0.0
 11
80.757808
 21
-82.611655
 31
0.0
  0
LINE
  8
0
 10
78.158285
 20
-84.174423
 30
0.0
 11
79.19504
 21
-84.174423
 31
0.0
  0
LINE
  8
0
 10
78.053751
 20
-84.181106
 30
0.0
 11
78.158285
 21
-84.174423
 31
0.0
  0
LINE
  8
0
 10
77.949216
 20
-84.202108
 30
0.0
 11
78.053751
 21
-84.181106
 31
0.0
  0
LINE
  8
0
 10
77.851841
 20
-84.233612
 30
0.0
 11
77.949216
 21
-84.202108
 31
0.0
  0
LINE
  8
0
 10
77.757808
 20
-84.282299
 30
0.0
 11
77.851841
 21
-84.233612
 31
0.0
  0
LINE
  8
0
 10
77.670935
 20
-84.338146
 30
0.0
 11
77.757808
 21
-84.282299
 31
0.0
  0
LINE
  8
0
 10
77.590744
 20
-84.407359
 30
0.0
 11
77.670935
 21
-84.338146
 31
0.0
  0
LINE
  8
0
 10
77.521054
 20
-84.48755
 30
0.0
 11
77.590744
 21
-84.407359
 31
0.0
  0
LINE
  8
0
 10
77.465684
 20
-84.574423
 30
0.0
 11
77.521054
 21
-84.48755
 31
0.0
  0
LINE
  8
0
 10
77.416997
 20
-84.668457
 30
0.0
 11
77.465684
 21
-84.574423
 31
0.0
  0
LINE
  8
0
 10
77.385493
 20
-84.765831
 30
0.0
 11
77.416997
 21
-84.668457
 31
0.0
  0
LINE
  8
0
 10
77.364491
 20
-84.870366
 30
0.0
 11
77.385493
 21
-84.765831
 31
0.0
  0
LINE
  8
0
 10
77.357808
 20
-84.974901
 30
0.0
 11
77.364491
 21
-84.870366
 31
0.0
  0
LINE
  8
0
 10
77.364491
 20
-85.079435
 30
0.0
 11
77.357808
 21
-84.974901
 31
0.0
  0
LINE
  8
0
 10
77.385493
 20
-85.180151
 30
0.0
 11
77.364491
 21
-85.079435
 31
0.0
  0
LINE
  8
0
 10
77.416997
 20
-85.280867
 30
0.0
 11
77.385493
 21
-85.180151
 31
0.0
  0
LINE
  8
0
 10
77.465684
 20
-85.374901
 30
0.0
 11
77.416997
 21
-85.280867
 31
0.0
  0
LINE
  8
0
 10
77.521054
 20
-85.462251
 30
0.0
 11
77.465684
 21
-85.374901
 31
0.0
  0
LINE
  8
0
 10
77.590744
 20
-85.538624
 30
0.0
 11
77.521054
 21
-85.462251
 31
0.0
  0
LINE
  8
0
 10
77.670935
 20
-85.608314
 30
0.0
 11
77.590744
 21
-85.538624
 31
0.0
  0
LINE
  8
0
 10
77.757808
 20
-85.667502
 30
0.0
 11
77.670935
 21
-85.608314
 31
0.0
  0
LINE
  8
0
 10
77.851841
 20
-85.712371
 30
0.0
 11
77.757808
 21
-85.667502
 31
0.0
  0
LINE
  8
0
 10
77.949216
 20
-85.747216
 30
0.0
 11
77.851841
 21
-85.712371
 31
0.0
  0
LINE
  8
0
 10
78.053751
 20
-85.768218
 30
0.0
 11
77.949216
 21
-85.747216
 31
0.0
  0
LINE
  8
0
 10
78.158285
 20
-85.775378
 30
0.0
 11
78.053751
 21
-85.768218
 31
0.0
  0
LINE
  8
0
 10
79.442295
 20
-85.775378
 30
0.0
 11
78.158285
 21
-85.775378
 31
0.0
  0
LINE
  8
0
 10
79.553512
 20
-85.768218
 30
0.0
 11
79.442295
 21
-85.775378
 31
0.0
  0
LINE
  8
0
 10
79.665207
 20
-85.747216
 30
0.0
 11
79.553512
 21
-85.768218
 31
0.0
  0
LINE
  8
0
 10
79.773083
 20
-85.716189
 30
0.0
 11
79.665207
 21
-85.747216
 31
0.0
  0
LINE
  8
0
 10
79.87714
 20
-85.674185
 30
0.0
 11
79.773083
 21
-85.716189
 31
0.0
  0
LINE
  8
0
 10
79.974515
 20
-85.618815
 30
0.0
 11
79.87714
 21
-85.674185
 31
0.0
  0
LINE
  8
0
 10
80.065207
 20
-85.555808
 30
0.0
 11
79.974515
 21
-85.618815
 31
0.0
  0
LINE
  8
0
 10
80.148739
 20
-85.479435
 30
0.0
 11
80.065207
 21
-85.555808
 31
0.0
  0
LINE
  8
0
 10
82.06282
 20
-83.565354
 30
0.0
 11
80.148739
 21
-85.479435
 31
0.0
  0
LINE
  8
0
 10
82.139192
 20
-83.481822
 30
0.0
 11
82.06282
 21
-83.565354
 31
0.0
  0
LINE
  8
0
 10
82.202199
 20
-83.39113
 30
0.0
 11
82.139192
 21
-83.481822
 31
0.0
  0
LINE
  8
0
 10
82.257569
 20
-83.293755
 30
0.0
 11
82.202199
 21
-83.39113
 31
0.0
  0
LINE
  8
0
 10
82.299574
 20
-83.189698
 30
0.0
 11
82.257569
 21
-83.293755
 31
0.0
  0
LINE
  8
0
 10
82.3306
 20
-83.081822
 30
0.0
 11
82.299574
 21
-83.189698
 31
0.0
  0
LINE
  8
0
 10
82.351603
 20
-82.970127
 30
0.0
 11
82.3306
 21
-83.081822
 31
0.0
  0
LINE
  8
0
 10
82.354944
 20
-82.85891
 30
0.0
 11
82.351603
 21
-82.970127
 31
0.0
  0
LINE
  8
0
 10
82.354944
 20
-80.774423
 30
0.0
 11
82.354944
 21
-82.85891
 31
0.0
  0
LINE
  8
0
 10
82.351603
 20
-80.662729
 30
0.0
 11
82.354944
 21
-80.774423
 31
0.0
  0
LINE
  8
0
 10
82.3306
 20
-80.551512
 30
0.0
 11
82.351603
 21
-80.662729
 31
0.0
  0
LINE
  8
0
 10
82.299574
 20
-80.443636
 30
0.0
 11
82.3306
 21
-80.551512
 31
0.0
  0
LINE
  8
0
 10
82.257569
 20
-80.339101
 30
0.0
 11
82.299574
 21
-80.443636
 31
0.0
  0
LINE
  8
0
 10
82.202199
 20
-80.241726
 30
0.0
 11
82.257569
 21
-80.339101
 31
0.0
  0
LINE
  8
0
 10
82.139192
 20
-80.151512
 30
0.0
 11
82.202199
 21
-80.241726
 31
0.0
  0
LINE
  8
0
 10
82.06282
 20
-80.067979
 30
0.0
 11
82.139192
 21
-80.151512
 31
0.0
  0
LINE
  8
0
 10
81.979288
 20
-79.99113
 30
0.0
 11
82.06282
 21
-80.067979
 31
0.0
  0
LINE
  8
0
 10
81.888596
 20
-79.925259
 30
0.0
 11
81.979288
 21
-79.99113
 31
0.0
  0
LINE
  8
0
 10
81.791221
 20
-79.872753
 30
0.0
 11
81.888596
 21
-79.925259
 31
0.0
  0
LINE
  8
0
 10
81.687164
 20
-79.831225
 30
0.0
 11
81.791221
 21
-79.872753
 31
0.0
  0
LINE
  8
0
 10
81.579288
 20
-79.799722
 30
0.0
 11
81.687164
 21
-79.831225
 31
0.0
  0
LINE
  8
0
 10
81.467593
 20
-79.779197
 30
0.0
 11
81.579288
 21
-79.799722
 31
0.0
  0
LINE
  8
0
 10
81.356376
 20
-79.772037
 30
0.0
 11
81.467593
 21
-79.779197
 31
0.0
  0
LINE
  8
0
 10
80.680958
 20
-79.772037
 30
0.0
 11
81.356376
 21
-79.772037
 31
0.0
  0
LINE
  8
0
 10
80.680958
 20
-75.272275
 30
0.0
 11
80.680958
 21
-79.772037
 31
0.0
  0
LINE
  8
0
 10
80.674276
 20
-75.161058
 30
0.0
 11
80.680958
 21
-75.272275
 31
0.0
  0
LINE
  8
0
 10
80.656615
 20
-75.049364
 30
0.0
 11
80.674276
 21
-75.161058
 31
0.0
  0
LINE
  8
0
 10
80.625588
 20
-74.941488
 30
0.0
 11
80.656615
 21
-75.049364
 31
0.0
  0
LINE
  8
0
 10
80.583584
 20
-74.840772
 30
0.0
 11
80.625588
 21
-74.941488
 31
0.0
  0
LINE
  8
0
 10
80.528214
 20
-74.743397
 30
0.0
 11
80.583584
 21
-74.840772
 31
0.0
  0
LINE
  8
0
 10
80.465207
 20
-74.649364
 30
0.0
 11
80.528214
 21
-74.743397
 31
0.0
  0
LINE
  8
0
 10
80.388834
 20
-74.565831
 30
0.0
 11
80.465207
 21
-74.649364
 31
0.0
  0
LINE
  8
0
 10
80.305302
 20
-74.4928
 30
0.0
 11
80.388834
 21
-74.565831
 31
0.0
  0
LINE
  8
0
 10
80.21461
 20
-74.426452
 30
0.0
 11
80.305302
 21
-74.4928
 31
0.0
  0
LINE
  8
0
 10
80.117235
 20
-74.371082
 30
0.0
 11
80.21461
 21
-74.426452
 31
0.0
  0
LINE
  8
0
 10
80.013178
 20
-74.329077
 30
0.0
 11
80.117235
 21
-74.371082
 31
0.0
  0
LINE
  8
0
 10
79.905302
 20
-74.297574
 30
0.0
 11
80.013178
 21
-74.329077
 31
0.0
  0
LINE
  8
0
 10
79.793608
 20
-74.28039
 30
0.0
 11
79.905302
 21
-74.297574
 31
0.0
  0
LINE
  8
0
 10
79.68239
 20
-74.27323
 30
0.0
 11
79.793608
 21
-74.28039
 31
0.0
  0
LINE
  8
0
 10
76.181197
 20
-74.27323
 30
0.0
 11
79.68239
 21
-74.27323
 31
0.0
  0
LINE
  8
0
 10
76.06998
 20
-74.28039
 30
0.0
 11
76.181197
 21
-74.27323
 31
0.0
  0
LINE
  8
0
 10
75.958763
 20
-74.297574
 30
0.0
 11
76.06998
 21
-74.28039
 31
0.0
  0
LINE
  8
0
 10
75.850887
 20
-74.329077
 30
0.0
 11
75.958763
 21
-74.297574
 31
0.0
  0
LINE
  8
0
 10
75.749694
 20
-74.371082
 30
0.0
 11
75.850887
 21
-74.329077
 31
0.0
  0
LINE
  8
0
 10
75.648978
 20
-74.426452
 30
0.0
 11
75.749694
 21
-74.371082
 31
0.0
  0
LINE
  8
0
 10
75.558285
 20
-74.4928
 30
0.0
 11
75.648978
 21
-74.426452
 31
0.0
  0
LINE
  8
0
 10
75.474753
 20
-74.565831
 30
0.0
 11
75.558285
 21
-74.4928
 31
0.0
  0
LINE
  8
0
 10
75.401722
 20
-74.649364
 30
0.0
 11
75.474753
 21
-74.565831
 31
0.0
  0
LINE
  8
0
 10
75.335851
 20
-74.743397
 30
0.0
 11
75.401722
 21
-74.649364
 31
0.0
  0
LINE
  8
0
 10
75.280004
 20
-74.840772
 30
0.0
 11
75.335851
 21
-74.743397
 31
0.0
  0
LINE
  8
0
 10
75.238476
 20
-74.941488
 30
0.0
 11
75.280004
 21
-74.840772
 31
0.0
  0
LINE
  8
0
 10
75.206973
 20
-75.049364
 30
0.0
 11
75.238476
 21
-74.941488
 31
0.0
  0
LINE
  8
0
 10
75.189312
 20
-75.161058
 30
0.0
 11
75.206973
 21
-75.049364
 31
0.0
  0
LINE
  8
0
 10
75.182629
 20
-75.272275
 30
0.0
 11
75.189312
 21
-75.161058
 31
0.0
  0
LINE
  8
0
 10
75.182629
 20
-79.772037
 30
0.0
 11
75.182629
 21
-75.272275
 31
0.0
  0
LINE
  8
0
 10
72.617951
 20
-85.274185
 30
0.0
 11
75.182629
 21
-79.772037
 31
0.0
  0
LINE
  8
0
 10
46.259479
 20
-85.274185
 30
0.0
 11
72.617951
 21
-85.274185
 31
0.0
  0
LINE
  8
0
 10
46.259479
 20
20.32677
 30
0.0
 11
46.259479
 21
-85.274185
 31
0.0
  0
LINE
  8
0
 10
72.617951
 20
20.32677
 30
0.0
 11
46.259479
 21
20.32677
 31
0.0
  0
LINE
  8
0
 10
75.182629
 20
14.827963
 30
0.0
 11
72.617951
 21
20.32677
 31
0.0
  0
LINE
  8
0
 10
75.182629
 20
10.324861
 30
0.0
 11
75.182629
 21
14.827963
 31
0.0
  0
LINE
  8
0
 10
75.189312
 20
10.213644
 30
0.0
 11
75.182629
 21
10.324861
 31
0.0
  0
LINE
  8
0
 10
75.206973
 20
10.105768
 30
0.0
 11
75.189312
 21
10.213644
 31
0.0
  0
LINE
  8
0
 10
75.238476
 20
9.997892
 30
0.0
 11
75.206973
 21
10.105768
 31
0.0
  0
LINE
  8
0
 10
75.280004
 20
9.893357
 30
0.0
 11
75.238476
 21
9.997892
 31
0.0
  0
LINE
  8
0
 10
75.335851
 20
9.795982
 30
0.0
 11
75.280004
 21
9.893357
 31
0.0
  0
LINE
  8
0
 10
75.401722
 20
9.701949
 30
0.0
 11
75.335851
 21
9.795982
 31
0.0
  0
LINE
  8
0
 10
75.474753
 20
9.618417
 30
0.0
 11
75.401722
 21
9.701949
 31
0.0
  0
LINE
  8
0
 10
75.558285
 20
9.545386
 30
0.0
 11
75.474753
 21
9.618417
 31
0.0
  0
LINE
  8
0
 10
75.648978
 20
9.479037
 30
0.0
 11
75.558285
 21
9.545386
 31
0.0
  0
LINE
  8
0
 10
75.749694
 20
9.427009
 30
0.0
 11
75.648978
 21
9.479037
 31
0.0
  0
LINE
  8
0
 10
75.850887
 20
9.381663
 30
0.0
 11
75.749694
 21
9.427009
 31
0.0
  0
LINE
  8
0
 10
75.958763
 20
9.350636
 30
0.0
 11
75.850887
 21
9.381663
 31
0.0
  0
LINE
  8
0
 10
76.06998
 20
9.332975
 30
0.0
 11
75.958763
 21
9.350636
 31
0.0
  0
LINE
  8
0
 10
76.181197
 20
9.326293
 30
0.0
 11
76.06998
 21
9.332975
 31
0.0
  0
LINE
  8
0
 10
79.68239
 20
9.326293
 30
0.0
 11
76.181197
 21
9.326293
 31
0.0
  0
LINE
  8
0
 10
79.793608
 20
9.332975
 30
0.0
 11
79.68239
 21
9.326293
 31
0.0
  0
LINE
  8
0
 10
79.905302
 20
9.350636
 30
0.0
 11
79.793608
 21
9.332975
 31
0.0
  0
LINE
  8
0
 10
80.013178
 20
9.381663
 30
0.0
 11
79.905302
 21
9.350636
 31
0.0
  0
LINE
  8
0
 10
80.117235
 20
9.427009
 30
0.0
 11
80.013178
 21
9.381663
 31
0.0
  0
LINE
  8
0
 10
80.21461
 20
9.479037
 30
0.0
 11
80.117235
 21
9.427009
 31
0.0
  0
LINE
  8
0
 10
80.305302
 20
9.545386
 30
0.0
 11
80.21461
 21
9.479037
 31
0.0
  0
LINE
  8
0
 10
80.388834
 20
9.618417
 30
0.0
 11
80.305302
 21
9.545386
 31
0.0
  0
LINE
  8
0
 10
80.465207
 20
9.701949
 30
0.0
 11
80.388834
 21
9.618417
 31
0.0
  0
LINE
  8
0
 10
80.528214
 20
9.795982
 30
0.0
 11
80.465207
 21
9.701949
 31
0.0
  0
LINE
  8
0
 10
80.583584
 20
9.893357
 30
0.0
 11
80.528214
 21
9.795982
 31
0.0
  0
LINE
  8
0
 10
80.625588
 20
9.997892
 30
0.0
 11
80.583584
 21
9.893357
 31
0.0
  0
LINE
  8
0
 10
80.656615
 20
10.105768
 30
0.0
 11
80.625588
 21
9.997892
 31
0.0
  0
LINE
  8
0
 10
80.674276
 20
10.213644
 30
0.0
 11
80.656615
 21
10.105768
 31
0.0
  0
LINE
  8
0
 10
80.680958
 20
10.324861
 30
0.0
 11
80.674276
 21
10.213644
 31
0.0
  0
LINE
  8
0
 10
80.680958
 20
14.827963
 30
0.0
 11
80.680958
 21
10.324861
 31
0.0
  0
LINE
  8
0
 10
81.356376
 20
14.827963
 30
0.0
 11
80.680958
 21
14.827963
 31
0.0
  0
LINE
  8
0
 10
81.467593
 20
14.831782
 30
0.0
 11
81.356376
 21
14.827963
 31
0.0
  0
LINE
  8
0
 10
81.579288
 20
14.852307
 30
0.0
 11
81.467593
 21
14.831782
 31
0.0
  0
LINE
  8
0
 10
81.687164
 20
14.883811
 30
0.0
 11
81.579288
 21
14.852307
 31
0.0
  0
LINE
  8
0
 10
81.791221
 20
14.925815
 30
0.0
 11
81.687164
 21
14.883811
 31
0.0
  0
LINE
  8
0
 10
81.888596
 20
14.981185
 30
0.0
 11
81.791221
 21
14.925815
 31
0.0
  0
LINE
  8
0
 10
81.979288
 20
15.043715
 30
0.0
 11
81.888596
 21
14.981185
 31
0.0
  0
LINE
  8
0
 10
82.06282
 20
15.120565
 30
0.0
 11
81.979288
 21
15.043715
 31
0.0
  0
LINE
  8
0
 10
82.139192
 20
15.204097
 30
0.0
 11
82.06282
 21
15.120565
 31
0.0
  0
LINE
  8
0
 10
82.202199
 20
15.294312
 30
0.0
 11
82.139192
 21
15.204097
 31
0.0
  0
LINE
  8
0
 10
82.257569
 20
15.392164
 30
0.0
 11
82.202199
 21
15.294312
 31
0.0
  0
LINE
  8
0
 10
82.299574
 20
15.496221
 30
0.0
 11
82.257569
 21
15.392164
 31
0.0
  0
LINE
  8
0
 10
82.3306
 20
15.604097
 30
0.0
 11
82.299574
 21
15.496221
 31
0.0
  0
LINE
  8
0
 10
82.351603
 20
15.715791
 30
0.0
 11
82.3306
 21
15.604097
 31
0.0
  0
LINE
  8
0
 10
82.354944
 20
15.827009
 30
0.0
 11
82.351603
 21
15.715791
 31
0.0
  0
LINE
  8
0
 10
82.354944
 20
17.911496
 30
0.0
 11
82.354944
 21
15.827009
 31
0.0
  0
LINE
  8
0
 10
82.351603
 20
18.022713
 30
0.0
 11
82.354944
 21
17.911496
 31
0.0
  0
LINE
  8
0
 10
82.3306
 20
18.134407
 30
0.0
 11
82.351603
 21
18.022713
 31
0.0
  0
LINE
  8
0
 10
82.299574
 20
18.242283
 30
0.0
 11
82.3306
 21
18.134407
 31
0.0
  0
LINE
  8
0
 10
82.257569
 20
18.346818
 30
0.0
 11
82.299574
 21
18.242283
 31
0.0
  0
LINE
  8
0
 10
82.202199
 20
18.444192
 30
0.0
 11
82.257569
 21
18.346818
 31
0.0
  0
LINE
  8
0
 10
82.139192
 20
18.534407
 30
0.0
 11
82.202199
 21
18.444192
 31
0.0
  0
LINE
  8
0
 10
82.06282
 20
18.617939
 30
0.0
 11
82.139192
 21
18.534407
 31
0.0
  0
LINE
  8
0
 10
80.148739
 20
20.532021
 30
0.0
 11
82.06282
 21
18.617939
 31
0.0
  0
LINE
  8
0
 10
80.065207
 20
20.60887
 30
0.0
 11
80.148739
 21
20.532021
 31
0.0
  0
LINE
  8
0
 10
79.974515
 20
20.674741
 30
0.0
 11
80.065207
 21
20.60887
 31
0.0
  0
LINE
  8
0
 10
79.87714
 20
20.72677
 30
0.0
 11
79.974515
 21
20.674741
 31
0.0
  0
LINE
  8
0
 10
79.773083
 20
20.768775
 30
0.0
 11
79.87714
 21
20.72677
 31
0.0
  0
LINE
  8
0
 10
79.665207
 20
20.800278
 30
0.0
 11
79.773083
 21
20.768775
 31
0.0
  0
LINE
  8
0
 10
79.553512
 20
20.820803
 30
0.0
 11
79.665207
 21
20.800278
 31
0.0
  0
LINE
  8
0
 10
79.442295
 20
20.827963
 30
0.0
 11
79.553512
 21
20.820803
 31
0.0
  0
LINE
  8
0
 10
78.158285
 20
20.827963
 30
0.0
 11
79.442295
 21
20.827963
 31
0.0
  0
LINE
  8
0
 10
78.053751
 20
20.820803
 30
0.0
 11
78.158285
 21
20.827963
 31
0.0
  0
LINE
  8
0
 10
77.949216
 20
20.800278
 30
0.0
 11
78.053751
 21
20.820803
 31
0.0
  0
LINE
  8
0
 10
77.851841
 20
20.765433
 30
0.0
 11
77.949216
 21
20.800278
 31
0.0
  0
LINE
  8
0
 10
77.757808
 20
20.720087
 30
0.0
 11
77.851841
 21
20.765433
 31
0.0
  0
LINE
  8
0
 10
77.670935
 20
20.660899
 30
0.0
 11
77.757808
 21
20.720087
 31
0.0
  0
LINE
  8
0
 10
77.590744
 20
20.591209
 30
0.0
 11
77.670935
 21
20.660899
 31
0.0
  0
LINE
  8
0
 10
77.521054
 20
20.514837
 30
0.0
 11
77.590744
 21
20.591209
 31
0.0
  0
LINE
  8
0
 10
77.465684
 20
20.427963
 30
0.0
 11
77.521054
 21
20.514837
 31
0.0
  0
LINE
  8
0
 10
77.416997
 20
20.33393
 30
0.0
 11
77.465684
 21
20.427963
 31
0.0
  0
LINE
  8
0
 10
77.385493
 20
20.232737
 30
0.0
 11
77.416997
 21
20.33393
 31
0.0
  0
LINE
  8
0
 10
77.364491
 20
20.132021
 30
0.0
 11
77.385493
 21
20.232737
 31
0.0
  0
LINE
  8
0
 10
77.357808
 20
20.027486
 30
0.0
 11
77.364491
 21
20.132021
 31
0.0
  0
LINE
  8
0
 10
77.364491
 20
19.922951
 30
0.0
 11
77.357808
 21
20.027486
 31
0.0
  0
LINE
  8
0
 10
77.385493
 20
19.818894
 30
0.0
 11
77.364491
 21
19.922951
 31
0.0
  0
LINE
  8
0
 10
77.416997
 20
19.721042
 30
0.0
 11
77.385493
 21
19.818894
 31
0.0
  0
LINE
  8
0
 10
77.465684
 20
19.627486
 30
0.0
 11
77.416997
 21
19.721042
 31
0.0
  0
LINE
  8
0
 10
77.521054
 20
19.540135
 30
0.0
 11
77.465684
 21
19.627486
 31
0.0
  0
LINE
  8
0
 10
77.590744
 20
19.460422
 30
0.0
 11
77.521054
 21
19.540135
 31
0.0
  0
LINE
  8
0
 10
77.670935
 20
19.390732
 30
0.0
 11
77.590744
 21
19.460422
 31
0.0
  0
LINE
  8
0
 10
77.757808
 20
19.334885
 30
0.0
 11
77.670935
 21
19.390732
 31
0.0
  0
LINE
  8
0
 10
77.851841
 20
19.286197
 30
0.0
 11
77.757808
 21
19.334885
 31
0.0
  0
LINE
  8
0
 10
77.949216
 20
19.254694
 30
0.0
 11
77.851841
 21
19.286197
 31
0.0
  0
LINE
  8
0
 10
78.053751
 20
19.234169
 30
0.0
 11
77.949216
 21
19.254694
 31
0.0
  0
LINE
  8
0
 10
78.158285
 20
19.227009
 30
0.0
 11
78.053751
 21
19.234169
 31
0.0
  0
LINE
  8
0
 10
79.19504
 20
19.227009
 30
0.0
 11
78.158285
 21
19.227009
 31
0.0
  0
LINE
  8
0
 10
80.757808
 20
17.664717
 30
0.0
 11
79.19504
 21
19.227009
 31
0.0
  0
LINE
  8
0
 10
80.757808
 20
16.425577
 30
0.0
 11
80.757808
 21
17.664717
 31
0.0
  0
LINE
  8
0
 10
76.202199
 20
16.425577
 30
0.0
 11
80.757808
 21
16.425577
 31
0.0
  0
LINE
  8
0
 10
73.894801
 20
21.370684
 30
0.0
 11
76.202199
 21
16.425577
 31
0.0
  0
LINE
  8
0
 10
73.82177
 20
21.517223
 30
0.0
 11
73.894801
 21
21.370684
 31
0.0
  0
LINE
  8
0
 10
73.734896
 20
21.652784
 30
0.0
 11
73.82177
 21
21.517223
 31
0.0
  0
LINE
  8
0
 10
73.637522
 20
21.781663
 30
0.0
 11
73.734896
 21
21.652784
 31
0.0
  0
LINE
  8
0
 10
73.532987
 20
21.903381
 30
0.0
 11
73.637522
 21
21.781663
 31
0.0
  0
LINE
  8
0
 10
73.41461
 20
22.017939
 30
0.0
 11
73.532987
 21
21.903381
 31
0.0
  0
LINE
  8
0
 10
73.28955
 20
22.119133
 30
0.0
 11
73.41461
 21
22.017939
 31
0.0
  0
LINE
  8
0
 10
73.157331
 20
22.213166
 30
0.0
 11
73.28955
 21
22.119133
 31
0.0
  0
LINE
  8
0
 10
73.017951
 20
22.29288
 30
0.0
 11
73.157331
 21
22.213166
 31
0.0
  0
LINE
  8
0
 10
72.871889
 20
22.365911
 30
0.0
 11
73.017951
 21
22.29288
 31
0.0
  0
LINE
  8
0
 10
72.718667
 20
22.421758
 30
0.0
 11
72.871889
 21
22.365911
 31
0.0
  0
LINE
  8
0
 10
72.565445
 20
22.467104
 30
0.0
 11
72.718667
 21
22.421758
 31
0.0
  0
LINE
  8
0
 10
72.405541
 20
22.501949
 30
0.0
 11
72.565445
 21
22.467104
 31
0.0
  0
LINE
  8
0
 10
72.245159
 20
22.519133
 30
0.0
 11
72.405541
 21
22.501949
 31
0.0
  0
LINE
  8
0
 10
72.081913
 20
22.526293
 30
0.0
 11
72.245159
 21
22.519133
 31
0.0
  0
LINE
  8
0
 10
46.057569
 20
22.526293
 30
0.0
 11
72.081913
 21
22.526293
 31
0.0
  0
LINE
  8
0
 10
45.893846
 20
22.519133
 30
0.0
 11
46.057569
 21
22.526293
 31
0.0
  0
LINE
  8
0
 10
45.730123
 20
22.498608
 30
0.0
 11
45.893846
 21
22.519133
 31
0.0
  0
LINE
  8
0
 10
45.566877
 20
22.463763
 30
0.0
 11
45.730123
 21
22.498608
 31
0.0
  0
LINE
  8
0
 10
45.410314
 20
22.418417
 30
0.0
 11
45.566877
 21
22.463763
 31
0.0
  0
LINE
  8
0
 10
45.253751
 20
22.359228
 30
0.0
 11
45.410314
 21
22.418417
 31
0.0
  0
LINE
  8
0
 10
45.107211
 20
22.286197
 30
0.0
 11
45.253751
 21
22.359228
 31
0.0
  0
LINE
  8
0
 10
44.964491
 20
22.199324
 30
0.0
 11
45.107211
 21
22.286197
 31
0.0
  0
LINE
  8
0
 10
44.82893
 20
22.10529
 30
0.0
 11
44.964491
 21
22.199324
 31
0.0
  0
LINE
  8
0
 10
44.70387
 20
21.997414
 30
0.0
 11
44.82893
 21
22.10529
 31
0.0
  0
LINE
  8
0
 10
44.588834
 20
21.882379
 30
0.0
 11
44.70387
 21
21.997414
 31
0.0
  0
LINE
  8
0
 10
44.480958
 20
21.7535
 30
0.0
 11
44.588834
 21
21.882379
 31
0.0
  0
LINE
  8
0
 10
44.383584
 20
21.621281
 30
0.0
 11
44.480958
 21
21.7535
 31
0.0
  0
LINE
  8
0
 10
44.300052
 20
21.47856
 30
0.0
 11
44.383584
 21
21.621281
 31
0.0
  0
LINE
  8
0
 10
44.22702
 20
21.329157
 30
0.0
 11
44.300052
 21
21.47856
 31
0.0
  0
LINE
  8
0
 10
44.167832
 20
21.175935
 30
0.0
 11
44.22702
 21
21.329157
 31
0.0
  0
LINE
  8
0
 10
44.119145
 20
21.01603
 30
0.0
 11
44.167832
 21
21.175935
 31
0.0
  0
LINE
  8
0
 10
44.0843
 20
20.855648
 30
0.0
 11
44.119145
 21
21.01603
 31
0.0
  0
LINE
  8
0
 10
44.066639
 20
20.692402
 30
0.0
 11
44.0843
 21
20.855648
 31
0.0
  0
LINE
  8
0
 10
44.059956
 20
20.525338
 30
0.0
 11
44.066639
 21
20.692402
 31
0.0
  0
LINE
  8
0
 10
44.059956
 20
-85.472275
 30
0.0
 11
44.059956
 21
20.525338
 31
0.0
  0
LINE
  8
0
 10
44.066639
 20
-85.63934
 30
0.0
 11
44.059956
 21
-85.472275
 31
0.0
  0
LINE
  8
0
 10
44.0843
 20
-85.803063
 30
0.0
 11
44.066639
 21
-85.63934
 31
0.0
  0
LINE
  8
0
 10
44.119145
 20
-85.962967
 30
0.0
 11
44.0843
 21
-85.803063
 31
0.0
  0
LINE
  8
0
 10
44.167832
 20
-86.123349
 30
0.0
 11
44.119145
 21
-85.962967
 31
0.0
  0
LINE
  8
0
 10
44.22702
 20
-86.276571
 30
0.0
 11
44.167832
 21
-86.123349
 31
0.0
  0
LINE
  8
0
 10
44.300052
 20
-86.425975
 30
0.0
 11
44.22702
 21
-86.276571
 31
0.0
  0
LINE
  8
0
 10
44.383584
 20
-86.568695
 30
0.0
 11
44.300052
 21
-86.425975
 31
0.0
  0
LINE
  8
0
 10
44.480958
 20
-86.700915
 30
0.0
 11
44.383584
 21
-86.568695
 31
0.0
  0
LINE
  8
0
 10
44.588834
 20
-86.829793
 30
0.0
 11
44.480958
 21
-86.700915
 31
0.0
  0
LINE
  8
0
 10
44.70387
 20
-86.944352
 30
0.0
 11
44.588834
 21
-86.829793
 31
0.0
  0
LINE
  8
0
 10
44.82893
 20
-87.052228
 30
0.0
 11
44.70387
 21
-86.944352
 31
0.0
  0
LINE
  8
0
 10
44.964491
 20
-87.146261
 30
0.0
 11
44.82893
 21
-87.052228
 31
0.0
  0
LINE
  8
0
 10
45.107211
 20
-87.233612
 30
0.0
 11
44.964491
 21
-87.146261
 31
0.0
  0
LINE
  8
0
 10
45.253751
 20
-87.306643
 30
0.0
 11
45.107211
 21
-87.233612
 31
0.0
  0
LINE
  8
0
 10
45.410314
 20
-87.365831
 30
0.0
 11
45.253751
 21
-87.306643
 31
0.0
  0
LINE
  8
0
 10
45.566877
 20
-87.4107
 30
0.0
 11
45.410314
 21
-87.365831
 31
0.0
  0
LINE
  8
0
 10
45.730123
 20
-87.445545
 30
0.0
 11
45.566877
 21
-87.4107
 31
0.0
  0
LINE
  8
0
 10
45.893846
 20
-87.466547
 30
0.0
 11
45.730123
 21
-87.445545
 31
0.0
  0
LINE
  8
0
 10
46.057569
 20
-87.473707
 30
0.0
 11
45.893846
 21
-87.466547
 31
0.0
  0
LINE
  8
0
 10
45.893846
 20
-87.466547
 30
0.0
 11
46.057569
 21
-87.473707
 31
0.0
  0
LINE
  8
0
 10
45.730123
 20
-87.445545
 30
0.0
 11
45.893846
 21
-87.466547
 31
0.0
  0
LINE
  8
0
 10
45.566877
 20
-87.4107
 30
0.0
 11
45.730123
 21
-87.445545
 31
0.0
  0
LINE
  8
0
 10
45.410314
 20
-87.365831
 30
0.0
 11
45.566877
 21
-87.4107
 31
0.0
  0
LINE
  8
0
 10
45.253751
 20
-87.306643
 30
0.0
 11
45.410314
 21
-87.365831
 31
0.0
  0
LINE
  8
0
 10
45.107211
 20
-87.233612
 30
0.0
 11
45.253751
 21
-87.306643
 31
0.0
  0
LINE
  8
0
 10
44.964491
 20
-87.146261
 30
0.0
 11
45.107211
 21
-87.233612
 31
0.0
  0
LINE
  8
0
 10
44.82893
 20
-87.052228
 30
0.0
 11
44.964491
 21
-87.146261
 31
0.0
  0
LINE
  8
0
 10
44.70387
 20
-86.944352
 30
0.0
 11
44.82893
 21
-87.052228
 31
0.0
  0
LINE
  8
0
 10
44.588834
 20
-86.829793
 30
0.0
 11
44.70387
 21
-86.944352
 31
0.0
  0
LINE
  8
0
 10
44.480958
 20
-86.700915
 30
0.0
 11
44.588834
 21
-86.829793
 31
0.0
  0
LINE
  8
0
 10
44.383584
 20
-86.568695
 30
0.0
 11
44.480958
 21
-86.700915
 31
0.0
  0
LINE
  8
0
 10
44.300052
 20
-86.425975
 30
0.0
 11
44.383584
 21
-86.568695
 31
0.0
  0
LINE
  8
0
 10
44.22702
 20
-86.276571
 30
0.0
 11
44.300052
 21
-86.425975
 31
0.0
  0
LINE
  8
0
 10
44.167832
 20
-86.123349
 30
0.0
 11
44.22702
 21
-86.276571
 31
0.0
  0
LINE
  8
0
 10
44.119145
 20
-85.962967
 30
0.0
 11
44.167832
 21
-86.123349
 31
0.0
  0
LINE
  8
0
 10
44.0843
 20
-85.803063
 30
0.0
 11
44.119145
 21
-85.962967
 31
0.0
  0
LINE
  8
0
 10
44.066639
 20
-85.63934
 30
0.0
 11
44.0843
 21
-85.803063
 31
0.0
  0
LINE
  8
0
 10
44.059956
 20
-85.472275
 30
0.0
 11
44.066639
 21
-85.63934
 31
0.0
  0
LINE
  8
0
 10
79.28239
 20
-75.672275
 30
0.0
 11
76.581674
 21
-75.672275
 31
0.0
  0
LINE
  8
0
 10
79.28239
 20
-79.772037
 30
0.0
 11
79.28239
 21
-75.672275
 31
0.0
  0
LINE
  8
0
 10
76.581674
 20
-79.772037
 30
0.0
 11
79.28239
 21
-79.772037
 31
0.0
  0
LINE
  8
0
 10
76.581674
 20
-75.672275
 30
0.0
 11
76.581674
 21
-79.772037
 31
0.0
  0
LINE
  8
0
 10
76.581674
 20
10.725338
 30
0.0
 11
76.581674
 21
14.827963
 31
0.0
  0
LINE
  8
0
 10
79.28239
 20
10.725338
 30
0.0
 11
76.581674
 21
10.725338
 31
0.0
  0
LINE
  8
0
 10
79.28239
 20
14.827963
 30
0.0
 11
79.28239
 21
10.725338
 31
0.0
  0
LINE
  8
0
 10
76.581674
 20
14.827963
 30
0.0
 11
79.28239
 21
14.827963
 31
0.0
  0
LINE
  8
0
 10
44.059956
 20
20.525338
 30
0.0
 11
44.059956
 21
42.526293
 31
0.0
  0
LINE
  8
0
 10
44.059956
 20
-85.857074
 30
0.0
 11
44.059956
 21
-107.473707
 31
0.0
  0
TEXT
  8
0
 62
     2
 10
46.259479
 20
12.814864
 30
0.0
 40
10.10358
  1
 
 50
180.0
 41
0.192496
  0
LINE
  8
0
 10
24.059956
 20
38.202092
 30
0.0
 11
28.384157
 21
42.526293
 31
0.0
  0
LINE
  8
0
 10
24.059956
 20
31.131024
 30
0.0
 11
35.455225
 21
42.526293
 31
0.0
  0
LINE
  8
0
 10
24.059956
 20
24.059956
 30
0.0
 11
42.526293
 21
42.526293
 31
0.0
  0
LINE
  8
0
 10
24.059956
 20
16.988888
 30
0.0
 11
44.059956
 21
36.988888
 31
0.0
  0
LINE
  8
0
 10
24.059956
 20
9.91782
 30
0.0
 11
44.059956
 21
29.91782
 31
0.0
  0
LINE
  8
0
 10
24.059956
 20
2.846753
 30
0.0
 11
44.059956
 21
22.846753
 31
0.0
  0
LINE
  8
0
 10
24.059956
 20
-4.224315
 30
0.0
 11
44.059956
 21
15.775685
 31
0.0
  0
LINE
  8
0
 10
24.059956
 20
-11.295383
 30
0.0
 11
44.059956
 21
8.704617
 31
0.0
  0
LINE
  8
0
 10
24.059956
 20
-18.366451
 30
0.0
 11
44.059956
 21
1.633549
 31
0.0
  0
LINE
  8
0
 10
24.059956
 20
-25.437519
 30
0.0
 11
44.059956
 21
-5.437519
 31
0.0
  0
LINE
  8
0
 10
24.059956
 20
-32.508586
 30
0.0
 11
44.059956
 21
-12.508586
 31
0.0
  0
LINE
  8
0
 10
24.059956
 20
-39.579654
 30
0.0
 11
44.059956
 21
-19.579654
 31
0.0
  0
LINE
  8
0
 10
24.059956
 20
-46.650722
 30
0.0
 11
44.059956
 21
-26.650722
 31
0.0
  0
LINE
  8
0
 10
24.059956
 20
-53.72179
 30
0.0
 11
44.059956
 21
-33.72179
 31
0.0
  0
LINE
  8
0
 10
24.059956
 20
-60.792858
 30
0.0
 11
44.059956
 21
-40.792858
 31
0.0
  0
LINE
  8
0
 10
24.059956
 20
-67.863926
 30
0.0
 11
44.059956
 21
-47.863926
 31
0.0
  0
LINE
  8
0
 10
24.059956
 20
-74.934993
 30
0.0
 11
44.059956
 21
-54.934993
 31
0.0
  0
LINE
  8
0
 10
24.059956
 20
-82.006061
 30
0.0
 11
44.059956
 21
-62.006061
 31
0.0
  0
LINE
  8
0
 10
24.059956
 20
-89.077129
 30
0.0
 11
44.059956
 21
-69.077129
 31
0.0
  0
LINE
  8
0
 10
24.059956
 20
-96.148197
 30
0.0
 11
44.059956
 21
-76.148197
 31
0.0
  0
LINE
  8
0
 10
24.059956
 20
-103.219265
 30
0.0
 11
44.059956
 21
-83.219265
 31
0.0
  0
LINE
  8
0
 10
26.876581
 20
-107.473707
 30
0.0
 11
44.059956
 21
-90.290332
 31
0.0
  0
LINE
  8
0
 10
33.947649
 20
-107.473707
 30
0.0
 11
44.059956
 21
-97.3614
 31
0.0
  0
LINE
  8
0
 10
41.018717
 20
-107.473707
 30
0.0
 11
44.059956
 21
-104.432468
 31
0.0
  0
LINE
  8
0
 10
76.696233
 20
-84.376333
 30
0.0
 11
76.75924
 21
-84.473707
 31
0.0
  0
LINE
  8
0
 10
76.75924
 20
-84.473707
 30
0.0
 11
77.51103
 21
-85.775378
 31
0.0
  0
LINE
  8
0
 10
76.623202
 20
-84.289459
 30
0.0
 11
76.696233
 21
-84.376333
 31
0.0
  0
LINE
  8
0
 10
76.53967
 20
-84.209268
 30
0.0
 11
76.623202
 21
-84.289459
 31
0.0
  0
LINE
  8
0
 10
76.449455
 20
-84.14292
 30
0.0
 11
76.53967
 21
-84.209268
 31
0.0
  0
LINE
  8
0
 10
76.348262
 20
-84.083731
 30
0.0
 11
76.449455
 21
-84.14292
 31
0.0
  0
LINE
  8
0
 10
76.244204
 20
-84.038862
 30
0.0
 11
76.348262
 21
-84.083731
 31
0.0
  0
LINE
  8
0
 10
76.136328
 20
-84.004018
 30
0.0
 11
76.244204
 21
-84.038862
 31
0.0
  0
LINE
  8
0
 10
76.021293
 20
-83.983015
 30
0.0
 11
76.136328
 21
-84.004018
 31
0.0
  0
LINE
  8
0
 10
75.906257
 20
-83.972514
 30
0.0
 11
76.021293
 21
-83.983015
 31
0.0
  0
LINE
  8
0
 10
75.791698
 20
-83.979674
 30
0.0
 11
75.906257
 21
-83.972514
 31
0.0
  0
LINE
  8
0
 10
75.680481
 20
-83.996858
 30
0.0
 11
75.791698
 21
-83.979674
 31
0.0
  0
LINE
  8
0
 10
75.568787
 20
-84.028361
 30
0.0
 11
75.680481
 21
-83.996858
 31
0.0
  0
LINE
  8
0
 10
75.464729
 20
-84.069889
 30
0.0
 11
75.568787
 21
-84.028361
 31
0.0
  0
LINE
  8
0
 10
75.363536
 20
-84.125736
 30
0.0
 11
75.464729
 21
-84.069889
 31
0.0
  0
LINE
  8
0
 10
75.269503
 20
-84.191607
 30
0.0
 11
75.363536
 21
-84.125736
 31
0.0
  0
LINE
  8
0
 10
75.182629
 20
-84.268457
 30
0.0
 11
75.269503
 21
-84.191607
 31
0.0
  0
LINE
  8
0
 10
75.106257
 20
-84.35533
 30
0.0
 11
75.182629
 21
-84.268457
 31
0.0
  0
LINE
  8
0
 10
75.04325
 20
-84.449364
 30
0.0
 11
75.106257
 21
-84.35533
 31
0.0
  0
LINE
  8
0
 10
74.98788
 20
-84.55008
 30
0.0
 11
75.04325
 21
-84.449364
 31
0.0
  0
LINE
  8
0
 10
74.556376
 20
-85.472275
 30
0.0
 11
74.98788
 21
-84.55008
 31
0.0
  0
LINE
  8
0
 10
74.563059
 20
-85.63934
 30
0.0
 11
74.556376
 21
-85.472275
 31
0.0
  0
LINE
  8
0
 10
74.584061
 20
-85.803063
 30
0.0
 11
74.563059
 21
-85.63934
 31
0.0
  0
LINE
  8
0
 10
74.618906
 20
-85.962967
 30
0.0
 11
74.584061
 21
-85.803063
 31
0.0
  0
LINE
  8
0
 10
74.664252
 20
-86.123349
 30
0.0
 11
74.618906
 21
-85.962967
 31
0.0
  0
LINE
  8
0
 10
74.726782
 20
-86.276571
 30
0.0
 11
74.664252
 21
-86.123349
 31
0.0
  0
LINE
  8
0
 10
74.799813
 20
-86.425975
 30
0.0
 11
74.726782
 21
-86.276571
 31
0.0
  0
LINE
  8
0
 10
74.883345
 20
-86.568695
 30
0.0
 11
74.799813
 21
-86.425975
 31
0.0
  0
LINE
  8
0
 10
74.977378
 20
-86.700915
 30
0.0
 11
74.883345
 21
-86.568695
 31
0.0
  0
LINE
  8
0
 10
75.085254
 20
-86.829793
 30
0.0
 11
74.977378
 21
-86.700915
 31
0.0
  0
LINE
  8
0
 10
75.203631
 20
-86.944352
 30
0.0
 11
75.085254
 21
-86.829793
 31
0.0
  0
LINE
  8
0
 10
75.328691
 20
-87.052228
 30
0.0
 11
75.203631
 21
-86.944352
 31
0.0
  0
LINE
  8
0
 10
75.464729
 20
-87.146261
 30
0.0
 11
75.328691
 21
-87.052228
 31
0.0
  0
LINE
  8
0
 10
75.603631
 20
-87.233612
 30
0.0
 11
75.464729
 21
-87.146261
 31
0.0
  0
LINE
  8
0
 10
75.753512
 20
-87.306643
 30
0.0
 11
75.603631
 21
-87.233612
 31
0.0
  0
LINE
  8
0
 10
75.906257
 20
-87.365831
 30
0.0
 11
75.753512
 21
-87.306643
 31
0.0
  0
LINE
  8
0
 10
76.066639
 20
-87.4107
 30
0.0
 11
75.906257
 21
-87.365831
 31
0.0
  0
LINE
  8
0
 10
76.226543
 20
-87.445545
 30
0.0
 11
76.066639
 21
-87.4107
 31
0.0
  0
LINE
  8
0
 10
76.393608
 20
-87.466547
 30
0.0
 11
76.226543
 21
-87.445545
 31
0.0
  0
LINE
  8
0
 10
76.557331
 20
-87.473707
 30
0.0
 11
76.393608
 21
-87.466547
 31
0.0
  0
LINE
  8
0
 10
82.05566
 20
-87.473707
 30
0.0
 11
76.557331
 21
-87.473707
 31
0.0
  0
LINE
  8
0
 10
77.51103
 20
-85.775378
 30
0.0
 11
81.157808
 21
-85.775378
 31
0.0
  0
LINE
  8
0
 10
82.351603
 20
-84.69996
 30
0.0
 11
82.354944
 21
-84.574423
 31
0.0
  0
LINE
  8
0
 10
82.3306
 20
-84.821679
 30
0.0
 11
82.351603
 21
-84.69996
 31
0.0
  0
LINE
  8
0
 10
82.299574
 20
-84.943397
 30
0.0
 11
82.3306
 21
-84.821679
 31
0.0
  0
LINE
  8
0
 10
82.254228
 20
-85.061774
 30
0.0
 11
82.299574
 21
-84.943397
 31
0.0
  0
LINE
  8
0
 10
82.19504
 20
-85.172991
 30
0.0
 11
82.254228
 21
-85.061774
 31
0.0
  0
LINE
  8
0
 10
82.128691
 20
-85.277526
 30
0.0
 11
82.19504
 21
-85.172991
 31
0.0
  0
LINE
  8
0
 10
82.048978
 20
-85.374901
 30
0.0
 11
82.128691
 21
-85.277526
 31
0.0
  0
LINE
  8
0
 10
81.958285
 20
-85.465593
 30
0.0
 11
82.048978
 21
-85.374901
 31
0.0
  0
LINE
  8
0
 10
81.860911
 20
-85.545784
 30
0.0
 11
81.958285
 21
-85.465593
 31
0.0
  0
LINE
  8
0
 10
81.756376
 20
-85.611655
 30
0.0
 11
81.860911
 21
-85.545784
 31
0.0
  0
LINE
  8
0
 10
81.645159
 20
-85.670843
 30
0.0
 11
81.756376
 21
-85.611655
 31
0.0
  0
LINE
  8
0
 10
81.526782
 20
-85.716189
 30
0.0
 11
81.645159
 21
-85.670843
 31
0.0
  0
LINE
  8
0
 10
81.405063
 20
-85.747216
 30
0.0
 11
81.526782
 21
-85.716189
 31
0.0
  0
LINE
  8
0
 10
81.283345
 20
-85.768218
 30
0.0
 11
81.405063
 21
-85.747216
 31
0.0
  0
LINE
  8
0
 10
81.157808
 20
-85.775378
 30
0.0
 11
81.283345
 21
-85.768218
 31
0.0
  0
LINE
  8
0
 10
82.222725
 20
-87.466547
 30
0.0
 11
82.05566
 21
-87.473707
 31
0.0
  0
LINE
  8
0
 10
82.386448
 20
-87.445545
 30
0.0
 11
82.222725
 21
-87.466547
 31
0.0
  0
LINE
  8
0
 10
82.546352
 20
-87.4107
 30
0.0
 11
82.386448
 21
-87.445545
 31
0.0
  0
LINE
  8
0
 10
82.706734
 20
-87.365831
 30
0.0
 11
82.546352
 21
-87.4107
 31
0.0
  0
LINE
  8
0
 10
82.859956
 20
-87.306643
 30
0.0
 11
82.706734
 21
-87.365831
 31
0.0
  0
LINE
  8
0
 10
83.009359
 20
-87.233612
 30
0.0
 11
82.859956
 21
-87.306643
 31
0.0
  0
LINE
  8
0
 10
83.15208
 20
-87.146261
 30
0.0
 11
83.009359
 21
-87.233612
 31
0.0
  0
LINE
  8
0
 10
83.2843
 20
-87.052228
 30
0.0
 11
83.15208
 21
-87.146261
 31
0.0
  0
LINE
  8
0
 10
83.413178
 20
-86.944352
 30
0.0
 11
83.2843
 21
-87.052228
 31
0.0
  0
LINE
  8
0
 10
83.527736
 20
-86.829793
 30
0.0
 11
83.413178
 21
-86.944352
 31
0.0
  0
LINE
  8
0
 10
83.635612
 20
-86.700915
 30
0.0
 11
83.527736
 21
-86.829793
 31
0.0
  0
LINE
  8
0
 10
83.729646
 20
-86.568695
 30
0.0
 11
83.635612
 21
-86.700915
 31
0.0
  0
LINE
  8
0
 10
83.816997
 20
-86.425975
 30
0.0
 11
83.729646
 21
-86.568695
 31
0.0
  0
LINE
  8
0
 10
83.890028
 20
-86.276571
 30
0.0
 11
83.816997
 21
-86.425975
 31
0.0
  0
LINE
  8
0
 10
83.949216
 20
-86.123349
 30
0.0
 11
83.890028
 21
-86.276571
 31
0.0
  0
LINE
  8
0
 10
83.994085
 20
-85.962967
 30
0.0
 11
83.949216
 21
-86.123349
 31
0.0
  0
LINE
  8
0
 10
84.02893
 20
-85.803063
 30
0.0
 11
83.994085
 21
-85.962967
 31
0.0
  0
LINE
  8
0
 10
84.049932
 20
-85.63934
 30
0.0
 11
84.02893
 21
-85.803063
 31
0.0
  0
LINE
  8
0
 10
84.057092
 20
-85.472275
 30
0.0
 11
84.049932
 21
-85.63934
 31
0.0
  0
LINE
  8
0
 10
84.057092
 20
20.525338
 30
0.0
 11
84.057092
 21
-85.472275
 31
0.0
  0
LINE
  8
0
 10
82.354944
 20
-84.574423
 30
0.0
 11
82.354944
 21
19.627486
 31
0.0
  0
LINE
  8
0
 10
82.128691
 20
20.330111
 30
0.0
 11
82.048978
 21
20.427963
 31
0.0
  0
LINE
  8
0
 10
82.19504
 20
20.226054
 30
0.0
 11
82.128691
 21
20.330111
 31
0.0
  0
LINE
  8
0
 10
82.254228
 20
20.114359
 30
0.0
 11
82.19504
 21
20.226054
 31
0.0
  0
LINE
  8
0
 10
82.299574
 20
19.995982
 30
0.0
 11
82.254228
 21
20.114359
 31
0.0
  0
LINE
  8
0
 10
82.3306
 20
19.874264
 30
0.0
 11
82.299574
 21
19.995982
 31
0.0
  0
LINE
  8
0
 10
82.351603
 20
19.752546
 30
0.0
 11
82.3306
 21
19.874264
 31
0.0
  0
LINE
  8
0
 10
82.354944
 20
19.627486
 30
0.0
 11
82.351603
 21
19.752546
 31
0.0
  0
LINE
  8
0
 10
81.283345
 20
20.820803
 30
0.0
 11
81.157808
 21
20.827963
 31
0.0
  0
LINE
  8
0
 10
81.405063
 20
20.800278
 30
0.0
 11
81.283345
 21
20.820803
 31
0.0
  0
LINE
  8
0
 10
81.526782
 20
20.768775
 30
0.0
 11
81.405063
 21
20.800278
 31
0.0
  0
LINE
  8
0
 10
81.645159
 20
20.723429
 30
0.0
 11
81.526782
 21
20.768775
 31
0.0
  0
LINE
  8
0
 10
81.756376
 20
20.66424
 30
0.0
 11
81.645159
 21
20.723429
 31
0.0
  0
LINE
  8
0
 10
81.860911
 20
20.598369
 30
0.0
 11
81.756376
 21
20.66424
 31
0.0
  0
LINE
  8
0
 10
81.958285
 20
20.518178
 30
0.0
 11
81.860911
 21
20.598369
 31
0.0
  0
LINE
  8
0
 10
82.048978
 20
20.427963
 30
0.0
 11
81.958285
 21
20.518178
 31
0.0
  0
LINE
  8
0
 10
82.222725
 20
22.519133
 30
0.0
 11
82.05566
 21
22.526293
 31
0.0
  0
LINE
  8
0
 10
82.386448
 20
22.498608
 30
0.0
 11
82.222725
 21
22.519133
 31
0.0
  0
LINE
  8
0
 10
82.546352
 20
22.463763
 30
0.0
 11
82.386448
 21
22.498608
 31
0.0
  0
LINE
  8
0
 10
82.706734
 20
22.418417
 30
0.0
 11
82.546352
 21
22.463763
 31
0.0
  0
LINE
  8
0
 10
82.859956
 20
22.359228
 30
0.0
 11
82.706734
 21
22.418417
 31
0.0
  0
LINE
  8
0
 10
83.009359
 20
22.286197
 30
0.0
 11
82.859956
 21
22.359228
 31
0.0
  0
LINE
  8
0
 10
83.15208
 20
22.199324
 30
0.0
 11
83.009359
 21
22.286197
 31
0.0
  0
LINE
  8
0
 10
83.2843
 20
22.10529
 30
0.0
 11
83.15208
 21
22.199324
 31
0.0
  0
LINE
  8
0
 10
83.413178
 20
21.997414
 30
0.0
 11
83.2843
 21
22.10529
 31
0.0
  0
LINE
  8
0
 10
83.527736
 20
21.882379
 30
0.0
 11
83.413178
 21
21.997414
 31
0.0
  0
LINE
  8
0
 10
83.635612
 20
21.7535
 30
0.0
 11
83.527736
 21
21.882379
 31
0.0
  0
LINE
  8
0
 10
83.729646
 20
21.621281
 30
0.0
 11
83.635612
 21
21.7535
 31
0.0
  0
LINE
  8
0
 10
83.816997
 20
21.47856
 30
0.0
 11
83.729646
 21
21.621281
 31
0.0
  0
LINE
  8
0
 10
83.890028
 20
21.329157
 30
0.0
 11
83.816997
 21
21.47856
 31
0.0
  0
LINE
  8
0
 10
83.949216
 20
21.175935
 30
0.0
 11
83.890028
 21
21.329157
 31
0.0
  0
LINE
  8
0
 10
83.994085
 20
21.01603
 30
0.0
 11
83.949216
 21
21.175935
 31
0.0
  0
LINE
  8
0
 10
84.02893
 20
20.855648
 30
0.0
 11
83.994085
 21
21.01603
 31
0.0
  0
LINE
  8
0
 10
84.049932
 20
20.692402
 30
0.0
 11
84.02893
 21
20.855648
 31
0.0
  0
LINE
  8
0
 10
84.057092
 20
20.525338
 30
0.0
 11
84.049932
 21
20.692402
 31
0.0
  0
LINE
  8
0
 10
81.157808
 20
20.827963
 30
0.0
 11
77.51103
 21
20.827963
 31
0.0
  0
LINE
  8
0
 10
75.04325
 20
19.501949
 30
0.0
 11
74.98788
 21
19.603142
 31
0.0
  0
LINE
  8
0
 10
75.106257
 20
19.407916
 30
0.0
 11
75.04325
 21
19.501949
 31
0.0
  0
LINE
  8
0
 10
75.182629
 20
19.321042
 30
0.0
 11
75.106257
 21
19.407916
 31
0.0
  0
LINE
  8
0
 10
75.269503
 20
19.24467
 30
0.0
 11
75.182629
 21
19.321042
 31
0.0
  0
LINE
  8
0
 10
75.363536
 20
19.178321
 30
0.0
 11
75.269503
 21
19.24467
 31
0.0
  0
LINE
  8
0
 10
75.464729
 20
19.122474
 30
0.0
 11
75.363536
 21
19.178321
 31
0.0
  0
LINE
  8
0
 10
75.568787
 20
19.080947
 30
0.0
 11
75.464729
 21
19.122474
 31
0.0
  0
LINE
  8
0
 10
75.680481
 20
19.049443
 30
0.0
 11
75.568787
 21
19.080947
 31
0.0
  0
LINE
  8
0
 10
75.791698
 20
19.032259
 30
0.0
 11
75.680481
 21
19.049443
 31
0.0
  0
LINE
  8
0
 10
75.906257
 20
19.025099
 30
0.0
 11
75.791698
 21
19.032259
 31
0.0
  0
LINE
  8
0
 10
76.021293
 20
19.035601
 30
0.0
 11
75.906257
 21
19.025099
 31
0.0
  0
LINE
  8
0
 10
76.348262
 20
19.136794
 30
0.0
 11
76.244204
 21
19.091448
 31
0.0
  0
LINE
  8
0
 10
76.449455
 20
19.195982
 30
0.0
 11
76.348262
 21
19.136794
 31
0.0
  0
LINE
  8
0
 10
76.53967
 20
19.261854
 30
0.0
 11
76.449455
 21
19.195982
 31
0.0
  0
LINE
  8
0
 10
74.563059
 20
20.692402
 30
0.0
 11
74.556376
 21
20.525338
 31
0.0
  0
LINE
  8
0
 10
74.584061
 20
20.855648
 30
0.0
 11
74.563059
 21
20.692402
 31
0.0
  0
LINE
  8
0
 10
74.726782
 20
21.329157
 30
0.0
 11
74.664252
 21
21.175935
 31
0.0
  0
LINE
  8
0
 10
74.799813
 20
21.47856
 30
0.0
 11
74.726782
 21
21.329157
 31
0.0
  0
LINE
  8
0
 10
74.883345
 20
21.621281
 30
0.0
 11
74.799813
 21
21.47856
 31
0.0
  0
LINE
  8
0
 10
75.203631
 20
21.997414
 30
0.0
 11
75.085254
 21
21.882379
 31
0.0
  0
LINE
  8
0
 10
75.464729
 20
22.199324
 30
0.0
 11
75.328691
 21
22.10529
 31
0.0
  0
LINE
  8
0
 10
75.603631
 20
22.286197
 30
0.0
 11
75.464729
 21
22.199324
 31
0.0
  0
LINE
  8
0
 10
75.753512
 20
22.359228
 30
0.0
 11
75.603631
 21
22.286197
 31
0.0
  0
LINE
  8
0
 10
76.226543
 20
22.498608
 30
0.0
 11
76.066639
 21
22.463763
 31
0.0
  0
LINE
  8
0
 10
76.393608
 20
22.519133
 30
0.0
 11
76.226543
 21
22.498608
 31
0.0
  0
LINE
  8
0
 10
75.328691
 20
22.10529
 30
0.0
 11
75.203631
 21
21.997414
 31
0.0
  0
LINE
  8
0
 10
74.556376
 20
20.525338
 30
0.0
 11
74.98788
 21
19.603142
 31
0.0
  0
LINE
  8
0
 10
74.618906
 20
21.01603
 30
0.0
 11
74.584061
 21
20.855648
 31
0.0
  0
LINE
  8
0
 10
74.664252
 20
21.175935
 30
0.0
 11
74.618906
 21
21.01603
 31
0.0
  0
LINE
  8
0
 10
74.977378
 20
21.7535
 30
0.0
 11
74.883345
 21
21.621281
 31
0.0
  0
LINE
  8
0
 10
75.085254
 20
21.882379
 30
0.0
 11
74.977378
 21
21.7535
 31
0.0
  0
LINE
  8
0
 10
75.906257
 20
22.418417
 30
0.0
 11
75.753512
 21
22.359228
 31
0.0
  0
LINE
  8
0
 10
76.066639
 20
22.463763
 30
0.0
 11
75.906257
 21
22.418417
 31
0.0
  0
LINE
  8
0
 10
76.557331
 20
22.526293
 30
0.0
 11
76.393608
 21
22.519133
 31
0.0
  0
LINE
  8
0
 10
82.05566
 20
22.526293
 30
0.0
 11
76.557331
 21
22.526293
 31
0.0
  0
LINE
  8
0
 10
76.75924
 20
19.526293
 30
0.0
 11
76.696233
 21
19.428918
 31
0.0
  0
LINE
  8
0
 10
77.51103
 20
20.827963
 30
0.0
 11
76.75924
 21
19.526293
 31
0.0
  0
LINE
  8
0
 10
76.136328
 20
19.056603
 30
0.0
 11
76.021293
 21
19.035601
 31
0.0
  0
LINE
  8
0
 10
76.244204
 20
19.091448
 30
0.0
 11
76.136328
 21
19.056603
 31
0.0
  0
LINE
  8
0
 10
76.623202
 20
19.342044
 30
0.0
 11
76.53967
 21
19.261854
 31
0.0
  0
LINE
  8
0
 10
76.696233
 20
19.428918
 30
0.0
 11
76.623202
 21
19.342044
 31
0.0
  0
LINE
  8
0
 10
81.6485
 20
13.905768
 30
0.0
 11
81.564968
 21
13.979276
 31
0.0
  0
LINE
  8
0
 10
81.728691
 20
13.826054
 30
0.0
 11
81.6485
 21
13.905768
 31
0.0
  0
LINE
  8
0
 10
81.262343
 20
14.132021
 30
0.0
 11
81.151125
 21
14.156364
 31
0.0
  0
LINE
  8
0
 10
81.366877
 20
14.093834
 30
0.0
 11
81.262343
 21
14.132021
 31
0.0
  0
LINE
  8
0
 10
81.467593
 20
14.041806
 30
0.0
 11
81.366877
 21
14.093834
 31
0.0
  0
LINE
  8
0
 10
81.564968
 20
13.979276
 30
0.0
 11
81.467593
 21
14.041806
 31
0.0
  0
LINE
  8
0
 10
81.79504
 20
13.735362
 30
0.0
 11
81.728691
 21
13.826054
 31
0.0
  0
LINE
  8
0
 10
81.853751
 20
13.637987
 30
0.0
 11
81.79504
 21
13.735362
 31
0.0
  0
LINE
  8
0
 10
81.899097
 20
13.533453
 30
0.0
 11
81.853751
 21
13.637987
 31
0.0
  0
LINE
  8
0
 10
81.9306
 20
13.425577
 30
0.0
 11
81.899097
 21
13.533453
 31
0.0
  0
LINE
  8
0
 10
81.951603
 20
13.314359
 30
0.0
 11
81.9306
 21
13.425577
 31
0.0
  0
LINE
  8
0
 10
81.958285
 20
13.199324
 30
0.0
 11
81.951603
 21
13.314359
 31
0.0
  0
LINE
  8
0
 10
80.844682
 20
12.781663
 30
0.0
 11
80.851841
 21
12.726293
 31
0.0
  0
LINE
  8
0
 10
80.823679
 20
12.830827
 30
0.0
 11
80.844682
 21
12.781663
 31
0.0
  0
LINE
  8
0
 10
80.789312
 20
12.872355
 30
0.0
 11
80.823679
 21
12.830827
 31
0.0
  0
LINE
  8
0
 10
80.743966
 20
12.903858
 30
0.0
 11
80.789312
 21
12.872355
 31
0.0
  0
LINE
  8
0
 10
80.69146
 20
12.917701
 30
0.0
 11
80.743966
 21
12.903858
 31
0.0
  0
LINE
  8
0
 10
80.69146
 20
12.917701
 30
0.0
 11
78.59313
 21
13.290016
 31
0.0
  0
LINE
  8
0
 10
78.614133
 20
13.286675
 30
0.0
 11
78.708166
 21
13.279515
 31
0.0
  0
LINE
  8
0
 10
78.523441
 20
13.303858
 30
0.0
 11
78.614133
 21
13.286675
 31
0.0
  0
LINE
  8
0
 10
78.436567
 20
13.338703
 30
0.0
 11
78.523441
 21
13.303858
 31
0.0
  0
LINE
  8
0
 10
78.356376
 20
13.380231
 30
0.0
 11
78.436567
 21
13.338703
 31
0.0
  0
LINE
  8
0
 10
78.280004
 20
13.436078
 30
0.0
 11
78.356376
 21
13.380231
 31
0.0
  0
LINE
  8
0
 10
78.217474
 20
13.502426
 30
0.0
 11
78.280004
 21
13.436078
 31
0.0
  0
LINE
  8
0
 10
78.161627
 20
13.578799
 30
0.0
 11
78.217474
 21
13.502426
 31
0.0
  0
LINE
  8
0
 10
78.116281
 20
13.65899
 30
0.0
 11
78.161627
 21
13.578799
 31
0.0
  0
LINE
  8
0
 10
78.084777
 20
13.745863
 30
0.0
 11
78.116281
 21
13.65899
 31
0.0
  0
LINE
  8
0
 10
78.064252
 20
13.836555
 30
0.0
 11
78.084777
 21
13.745863
 31
0.0
  0
LINE
  8
0
 10
78.057092
 20
13.930111
 30
0.0
 11
78.064252
 21
13.836555
 31
0.0
  0
LINE
  8
0
 10
78.064252
 20
14.020803
 30
0.0
 11
78.057092
 21
13.930111
 31
0.0
  0
LINE
  8
0
 10
78.084777
 20
14.111496
 30
0.0
 11
78.064252
 21
14.020803
 31
0.0
  0
LINE
  8
0
 10
78.116281
 20
14.198369
 30
0.0
 11
78.084777
 21
14.111496
 31
0.0
  0
LINE
  8
0
 10
78.161627
 20
14.281901
 30
0.0
 11
78.116281
 21
14.198369
 31
0.0
  0
LINE
  8
0
 10
78.217474
 20
14.354932
 30
0.0
 11
78.161627
 21
14.281901
 31
0.0
  0
LINE
  8
0
 10
78.280004
 20
14.420803
 30
0.0
 11
78.217474
 21
14.354932
 31
0.0
  0
LINE
  8
0
 10
78.356376
 20
14.476651
 30
0.0
 11
78.280004
 21
14.420803
 31
0.0
  0
LINE
  8
0
 10
78.436567
 20
14.521997
 30
0.0
 11
78.356376
 21
14.476651
 31
0.0
  0
LINE
  8
0
 10
78.523441
 20
14.553023
 30
0.0
 11
78.436567
 21
14.521997
 31
0.0
  0
LINE
  8
0
 10
78.614133
 20
14.570684
 30
0.0
 11
78.523441
 21
14.553023
 31
0.0
  0
LINE
  8
0
 10
78.708166
 20
14.577844
 30
0.0
 11
78.614133
 21
14.570684
 31
0.0
  0
LINE
  8
0
 10
78.798381
 20
14.570684
 30
0.0
 11
78.708166
 21
14.577844
 31
0.0
  0
LINE
  8
0
 10
78.889073
 20
14.553023
 30
0.0
 11
78.798381
 21
14.570684
 31
0.0
  0
LINE
  8
0
 10
78.975946
 20
14.521997
 30
0.0
 11
78.889073
 21
14.553023
 31
0.0
  0
LINE
  8
0
 10
79.059479
 20
14.476651
 30
0.0
 11
78.975946
 21
14.521997
 31
0.0
  0
LINE
  8
0
 10
79.13251
 20
14.420803
 30
0.0
 11
79.059479
 21
14.476651
 31
0.0
  0
LINE
  8
0
 10
79.198858
 20
14.354932
 30
0.0
 11
79.13251
 21
14.420803
 31
0.0
  0
LINE
  8
0
 10
79.254228
 20
14.281901
 30
0.0
 11
79.198858
 21
14.354932
 31
0.0
  0
LINE
  8
0
 10
79.299574
 20
14.198369
 30
0.0
 11
79.254228
 21
14.281901
 31
0.0
  0
LINE
  8
0
 10
79.331078
 20
14.111496
 30
0.0
 11
79.299574
 21
14.198369
 31
0.0
  0
LINE
  8
0
 10
79.351603
 20
14.020803
 30
0.0
 11
79.331078
 21
14.111496
 31
0.0
  0
LINE
  8
0
 10
79.355421
 20
13.930111
 30
0.0
 11
79.351603
 21
14.020803
 31
0.0
  0
LINE
  8
0
 10
79.351603
 20
13.836555
 30
0.0
 11
79.355421
 21
13.930111
 31
0.0
  0
LINE
  8
0
 10
79.331078
 20
13.745863
 30
0.0
 11
79.351603
 21
13.836555
 31
0.0
  0
LINE
  8
0
 10
79.299574
 20
13.65899
 30
0.0
 11
79.331078
 21
13.745863
 31
0.0
  0
LINE
  8
0
 10
79.254228
 20
13.578799
 30
0.0
 11
79.299574
 21
13.65899
 31
0.0
  0
LINE
  8
0
 10
79.198858
 20
13.502426
 30
0.0
 11
79.254228
 21
13.578799
 31
0.0
  0
LINE
  8
0
 10
79.13251
 20
13.436078
 30
0.0
 11
79.198858
 21
13.502426
 31
0.0
  0
LINE
  8
0
 10
79.059479
 20
13.380231
 30
0.0
 11
79.13251
 21
13.436078
 31
0.0
  0
LINE
  8
0
 10
78.975946
 20
13.338703
 30
0.0
 11
79.059479
 21
13.380231
 31
0.0
  0
LINE
  8
0
 10
78.889073
 20
13.303858
 30
0.0
 11
78.975946
 21
13.338703
 31
0.0
  0
LINE
  8
0
 10
78.798381
 20
13.286675
 30
0.0
 11
78.889073
 21
13.303858
 31
0.0
  0
LINE
  8
0
 10
78.708166
 20
13.279515
 30
0.0
 11
78.798381
 21
13.286675
 31
0.0
  0
LINE
  8
0
 10
78.819383
 20
14.570684
 30
0.0
 11
81.151125
 21
14.156364
 31
0.0
  0
LINE
  8
0
 10
80.851841
 20
12.729634
 30
0.0
 11
80.851841
 21
8.779753
 31
0.0
  0
LINE
  8
0
 10
80.754467
 20
8.609348
 30
0.0
 11
80.709121
 21
8.591686
 31
0.0
  0
LINE
  8
0
 10
80.795994
 20
8.640374
 30
0.0
 11
80.754467
 21
8.609348
 31
0.0
  0
LINE
  8
0
 10
80.827498
 20
8.682379
 30
0.0
 11
80.795994
 21
8.640374
 31
0.0
  0
LINE
  8
0
 10
80.844682
 20
8.727725
 30
0.0
 11
80.827498
 21
8.682379
 31
0.0
  0
LINE
  8
0
 10
80.851841
 20
8.779753
 30
0.0
 11
80.844682
 21
8.727725
 31
0.0
  0
LINE
  8
0
 10
77.207927
 20
0.945863
 30
0.0
 11
77.211746
 21
0.945863
 31
0.0
  0
LINE
  8
0
 10
76.431794
 20
1.721997
 30
0.0
 11
76.431794
 21
1.725338
 31
0.0
  0
LINE
  8
0
 10
76.431794
 20
1.687152
 30
0.0
 11
76.431794
 21
1.697653
 31
0.0
  0
LINE
  8
0
 10
76.435612
 20
1.666149
 30
0.0
 11
76.431794
 21
1.687152
 31
0.0
  0
LINE
  8
0
 10
76.435612
 20
1.641806
 30
0.0
 11
76.435612
 21
1.666149
 31
0.0
  0
LINE
  8
0
 10
76.438954
 20
1.617462
 30
0.0
 11
76.435612
 21
1.641806
 31
0.0
  0
LINE
  8
0
 10
76.442295
 20
1.593118
 30
0.0
 11
76.438954
 21
1.617462
 31
0.0
  0
LINE
  8
0
 10
76.449455
 20
1.565433
 30
0.0
 11
76.442295
 21
1.593118
 31
0.0
  0
LINE
  8
0
 10
76.452796
 20
1.54109
 30
0.0
 11
76.449455
 21
1.565433
 31
0.0
  0
LINE
  8
0
 10
76.459956
 20
1.516746
 30
0.0
 11
76.452796
 21
1.54109
 31
0.0
  0
LINE
  8
0
 10
76.466639
 20
1.492402
 30
0.0
 11
76.459956
 21
1.516746
 31
0.0
  0
LINE
  8
0
 10
76.473799
 20
1.468059
 30
0.0
 11
76.466639
 21
1.492402
 31
0.0
  0
LINE
  8
0
 10
76.4843
 20
1.443715
 30
0.0
 11
76.473799
 21
1.468059
 31
0.0
  0
LINE
  8
0
 10
76.494801
 20
1.419371
 30
0.0
 11
76.4843
 21
1.443715
 31
0.0
  0
LINE
  8
0
 10
76.504825
 20
1.395028
 30
0.0
 11
76.494801
 21
1.419371
 31
0.0
  0
LINE
  8
0
 10
76.515326
 20
1.374025
 30
0.0
 11
76.504825
 21
1.395028
 31
0.0
  0
LINE
  8
0
 10
76.529168
 20
1.349682
 30
0.0
 11
76.515326
 21
1.374025
 31
0.0
  0
LINE
  8
0
 10
76.53967
 20
1.325338
 30
0.0
 11
76.529168
 21
1.349682
 31
0.0
  0
LINE
  8
0
 10
76.553512
 20
1.304336
 30
0.0
 11
76.53967
 21
1.325338
 31
0.0
  0
LINE
  8
0
 10
76.567832
 20
1.283333
 30
0.0
 11
76.553512
 21
1.304336
 31
0.0
  0
LINE
  8
0
 10
76.585016
 20
1.262808
 30
0.0
 11
76.567832
 21
1.283333
 31
0.0
  0
LINE
  8
0
 10
76.598858
 20
1.241806
 30
0.0
 11
76.585016
 21
1.262808
 31
0.0
  0
LINE
  8
0
 10
76.616519
 20
1.220803
 30
0.0
 11
76.598858
 21
1.241806
 31
0.0
  0
LINE
  8
0
 10
76.633703
 20
1.199801
 30
0.0
 11
76.616519
 21
1.220803
 31
0.0
  0
LINE
  8
0
 10
76.651364
 20
1.182617
 30
0.0
 11
76.633703
 21
1.199801
 31
0.0
  0
LINE
  8
0
 10
76.668548
 20
1.165433
 30
0.0
 11
76.651364
 21
1.182617
 31
0.0
  0
LINE
  8
0
 10
76.68955
 20
1.147772
 30
0.0
 11
76.668548
 21
1.165433
 31
0.0
  0
LINE
  8
0
 10
76.706734
 20
1.130589
 30
0.0
 11
76.68955
 21
1.147772
 31
0.0
  0
LINE
  8
0
 10
76.727736
 20
1.112928
 30
0.0
 11
76.706734
 21
1.130589
 31
0.0
  0
LINE
  8
0
 10
76.748739
 20
1.095744
 30
0.0
 11
76.727736
 21
1.112928
 31
0.0
  0
LINE
  8
0
 10
76.769741
 20
1.081901
 30
0.0
 11
76.748739
 21
1.095744
 31
0.0
  0
LINE
  8
0
 10
76.790266
 20
1.067581
 30
0.0
 11
76.769741
 21
1.081901
 31
0.0
  0
LINE
  8
0
 10
76.81461
 20
1.053739
 30
0.0
 11
76.790266
 21
1.067581
 31
0.0
  0
LINE
  8
0
 10
76.835612
 20
1.039896
 30
0.0
 11
76.81461
 21
1.053739
 31
0.0
  0
LINE
  8
0
 10
76.859956
 20
1.029395
 30
0.0
 11
76.835612
 21
1.039896
 31
0.0
  0
LINE
  8
0
 10
76.880958
 20
1.018894
 30
0.0
 11
76.859956
 21
1.029395
 31
0.0
  0
LINE
  8
0
 10
76.905302
 20
1.005052
 30
0.0
 11
76.880958
 21
1.018894
 31
0.0
  0
LINE
  8
0
 10
76.929646
 20
0.998369
 30
0.0
 11
76.905302
 21
1.005052
 31
0.0
  0
LINE
  8
0
 10
76.953989
 20
0.987868
 30
0.0
 11
76.929646
 21
0.998369
 31
0.0
  0
LINE
  8
0
 10
76.978333
 20
0.980708
 30
0.0
 11
76.953989
 21
0.987868
 31
0.0
  0
LINE
  8
0
 10
77.002677
 20
0.974025
 30
0.0
 11
76.978333
 21
0.980708
 31
0.0
  0
LINE
  8
0
 10
77.030362
 20
0.966865
 30
0.0
 11
77.002677
 21
0.974025
 31
0.0
  0
LINE
  8
0
 10
77.054705
 20
0.959706
 30
0.0
 11
77.030362
 21
0.966865
 31
0.0
  0
LINE
  8
0
 10
77.079049
 20
0.956364
 30
0.0
 11
77.054705
 21
0.959706
 31
0.0
  0
LINE
  8
0
 10
77.107211
 20
0.953023
 30
0.0
 11
77.079049
 21
0.956364
 31
0.0
  0
LINE
  8
0
 10
77.131555
 20
0.949682
 30
0.0
 11
77.107211
 21
0.953023
 31
0.0
  0
LINE
  8
0
 10
77.155899
 20
0.945863
 30
0.0
 11
77.131555
 21
0.949682
 31
0.0
  0
LINE
  8
0
 10
77.183584
 20
0.945863
 30
0.0
 11
77.155899
 21
0.945863
 31
0.0
  0
LINE
  8
0
 10
77.207927
 20
0.942522
 30
0.0
 11
77.183584
 21
0.945863
 31
0.0
  0
LINE
  8
0
 10
77.991221
 20
7.860899
 30
0.0
 11
80.709121
 21
8.591686
 31
0.0
  0
LINE
  8
0
 10
77.984061
 20
7.860899
 30
0.0
 11
77.991221
 21
7.860899
 31
0.0
  0
LINE
  8
0
 10
77.963059
 20
7.854216
 30
0.0
 11
77.984061
 21
7.860899
 31
0.0
  0
LINE
  8
0
 10
77.932032
 20
7.847056
 30
0.0
 11
77.963059
 21
7.854216
 31
0.0
  0
LINE
  8
0
 10
77.883345
 20
7.833214
 30
0.0
 11
77.932032
 21
7.847056
 31
0.0
  0
LINE
  8
0
 10
77.824157
 20
7.819371
 30
0.0
 11
77.883345
 21
7.833214
 31
0.0
  0
LINE
  8
0
 10
77.754467
 20
7.798369
 30
0.0
 11
77.824157
 21
7.819371
 31
0.0
  0
LINE
  8
0
 10
77.674276
 20
7.777367
 30
0.0
 11
77.754467
 21
7.798369
 31
0.0
  0
LINE
  8
0
 10
77.587402
 20
7.753023
 30
0.0
 11
77.674276
 21
7.777367
 31
0.0
  0
LINE
  8
0
 10
77.493369
 20
7.728679
 30
0.0
 11
77.587402
 21
7.753023
 31
0.0
  0
LINE
  8
0
 10
77.392653
 20
7.700994
 30
0.0
 11
77.493369
 21
7.728679
 31
0.0
  0
LINE
  8
0
 10
77.215087
 20
7.655648
 30
0.0
 11
77.392653
 21
7.700994
 31
0.0
  0
LINE
  8
0
 10
77.207927
 20
7.652307
 30
0.0
 11
77.215087
 21
7.655648
 31
0.0
  0
LINE
  8
0
 10
76.431794
 20
6.85183
 30
0.0
 11
76.431794
 21
6.848011
 31
0.0
  0
LINE
  8
0
 10
76.431794
 20
6.890016
 30
0.0
 11
76.431794
 21
6.85183
 31
0.0
  0
LINE
  8
0
 10
76.435612
 20
6.911018
 30
0.0
 11
76.431794
 21
6.890016
 31
0.0
  0
LINE
  8
0
 10
76.435612
 20
6.935362
 30
0.0
 11
76.435612
 21
6.911018
 31
0.0
  0
LINE
  8
0
 10
76.438954
 20
6.956364
 30
0.0
 11
76.435612
 21
6.935362
 31
0.0
  0
LINE
  8
0
 10
76.442295
 20
6.973548
 30
0.0
 11
76.438954
 21
6.956364
 31
0.0
  0
LINE
  8
0
 10
76.445636
 20
6.997892
 30
0.0
 11
76.442295
 21
6.973548
 31
0.0
  0
LINE
  8
0
 10
76.452796
 20
7.018894
 30
0.0
 11
76.445636
 21
6.997892
 31
0.0
  0
LINE
  8
0
 10
76.456137
 20
7.039896
 30
0.0
 11
76.452796
 21
7.018894
 31
0.0
  0
LINE
  8
0
 10
76.463297
 20
7.060422
 30
0.0
 11
76.456137
 21
7.039896
 31
0.0
  0
LINE
  8
0
 10
76.466639
 20
7.081424
 30
0.0
 11
76.463297
 21
7.060422
 31
0.0
  0
LINE
  8
0
 10
76.473799
 20
7.102426
 30
0.0
 11
76.466639
 21
7.081424
 31
0.0
  0
LINE
  8
0
 10
76.4843
 20
7.123429
 30
0.0
 11
76.473799
 21
7.102426
 31
0.0
  0
LINE
  8
0
 10
76.490982
 20
7.143954
 30
0.0
 11
76.4843
 21
7.123429
 31
0.0
  0
LINE
  8
0
 10
76.498142
 20
7.161615
 30
0.0
 11
76.490982
 21
7.143954
 31
0.0
  0
LINE
  8
0
 10
76.508643
 20
7.18214
 30
0.0
 11
76.498142
 21
7.161615
 31
0.0
  0
LINE
  8
0
 10
76.519145
 20
7.203142
 30
0.0
 11
76.508643
 21
7.18214
 31
0.0
  0
LINE
  8
0
 10
76.529168
 20
7.220803
 30
0.0
 11
76.519145
 21
7.203142
 31
0.0
  0
LINE
  8
0
 10
76.53967
 20
7.241328
 30
0.0
 11
76.529168
 21
7.220803
 31
0.0
  0
LINE
  8
0
 10
76.550171
 20
7.25899
 30
0.0
 11
76.53967
 21
7.241328
 31
0.0
  0
LINE
  8
0
 10
76.560672
 20
7.276173
 30
0.0
 11
76.550171
 21
7.25899
 31
0.0
  0
LINE
  8
0
 10
76.574515
 20
7.293834
 30
0.0
 11
76.560672
 21
7.276173
 31
0.0
  0
LINE
  8
0
 10
76.585016
 20
7.311018
 30
0.0
 11
76.574515
 21
7.293834
 31
0.0
  0
LINE
  8
0
 10
76.598858
 20
7.328679
 30
0.0
 11
76.585016
 21
7.311018
 31
0.0
  0
LINE
  8
0
 10
76.612701
 20
7.345863
 30
0.0
 11
76.598858
 21
7.328679
 31
0.0
  0
LINE
  8
0
 10
76.62702
 20
7.363524
 30
0.0
 11
76.612701
 21
7.345863
 31
0.0
  0
LINE
  8
0
 10
76.640863
 20
7.380708
 30
0.0
 11
76.62702
 21
7.363524
 31
0.0
  0
LINE
  8
0
 10
76.658047
 20
7.39455
 30
0.0
 11
76.640863
 21
7.380708
 31
0.0
  0
LINE
  8
0
 10
76.671889
 20
7.408393
 30
0.0
 11
76.658047
 21
7.39455
 31
0.0
  0
LINE
  8
0
 10
76.68955
 20
7.426054
 30
0.0
 11
76.671889
 21
7.408393
 31
0.0
  0
LINE
  8
0
 10
76.706734
 20
7.439896
 30
0.0
 11
76.68955
 21
7.426054
 31
0.0
  0
LINE
  8
0
 10
76.720577
 20
7.453739
 30
0.0
 11
76.706734
 21
7.439896
 31
0.0
  0
LINE
  8
0
 10
76.738238
 20
7.467581
 30
0.0
 11
76.720577
 21
7.453739
 31
0.0
  0
LINE
  8
0
 10
76.755421
 20
7.478083
 30
0.0
 11
76.738238
 21
7.467581
 31
0.0
  0
LINE
  8
0
 10
76.773083
 20
7.491925
 30
0.0
 11
76.755421
 21
7.478083
 31
0.0
  0
LINE
  8
0
 10
76.794085
 20
7.502426
 30
0.0
 11
76.773083
 21
7.491925
 31
0.0
  0
LINE
  8
0
 10
76.811269
 20
7.516269
 30
0.0
 11
76.794085
 21
7.502426
 31
0.0
  0
LINE
  8
0
 10
76.828452
 20
7.52677
 30
0.0
 11
76.811269
 21
7.516269
 31
0.0
  0
LINE
  8
0
 10
76.849455
 20
7.537271
 30
0.0
 11
76.828452
 21
7.52677
 31
0.0
  0
LINE
  8
0
 10
76.867116
 20
7.547772
 30
0.0
 11
76.849455
 21
7.537271
 31
0.0
  0
LINE
  8
0
 10
76.887641
 20
7.554932
 30
0.0
 11
76.867116
 21
7.547772
 31
0.0
  0
LINE
  8
0
 10
76.908643
 20
7.564956
 30
0.0
 11
76.887641
 21
7.554932
 31
0.0
  0
LINE
  8
0
 10
76.926304
 20
7.572116
 30
0.0
 11
76.908643
 21
7.564956
 31
0.0
  0
LINE
  8
0
 10
76.94683
 20
7.579276
 30
0.0
 11
76.926304
 21
7.572116
 31
0.0
  0
LINE
  8
0
 10
76.967832
 20
7.585959
 30
0.0
 11
76.94683
 21
7.579276
 31
0.0
  0
LINE
  8
0
 10
76.988834
 20
7.593118
 30
0.0
 11
76.967832
 21
7.585959
 31
0.0
  0
LINE
  8
0
 10
77.009837
 20
7.599801
 30
0.0
 11
76.988834
 21
7.593118
 31
0.0
  0
LINE
  8
0
 10
77.211746
 20
7.652307
 30
0.0
 11
77.009837
 21
7.599801
 31
0.0
  0
LINE
  8
0
 10
77.315803
 20
0.945863
 30
0.0
 11
77.215087
 21
0.945863
 31
0.0
  0
LINE
  8
0
 10
77.416997
 20
0.945863
 30
0.0
 11
77.315803
 21
0.945863
 31
0.0
  0
LINE
  8
0
 10
77.51103
 20
0.945863
 30
0.0
 11
77.416997
 21
0.945863
 31
0.0
  0
LINE
  8
0
 10
77.604586
 20
0.945863
 30
0.0
 11
77.51103
 21
0.945863
 31
0.0
  0
LINE
  8
0
 10
77.688118
 20
0.945863
 30
0.0
 11
77.604586
 21
0.945863
 31
0.0
  0
LINE
  8
0
 10
77.764968
 20
0.945863
 30
0.0
 11
77.688118
 21
0.945863
 31
0.0
  0
LINE
  8
0
 10
77.830839
 20
0.945863
 30
0.0
 11
77.764968
 21
0.945863
 31
0.0
  0
LINE
  8
0
 10
77.886686
 20
0.945863
 30
0.0
 11
77.830839
 21
0.945863
 31
0.0
  0
LINE
  8
0
 10
77.932032
 20
0.945863
 30
0.0
 11
77.886686
 21
0.945863
 31
0.0
  0
LINE
  8
0
 10
77.966877
 20
0.945863
 30
0.0
 11
77.932032
 21
0.945863
 31
0.0
  0
LINE
  8
0
 10
77.984061
 20
0.945863
 30
0.0
 11
77.966877
 21
0.945863
 31
0.0
  0
LINE
  8
0
 10
77.991221
 20
0.945863
 30
0.0
 11
77.984061
 21
0.945863
 31
0.0
  0
LINE
  8
0
 10
78.457569
 20
0.945863
 30
0.0
 11
77.991221
 21
0.945863
 31
0.0
  0
LINE
  8
0
 10
76.431794
 20
1.725338
 30
0.0
 11
76.431794
 21
6.84467
 31
0.0
  0
LINE
  8
0
 10
76.431794
 20
6.84467
 30
0.0
 11
76.431794
 21
1.725338
 31
0.0
  0
LINE
  8
0
 10
77.991221
 20
0.945863
 30
0.0
 11
77.991221
 21
7.860899
 31
0.0
  0
LINE
  8
0
 10
77.991221
 20
7.860899
 30
0.0
 11
77.991221
 21
0.945863
 31
0.0
  0
LINE
  8
0
 10
80.754467
 20
-73.417383
 30
0.0
 11
80.709121
 21
-73.39638
 31
0.0
  0
LINE
  8
0
 10
80.795994
 20
-73.448886
 30
0.0
 11
80.754467
 21
-73.417383
 31
0.0
  0
LINE
  8
0
 10
80.827498
 20
-73.487072
 30
0.0
 11
80.795994
 21
-73.448886
 31
0.0
  0
LINE
  8
0
 10
80.844682
 20
-73.53576
 30
0.0
 11
80.827498
 21
-73.487072
 31
0.0
  0
LINE
  8
0
 10
80.851841
 20
-73.584447
 30
0.0
 11
80.844682
 21
-73.53576
 31
0.0
  0
LINE
  8
0
 10
78.457569
 20
-65.750557
 30
0.0
 11
78.457569
 21
0.945863
 31
0.0
  0
LINE
  8
0
 10
77.991221
 20
-72.668934
 30
0.0
 11
80.709121
 21
-73.39638
 31
0.0
  0
LINE
  8
0
 10
77.991221
 20
-65.750557
 30
0.0
 11
78.457569
 21
-65.750557
 31
0.0
  0
LINE
  8
0
 10
77.207927
 20
-65.750557
 30
0.0
 11
77.211746
 21
-65.750557
 31
0.0
  0
LINE
  8
0
 10
76.68955
 20
-65.955808
 30
0.0
 11
76.706734
 21
-65.938624
 31
0.0
  0
LINE
  8
0
 10
76.668548
 20
-65.973469
 30
0.0
 11
76.68955
 21
-65.955808
 31
0.0
  0
LINE
  8
0
 10
76.651364
 20
-65.990652
 30
0.0
 11
76.668548
 21
-65.973469
 31
0.0
  0
LINE
  8
0
 10
76.633703
 20
-66.008314
 30
0.0
 11
76.651364
 21
-65.990652
 31
0.0
  0
LINE
  8
0
 10
76.616519
 20
-66.028839
 30
0.0
 11
76.633703
 21
-66.008314
 31
0.0
  0
LINE
  8
0
 10
76.598858
 20
-66.049841
 30
0.0
 11
76.616519
 21
-66.028839
 31
0.0
  0
LINE
  8
0
 10
76.585016
 20
-66.070843
 30
0.0
 11
76.598858
 21
-66.049841
 31
0.0
  0
LINE
  8
0
 10
76.567832
 20
-66.091846
 30
0.0
 11
76.585016
 21
-66.070843
 31
0.0
  0
LINE
  8
0
 10
76.553512
 20
-66.112371
 30
0.0
 11
76.567832
 21
-66.091846
 31
0.0
  0
LINE
  8
0
 10
76.53967
 20
-66.133373
 30
0.0
 11
76.553512
 21
-66.112371
 31
0.0
  0
LINE
  8
0
 10
76.529168
 20
-66.157717
 30
0.0
 11
76.53967
 21
-66.133373
 31
0.0
  0
LINE
  8
0
 10
76.515326
 20
-66.182061
 30
0.0
 11
76.529168
 21
-66.157717
 31
0.0
  0
LINE
  8
0
 10
76.504825
 20
-66.203063
 30
0.0
 11
76.515326
 21
-66.182061
 31
0.0
  0
LINE
  8
0
 10
76.494801
 20
-66.227407
 30
0.0
 11
76.504825
 21
-66.203063
 31
0.0
  0
LINE
  8
0
 10
76.4843
 20
-66.25175
 30
0.0
 11
76.494801
 21
-66.227407
 31
0.0
  0
LINE
  8
0
 10
76.473799
 20
-66.276094
 30
0.0
 11
76.4843
 21
-66.25175
 31
0.0
  0
LINE
  8
0
 10
76.466639
 20
-66.300438
 30
0.0
 11
76.473799
 21
-66.276094
 31
0.0
  0
LINE
  8
0
 10
76.459956
 20
-66.324781
 30
0.0
 11
76.466639
 21
-66.300438
 31
0.0
  0
LINE
  8
0
 10
76.452796
 20
-66.352466
 30
0.0
 11
76.459956
 21
-66.324781
 31
0.0
  0
LINE
  8
0
 10
76.449455
 20
-66.37681
 30
0.0
 11
76.452796
 21
-66.352466
 31
0.0
  0
LINE
  8
0
 10
76.442295
 20
-66.401631
 30
0.0
 11
76.449455
 21
-66.37681
 31
0.0
  0
LINE
  8
0
 10
76.438954
 20
-66.429316
 30
0.0
 11
76.442295
 21
-66.401631
 31
0.0
  0
LINE
  8
0
 10
76.435612
 20
-66.45366
 30
0.0
 11
76.438954
 21
-66.429316
 31
0.0
  0
LINE
  8
0
 10
76.435612
 20
-66.481345
 30
0.0
 11
76.435612
 21
-66.45366
 31
0.0
  0
LINE
  8
0
 10
76.431794
 20
-66.530032
 30
0.0
 11
76.435612
 21
-66.481345
 31
0.0
  0
LINE
  8
0
 10
76.431794
 20
-66.530032
 30
0.0
 11
76.431794
 21
-71.652705
 31
0.0
  0
LINE
  8
0
 10
76.431794
 20
-71.652705
 30
0.0
 11
76.431794
 21
-66.530032
 31
0.0
  0
LINE
  8
0
 10
76.431794
 20
-71.656524
 30
0.0
 11
76.431794
 21
-71.652705
 31
0.0
  0
LINE
  8
0
 10
76.431794
 20
-71.680867
 30
0.0
 11
76.431794
 21
-71.656524
 31
0.0
  0
LINE
  8
0
 10
76.431794
 20
-71.701392
 30
0.0
 11
76.431794
 21
-71.680867
 31
0.0
  0
LINE
  8
0
 10
76.435612
 20
-71.722395
 30
0.0
 11
76.431794
 21
-71.701392
 31
0.0
  0
LINE
  8
0
 10
76.438954
 20
-71.743397
 30
0.0
 11
76.435612
 21
-71.722395
 31
0.0
  0
LINE
  8
0
 10
76.438954
 20
-71.764399
 30
0.0
 11
76.438954
 21
-71.743397
 31
0.0
  0
LINE
  8
0
 10
76.442295
 20
-71.784925
 30
0.0
 11
76.438954
 21
-71.764399
 31
0.0
  0
LINE
  8
0
 10
76.445636
 20
-71.805927
 30
0.0
 11
76.442295
 21
-71.784925
 31
0.0
  0
LINE
  8
0
 10
76.452796
 20
-71.830271
 30
0.0
 11
76.445636
 21
-71.805927
 31
0.0
  0
LINE
  8
0
 10
76.456137
 20
-71.851273
 30
0.0
 11
76.452796
 21
-71.830271
 31
0.0
  0
LINE
  8
0
 10
76.463297
 20
-71.872275
 30
0.0
 11
76.456137
 21
-71.851273
 31
0.0
  0
LINE
  8
0
 10
76.470457
 20
-71.8928
 30
0.0
 11
76.463297
 21
-71.872275
 31
0.0
  0
LINE
  8
0
 10
76.47714
 20
-71.910462
 30
0.0
 11
76.470457
 21
-71.8928
 31
0.0
  0
LINE
  8
0
 10
76.4843
 20
-71.931464
 30
0.0
 11
76.47714
 21
-71.910462
 31
0.0
  0
LINE
  8
0
 10
76.490982
 20
-71.951989
 30
0.0
 11
76.4843
 21
-71.931464
 31
0.0
  0
LINE
  8
0
 10
76.501483
 20
-71.972991
 30
0.0
 11
76.490982
 21
-71.951989
 31
0.0
  0
LINE
  8
0
 10
76.508643
 20
-71.990652
 30
0.0
 11
76.501483
 21
-71.972991
 31
0.0
  0
LINE
  8
0
 10
76.519145
 20
-72.011177
 30
0.0
 11
76.508643
 21
-71.990652
 31
0.0
  0
LINE
  8
0
 10
76.529168
 20
-72.028839
 30
0.0
 11
76.519145
 21
-72.011177
 31
0.0
  0
LINE
  8
0
 10
76.53967
 20
-72.049841
 30
0.0
 11
76.529168
 21
-72.028839
 31
0.0
  0
LINE
  8
0
 10
76.550171
 20
-72.067025
 30
0.0
 11
76.53967
 21
-72.049841
 31
0.0
  0
LINE
  8
0
 10
76.564013
 20
-72.084209
 30
0.0
 11
76.550171
 21
-72.067025
 31
0.0
  0
LINE
  8
0
 10
76.574515
 20
-72.10187
 30
0.0
 11
76.564013
 21
-72.084209
 31
0.0
  0
LINE
  8
0
 10
76.588357
 20
-72.122872
 30
0.0
 11
76.574515
 21
-72.10187
 31
0.0
  0
LINE
  8
0
 10
76.602677
 20
-72.136714
 30
0.0
 11
76.588357
 21
-72.122872
 31
0.0
  0
LINE
  8
0
 10
76.616519
 20
-72.153898
 30
0.0
 11
76.602677
 21
-72.136714
 31
0.0
  0
LINE
  8
0
 10
76.630362
 20
-72.171559
 30
0.0
 11
76.616519
 21
-72.153898
 31
0.0
  0
LINE
  8
0
 10
76.644204
 20
-72.188743
 30
0.0
 11
76.630362
 21
-72.171559
 31
0.0
  0
LINE
  8
0
 10
76.658047
 20
-72.202586
 30
0.0
 11
76.644204
 21
-72.188743
 31
0.0
  0
LINE
  8
0
 10
76.675708
 20
-72.216905
 30
0.0
 11
76.658047
 21
-72.202586
 31
0.0
  0
LINE
  8
0
 10
76.68955
 20
-72.234089
 30
0.0
 11
76.675708
 21
-72.216905
 31
0.0
  0
LINE
  8
0
 10
76.706734
 20
-72.247932
 30
0.0
 11
76.68955
 21
-72.234089
 31
0.0
  0
LINE
  8
0
 10
76.724395
 20
-72.261774
 30
0.0
 11
76.706734
 21
-72.247932
 31
0.0
  0
LINE
  8
0
 10
76.741579
 20
-72.272275
 30
0.0
 11
76.724395
 21
-72.261774
 31
0.0
  0
LINE
  8
0
 10
76.75924
 20
-72.286118
 30
0.0
 11
76.741579
 21
-72.272275
 31
0.0
  0
LINE
  8
0
 10
76.776424
 20
-72.300438
 30
0.0
 11
76.75924
 21
-72.286118
 31
0.0
  0
LINE
  8
0
 10
76.794085
 20
-72.310462
 30
0.0
 11
76.776424
 21
-72.300438
 31
0.0
  0
LINE
  8
0
 10
76.811269
 20
-72.320963
 30
0.0
 11
76.794085
 21
-72.310462
 31
0.0
  0
LINE
  8
0
 10
76.828452
 20
-72.334805
 30
0.0
 11
76.811269
 21
-72.320963
 31
0.0
  0
LINE
  8
0
 10
76.849455
 20
-72.345306
 30
0.0
 11
76.828452
 21
-72.334805
 31
0.0
  0
LINE
  8
0
 10
76.867116
 20
-72.352466
 30
0.0
 11
76.849455
 21
-72.345306
 31
0.0
  0
LINE
  8
0
 10
76.887641
 20
-72.362967
 30
0.0
 11
76.867116
 21
-72.352466
 31
0.0
  0
LINE
  8
0
 10
76.908643
 20
-72.36965
 30
0.0
 11
76.887641
 21
-72.362967
 31
0.0
  0
LINE
  8
0
 10
76.929646
 20
-72.380151
 30
0.0
 11
76.908643
 21
-72.36965
 31
0.0
  0
LINE
  8
0
 10
76.94683
 20
-72.387311
 30
0.0
 11
76.929646
 21
-72.380151
 31
0.0
  0
LINE
  8
0
 10
76.967832
 20
-72.393994
 30
0.0
 11
76.94683
 21
-72.387311
 31
0.0
  0
LINE
  8
0
 10
76.988834
 20
-72.401154
 30
0.0
 11
76.967832
 21
-72.393994
 31
0.0
  0
LINE
  8
0
 10
77.009837
 20
-72.408314
 30
0.0
 11
76.988834
 21
-72.401154
 31
0.0
  0
LINE
  8
0
 10
77.207927
 20
-72.460342
 30
0.0
 11
77.009837
 21
-72.408314
 31
0.0
  0
LINE
  8
0
 10
77.215087
 20
-72.460342
 30
0.0
 11
77.207927
 21
-72.460342
 31
0.0
  0
LINE
  8
0
 10
77.319145
 20
-72.488027
 30
0.0
 11
77.215087
 21
-72.460342
 31
0.0
  0
LINE
  8
0
 10
77.420338
 20
-72.516189
 30
0.0
 11
77.319145
 21
-72.488027
 31
0.0
  0
LINE
  8
0
 10
77.521054
 20
-72.543874
 30
0.0
 11
77.420338
 21
-72.516189
 31
0.0
  0
LINE
  8
0
 10
77.611746
 20
-72.568218
 30
0.0
 11
77.521054
 21
-72.543874
 31
0.0
  0
LINE
  8
0
 10
77.69862
 20
-72.592562
 30
0.0
 11
77.611746
 21
-72.568218
 31
0.0
  0
LINE
  8
0
 10
77.775469
 20
-72.609746
 30
0.0
 11
77.69862
 21
-72.592562
 31
0.0
  0
LINE
  8
0
 10
77.84134
 20
-72.630748
 30
0.0
 11
77.775469
 21
-72.609746
 31
0.0
  0
LINE
  8
0
 10
77.897188
 20
-72.64459
 30
0.0
 11
77.84134
 21
-72.630748
 31
0.0
  0
LINE
  8
0
 10
77.942534
 20
-72.655092
 30
0.0
 11
77.897188
 21
-72.64459
 31
0.0
  0
LINE
  8
0
 10
77.970219
 20
-72.665593
 30
0.0
 11
77.942534
 21
-72.655092
 31
0.0
  0
LINE
  8
0
 10
77.991221
 20
-72.668934
 30
0.0
 11
77.970219
 21
-72.665593
 31
0.0
  0
LINE
  8
0
 10
77.991221
 20
-65.750557
 30
0.0
 11
77.991221
 21
-72.668934
 31
0.0
  0
LINE
  8
0
 10
77.984061
 20
-65.750557
 30
0.0
 11
77.991221
 21
-65.750557
 31
0.0
  0
LINE
  8
0
 10
77.966877
 20
-65.750557
 30
0.0
 11
77.984061
 21
-65.750557
 31
0.0
  0
LINE
  8
0
 10
77.932032
 20
-65.750557
 30
0.0
 11
77.966877
 21
-65.750557
 31
0.0
  0
LINE
  8
0
 10
77.886686
 20
-65.750557
 30
0.0
 11
77.932032
 21
-65.750557
 31
0.0
  0
LINE
  8
0
 10
77.830839
 20
-65.750557
 30
0.0
 11
77.886686
 21
-65.750557
 31
0.0
  0
LINE
  8
0
 10
77.764968
 20
-65.750557
 30
0.0
 11
77.830839
 21
-65.750557
 31
0.0
  0
LINE
  8
0
 10
77.688118
 20
-65.750557
 30
0.0
 11
77.764968
 21
-65.750557
 31
0.0
  0
LINE
  8
0
 10
77.604586
 20
-65.750557
 30
0.0
 11
77.688118
 21
-65.750557
 31
0.0
  0
LINE
  8
0
 10
77.51103
 20
-65.750557
 30
0.0
 11
77.604586
 21
-65.750557
 31
0.0
  0
LINE
  8
0
 10
77.416997
 20
-65.750557
 30
0.0
 11
77.51103
 21
-65.750557
 31
0.0
  0
LINE
  8
0
 10
77.315803
 20
-65.750557
 30
0.0
 11
77.416997
 21
-65.750557
 31
0.0
  0
LINE
  8
0
 10
77.215087
 20
-65.750557
 30
0.0
 11
77.315803
 21
-65.750557
 31
0.0
  0
LINE
  8
0
 10
77.211746
 20
-65.750557
 30
0.0
 11
77.215087
 21
-65.750557
 31
0.0
  0
LINE
  8
0
 10
77.207927
 20
-65.750557
 30
0.0
 11
77.211746
 21
-65.750557
 31
0.0
  0
LINE
  8
0
 10
77.183584
 20
-65.750557
 30
0.0
 11
77.207927
 21
-65.750557
 31
0.0
  0
LINE
  8
0
 10
77.155899
 20
-65.753898
 30
0.0
 11
77.183584
 21
-65.750557
 31
0.0
  0
LINE
  8
0
 10
77.131555
 20
-65.757717
 30
0.0
 11
77.155899
 21
-65.753898
 31
0.0
  0
LINE
  8
0
 10
77.107211
 20
-65.757717
 30
0.0
 11
77.131555
 21
-65.757717
 31
0.0
  0
LINE
  8
0
 10
77.079049
 20
-65.764399
 30
0.0
 11
77.107211
 21
-65.757717
 31
0.0
  0
LINE
  8
0
 10
77.054705
 20
-65.768218
 30
0.0
 11
77.079049
 21
-65.764399
 31
0.0
  0
LINE
  8
0
 10
77.030362
 20
-65.774901
 30
0.0
 11
77.054705
 21
-65.768218
 31
0.0
  0
LINE
  8
0
 10
77.002677
 20
-65.778242
 30
0.0
 11
77.030362
 21
-65.774901
 31
0.0
  0
LINE
  8
0
 10
76.978333
 20
-65.788743
 30
0.0
 11
77.002677
 21
-65.778242
 31
0.0
  0
LINE
  8
0
 10
76.953989
 20
-65.795903
 30
0.0
 11
76.978333
 21
-65.788743
 31
0.0
  0
LINE
  8
0
 10
76.929646
 20
-65.806404
 30
0.0
 11
76.953989
 21
-65.795903
 31
0.0
  0
LINE
  8
0
 10
76.905302
 20
-65.813087
 30
0.0
 11
76.929646
 21
-65.806404
 31
0.0
  0
LINE
  8
0
 10
76.880958
 20
-65.823588
 30
0.0
 11
76.905302
 21
-65.813087
 31
0.0
  0
LINE
  8
0
 10
76.859956
 20
-65.83743
 30
0.0
 11
76.880958
 21
-65.823588
 31
0.0
  0
LINE
  8
0
 10
76.835612
 20
-65.847932
 30
0.0
 11
76.859956
 21
-65.83743
 31
0.0
  0
LINE
  8
0
 10
76.81461
 20
-65.861774
 30
0.0
 11
76.835612
 21
-65.847932
 31
0.0
  0
LINE
  8
0
 10
76.790266
 20
-65.876094
 30
0.0
 11
76.81461
 21
-65.861774
 31
0.0
  0
LINE
  8
0
 10
76.769741
 20
-65.889936
 30
0.0
 11
76.790266
 21
-65.876094
 31
0.0
  0
LINE
  8
0
 10
76.748739
 20
-65.903779
 30
0.0
 11
76.769741
 21
-65.889936
 31
0.0
  0
LINE
  8
0
 10
76.727736
 20
-65.920963
 30
0.0
 11
76.748739
 21
-65.903779
 31
0.0
  0
LINE
  8
0
 10
76.706734
 20
-65.938624
 30
0.0
 11
76.727736
 21
-65.920963
 31
0.0
  0
LINE
  8
0
 10
77.991221
 20
-65.750557
 30
0.0
 11
77.991221
 21
-72.668934
 31
0.0
  0
LINE
  8
0
 10
81.958285
 20
-78.004018
 30
0.0
 11
81.958285
 21
13.199324
 31
0.0
  0
LINE
  8
0
 10
81.262343
 20
-78.940056
 30
0.0
 11
81.151125
 21
-78.964877
 31
0.0
  0
LINE
  8
0
 10
81.366877
 20
-78.898528
 30
0.0
 11
81.262343
 21
-78.940056
 31
0.0
  0
LINE
  8
0
 10
81.652319
 20
-78.71428
 30
0.0
 11
81.564968
 21
-78.787311
 31
0.0
  0
LINE
  8
0
 10
81.728691
 20
-78.630748
 30
0.0
 11
81.652319
 21
-78.71428
 31
0.0
  0
LINE
  8
0
 10
81.79504
 20
-78.540056
 30
0.0
 11
81.728691
 21
-78.630748
 31
0.0
  0
LINE
  8
0
 10
81.853751
 20
-78.442681
 30
0.0
 11
81.79504
 21
-78.540056
 31
0.0
  0
LINE
  8
0
 10
81.899097
 20
-78.338146
 30
0.0
 11
81.853751
 21
-78.442681
 31
0.0
  0
LINE
  8
0
 10
81.9306
 20
-78.230271
 30
0.0
 11
81.899097
 21
-78.338146
 31
0.0
  0
LINE
  8
0
 10
81.951603
 20
-78.119053
 30
0.0
 11
81.9306
 21
-78.230271
 31
0.0
  0
LINE
  8
0
 10
81.958285
 20
-78.004018
 30
0.0
 11
81.951603
 21
-78.119053
 31
0.0
  0
LINE
  8
0
 10
80.844682
 20
-77.586356
 30
0.0
 11
80.851841
 21
-77.534328
 31
0.0
  0
LINE
  8
0
 10
80.823679
 20
-77.638862
 30
0.0
 11
80.844682
 21
-77.586356
 31
0.0
  0
LINE
  8
0
 10
80.789312
 20
-77.68039
 30
0.0
 11
80.823679
 21
-77.638862
 31
0.0
  0
LINE
  8
0
 10
80.743966
 20
-77.708552
 30
0.0
 11
80.789312
 21
-77.68039
 31
0.0
  0
LINE
  8
0
 10
80.69146
 20
-77.725736
 30
0.0
 11
80.743966
 21
-77.708552
 31
0.0
  0
LINE
  8
0
 10
81.467593
 20
-78.849841
 30
0.0
 11
81.366877
 21
-78.898528
 31
0.0
  0
LINE
  8
0
 10
81.564968
 20
-78.787311
 30
0.0
 11
81.467593
 21
-78.849841
 31
0.0
  0
LINE
  8
0
 10
80.851841
 20
-73.584447
 30
0.0
 11
80.851841
 21
-77.537669
 31
0.0
  0
LINE
  8
0
 10
80.69146
 20
-77.725736
 30
0.0
 11
78.59313
 21
-78.09471
 31
0.0
  0
LINE
  8
0
 10
78.819383
 20
-79.375378
 30
0.0
 11
81.151125
 21
-78.964877
 31
0.0
  0
LINE
  8
0
 10
78.356376
 20
-78.188743
 30
0.0
 11
78.280004
 21
-78.244113
 31
0.0
  0
LINE
  8
0
 10
78.436567
 20
-78.143397
 30
0.0
 11
78.356376
 21
-78.188743
 31
0.0
  0
LINE
  8
0
 10
78.523441
 20
-78.111893
 30
0.0
 11
78.436567
 21
-78.143397
 31
0.0
  0
LINE
  8
0
 10
78.614133
 20
-78.090891
 30
0.0
 11
78.523441
 21
-78.111893
 31
0.0
  0
LINE
  8
0
 10
78.708166
 20
-78.08755
 30
0.0
 11
78.614133
 21
-78.090891
 31
0.0
  0
LINE
  8
0
 10
78.798381
 20
-78.090891
 30
0.0
 11
78.708166
 21
-78.08755
 31
0.0
  0
LINE
  8
0
 10
78.889073
 20
-78.111893
 30
0.0
 11
78.798381
 21
-78.090891
 31
0.0
  0
LINE
  8
0
 10
78.975946
 20
-78.143397
 30
0.0
 11
78.889073
 21
-78.111893
 31
0.0
  0
LINE
  8
0
 10
79.059479
 20
-78.188743
 30
0.0
 11
78.975946
 21
-78.143397
 31
0.0
  0
LINE
  8
0
 10
79.13251
 20
-78.244113
 30
0.0
 11
79.059479
 21
-78.188743
 31
0.0
  0
LINE
  8
0
 10
79.198858
 20
-78.310462
 30
0.0
 11
79.13251
 21
-78.244113
 31
0.0
  0
LINE
  8
0
 10
79.254228
 20
-78.383493
 30
0.0
 11
79.198858
 21
-78.310462
 31
0.0
  0
LINE
  8
0
 10
79.299574
 20
-78.467025
 30
0.0
 11
79.254228
 21
-78.383493
 31
0.0
  0
LINE
  8
0
 10
79.331078
 20
-78.553898
 30
0.0
 11
79.299574
 21
-78.467025
 31
0.0
  0
LINE
  8
0
 10
79.351603
 20
-78.64459
 30
0.0
 11
79.331078
 21
-78.553898
 31
0.0
  0
LINE
  8
0
 10
79.355421
 20
-78.734805
 30
0.0
 11
79.351603
 21
-78.64459
 31
0.0
  0
LINE
  8
0
 10
79.351603
 20
-78.828839
 30
0.0
 11
79.355421
 21
-78.734805
 31
0.0
  0
LINE
  8
0
 10
79.331078
 20
-78.919531
 30
0.0
 11
79.351603
 21
-78.828839
 31
0.0
  0
LINE
  8
0
 10
79.299574
 20
-79.006404
 30
0.0
 11
79.331078
 21
-78.919531
 31
0.0
  0
LINE
  8
0
 10
79.254228
 20
-79.086595
 30
0.0
 11
79.299574
 21
-79.006404
 31
0.0
  0
LINE
  8
0
 10
79.198858
 20
-79.162967
 30
0.0
 11
79.254228
 21
-79.086595
 31
0.0
  0
LINE
  8
0
 10
79.13251
 20
-79.225497
 30
0.0
 11
79.198858
 21
-79.162967
 31
0.0
  0
LINE
  8
0
 10
79.059479
 20
-79.281345
 30
0.0
 11
79.13251
 21
-79.225497
 31
0.0
  0
LINE
  8
0
 10
78.975946
 20
-79.326691
 30
0.0
 11
79.059479
 21
-79.281345
 31
0.0
  0
LINE
  8
0
 10
78.889073
 20
-79.361535
 30
0.0
 11
78.975946
 21
-79.326691
 31
0.0
  0
LINE
  8
0
 10
78.798381
 20
-79.378719
 30
0.0
 11
78.889073
 21
-79.361535
 31
0.0
  0
LINE
  8
0
 10
78.708166
 20
-79.385879
 30
0.0
 11
78.798381
 21
-79.378719
 31
0.0
  0
LINE
  8
0
 10
78.614133
 20
-79.378719
 30
0.0
 11
78.708166
 21
-79.385879
 31
0.0
  0
LINE
  8
0
 10
78.523441
 20
-79.361535
 30
0.0
 11
78.614133
 21
-79.378719
 31
0.0
  0
LINE
  8
0
 10
78.436567
 20
-79.326691
 30
0.0
 11
78.523441
 21
-79.361535
 31
0.0
  0
LINE
  8
0
 10
78.356376
 20
-79.281345
 30
0.0
 11
78.436567
 21
-79.326691
 31
0.0
  0
LINE
  8
0
 10
78.280004
 20
-79.225497
 30
0.0
 11
78.356376
 21
-79.281345
 31
0.0
  0
LINE
  8
0
 10
78.217474
 20
-79.162967
 30
0.0
 11
78.280004
 21
-79.225497
 31
0.0
  0
LINE
  8
0
 10
78.161627
 20
-79.086595
 30
0.0
 11
78.217474
 21
-79.162967
 31
0.0
  0
LINE
  8
0
 10
78.116281
 20
-79.006404
 30
0.0
 11
78.161627
 21
-79.086595
 31
0.0
  0
LINE
  8
0
 10
78.084777
 20
-78.919531
 30
0.0
 11
78.116281
 21
-79.006404
 31
0.0
  0
LINE
  8
0
 10
78.064252
 20
-78.828839
 30
0.0
 11
78.084777
 21
-78.919531
 31
0.0
  0
LINE
  8
0
 10
78.057092
 20
-78.734805
 30
0.0
 11
78.064252
 21
-78.828839
 31
0.0
  0
LINE
  8
0
 10
78.064252
 20
-78.64459
 30
0.0
 11
78.057092
 21
-78.734805
 31
0.0
  0
LINE
  8
0
 10
78.084777
 20
-78.553898
 30
0.0
 11
78.064252
 21
-78.64459
 31
0.0
  0
LINE
  8
0
 10
78.116281
 20
-78.467025
 30
0.0
 11
78.084777
 21
-78.553898
 31
0.0
  0
LINE
  8
0
 10
78.161627
 20
-78.383493
 30
0.0
 11
78.116281
 21
-78.467025
 31
0.0
  0
LINE
  8
0
 10
78.217474
 20
-78.310462
 30
0.0
 11
78.161627
 21
-78.383493
 31
0.0
  0
LINE
  8
0
 10
78.280004
 20
-78.244113
 30
0.0
 11
78.217474
 21
-78.310462
 31
0.0
  0
ENDSEC
  0
EOF
