  0
SECTION
  2
HEADER
  9
$ACADVER
  1
AC1009
  9
$INSBASE
 10
0.0
 20
0.0
 30
0.0
  9
$EXTMIN
 10
787.126458
 20
293.704012
 30
0.0
  9
$EXTMAX
 10
957.126458
 20
374.118226
 30
0.0
  9
$LIMMIN
 10
855.039764
 20
266.864907
  9
$LIMMAX
 10
935.039764
 20
436.864907
  9
$ORTHOMODE
 70
     0
  9
$REGENMODE
 70
     1
  9
$FILLMODE
 70
     1
  9
$QTEXTMODE
 70
     0
  9
$MIRRTEXT
 70
     1
  9
$DRAGMODE
 70
     2
  9
$LTSCALE
 40
1.0
  9
$OSMODE
 70
     0
  9
$ATTMODE
 70
     1
  9
$TEXTSIZE
 40
3.5
  9
$TRACEWID
 40
0.5
  9
$TEXTSTYLE
  7
STANDARD
  9
$CLAYER
  8
0
  9
$CELTYPE
  6
BYLAYER
  9
$CECOLOR
 62
   256
  9
$DIMSCALE
 40
1.0
  9
$DIMASZ
 40
0.18
  9
$DIMEXO
 40
0.0625
  9
$DIMDLI
 40
0.38
  9
$DIMRND
 40
0.0
  9
$DIMDLE
 40
0.0
  9
$DIMEXE
 40
0.18
  9
$DIMTP
 40
0.0
  9
$DIMTM
 40
0.0
  9
$DIMTXT
 40
0.18
  9
$DIMCEN
 40
0.09
  9
$DIMTSZ
 40
0.0
  9
$DIMTOL
 70
     0
  9
$DIMLIM
 70
     0
  9
$DIMTIH
 70
     1
  9
$DIMTOH
 70
     1
  9
$DIMSE1
 70
     0
  9
$DIMSE2
 70
     0
  9
$DIMTAD
 70
     0
  9
$DIMZIN
 70
     0
  9
$DIMBLK
  1

  9
$DIMASO
 70
     1
  9
$DIMSHO
 70
     1
  9
$DIMPOST
  1

  9
$DIMAPOST
  1

  9
$DIMALT
 70
     0
  9
$DIMALTD
 70
     2
  9
$DIMALTF
 40
25.4
  9
$DIMLFAC
 40
1.0
  9
$DIMTOFL
 70
     0
  9
$DIMTVP
 40
0.0
  9
$DIMTIX
 70
     0
  9
$DIMSOXD
 70
     0
  9
$DIMSAH
 70
     0
  9
$DIMBLK1
  1

  9
$DIMBLK2
  1

  9
$DIMSTYLE
  2
*UNNAMED
  9
$DIMCLRD
 70
     0
  9
$DIMCLRE
 70
     0
  9
$DIMCLRT
 70
     0
  9
$DIMTFAC
 40
1.0
  9
$DIMGAP
 40
0.09
  9
$LUNITS
 70
     2
  9
$LUPREC
 70
     4
  9
$SKETCHINC
 40
0.1
  9
$FILLETRAD
 40
2.0
  9
$AUNITS
 70
     0
  9
$AUPREC
 70
     0
  9
$MENU
  1
ACAD
  9
$ELEVATION
 40
0.0
  9
$PELEVATION
 40
0.0
  9
$THICKNESS
 40
0.0
  9
$LIMCHECK
 70
     0
  9
$BLIPMODE
 70
     1
  9
$CHAMFERA
 40
0.0
  9
$CHAMFERB
 40
0.0
  9
$SKPOLY
 70
     0
  9
$TDCREATE
 40
2450952.716031944
  9
$TDUPDATE
 40
2450952.716473727
  9
$TDINDWG
 40
0.0002784722
  9
$TDUSRTIMER
 40
0.0002784722
  9
$USRTIMER
 70
     1
  9
$ANGBASE
 50
0.0
  9
$ANGDIR
 70
     0
  9
$PDMODE
 70
     0
  9
$PDSIZE
 40
0.0
  9
$PLINEWID
 40
0.0
  9
$COORDS
 70
     2
  9
$SPLFRAME
 70
     0
  9
$SPLINETYPE
 70
     6
  9
$SPLINESEGS
 70
     8
  9
$ATTDIA
 70
     0
  9
$ATTREQ
 70
     1
  9
$HANDLING
 70
     0
  9
$HANDSEED
  5
0
  9
$SURFTAB1
 70
     6
  9
$SURFTAB2
 70
     6
  9
$SURFTYPE
 70
     6
  9
$SURFU
 70
     6
  9
$SURFV
 70
     6
  9
$UCSNAME
  2

  9
$UCSORG
 10
0.0
 20
0.0
 30
0.0
  9
$UCSXDIR
 10
1.0
 20
0.0
 30
0.0
  9
$UCSYDIR
 10
0.0
 20
1.0
 30
0.0
  9
$PUCSNAME
  2

  9
$PUCSORG
 10
0.0
 20
0.0
 30
0.0
  9
$PUCSXDIR
 10
1.0
 20
0.0
 30
0.0
  9
$PUCSYDIR
 10
0.0
 20
1.0
 30
0.0
  9
$USERI1
 70
     0
  9
$USERI2
 70
     0
  9
$USERI3
 70
     0
  9
$USERI4
 70
     0
  9
$USERI5
 70
     0
  9
$USERR1
 40
0.0
  9
$USERR2
 40
0.0
  9
$USERR3
 40
0.0
  9
$USERR4
 40
0.0
  9
$USERR5
 40
0.0
  9
$WORLDVIEW
 70
     1
  9
$SHADEDGE
 70
     3
  9
$SHADEDIF
 70
    70
  9
$TILEMODE
 70
     1
  9
$MAXACTVP
 70
    16
  9
$PINSBASE
 10
0.0
 20
0.0
 30
0.0
  9
$PLIMCHECK
 70
     0
  9
$PEXTMIN
 10
1.000000E+20
 20
1.000000E+20
 30
1.000000E+20
  9
$PEXTMAX
 10
-1.000000E+20
 20
-1.000000E+20
 30
-1.000000E+20
  9
$PLIMMIN
 10
0.0
 20
0.0
  9
$PLIMMAX
 10
420.0
 20
297.0
  9
$UNITMODE
 70
     0
  9
$VISRETAIN
 70
     0
  9
$PLINEGEN
 70
     0
  9
$PSLTSCALE
 70
     1
  9
$TREEDEPTH
 70
  3020
  9
$DWGCODEPAGE
  3
iso8859-1
  0
ENDSEC
  0
SECTION
  2
TABLES
  0
TABLE
  2
VPORT
 70
     2
  0
VPORT
  2
*ACTIVE
 70
     0
 10
0.0
 20
0.0
 11
1.0
 21
1.0
 12
857.085152
 22
334.087677
 13
0.0
 23
0.0
 14
1.0
 24
1.0
 15
0.0
 25
0.0
 16
0.0
 26
0.0
 36
1.0
 17
0.0
 27
0.0
 37
0.0
 40
151.135521
 41
1.748359
 42
50.0
 43
0.0
 44
0.0
 50
0.0
 51
0.0
 71
     0
 72
   100
 73
     1
 74
     0
 75
     0
 76
     0
 77
     0
 78
     0
  0
ENDTAB
  0
TABLE
  2
LTYPE
 70
     1
  0
LTYPE
  2
CONTINUOUS
 70
    64
  3
Solid line
 72
    65
 73
     0
 40
0.0
  0
ENDTAB
  0
TABLE
  2
LAYER
 70
     1
  0
LAYER
  2
0
 70
    64
 62
     7
  6
CONTINUOUS
  0
ENDTAB
  0
TABLE
  2
STYLE
 70
     1
  0
STYLE
  2
STANDARD
 70
     0
 40
0.0
 41
1.0
 50
0.0
 71
     0
 42
3.5
  3
txt
  4

  0
ENDTAB
  0
TABLE
  2
VIEW
 70
     0
  0
ENDTAB
  0
TABLE
  2
UCS
 70
     0
  0
ENDTAB
  0
TABLE
  2
APPID
 70
     1
  0
APPID
  2
ACAD
 70
    64
  0
ENDTAB
  0
TABLE
  2
DIMSTYLE
 70
     0
  0
ENDTAB
  0
ENDSEC
  0
SECTION
  2
BLOCKS
  0
ENDSEC
  0
SECTION
  2
ENTITIES
  0
LINE
  8
0
 10
810.426458
 20
303.657456
 30
0.0
 11
809.676458
 21
304.090469
 31
0.0
  0
LINE
  8
0
 10
934.026458
 20
299.618226
 30
0.0
 11
934.026458
 21
300.218226
 31
0.0
  0
LINE
  8
0
 10
935.426458
 20
299.618226
 30
0.0
 11
935.426458
 21
300.218226
 31
0.0
  0
LINE
  8
0
 10
810.226458
 20
299.618226
 30
0.0
 11
810.226458
 21
300.218226
 31
0.0
  0
LINE
  8
0
 10
809.426458
 20
349.818226
 30
0.0
 11
809.426458
 21
308.100832
 31
0.0
  0
LINE
  8
0
 10
874.626458
 20
346.808175
 30
0.0
 11
875.27793
 21
347.459647
 31
0.0
  0
LINE
  8
0
 10
875.27793
 20
347.459647
 30
0.0
 11
874.772904
 21
347.964673
 31
0.0
  0
LINE
  8
0
 10
875.126458
 20
348.818226
 30
0.0
 11
877.126458
 21
348.818226
 31
0.0
  0
LINE
  8
0
 10
877.480011
 20
347.964673
 30
0.0
 11
875.587118
 21
346.071779
 31
0.0
  0
LINE
  8
0
 10
873.026458
 20
347.13244
 30
0.0
 11
873.026458
 21
350.918226
 31
0.0
  0
LINE
  8
0
 10
874.626458
 20
346.808175
 30
0.0
 11
874.626458
 21
350.818226
 31
0.0
  0
LINE
  8
0
 10
868.974986
 20
347.459647
 30
0.0
 11
869.626458
 21
346.808175
 31
0.0
  0
LINE
  8
0
 10
869.480011
 20
347.964673
 30
0.0
 11
868.974986
 21
347.459647
 31
0.0
  0
LINE
  8
0
 10
867.126458
 20
348.818226
 30
0.0
 11
869.126458
 21
348.818226
 31
0.0
  0
LINE
  8
0
 10
868.665797
 20
346.071779
 30
0.0
 11
866.772904
 21
347.964673
 31
0.0
  0
LINE
  8
0
 10
871.226458
 20
350.918226
 30
0.0
 11
871.226458
 21
347.13244
 31
0.0
  0
LINE
  8
0
 10
869.626458
 20
350.818226
 30
0.0
 11
869.626458
 21
346.808175
 31
0.0
  0
LINE
  8
0
 10
814.526458
 20
300.018226
 30
0.0
 11
814.526458
 21
302.218226
 31
0.0
  0
LINE
  8
0
 10
814.526458
 20
297.618226
 30
0.0
 11
814.526458
 21
296.618226
 31
0.0
  0
LINE
  8
0
 10
814.026458
 20
296.118226
 30
0.0
 11
812.326458
 21
296.118226
 31
0.0
  0
LINE
  8
0
 10
808.826458
 20
299.618226
 30
0.0
 11
808.826458
 21
300.218226
 31
0.0
  0
LINE
  8
0
 10
812.326458
 20
297.518226
 30
0.0
 11
812.626458
 21
297.518226
 31
0.0
  0
LINE
  8
0
 10
813.126458
 20
298.018226
 30
0.0
 11
813.126458
 21
301.576774
 31
0.0
  0
LINE
  8
0
 10
815.026458
 20
298.118226
 30
0.0
 11
817.043686
 21
298.118226
 31
0.0
  0
LINE
  8
0
 10
820.826458
 20
299.118226
 30
0.0
 11
820.826458
 21
303.118226
 31
0.0
  0
LINE
  8
0
 10
815.026458
 20
299.518226
 30
0.0
 11
816.796828
 21
299.518226
 31
0.0
  0
LINE
  8
0
 10
819.426458
 20
300.018226
 30
0.0
 11
819.426458
 21
302.218226
 31
0.0
  0
LINE
  8
0
 10
815.026458
 20
302.718226
 30
0.0
 11
818.926458
 21
302.718226
 31
0.0
  0
LINE
  8
0
 10
937.126458
 20
352.118226
 30
0.0
 11
937.126458
 21
306.772927
 31
0.0
  0
LINE
  8
0
 10
934.826458
 20
349.818226
 30
0.0
 11
934.826458
 21
308.100832
 31
0.0
  0
LINE
  8
0
 10
929.726458
 20
296.618226
 30
0.0
 11
929.726458
 21
297.618226
 31
0.0
  0
LINE
  8
0
 10
931.926458
 20
296.118226
 30
0.0
 11
930.226458
 21
296.118226
 31
0.0
  0
LINE
  8
0
 10
931.626458
 20
297.518226
 30
0.0
 11
931.926458
 21
297.518226
 31
0.0
  0
LINE
  8
0
 10
931.126458
 20
301.569555
 30
0.0
 11
931.126458
 21
298.018226
 31
0.0
  0
LINE
  8
0
 10
923.426458
 20
303.118226
 30
0.0
 11
923.426458
 21
299.118226
 31
0.0
  0
LINE
  8
0
 10
924.826458
 20
302.218226
 30
0.0
 11
924.826458
 21
300.018226
 31
0.0
  0
LINE
  8
0
 10
929.226458
 20
302.718226
 30
0.0
 11
925.326458
 21
302.718226
 31
0.0
  0
LINE
  8
0
 10
924.426458
 20
298.118226
 30
0.0
 11
929.226458
 21
298.118226
 31
0.0
  0
LINE
  8
0
 10
819.026458
 20
298.118226
 30
0.0
 11
819.826458
 21
298.118226
 31
0.0
  0
LINE
  8
0
 10
808.126458
 20
305.040876
 30
0.0
 11
812.626458
 21
302.442799
 31
0.0
  0
LINE
  8
0
 10
931.126458
 20
301.569555
 30
0.0
 11
931.126458
 21
301.576774
 31
0.0
  0
LINE
  8
0
 10
931.626458
 20
302.442799
 30
0.0
 11
936.126458
 21
305.040876
 31
0.0
  0
LINE
  8
0
 10
810.426458
 20
306.368781
 30
0.0
 11
814.324534
 21
304.118226
 31
0.0
  0
LINE
  8
0
 10
814.324534
 20
304.118226
 30
0.0
 11
819.826458
 21
304.118226
 31
0.0
  0
LINE
  8
0
 10
933.826458
 20
306.368781
 30
0.0
 11
929.928381
 21
304.118226
 31
0.0
  0
LINE
  8
0
 10
929.928381
 20
304.118226
 30
0.0
 11
924.426458
 21
304.118226
 31
0.0
  0
LINE
  8
0
 10
807.126458
 20
306.772927
 30
0.0
 11
807.126458
 21
352.118226
 31
0.0
  0
LINE
  8
0
 10
809.126458
 20
354.118226
 30
0.0
 11
935.126458
 21
354.118226
 31
0.0
  0
LINE
  8
0
 10
844.626458
 20
346.808175
 30
0.0
 11
845.27793
 21
347.459647
 31
0.0
  0
LINE
  8
0
 10
845.27793
 20
347.459647
 30
0.0
 11
844.772904
 21
347.964673
 31
0.0
  0
LINE
  8
0
 10
845.126458
 20
348.818226
 30
0.0
 11
847.126458
 21
348.818226
 31
0.0
  0
LINE
  8
0
 10
847.480011
 20
347.964673
 30
0.0
 11
845.587118
 21
346.071779
 31
0.0
  0
LINE
  8
0
 10
843.026458
 20
347.13244
 30
0.0
 11
843.026458
 21
350.918226
 31
0.0
  0
LINE
  8
0
 10
844.626458
 20
346.808175
 30
0.0
 11
844.626458
 21
350.818226
 31
0.0
  0
LINE
  8
0
 10
838.974986
 20
347.459647
 30
0.0
 11
839.626458
 21
346.808175
 31
0.0
  0
LINE
  8
0
 10
839.480011
 20
347.964673
 30
0.0
 11
838.974986
 21
347.459647
 31
0.0
  0
LINE
  8
0
 10
837.126458
 20
348.818226
 30
0.0
 11
839.126458
 21
348.818226
 31
0.0
  0
LINE
  8
0
 10
838.665797
 20
346.071779
 30
0.0
 11
836.772904
 21
347.964673
 31
0.0
  0
LINE
  8
0
 10
841.226458
 20
350.918226
 30
0.0
 11
841.226458
 21
347.13244
 31
0.0
  0
LINE
  8
0
 10
839.626458
 20
350.818226
 30
0.0
 11
839.626458
 21
346.808175
 31
0.0
  0
LINE
  8
0
 10
904.626458
 20
346.808175
 30
0.0
 11
905.27793
 21
347.459647
 31
0.0
  0
LINE
  8
0
 10
905.27793
 20
347.459647
 30
0.0
 11
904.772904
 21
347.964673
 31
0.0
  0
LINE
  8
0
 10
905.126458
 20
348.818226
 30
0.0
 11
907.126458
 21
348.818226
 31
0.0
  0
LINE
  8
0
 10
907.480011
 20
347.964673
 30
0.0
 11
905.587118
 21
346.071779
 31
0.0
  0
LINE
  8
0
 10
903.026458
 20
347.13244
 30
0.0
 11
903.026458
 21
350.918226
 31
0.0
  0
LINE
  8
0
 10
904.626458
 20
346.808175
 30
0.0
 11
904.626458
 21
350.818226
 31
0.0
  0
LINE
  8
0
 10
898.974986
 20
347.459647
 30
0.0
 11
899.626458
 21
346.808175
 31
0.0
  0
LINE
  8
0
 10
899.480011
 20
347.964673
 30
0.0
 11
898.974986
 21
347.459647
 31
0.0
  0
LINE
  8
0
 10
897.126458
 20
348.818226
 30
0.0
 11
899.126458
 21
348.818226
 31
0.0
  0
LINE
  8
0
 10
898.665797
 20
346.071779
 30
0.0
 11
896.772904
 21
347.964673
 31
0.0
  0
LINE
  8
0
 10
901.226458
 20
350.918226
 30
0.0
 11
901.226458
 21
347.13244
 31
0.0
  0
LINE
  8
0
 10
899.626458
 20
350.818226
 30
0.0
 11
899.626458
 21
346.808175
 31
0.0
  0
LINE
  8
0
 10
932.826458
 20
351.818226
 30
0.0
 11
905.626458
 21
351.818226
 31
0.0
  0
LINE
  8
0
 10
898.626458
 20
351.818226
 30
0.0
 11
875.626458
 21
351.818226
 31
0.0
  0
LINE
  8
0
 10
868.626458
 20
351.818226
 30
0.0
 11
845.626458
 21
351.818226
 31
0.0
  0
LINE
  8
0
 10
838.626458
 20
351.818226
 30
0.0
 11
811.426458
 21
351.818226
 31
0.0
  0
LINE
  8
0
 10
818.824007
 20
299.518226
 30
0.0
 11
818.926458
 21
299.518226
 31
0.0
  0
LINE
  8
0
 10
819.026458
 20
298.118226
 30
0.0
 11
817.043686
 21
298.118226
 31
0.0
  0
LINE
  8
0
 10
818.824007
 20
299.518226
 30
0.0
 11
816.796828
 21
299.518226
 31
0.0
  0
LINE
  8
0
 10
925.326458
 20
299.518226
 30
0.0
 11
929.226458
 21
299.518226
 31
0.0
  0
LINE
  8
0
 10
929.726458
 20
300.018226
 30
0.0
 11
929.726458
 21
302.218226
 31
0.0
  0
ARC
  8
0
 10
867.126458
 20
348.318226
 30
0.0
 40
0.5
 50
90.0
 51
180.0
  0
ARC
  8
0
 10
877.126458
 20
348.318226
 30
0.0
 40
0.5
 50
315.0
 51
0.0
  0
ARC
  8
0
 10
875.126458
 20
348.318226
 30
0.0
 40
0.5
 50
90.0
 51
225.0
  0
ARC
  8
0
 10
877.126458
 20
348.318226
 30
0.0
 40
0.5
 50
0.0
 51
90.0
  0
ARC
  8
0
 10
874.526458
 20
347.13244
 30
0.0
 40
1.5
 50
180.0
 51
315.0
  0
ARC
  8
0
 10
869.126458
 20
348.318226
 30
0.0
 40
0.5
 50
315.0
 51
90.0
  0
ARC
  8
0
 10
867.126458
 20
348.318226
 30
0.0
 40
0.5
 50
180.0
 51
225.0
  0
ARC
  8
0
 10
869.726458
 20
347.13244
 30
0.0
 40
1.5
 50
225.0
 51
0.0
  0
ARC
  8
0
 10
837.126458
 20
348.318226
 30
0.0
 40
0.5
 50
90.0
 51
180.0
  0
ARC
  8
0
 10
847.126458
 20
348.318226
 30
0.0
 40
0.5
 50
315.0
 51
0.0
  0
ARC
  8
0
 10
845.126458
 20
348.318226
 30
0.0
 40
0.5
 50
90.0
 51
225.0
  0
ARC
  8
0
 10
847.126458
 20
348.318226
 30
0.0
 40
0.5
 50
0.0
 51
90.0
  0
ARC
  8
0
 10
844.526458
 20
347.13244
 30
0.0
 40
1.5
 50
180.0
 51
315.0
  0
ARC
  8
0
 10
839.126458
 20
348.318226
 30
0.0
 40
0.5
 50
315.0
 51
90.0
  0
ARC
  8
0
 10
837.126458
 20
348.318226
 30
0.0
 40
0.5
 50
180.0
 51
225.0
  0
ARC
  8
0
 10
839.726458
 20
347.13244
 30
0.0
 40
1.5
 50
225.0
 51
0.0
  0
ARC
  8
0
 10
897.126458
 20
348.318226
 30
0.0
 40
0.5
 50
90.0
 51
180.0
  0
ARC
  8
0
 10
907.126458
 20
348.318226
 30
0.0
 40
0.5
 50
315.0
 51
0.0
  0
ARC
  8
0
 10
905.126458
 20
348.318226
 30
0.0
 40
0.5
 50
90.0
 51
225.0
  0
ARC
  8
0
 10
907.126458
 20
348.318226
 30
0.0
 40
0.5
 50
0.0
 51
90.0
  0
ARC
  8
0
 10
904.526458
 20
347.13244
 30
0.0
 40
1.5
 50
180.0
 51
315.0
  0
ARC
  8
0
 10
899.126458
 20
348.318226
 30
0.0
 40
0.5
 50
315.0
 51
90.0
  0
ARC
  8
0
 10
897.126458
 20
348.318226
 30
0.0
 40
0.5
 50
180.0
 51
225.0
  0
ARC
  8
0
 10
899.726458
 20
347.13244
 30
0.0
 40
1.5
 50
225.0
 51
0.0
  0
ARC
  8
0
 10
811.426458
 20
349.818226
 30
0.0
 40
2.0
 50
90.0
 51
180.0
  0
ARC
  8
0
 10
868.626458
 20
350.818226
 30
0.0
 40
1.0
 50
0.0
 51
90.0
  0
ARC
  8
0
 10
875.626458
 20
350.818226
 30
0.0
 40
1.0
 50
90.0
 51
180.0
  0
ARC
  8
0
 10
872.126458
 20
350.918226
 30
0.0
 40
0.9
 50
0.0
 51
180.0
  0
ARC
  8
0
 10
815.026458
 20
302.218226
 30
0.0
 40
0.5
 50
90.0
 51
180.0
  0
ARC
  8
0
 10
815.026458
 20
300.018226
 30
0.0
 40
0.5
 50
180.0
 51
270.0
  0
ARC
  8
0
 10
815.026458
 20
297.618226
 30
0.0
 40
0.5
 50
90.0
 51
180.0
  0
ARC
  8
0
 10
814.026458
 20
296.618226
 30
0.0
 40
0.5
 50
270.0
 51
0.0
  0
ARC
  8
0
 10
819.826458
 20
303.118226
 30
0.0
 40
1.0
 50
0.0
 51
90.0
  0
ARC
  8
0
 10
819.826458
 20
299.118226
 30
0.0
 40
1.0
 50
270.0
 51
0.0
  0
ARC
  8
0
 10
812.326458
 20
299.618226
 30
0.0
 40
3.5
 50
180.0
 51
270.0
  0
ARC
  8
0
 10
812.326458
 20
299.618226
 30
0.0
 40
2.1
 50
180.0
 51
270.0
  0
ARC
  8
0
 10
812.626458
 20
298.018226
 30
0.0
 40
0.5
 50
270.0
 51
0.0
  0
ARC
  8
0
 10
809.526458
 20
300.218226
 30
0.0
 40
0.7
 50
90.0
 51
180.0
  0
ARC
  8
0
 10
809.526458
 20
300.218226
 30
0.0
 40
0.7
 50
0.0
 51
90.0
  0
ARC
  8
0
 10
932.826458
 20
349.818226
 30
0.0
 40
2.0
 50
0.0
 51
90.0
  0
ARC
  8
0
 10
929.226458
 20
302.218226
 30
0.0
 40
0.5
 50
0.0
 51
90.0
  0
ARC
  8
0
 10
929.226458
 20
297.618226
 30
0.0
 40
0.5
 50
0.0
 51
90.0
  0
ARC
  8
0
 10
930.226458
 20
296.618226
 30
0.0
 40
0.5
 50
180.0
 51
270.0
  0
ARC
  8
0
 10
924.426458
 20
303.118226
 30
0.0
 40
1.0
 50
90.0
 51
180.0
  0
ARC
  8
0
 10
924.426458
 20
299.118226
 30
0.0
 40
1.0
 50
180.0
 51
270.0
  0
ARC
  8
0
 10
931.926458
 20
299.618226
 30
0.0
 40
3.5
 50
270.0
 51
0.0
  0
ARC
  8
0
 10
931.926458
 20
299.618226
 30
0.0
 40
2.1
 50
270.0
 51
0.0
  0
ARC
  8
0
 10
931.626458
 20
298.018226
 30
0.0
 40
0.5
 50
180.0
 51
270.0
  0
ARC
  8
0
 10
934.726458
 20
300.218226
 30
0.0
 40
0.7
 50
0.0
 51
90.0
  0
ARC
  8
0
 10
934.726458
 20
300.218226
 30
0.0
 40
0.7
 50
90.0
 51
180.0
  0
ARC
  8
0
 10
818.926458
 20
300.018226
 30
0.0
 40
0.5
 50
270.0
 51
0.0
  0
ARC
  8
0
 10
818.926458
 20
302.218226
 30
0.0
 40
0.5
 50
0.0
 51
90.0
  0
ARC
  8
0
 10
925.326458
 20
300.018226
 30
0.0
 40
0.5
 50
180.0
 51
270.0
  0
ARC
  8
0
 10
925.326458
 20
302.218226
 30
0.0
 40
0.5
 50
90.0
 51
180.0
  0
ARC
  8
0
 10
809.126458
 20
306.772927
 30
0.0
 40
2.0
 50
180.0
 51
240.0
  0
ARC
  8
0
 10
812.126458
 20
301.576774
 30
0.0
 40
1.0
 50
0.0
 51
60.0
  0
ARC
  8
0
 10
935.126458
 20
306.772927
 30
0.0
 40
2.0
 50
300.0
 51
0.0
  0
ARC
  8
0
 10
932.126458
 20
301.576774
 30
0.0
 40
1.0
 50
120.0
 51
180.0
  0
ARC
  8
0
 10
811.426458
 20
308.100832
 30
0.0
 40
2.0
 50
180.0
 51
240.0
  0
ARC
  8
0
 10
932.826458
 20
308.100832
 30
0.0
 40
2.0
 50
300.0
 51
0.0
  0
ARC
  8
0
 10
935.126458
 20
352.118226
 30
0.0
 40
2.0
 50
0.0
 51
90.0
  0
ARC
  8
0
 10
809.126458
 20
352.118226
 30
0.0
 40
2.0
 50
90.0
 51
180.0
  0
ARC
  8
0
 10
838.626458
 20
350.818226
 30
0.0
 40
1.0
 50
0.0
 51
90.0
  0
ARC
  8
0
 10
845.626458
 20
350.818226
 30
0.0
 40
1.0
 50
90.0
 51
180.0
  0
ARC
  8
0
 10
842.126458
 20
350.918226
 30
0.0
 40
0.9
 50
0.0
 51
180.0
  0
ARC
  8
0
 10
898.626458
 20
350.818226
 30
0.0
 40
1.0
 50
0.0
 51
90.0
  0
ARC
  8
0
 10
905.626458
 20
350.818226
 30
0.0
 40
1.0
 50
90.0
 51
180.0
  0
ARC
  8
0
 10
902.126458
 20
350.918226
 30
0.0
 40
0.9
 50
0.0
 51
180.0
  0
ARC
  8
0
 10
929.226458
 20
300.018226
 30
0.0
 40
0.5
 50
270.0
 51
0.0
  0
LINE
  8
0
 10
899.581151
 20
342.005898
 30
0.0
 11
899.581151
 21
309.128163
 31
0.0
  0
LINE
  8
0
 10
901.07795
 20
342.625674
 30
0.0
 11
901.07795
 21
337.851014
 31
0.0
  0
LINE
  8
0
 10
903.083377
 20
342.625674
 30
0.0
 11
903.071961
 21
337.851014
 31
0.0
  0
LINE
  8
0
 10
904.553524
 20
342.005898
 30
0.0
 11
904.56876
 21
309.128163
 31
0.0
  0
LINE
  8
0
 10
905.402974
 20
343.769479
 30
0.0
 11
909.168313
 21
347.534818
 31
0.0
  0
LINE
  8
0
 10
909.168313
 20
347.534818
 30
0.0
 11
905.402974
 21
343.769479
 31
0.0
  0
LINE
  8
0
 10
909.459925
 20
350.820227
 30
0.0
 11
909.459925
 21
348.241005
 31
0.0
  0
LINE
  8
0
 10
907.423802
 20
348.753314
 30
0.0
 11
906.560287
 21
349.617027
 31
0.0
  0
LINE
  8
0
 10
906.560287
 20
349.617027
 30
0.0
 11
907.423802
 21
348.753314
 31
0.0
  0
LINE
  8
0
 10
908.128201
 20
349.4597
 30
0.0
 11
907.266474
 21
350.321228
 31
0.0
  0
LINE
  8
0
 10
907.266474
 20
350.321228
 30
0.0
 11
908.128201
 21
349.4597
 31
0.0
  0
LINE
  8
0
 10
907.266474
 20
350.321228
 30
0.0
 11
907.765473
 21
350.820227
 31
0.0
  0
LINE
  8
0
 10
907.765473
 20
350.820227
 30
0.0
 11
907.266474
 21
350.321228
 31
0.0
  0
LINE
  8
0
 10
908.462126
 20
350.820227
 30
0.0
 11
907.765473
 21
350.820227
 31
0.0
  0
LINE
  8
0
 10
908.462126
 20
348.947192
 30
0.0
 11
908.462126
 21
350.820227
 31
0.0
  0
LINE
  8
0
 10
908.462126
 20
348.947192
 30
0.0
 11
903.906175
 21
344.389454
 31
0.0
  0
LINE
  8
0
 10
908.462126
 20
350.820227
 30
0.0
 11
908.462126
 21
348.947192
 31
0.0
  0
LINE
  8
0
 10
907.765473
 20
350.820227
 30
0.0
 11
908.462126
 21
350.820227
 31
0.0
  0
LINE
  8
0
 10
907.350899
 20
351.818226
 30
0.0
 11
908.462126
 21
351.818226
 31
0.0
  0
LINE
  8
0
 10
907.350899
 20
351.818226
 30
0.0
 11
906.560287
 21
351.027614
 31
0.0
  0
LINE
  8
0
 10
895.790981
 20
351.818226
 30
0.0
 11
896.90201
 21
351.818226
 31
0.0
  0
LINE
  8
0
 10
898.849934
 20
343.769479
 30
0.0
 11
895.084794
 21
347.534818
 31
0.0
  0
LINE
  8
0
 10
895.084794
 20
347.534818
 30
0.0
 11
898.849934
 21
343.769479
 31
0.0
  0
LINE
  8
0
 10
894.792983
 20
348.241005
 30
0.0
 11
894.792983
 21
350.820227
 31
0.0
  0
LINE
  8
0
 10
895.790981
 20
348.947192
 30
0.0
 11
900.346932
 21
344.389454
 31
0.0
  0
LINE
  8
0
 10
896.487634
 20
350.820227
 30
0.0
 11
896.986434
 21
350.321228
 31
0.0
  0
LINE
  8
0
 10
895.790981
 20
350.820227
 30
0.0
 11
896.487634
 21
350.820227
 31
0.0
  0
LINE
  8
0
 10
895.790981
 20
348.947192
 30
0.0
 11
895.790981
 21
350.820227
 31
0.0
  0
LINE
  8
0
 10
896.986434
 20
350.321228
 30
0.0
 11
896.124906
 21
349.4597
 31
0.0
  0
LINE
  8
0
 10
896.124906
 20
349.4597
 30
0.0
 11
896.08458
 21
349.413614
 31
0.0
  0
LINE
  8
0
 10
896.08458
 20
349.413614
 30
0.0
 11
896.124906
 21
349.4597
 31
0.0
  0
LINE
  8
0
 10
896.08458
 20
349.413614
 30
0.0
 11
896.050016
 21
349.363753
 31
0.0
  0
LINE
  8
0
 10
896.050016
 20
349.363753
 30
0.0
 11
896.08458
 21
349.413614
 31
0.0
  0
LINE
  8
0
 10
896.050016
 20
349.363753
 30
0.0
 11
896.021212
 21
349.311907
 31
0.0
  0
LINE
  8
0
 10
896.021212
 20
349.311907
 30
0.0
 11
896.050016
 21
349.363753
 31
0.0
  0
LINE
  8
0
 10
896.021212
 20
349.311907
 30
0.0
 11
896.000156
 21
349.254299
 31
0.0
  0
LINE
  8
0
 10
896.000156
 20
349.254299
 30
0.0
 11
896.021212
 21
349.311907
 31
0.0
  0
LINE
  8
0
 10
896.000156
 20
349.254299
 30
0.0
 11
895.986648
 21
349.196692
 31
0.0
  0
LINE
  8
0
 10
895.986648
 20
349.196692
 30
0.0
 11
896.000156
 21
349.254299
 31
0.0
  0
LINE
  8
0
 10
895.986648
 20
349.196692
 30
0.0
 11
895.978901
 21
349.137297
 31
0.0
  0
LINE
  8
0
 10
895.978901
 20
349.137297
 30
0.0
 11
895.986648
 21
349.196692
 31
0.0
  0
LINE
  8
0
 10
895.978901
 20
349.137297
 30
0.0
 11
895.978901
 21
349.075716
 31
0.0
  0
LINE
  8
0
 10
895.978901
 20
349.075716
 30
0.0
 11
895.978901
 21
349.137297
 31
0.0
  0
LINE
  8
0
 10
895.978901
 20
349.075716
 30
0.0
 11
895.986648
 21
349.016321
 31
0.0
  0
LINE
  8
0
 10
895.986648
 20
349.016321
 30
0.0
 11
895.978901
 21
349.075716
 31
0.0
  0
LINE
  8
0
 10
895.986648
 20
349.016321
 30
0.0
 11
896.000156
 21
348.958714
 31
0.0
  0
LINE
  8
0
 10
896.000156
 20
348.958714
 30
0.0
 11
895.986648
 21
349.016321
 31
0.0
  0
LINE
  8
0
 10
896.000156
 20
348.958714
 30
0.0
 11
896.021212
 21
348.901106
 31
0.0
  0
LINE
  8
0
 10
896.021212
 20
348.901106
 30
0.0
 11
896.000156
 21
348.958714
 31
0.0
  0
LINE
  8
0
 10
896.021212
 20
348.901106
 30
0.0
 11
896.050016
 21
348.847472
 31
0.0
  0
LINE
  8
0
 10
896.050016
 20
348.847472
 30
0.0
 11
896.021212
 21
348.901106
 31
0.0
  0
LINE
  8
0
 10
896.050016
 20
348.847472
 30
0.0
 11
896.08458
 21
348.7994
 31
0.0
  0
LINE
  8
0
 10
896.08458
 20
348.7994
 30
0.0
 11
896.050016
 21
348.847472
 31
0.0
  0
LINE
  8
0
 10
896.08458
 20
348.7994
 30
0.0
 11
896.124906
 21
348.753314
 31
0.0
  0
LINE
  8
0
 10
896.124906
 20
348.753314
 30
0.0
 11
896.08458
 21
348.7994
 31
0.0
  0
LINE
  8
0
 10
896.124906
 20
348.753314
 30
0.0
 11
896.169005
 21
348.713187
 31
0.0
  0
LINE
  8
0
 10
896.169005
 20
348.713187
 30
0.0
 11
896.124906
 21
348.753314
 31
0.0
  0
LINE
  8
0
 10
896.169005
 20
348.713187
 30
0.0
 11
896.218865
 21
348.678623
 31
0.0
  0
LINE
  8
0
 10
896.218865
 20
348.678623
 30
0.0
 11
896.169005
 21
348.713187
 31
0.0
  0
LINE
  8
0
 10
896.218865
 20
348.678623
 30
0.0
 11
896.272698
 21
348.651607
 31
0.0
  0
LINE
  8
0
 10
896.272698
 20
348.651607
 30
0.0
 11
896.218865
 21
348.678623
 31
0.0
  0
LINE
  8
0
 10
896.272698
 20
348.651607
 30
0.0
 11
896.328319
 21
348.63055
 31
0.0
  0
LINE
  8
0
 10
896.328319
 20
348.63055
 30
0.0
 11
896.272698
 21
348.651607
 31
0.0
  0
LINE
  8
0
 10
896.328319
 20
348.63055
 30
0.0
 11
896.387715
 21
348.615255
 31
0.0
  0
LINE
  8
0
 10
896.387715
 20
348.615255
 30
0.0
 11
896.328319
 21
348.63055
 31
0.0
  0
LINE
  8
0
 10
896.387715
 20
348.615255
 30
0.0
 11
896.447308
 21
348.607507
 31
0.0
  0
LINE
  8
0
 10
896.447308
 20
348.607507
 30
0.0
 11
896.387715
 21
348.615255
 31
0.0
  0
LINE
  8
0
 10
896.447308
 20
348.607507
 30
0.0
 11
896.506704
 21
348.607507
 31
0.0
  0
LINE
  8
0
 10
896.506704
 20
348.607507
 30
0.0
 11
896.447308
 21
348.607507
 31
0.0
  0
LINE
  8
0
 10
896.506704
 20
348.607507
 30
0.0
 11
896.566297
 21
348.615255
 31
0.0
  0
LINE
  8
0
 10
896.566297
 20
348.615255
 30
0.0
 11
896.506704
 21
348.607507
 31
0.0
  0
LINE
  8
0
 10
896.566297
 20
348.615255
 30
0.0
 11
896.625693
 21
348.63055
 31
0.0
  0
LINE
  8
0
 10
896.625693
 20
348.63055
 30
0.0
 11
896.566297
 21
348.615255
 31
0.0
  0
LINE
  8
0
 10
896.625693
 20
348.63055
 30
0.0
 11
896.681314
 21
348.651607
 31
0.0
  0
LINE
  8
0
 10
896.681314
 20
348.651607
 30
0.0
 11
896.625693
 21
348.63055
 31
0.0
  0
LINE
  8
0
 10
896.681314
 20
348.651607
 30
0.0
 11
896.735147
 21
348.678623
 31
0.0
  0
LINE
  8
0
 10
896.735147
 20
348.678623
 30
0.0
 11
896.681314
 21
348.651607
 31
0.0
  0
LINE
  8
0
 10
896.735147
 20
348.678623
 30
0.0
 11
896.785007
 21
348.713187
 31
0.0
  0
LINE
  8
0
 10
896.785007
 20
348.713187
 30
0.0
 11
896.735147
 21
348.678623
 31
0.0
  0
LINE
  8
0
 10
897.69282
 20
349.617027
 30
0.0
 11
896.829106
 21
348.753314
 31
0.0
  0
LINE
  8
0
 10
897.752215
 20
349.680395
 30
0.0
 11
897.69282
 21
349.617027
 31
0.0
  0
LINE
  8
0
 10
897.804062
 20
349.749326
 30
0.0
 11
897.752215
 21
349.680395
 31
0.0
  0
LINE
  8
0
 10
897.852134
 20
349.824215
 30
0.0
 11
897.804062
 21
349.749326
 31
0.0
  0
LINE
  8
0
 10
897.890473
 20
349.901091
 30
0.0
 11
897.852134
 21
349.824215
 31
0.0
  0
LINE
  8
0
 10
897.925038
 20
349.981543
 30
0.0
 11
897.890473
 21
349.901091
 31
0.0
  0
LINE
  8
0
 10
897.949868
 20
350.06418
 30
0.0
 11
897.925038
 21
349.981543
 31
0.0
  0
LINE
  8
0
 10
897.969137
 20
350.148605
 30
0.0
 11
897.949868
 21
350.06418
 31
0.0
  0
LINE
  8
0
 10
897.980658
 20
350.235016
 30
0.0
 11
897.969137
 21
350.148605
 31
0.0
  0
LINE
  8
0
 10
897.984433
 20
350.321228
 30
0.0
 11
897.980658
 21
350.235016
 31
0.0
  0
LINE
  8
0
 10
897.980658
 20
350.409626
 30
0.0
 11
897.984433
 21
350.321228
 31
0.0
  0
LINE
  8
0
 10
897.969137
 20
350.496037
 30
0.0
 11
897.980658
 21
350.409626
 31
0.0
  0
LINE
  8
0
 10
897.949868
 20
350.580461
 30
0.0
 11
897.969137
 21
350.496037
 31
0.0
  0
LINE
  8
0
 10
897.925038
 20
350.6629
 30
0.0
 11
897.949868
 21
350.580461
 31
0.0
  0
LINE
  8
0
 10
897.890473
 20
350.74355
 30
0.0
 11
897.925038
 21
350.6629
 31
0.0
  0
LINE
  8
0
 10
897.852134
 20
350.820227
 30
0.0
 11
897.890473
 21
350.74355
 31
0.0
  0
LINE
  8
0
 10
897.804062
 20
350.895117
 30
0.0
 11
897.852134
 21
350.820227
 31
0.0
  0
LINE
  8
0
 10
897.752215
 20
350.964246
 30
0.0
 11
897.804062
 21
350.895117
 31
0.0
  0
LINE
  8
0
 10
897.69282
 20
351.027614
 30
0.0
 11
897.752215
 21
350.964246
 31
0.0
  0
LINE
  8
0
 10
896.90201
 20
351.818226
 30
0.0
 11
897.69282
 21
351.027614
 31
0.0
  0
LINE
  8
0
 10
897.69282
 20
351.027614
 30
0.0
 11
896.90201
 21
351.818226
 31
0.0
  0
LINE
  8
0
 10
897.752215
 20
350.964246
 30
0.0
 11
897.69282
 21
351.027614
 31
0.0
  0
LINE
  8
0
 10
897.804062
 20
350.895117
 30
0.0
 11
897.752215
 21
350.964246
 31
0.0
  0
LINE
  8
0
 10
897.852134
 20
350.820227
 30
0.0
 11
897.804062
 21
350.895117
 31
0.0
  0
LINE
  8
0
 10
897.890473
 20
350.74355
 30
0.0
 11
897.852134
 21
350.820227
 31
0.0
  0
LINE
  8
0
 10
897.925038
 20
350.6629
 30
0.0
 11
897.890473
 21
350.74355
 31
0.0
  0
LINE
  8
0
 10
897.949868
 20
350.580461
 30
0.0
 11
897.925038
 21
350.6629
 31
0.0
  0
LINE
  8
0
 10
897.969137
 20
350.496037
 30
0.0
 11
897.949868
 21
350.580461
 31
0.0
  0
LINE
  8
0
 10
897.980658
 20
350.409626
 30
0.0
 11
897.969137
 21
350.496037
 31
0.0
  0
LINE
  8
0
 10
897.984433
 20
350.321228
 30
0.0
 11
897.980658
 21
350.409626
 31
0.0
  0
LINE
  8
0
 10
897.980658
 20
350.235016
 30
0.0
 11
897.984433
 21
350.321228
 31
0.0
  0
LINE
  8
0
 10
897.969137
 20
350.148605
 30
0.0
 11
897.980658
 21
350.235016
 31
0.0
  0
LINE
  8
0
 10
897.949868
 20
350.06418
 30
0.0
 11
897.969137
 21
350.148605
 31
0.0
  0
LINE
  8
0
 10
897.925038
 20
349.981543
 30
0.0
 11
897.949868
 21
350.06418
 31
0.0
  0
LINE
  8
0
 10
897.890473
 20
349.901091
 30
0.0
 11
897.925038
 21
349.981543
 31
0.0
  0
LINE
  8
0
 10
897.852134
 20
349.824215
 30
0.0
 11
897.890473
 21
349.901091
 31
0.0
  0
LINE
  8
0
 10
897.804062
 20
349.749326
 30
0.0
 11
897.852134
 21
349.824215
 31
0.0
  0
LINE
  8
0
 10
897.752215
 20
349.680395
 30
0.0
 11
897.804062
 21
349.749326
 31
0.0
  0
LINE
  8
0
 10
897.69282
 20
349.617027
 30
0.0
 11
897.752215
 21
349.680395
 31
0.0
  0
LINE
  8
0
 10
896.829106
 20
348.753314
 30
0.0
 11
897.69282
 21
349.617027
 31
0.0
  0
LINE
  8
0
 10
896.785007
 20
348.713187
 30
0.0
 11
896.829106
 21
348.753314
 31
0.0
  0
LINE
  8
0
 10
896.829106
 20
348.753314
 30
0.0
 11
896.785007
 21
348.713187
 31
0.0
  0
LINE
  8
0
 10
901.07795
 20
342.625674
 30
0.0
 11
901.074176
 21
342.756185
 31
0.0
  0
LINE
  8
0
 10
901.074176
 20
342.756185
 30
0.0
 11
901.07795
 21
342.625674
 31
0.0
  0
LINE
  8
0
 10
901.074176
 20
342.756185
 30
0.0
 11
901.064641
 21
342.886695
 31
0.0
  0
LINE
  8
0
 10
901.064641
 20
342.886695
 30
0.0
 11
901.074176
 21
342.756185
 31
0.0
  0
LINE
  8
0
 10
901.064641
 20
342.886695
 30
0.0
 11
901.047359
 21
343.015418
 31
0.0
  0
LINE
  8
0
 10
901.047359
 20
343.015418
 30
0.0
 11
901.064641
 21
342.886695
 31
0.0
  0
LINE
  8
0
 10
901.047359
 20
343.015418
 30
0.0
 11
901.022329
 21
343.143942
 31
0.0
  0
LINE
  8
0
 10
901.022329
 20
343.143942
 30
0.0
 11
901.047359
 21
343.015418
 31
0.0
  0
LINE
  8
0
 10
901.022329
 20
343.143942
 30
0.0
 11
900.991738
 21
343.270678
 31
0.0
  0
LINE
  8
0
 10
900.991738
 20
343.270678
 30
0.0
 11
901.022329
 21
343.143942
 31
0.0
  0
LINE
  8
0
 10
900.991738
 20
343.270678
 30
0.0
 11
900.955187
 21
343.397216
 31
0.0
  0
LINE
  8
0
 10
900.955187
 20
343.397216
 30
0.0
 11
900.991738
 21
343.270678
 31
0.0
  0
LINE
  8
0
 10
900.955187
 20
343.397216
 30
0.0
 11
900.911087
 21
343.519979
 31
0.0
  0
LINE
  8
0
 10
900.911087
 20
343.519979
 30
0.0
 11
900.955187
 21
343.397216
 31
0.0
  0
LINE
  8
0
 10
900.911087
 20
343.519979
 30
0.0
 11
900.861227
 21
343.640955
 31
0.0
  0
LINE
  8
0
 10
900.861227
 20
343.640955
 30
0.0
 11
900.911087
 21
343.519979
 31
0.0
  0
LINE
  8
0
 10
900.861227
 20
343.640955
 30
0.0
 11
900.805606
 21
343.757957
 31
0.0
  0
LINE
  8
0
 10
900.805606
 20
343.757957
 30
0.0
 11
900.861227
 21
343.640955
 31
0.0
  0
LINE
  8
0
 10
900.805606
 20
343.757957
 30
0.0
 11
900.744026
 21
343.873172
 31
0.0
  0
LINE
  8
0
 10
900.744026
 20
343.873172
 30
0.0
 11
900.805606
 21
343.757957
 31
0.0
  0
LINE
  8
0
 10
900.744026
 20
343.873172
 30
0.0
 11
900.675096
 21
343.984414
 31
0.0
  0
LINE
  8
0
 10
900.675096
 20
343.984414
 30
0.0
 11
900.744026
 21
343.873172
 31
0.0
  0
LINE
  8
0
 10
900.675096
 20
343.984414
 30
0.0
 11
900.600206
 21
344.091882
 31
0.0
  0
LINE
  8
0
 10
900.600206
 20
344.091882
 30
0.0
 11
900.675096
 21
343.984414
 31
0.0
  0
LINE
  8
0
 10
900.600206
 20
344.091882
 30
0.0
 11
900.521542
 21
344.195575
 31
0.0
  0
LINE
  8
0
 10
900.521542
 20
344.195575
 30
0.0
 11
900.600206
 21
344.091882
 31
0.0
  0
LINE
  8
0
 10
900.521542
 20
344.195575
 30
0.0
 11
900.437117
 21
344.295295
 31
0.0
  0
LINE
  8
0
 10
900.437117
 20
344.295295
 30
0.0
 11
900.521542
 21
344.195575
 31
0.0
  0
LINE
  8
0
 10
900.437117
 20
344.295295
 30
0.0
 11
900.346932
 21
344.389454
 31
0.0
  0
LINE
  8
0
 10
900.346932
 20
344.389454
 30
0.0
 11
900.437117
 21
344.295295
 31
0.0
  0
LINE
  8
0
 10
903.828254
 20
344.295295
 30
0.0
 11
903.906175
 21
344.389454
 31
0.0
  0
LINE
  8
0
 10
903.747637
 20
344.195575
 30
0.0
 11
903.828254
 21
344.295295
 31
0.0
  0
LINE
  8
0
 10
903.67056
 20
344.091882
 30
0.0
 11
903.747637
 21
344.195575
 31
0.0
  0
LINE
  8
0
 10
903.59731
 20
343.984414
 30
0.0
 11
903.67056
 21
344.091882
 31
0.0
  0
LINE
  8
0
 10
903.528025
 20
343.873172
 30
0.0
 11
903.59731
 21
343.984414
 31
0.0
  0
LINE
  8
0
 10
903.462755
 20
343.757957
 30
0.0
 11
903.528025
 21
343.873172
 31
0.0
  0
LINE
  8
0
 10
903.402767
 20
343.640955
 30
0.0
 11
903.462755
 21
343.757957
 31
0.0
  0
LINE
  8
0
 10
903.346997
 20
343.519979
 30
0.0
 11
903.402767
 21
343.640955
 31
0.0
  0
LINE
  8
0
 10
903.296539
 20
343.397216
 30
0.0
 11
903.346997
 21
343.519979
 31
0.0
  0
LINE
  8
0
 10
903.25067
 20
343.270678
 30
0.0
 11
903.296539
 21
343.397216
 31
0.0
  0
LINE
  8
0
 10
903.210699
 20
343.143942
 30
0.0
 11
903.25067
 21
343.270678
 31
0.0
  0
LINE
  8
0
 10
903.176025
 20
343.015418
 30
0.0
 11
903.210699
 21
343.143942
 31
0.0
  0
LINE
  8
0
 10
903.147016
 20
342.886695
 30
0.0
 11
903.176025
 21
343.015418
 31
0.0
  0
LINE
  8
0
 10
903.115973
 20
342.756185
 30
0.0
 11
903.147016
 21
342.886695
 31
0.0
  0
LINE
  8
0
 10
903.083377
 20
342.625674
 30
0.0
 11
903.115973
 21
342.756185
 31
0.0
  0
LINE
  8
0
 10
903.115973
 20
342.756185
 30
0.0
 11
903.083377
 21
342.625674
 31
0.0
  0
LINE
  8
0
 10
903.147016
 20
342.886695
 30
0.0
 11
903.115973
 21
342.756185
 31
0.0
  0
LINE
  8
0
 10
903.176025
 20
343.015418
 30
0.0
 11
903.147016
 21
342.886695
 31
0.0
  0
LINE
  8
0
 10
903.210699
 20
343.143942
 30
0.0
 11
903.176025
 21
343.015418
 31
0.0
  0
LINE
  8
0
 10
903.25067
 20
343.270678
 30
0.0
 11
903.210699
 21
343.143942
 31
0.0
  0
LINE
  8
0
 10
903.296539
 20
343.397216
 30
0.0
 11
903.25067
 21
343.270678
 31
0.0
  0
LINE
  8
0
 10
903.346997
 20
343.519979
 30
0.0
 11
903.296539
 21
343.397216
 31
0.0
  0
LINE
  8
0
 10
903.402767
 20
343.640955
 30
0.0
 11
903.346997
 21
343.519979
 31
0.0
  0
LINE
  8
0
 10
903.462755
 20
343.757957
 30
0.0
 11
903.402767
 21
343.640955
 31
0.0
  0
LINE
  8
0
 10
903.528025
 20
343.873172
 30
0.0
 11
903.462755
 21
343.757957
 31
0.0
  0
LINE
  8
0
 10
903.59731
 20
343.984414
 30
0.0
 11
903.528025
 21
343.873172
 31
0.0
  0
LINE
  8
0
 10
903.67056
 20
344.091882
 30
0.0
 11
903.59731
 21
343.984414
 31
0.0
  0
LINE
  8
0
 10
903.747637
 20
344.195575
 30
0.0
 11
903.67056
 21
344.091882
 31
0.0
  0
LINE
  8
0
 10
903.828254
 20
344.295295
 30
0.0
 11
903.747637
 21
344.195575
 31
0.0
  0
LINE
  8
0
 10
903.906175
 20
344.389454
 30
0.0
 11
903.828254
 21
344.295295
 31
0.0
  0
LINE
  8
0
 10
907.423802
 20
348.753314
 30
0.0
 11
907.467901
 21
348.713187
 31
0.0
  0
LINE
  8
0
 10
907.467901
 20
348.713187
 30
0.0
 11
907.423802
 21
348.753314
 31
0.0
  0
LINE
  8
0
 10
907.467901
 20
348.713187
 30
0.0
 11
907.517761
 21
348.678623
 31
0.0
  0
LINE
  8
0
 10
907.517761
 20
348.678623
 30
0.0
 11
907.467901
 21
348.713187
 31
0.0
  0
LINE
  8
0
 10
907.517761
 20
348.678623
 30
0.0
 11
907.571595
 21
348.651607
 31
0.0
  0
LINE
  8
0
 10
907.571595
 20
348.651607
 30
0.0
 11
907.517761
 21
348.678623
 31
0.0
  0
LINE
  8
0
 10
907.571595
 20
348.651607
 30
0.0
 11
907.627216
 21
348.63055
 31
0.0
  0
LINE
  8
0
 10
907.627216
 20
348.63055
 30
0.0
 11
907.571595
 21
348.651607
 31
0.0
  0
LINE
  8
0
 10
907.627216
 20
348.63055
 30
0.0
 11
907.686809
 21
348.615255
 31
0.0
  0
LINE
  8
0
 10
907.686809
 20
348.615255
 30
0.0
 11
907.627216
 21
348.63055
 31
0.0
  0
LINE
  8
0
 10
907.686809
 20
348.615255
 30
0.0
 11
907.746205
 21
348.607507
 31
0.0
  0
LINE
  8
0
 10
907.746205
 20
348.607507
 30
0.0
 11
907.686809
 21
348.615255
 31
0.0
  0
LINE
  8
0
 10
907.746205
 20
348.607507
 30
0.0
 11
907.805798
 21
348.607507
 31
0.0
  0
LINE
  8
0
 10
907.805798
 20
348.607507
 30
0.0
 11
907.746205
 21
348.607507
 31
0.0
  0
LINE
  8
0
 10
907.805798
 20
348.607507
 30
0.0
 11
907.865194
 21
348.615255
 31
0.0
  0
LINE
  8
0
 10
907.865194
 20
348.615255
 30
0.0
 11
907.805798
 21
348.607507
 31
0.0
  0
LINE
  8
0
 10
907.865194
 20
348.615255
 30
0.0
 11
907.924589
 21
348.63055
 31
0.0
  0
LINE
  8
0
 10
907.924589
 20
348.63055
 30
0.0
 11
907.865194
 21
348.615255
 31
0.0
  0
LINE
  8
0
 10
907.924589
 20
348.63055
 30
0.0
 11
907.980408
 21
348.651607
 31
0.0
  0
LINE
  8
0
 10
907.980408
 20
348.651607
 30
0.0
 11
907.924589
 21
348.63055
 31
0.0
  0
LINE
  8
0
 10
907.980408
 20
348.651607
 30
0.0
 11
908.034043
 21
348.678623
 31
0.0
  0
LINE
  8
0
 10
908.034043
 20
348.678623
 30
0.0
 11
907.980408
 21
348.651607
 31
0.0
  0
LINE
  8
0
 10
908.034043
 20
348.678623
 30
0.0
 11
908.083903
 21
348.713187
 31
0.0
  0
LINE
  8
0
 10
908.083903
 20
348.713187
 30
0.0
 11
908.034043
 21
348.678623
 31
0.0
  0
LINE
  8
0
 10
908.083903
 20
348.713187
 30
0.0
 11
908.128201
 21
348.753314
 31
0.0
  0
LINE
  8
0
 10
908.128201
 20
348.753314
 30
0.0
 11
908.083903
 21
348.713187
 31
0.0
  0
LINE
  8
0
 10
908.168328
 20
348.7994
 30
0.0
 11
908.128201
 21
348.753314
 31
0.0
  0
LINE
  8
0
 10
908.202892
 20
348.847472
 30
0.0
 11
908.168328
 21
348.7994
 31
0.0
  0
LINE
  8
0
 10
908.231696
 20
348.901106
 30
0.0
 11
908.202892
 21
348.847472
 31
0.0
  0
LINE
  8
0
 10
908.252752
 20
348.958714
 30
0.0
 11
908.231696
 21
348.901106
 31
0.0
  0
LINE
  8
0
 10
908.26626
 20
349.016321
 30
0.0
 11
908.252752
 21
348.958714
 31
0.0
  0
LINE
  8
0
 10
908.274008
 20
349.075716
 30
0.0
 11
908.26626
 21
349.016321
 31
0.0
  0
LINE
  8
0
 10
908.274008
 20
349.137297
 30
0.0
 11
908.274008
 21
349.075716
 31
0.0
  0
LINE
  8
0
 10
908.26626
 20
349.196692
 30
0.0
 11
908.274008
 21
349.137297
 31
0.0
  0
LINE
  8
0
 10
908.252752
 20
349.254299
 30
0.0
 11
908.26626
 21
349.196692
 31
0.0
  0
LINE
  8
0
 10
908.231696
 20
349.311907
 30
0.0
 11
908.252752
 21
349.254299
 31
0.0
  0
LINE
  8
0
 10
908.202892
 20
349.363753
 30
0.0
 11
908.231696
 21
349.311907
 31
0.0
  0
LINE
  8
0
 10
908.168328
 20
349.413614
 30
0.0
 11
908.202892
 21
349.363753
 31
0.0
  0
LINE
  8
0
 10
908.128201
 20
349.4597
 30
0.0
 11
908.168328
 21
349.413614
 31
0.0
  0
LINE
  8
0
 10
908.168328
 20
349.413614
 30
0.0
 11
908.128201
 21
349.4597
 31
0.0
  0
LINE
  8
0
 10
908.202892
 20
349.363753
 30
0.0
 11
908.168328
 21
349.413614
 31
0.0
  0
LINE
  8
0
 10
908.231696
 20
349.311907
 30
0.0
 11
908.202892
 21
349.363753
 31
0.0
  0
LINE
  8
0
 10
908.252752
 20
349.254299
 30
0.0
 11
908.231696
 21
349.311907
 31
0.0
  0
LINE
  8
0
 10
908.26626
 20
349.196692
 30
0.0
 11
908.252752
 21
349.254299
 31
0.0
  0
LINE
  8
0
 10
908.274008
 20
349.137297
 30
0.0
 11
908.26626
 21
349.196692
 31
0.0
  0
LINE
  8
0
 10
908.274008
 20
349.075716
 30
0.0
 11
908.274008
 21
349.137297
 31
0.0
  0
LINE
  8
0
 10
908.26626
 20
349.016321
 30
0.0
 11
908.274008
 21
349.075716
 31
0.0
  0
LINE
  8
0
 10
908.252752
 20
348.958714
 30
0.0
 11
908.26626
 21
349.016321
 31
0.0
  0
LINE
  8
0
 10
908.231696
 20
348.901106
 30
0.0
 11
908.252752
 21
348.958714
 31
0.0
  0
LINE
  8
0
 10
908.202892
 20
348.847472
 30
0.0
 11
908.231696
 21
348.901106
 31
0.0
  0
LINE
  8
0
 10
908.168328
 20
348.7994
 30
0.0
 11
908.202892
 21
348.847472
 31
0.0
  0
LINE
  8
0
 10
908.128201
 20
348.753314
 30
0.0
 11
908.168328
 21
348.7994
 31
0.0
  0
LINE
  8
0
 10
909.168313
 20
347.534818
 30
0.0
 11
909.227708
 21
347.599974
 31
0.0
  0
LINE
  8
0
 10
909.227708
 20
347.599974
 30
0.0
 11
909.168313
 21
347.534818
 31
0.0
  0
LINE
  8
0
 10
909.227708
 20
347.599974
 30
0.0
 11
909.279555
 21
347.669103
 31
0.0
  0
LINE
  8
0
 10
909.279555
 20
347.669103
 30
0.0
 11
909.227708
 21
347.599974
 31
0.0
  0
LINE
  8
0
 10
909.279555
 20
347.669103
 30
0.0
 11
909.327627
 21
347.742006
 31
0.0
  0
LINE
  8
0
 10
909.327627
 20
347.742006
 30
0.0
 11
909.279555
 21
347.669103
 31
0.0
  0
LINE
  8
0
 10
909.327627
 20
347.742006
 30
0.0
 11
909.367754
 21
347.818882
 31
0.0
  0
LINE
  8
0
 10
909.367754
 20
347.818882
 30
0.0
 11
909.327627
 21
347.742006
 31
0.0
  0
LINE
  8
0
 10
909.367754
 20
347.818882
 30
0.0
 11
909.40053
 21
347.899334
 31
0.0
  0
LINE
  8
0
 10
909.40053
 20
347.899334
 30
0.0
 11
909.367754
 21
347.818882
 31
0.0
  0
LINE
  8
0
 10
909.40053
 20
347.899334
 30
0.0
 11
909.427347
 21
347.983758
 31
0.0
  0
LINE
  8
0
 10
909.427347
 20
347.983758
 30
0.0
 11
909.40053
 21
347.899334
 31
0.0
  0
LINE
  8
0
 10
909.427347
 20
347.983758
 30
0.0
 11
909.44463
 21
348.068382
 31
0.0
  0
LINE
  8
0
 10
909.44463
 20
348.068382
 30
0.0
 11
909.427347
 21
347.983758
 31
0.0
  0
LINE
  8
0
 10
909.44463
 20
348.068382
 30
0.0
 11
909.456151
 21
348.154594
 31
0.0
  0
LINE
  8
0
 10
909.456151
 20
348.154594
 30
0.0
 11
909.44463
 21
348.068382
 31
0.0
  0
LINE
  8
0
 10
909.456151
 20
348.154594
 30
0.0
 11
909.459925
 21
348.241005
 31
0.0
  0
LINE
  8
0
 10
909.459925
 20
348.241005
 30
0.0
 11
909.456151
 21
348.154594
 31
0.0
  0
LINE
  8
0
 10
909.459925
 20
350.820227
 30
0.0
 11
909.456151
 21
350.908625
 31
0.0
  0
LINE
  8
0
 10
909.456151
 20
350.908625
 30
0.0
 11
909.459925
 21
350.820227
 31
0.0
  0
LINE
  8
0
 10
909.456151
 20
350.908625
 30
0.0
 11
909.44463
 21
350.994837
 31
0.0
  0
LINE
  8
0
 10
909.44463
 20
350.994837
 30
0.0
 11
909.456151
 21
350.908625
 31
0.0
  0
LINE
  8
0
 10
909.44463
 20
350.994837
 30
0.0
 11
909.427347
 21
351.079262
 31
0.0
  0
LINE
  8
0
 10
909.427347
 20
351.079262
 30
0.0
 11
909.44463
 21
350.994837
 31
0.0
  0
LINE
  8
0
 10
909.427347
 20
351.079262
 30
0.0
 11
909.40053
 21
351.161899
 31
0.0
  0
LINE
  8
0
 10
909.40053
 20
351.161899
 30
0.0
 11
909.427347
 21
351.079262
 31
0.0
  0
LINE
  8
0
 10
909.40053
 20
351.161899
 30
0.0
 11
909.367754
 21
351.242549
 31
0.0
  0
LINE
  8
0
 10
909.367754
 20
351.242549
 30
0.0
 11
909.40053
 21
351.161899
 31
0.0
  0
LINE
  8
0
 10
909.367754
 20
351.242549
 30
0.0
 11
909.327627
 21
351.319227
 31
0.0
  0
LINE
  8
0
 10
909.327627
 20
351.319227
 30
0.0
 11
909.367754
 21
351.242549
 31
0.0
  0
LINE
  8
0
 10
909.327627
 20
351.319227
 30
0.0
 11
909.279555
 21
351.394116
 31
0.0
  0
LINE
  8
0
 10
909.279555
 20
351.394116
 30
0.0
 11
909.327627
 21
351.319227
 31
0.0
  0
LINE
  8
0
 10
909.279555
 20
351.394116
 30
0.0
 11
909.227708
 21
351.463245
 31
0.0
  0
LINE
  8
0
 10
909.227708
 20
351.463245
 30
0.0
 11
909.279555
 21
351.394116
 31
0.0
  0
LINE
  8
0
 10
909.227708
 20
351.463245
 30
0.0
 11
909.168313
 21
351.526415
 31
0.0
  0
LINE
  8
0
 10
909.168313
 20
351.526415
 30
0.0
 11
909.227708
 21
351.463245
 31
0.0
  0
LINE
  8
0
 10
909.168313
 20
351.526415
 30
0.0
 11
909.104945
 21
351.586009
 31
0.0
  0
LINE
  8
0
 10
909.104945
 20
351.586009
 30
0.0
 11
909.168313
 21
351.526415
 31
0.0
  0
LINE
  8
0
 10
909.104945
 20
351.586009
 30
0.0
 11
909.035816
 21
351.637855
 31
0.0
  0
LINE
  8
0
 10
909.035816
 20
351.637855
 30
0.0
 11
909.104945
 21
351.586009
 31
0.0
  0
LINE
  8
0
 10
909.035816
 20
351.637855
 30
0.0
 11
908.960926
 21
351.685729
 31
0.0
  0
LINE
  8
0
 10
908.960926
 20
351.685729
 30
0.0
 11
909.035816
 21
351.637855
 31
0.0
  0
LINE
  8
0
 10
908.960926
 20
351.685729
 30
0.0
 11
908.884249
 21
351.726054
 31
0.0
  0
LINE
  8
0
 10
908.884249
 20
351.726054
 30
0.0
 11
908.960926
 21
351.685729
 31
0.0
  0
LINE
  8
0
 10
908.884249
 20
351.726054
 30
0.0
 11
908.803598
 21
351.758632
 31
0.0
  0
LINE
  8
0
 10
908.803598
 20
351.758632
 30
0.0
 11
908.884249
 21
351.726054
 31
0.0
  0
LINE
  8
0
 10
908.803598
 20
351.758632
 30
0.0
 11
908.72116
 21
351.785648
 31
0.0
  0
LINE
  8
0
 10
908.72116
 20
351.785648
 30
0.0
 11
908.803598
 21
351.758632
 31
0.0
  0
LINE
  8
0
 10
908.72116
 20
351.785648
 30
0.0
 11
908.636736
 21
351.80293
 31
0.0
  0
LINE
  8
0
 10
908.636736
 20
351.80293
 30
0.0
 11
908.72116
 21
351.785648
 31
0.0
  0
LINE
  8
0
 10
908.636736
 20
351.80293
 30
0.0
 11
908.550324
 21
351.814452
 31
0.0
  0
LINE
  8
0
 10
908.550324
 20
351.814452
 30
0.0
 11
908.636736
 21
351.80293
 31
0.0
  0
LINE
  8
0
 10
908.550324
 20
351.814452
 30
0.0
 11
908.462126
 21
351.818226
 31
0.0
  0
LINE
  8
0
 10
908.462126
 20
351.818226
 30
0.0
 11
908.550324
 21
351.814452
 31
0.0
  0
LINE
  8
0
 10
906.560287
 20
351.027614
 30
0.0
 11
906.500693
 21
350.964246
 31
0.0
  0
LINE
  8
0
 10
906.500693
 20
350.964246
 30
0.0
 11
906.560287
 21
351.027614
 31
0.0
  0
LINE
  8
0
 10
906.500693
 20
350.964246
 30
0.0
 11
906.448846
 21
350.895117
 31
0.0
  0
LINE
  8
0
 10
906.448846
 20
350.895117
 30
0.0
 11
906.500693
 21
350.964246
 31
0.0
  0
LINE
  8
0
 10
906.448846
 20
350.895117
 30
0.0
 11
906.400972
 21
350.820227
 31
0.0
  0
LINE
  8
0
 10
906.400972
 20
350.820227
 30
0.0
 11
906.448846
 21
350.895117
 31
0.0
  0
LINE
  8
0
 10
906.400972
 20
350.820227
 30
0.0
 11
906.362634
 21
350.74355
 31
0.0
  0
LINE
  8
0
 10
906.362634
 20
350.74355
 30
0.0
 11
906.400972
 21
350.820227
 31
0.0
  0
LINE
  8
0
 10
906.362634
 20
350.74355
 30
0.0
 11
906.328069
 21
350.6629
 31
0.0
  0
LINE
  8
0
 10
906.328069
 20
350.6629
 30
0.0
 11
906.362634
 21
350.74355
 31
0.0
  0
LINE
  8
0
 10
906.328069
 20
350.6629
 30
0.0
 11
906.30304
 21
350.580461
 31
0.0
  0
LINE
  8
0
 10
906.30304
 20
350.580461
 30
0.0
 11
906.328069
 21
350.6629
 31
0.0
  0
LINE
  8
0
 10
906.30304
 20
350.580461
 30
0.0
 11
906.28397
 21
350.496037
 31
0.0
  0
LINE
  8
0
 10
906.28397
 20
350.496037
 30
0.0
 11
906.30304
 21
350.580461
 31
0.0
  0
LINE
  8
0
 10
906.28397
 20
350.496037
 30
0.0
 11
906.272448
 21
350.409626
 31
0.0
  0
LINE
  8
0
 10
906.272448
 20
350.409626
 30
0.0
 11
906.28397
 21
350.496037
 31
0.0
  0
LINE
  8
0
 10
906.272448
 20
350.409626
 30
0.0
 11
906.268475
 21
350.321228
 31
0.0
  0
LINE
  8
0
 10
906.268475
 20
350.321228
 30
0.0
 11
906.272448
 21
350.409626
 31
0.0
  0
LINE
  8
0
 10
906.268475
 20
350.321228
 30
0.0
 11
906.272448
 21
350.235016
 31
0.0
  0
LINE
  8
0
 10
906.272448
 20
350.235016
 30
0.0
 11
906.268475
 21
350.321228
 31
0.0
  0
LINE
  8
0
 10
906.272448
 20
350.235016
 30
0.0
 11
906.28397
 21
350.148605
 31
0.0
  0
LINE
  8
0
 10
906.28397
 20
350.148605
 30
0.0
 11
906.272448
 21
350.235016
 31
0.0
  0
LINE
  8
0
 10
906.28397
 20
350.148605
 30
0.0
 11
906.30304
 21
350.06418
 31
0.0
  0
LINE
  8
0
 10
906.30304
 20
350.06418
 30
0.0
 11
906.28397
 21
350.148605
 31
0.0
  0
LINE
  8
0
 10
906.30304
 20
350.06418
 30
0.0
 11
906.328069
 21
349.981543
 31
0.0
  0
LINE
  8
0
 10
906.328069
 20
349.981543
 30
0.0
 11
906.30304
 21
350.06418
 31
0.0
  0
LINE
  8
0
 10
906.328069
 20
349.981543
 30
0.0
 11
906.362634
 21
349.901091
 31
0.0
  0
LINE
  8
0
 10
906.362634
 20
349.901091
 30
0.0
 11
906.328069
 21
349.981543
 31
0.0
  0
LINE
  8
0
 10
906.362634
 20
349.901091
 30
0.0
 11
906.400972
 21
349.824215
 31
0.0
  0
LINE
  8
0
 10
906.400972
 20
349.824215
 30
0.0
 11
906.362634
 21
349.901091
 31
0.0
  0
LINE
  8
0
 10
906.400972
 20
349.824215
 30
0.0
 11
906.448846
 21
349.749326
 31
0.0
  0
LINE
  8
0
 10
906.448846
 20
349.749326
 30
0.0
 11
906.400972
 21
349.824215
 31
0.0
  0
LINE
  8
0
 10
906.448846
 20
349.749326
 30
0.0
 11
906.500693
 21
349.680395
 31
0.0
  0
LINE
  8
0
 10
906.500693
 20
349.680395
 30
0.0
 11
906.448846
 21
349.749326
 31
0.0
  0
LINE
  8
0
 10
906.500693
 20
349.680395
 30
0.0
 11
906.560287
 21
349.617027
 31
0.0
  0
LINE
  8
0
 10
906.560287
 20
349.617027
 30
0.0
 11
906.500693
 21
349.680395
 31
0.0
  0
LINE
  8
0
 10
904.4748
 20
308.707827
 30
0.0
 11
904.434475
 21
308.629164
 31
0.0
  0
LINE
  8
0
 10
904.509365
 20
308.788478
 30
0.0
 11
904.4748
 21
308.707827
 31
0.0
  0
LINE
  8
0
 10
904.534195
 20
308.870916
 30
0.0
 11
904.509365
 21
308.788478
 31
0.0
  0
LINE
  8
0
 10
904.553464
 20
308.955341
 30
0.0
 11
904.534195
 21
308.870916
 31
0.0
  0
LINE
  8
0
 10
904.564986
 20
309.041752
 30
0.0
 11
904.553464
 21
308.955341
 31
0.0
  0
LINE
  8
0
 10
904.56876
 20
309.128163
 30
0.0
 11
904.564986
 21
309.041752
 31
0.0
  0
LINE
  8
0
 10
904.564986
 20
309.041752
 30
0.0
 11
904.56876
 21
309.128163
 31
0.0
  0
LINE
  8
0
 10
904.553464
 20
308.955341
 30
0.0
 11
904.564986
 21
309.041752
 31
0.0
  0
LINE
  8
0
 10
904.534195
 20
308.870916
 30
0.0
 11
904.553464
 21
308.955341
 31
0.0
  0
LINE
  8
0
 10
904.509365
 20
308.788478
 30
0.0
 11
904.534195
 21
308.870916
 31
0.0
  0
LINE
  8
0
 10
904.4748
 20
308.707827
 30
0.0
 11
904.509365
 21
308.788478
 31
0.0
  0
LINE
  8
0
 10
904.434475
 20
308.629164
 30
0.0
 11
904.4748
 21
308.707827
 31
0.0
  0
LINE
  8
0
 10
899.584925
 20
309.041752
 30
0.0
 11
899.581151
 21
309.128163
 31
0.0
  0
LINE
  8
0
 10
899.596447
 20
308.955341
 30
0.0
 11
899.584925
 21
309.041752
 31
0.0
  0
LINE
  8
0
 10
899.615715
 20
308.870916
 30
0.0
 11
899.596447
 21
308.955341
 31
0.0
  0
LINE
  8
0
 10
899.640546
 20
308.788478
 30
0.0
 11
899.615715
 21
308.870916
 31
0.0
  0
LINE
  8
0
 10
899.675111
 20
308.707827
 30
0.0
 11
899.640546
 21
308.788478
 31
0.0
  0
LINE
  8
0
 10
899.715436
 20
308.629164
 30
0.0
 11
899.675111
 21
308.707827
 31
0.0
  0
LINE
  8
0
 10
899.675111
 20
308.707827
 30
0.0
 11
899.715436
 21
308.629164
 31
0.0
  0
LINE
  8
0
 10
899.640546
 20
308.788478
 30
0.0
 11
899.675111
 21
308.707827
 31
0.0
  0
LINE
  8
0
 10
899.615715
 20
308.870916
 30
0.0
 11
899.640546
 21
308.788478
 31
0.0
  0
LINE
  8
0
 10
899.596447
 20
308.955341
 30
0.0
 11
899.615715
 21
308.870916
 31
0.0
  0
LINE
  8
0
 10
899.584925
 20
309.041752
 30
0.0
 11
899.596447
 21
308.955341
 31
0.0
  0
LINE
  8
0
 10
899.581151
 20
309.128163
 30
0.0
 11
899.584925
 21
309.041752
 31
0.0
  0
LINE
  8
0
 10
899.581151
 20
342.005898
 30
0.0
 11
899.577377
 21
342.136408
 31
0.0
  0
LINE
  8
0
 10
899.577377
 20
342.136408
 30
0.0
 11
899.581151
 21
342.005898
 31
0.0
  0
LINE
  8
0
 10
899.577377
 20
342.136408
 30
0.0
 11
899.567643
 21
342.266919
 31
0.0
  0
LINE
  8
0
 10
899.567643
 20
342.266919
 30
0.0
 11
899.577377
 21
342.136408
 31
0.0
  0
LINE
  8
0
 10
899.567643
 20
342.266919
 30
0.0
 11
899.550361
 21
342.395443
 31
0.0
  0
LINE
  8
0
 10
899.550361
 20
342.395443
 30
0.0
 11
899.567643
 21
342.266919
 31
0.0
  0
LINE
  8
0
 10
899.550361
 20
342.395443
 30
0.0
 11
899.527318
 21
342.523967
 31
0.0
  0
LINE
  8
0
 10
899.527318
 20
342.523967
 30
0.0
 11
899.550361
 21
342.395443
 31
0.0
  0
LINE
  8
0
 10
899.527318
 20
342.523967
 30
0.0
 11
899.496726
 21
342.650704
 31
0.0
  0
LINE
  8
0
 10
899.496726
 20
342.650704
 30
0.0
 11
899.527318
 21
342.523967
 31
0.0
  0
LINE
  8
0
 10
899.496726
 20
342.650704
 30
0.0
 11
899.458388
 21
342.77744
 31
0.0
  0
LINE
  8
0
 10
899.458388
 20
342.77744
 30
0.0
 11
899.496726
 21
342.650704
 31
0.0
  0
LINE
  8
0
 10
899.458388
 20
342.77744
 30
0.0
 11
899.416076
 21
342.900203
 31
0.0
  0
LINE
  8
0
 10
899.416076
 20
342.900203
 30
0.0
 11
899.458388
 21
342.77744
 31
0.0
  0
LINE
  8
0
 10
899.416076
 20
342.900203
 30
0.0
 11
899.366216
 21
343.021179
 31
0.0
  0
LINE
  8
0
 10
899.366216
 20
343.021179
 30
0.0
 11
899.416076
 21
342.900203
 31
0.0
  0
LINE
  8
0
 10
899.366216
 20
343.021179
 30
0.0
 11
899.308608
 21
343.138181
 31
0.0
  0
LINE
  8
0
 10
899.308608
 20
343.138181
 30
0.0
 11
899.366216
 21
343.021179
 31
0.0
  0
LINE
  8
0
 10
899.308608
 20
343.138181
 30
0.0
 11
899.247227
 21
343.253396
 31
0.0
  0
LINE
  8
0
 10
899.247227
 20
343.253396
 30
0.0
 11
899.308608
 21
343.138181
 31
0.0
  0
LINE
  8
0
 10
899.247227
 20
343.253396
 30
0.0
 11
899.178098
 21
343.364638
 31
0.0
  0
LINE
  8
0
 10
899.178098
 20
343.364638
 30
0.0
 11
899.247227
 21
343.253396
 31
0.0
  0
LINE
  8
0
 10
899.178098
 20
343.364638
 30
0.0
 11
899.105195
 21
343.472106
 31
0.0
  0
LINE
  8
0
 10
899.105195
 20
343.472106
 30
0.0
 11
899.178098
 21
343.364638
 31
0.0
  0
LINE
  8
0
 10
899.105195
 20
343.472106
 30
0.0
 11
899.024544
 21
343.575799
 31
0.0
  0
LINE
  8
0
 10
899.024544
 20
343.575799
 30
0.0
 11
899.105195
 21
343.472106
 31
0.0
  0
LINE
  8
0
 10
899.024544
 20
343.575799
 30
0.0
 11
898.94012
 21
343.675519
 31
0.0
  0
LINE
  8
0
 10
898.94012
 20
343.675519
 30
0.0
 11
899.024544
 21
343.575799
 31
0.0
  0
LINE
  8
0
 10
898.94012
 20
343.675519
 30
0.0
 11
898.849934
 21
343.769479
 31
0.0
  0
LINE
  8
0
 10
898.849934
 20
343.769479
 30
0.0
 11
898.94012
 21
343.675519
 31
0.0
  0
LINE
  8
0
 10
895.0252
 20
347.599974
 30
0.0
 11
895.084794
 21
347.534818
 31
0.0
  0
LINE
  8
0
 10
894.973354
 20
347.669103
 30
0.0
 11
895.0252
 21
347.599974
 31
0.0
  0
LINE
  8
0
 10
894.92548
 20
347.742006
 30
0.0
 11
894.973354
 21
347.669103
 31
0.0
  0
LINE
  8
0
 10
894.885155
 20
347.818882
 30
0.0
 11
894.92548
 21
347.742006
 31
0.0
  0
LINE
  8
0
 10
894.852577
 20
347.899334
 30
0.0
 11
894.885155
 21
347.818882
 31
0.0
  0
LINE
  8
0
 10
894.825561
 20
347.983758
 30
0.0
 11
894.852577
 21
347.899334
 31
0.0
  0
LINE
  8
0
 10
894.808279
 20
348.068382
 30
0.0
 11
894.825561
 21
347.983758
 31
0.0
  0
LINE
  8
0
 10
894.796757
 20
348.154594
 30
0.0
 11
894.808279
 21
348.068382
 31
0.0
  0
LINE
  8
0
 10
894.796757
 20
348.154594
 30
0.0
 11
894.792983
 21
348.241005
 31
0.0
  0
LINE
  8
0
 10
895.0252
 20
347.599974
 30
0.0
 11
895.084794
 21
347.534818
 31
0.0
  0
LINE
  8
0
 10
894.973354
 20
347.669103
 30
0.0
 11
895.0252
 21
347.599974
 31
0.0
  0
LINE
  8
0
 10
894.92548
 20
347.742006
 30
0.0
 11
894.973354
 21
347.669103
 31
0.0
  0
LINE
  8
0
 10
894.885155
 20
347.818882
 30
0.0
 11
894.92548
 21
347.742006
 31
0.0
  0
LINE
  8
0
 10
894.852577
 20
347.899334
 30
0.0
 11
894.885155
 21
347.818882
 31
0.0
  0
LINE
  8
0
 10
894.825561
 20
347.983758
 30
0.0
 11
894.852577
 21
347.899334
 31
0.0
  0
LINE
  8
0
 10
894.808279
 20
348.068382
 30
0.0
 11
894.825561
 21
347.983758
 31
0.0
  0
LINE
  8
0
 10
894.796757
 20
348.154594
 30
0.0
 11
894.808279
 21
348.068382
 31
0.0
  0
LINE
  8
0
 10
894.792983
 20
348.241005
 30
0.0
 11
894.796757
 21
348.154594
 31
0.0
  0
LINE
  8
0
 10
894.796757
 20
350.908625
 30
0.0
 11
894.792983
 21
350.820227
 31
0.0
  0
LINE
  8
0
 10
894.808279
 20
350.994837
 30
0.0
 11
894.796757
 21
350.908625
 31
0.0
  0
LINE
  8
0
 10
894.825561
 20
351.079262
 30
0.0
 11
894.808279
 21
350.994837
 31
0.0
  0
LINE
  8
0
 10
894.852577
 20
351.161899
 30
0.0
 11
894.825561
 21
351.079262
 31
0.0
  0
LINE
  8
0
 10
894.885155
 20
351.242549
 30
0.0
 11
894.852577
 21
351.161899
 31
0.0
  0
LINE
  8
0
 10
894.92548
 20
351.319227
 30
0.0
 11
894.885155
 21
351.242549
 31
0.0
  0
LINE
  8
0
 10
894.973354
 20
351.394116
 30
0.0
 11
894.92548
 21
351.319227
 31
0.0
  0
LINE
  8
0
 10
895.0252
 20
351.463245
 30
0.0
 11
894.973354
 21
351.394116
 31
0.0
  0
LINE
  8
0
 10
895.084794
 20
351.526415
 30
0.0
 11
895.0252
 21
351.463245
 31
0.0
  0
LINE
  8
0
 10
895.147964
 20
351.586009
 30
0.0
 11
895.084794
 21
351.526415
 31
0.0
  0
LINE
  8
0
 10
895.217092
 20
351.637855
 30
0.0
 11
895.147964
 21
351.586009
 31
0.0
  0
LINE
  8
0
 10
895.291982
 20
351.685729
 30
0.0
 11
895.217092
 21
351.637855
 31
0.0
  0
LINE
  8
0
 10
895.368659
 20
351.726054
 30
0.0
 11
895.291982
 21
351.685729
 31
0.0
  0
LINE
  8
0
 10
895.44931
 20
351.758632
 30
0.0
 11
895.368659
 21
351.726054
 31
0.0
  0
LINE
  8
0
 10
895.531947
 20
351.785648
 30
0.0
 11
895.44931
 21
351.758632
 31
0.0
  0
LINE
  8
0
 10
895.616371
 20
351.80293
 30
0.0
 11
895.531947
 21
351.785648
 31
0.0
  0
LINE
  8
0
 10
895.702584
 20
351.814452
 30
0.0
 11
895.616371
 21
351.80293
 31
0.0
  0
LINE
  8
0
 10
895.702584
 20
351.814452
 30
0.0
 11
895.790981
 21
351.818226
 31
0.0
  0
LINE
  8
0
 10
894.796757
 20
350.908625
 30
0.0
 11
894.792983
 21
350.820227
 31
0.0
  0
LINE
  8
0
 10
894.808279
 20
350.994837
 30
0.0
 11
894.796757
 21
350.908625
 31
0.0
  0
LINE
  8
0
 10
894.825561
 20
351.079262
 30
0.0
 11
894.808279
 21
350.994837
 31
0.0
  0
LINE
  8
0
 10
894.852577
 20
351.161899
 30
0.0
 11
894.825561
 21
351.079262
 31
0.0
  0
LINE
  8
0
 10
894.885155
 20
351.242549
 30
0.0
 11
894.852577
 21
351.161899
 31
0.0
  0
LINE
  8
0
 10
894.92548
 20
351.319227
 30
0.0
 11
894.885155
 21
351.242549
 31
0.0
  0
LINE
  8
0
 10
894.973354
 20
351.394116
 30
0.0
 11
894.92548
 21
351.319227
 31
0.0
  0
LINE
  8
0
 10
895.0252
 20
351.463245
 30
0.0
 11
894.973354
 21
351.394116
 31
0.0
  0
LINE
  8
0
 10
895.084794
 20
351.526415
 30
0.0
 11
895.0252
 21
351.463245
 31
0.0
  0
LINE
  8
0
 10
895.147964
 20
351.586009
 30
0.0
 11
895.084794
 21
351.526415
 31
0.0
  0
LINE
  8
0
 10
895.217092
 20
351.637855
 30
0.0
 11
895.147964
 21
351.586009
 31
0.0
  0
LINE
  8
0
 10
895.291982
 20
351.685729
 30
0.0
 11
895.217092
 21
351.637855
 31
0.0
  0
LINE
  8
0
 10
895.368659
 20
351.726054
 30
0.0
 11
895.291982
 21
351.685729
 31
0.0
  0
LINE
  8
0
 10
895.44931
 20
351.758632
 30
0.0
 11
895.368659
 21
351.726054
 31
0.0
  0
LINE
  8
0
 10
895.531947
 20
351.785648
 30
0.0
 11
895.44931
 21
351.758632
 31
0.0
  0
LINE
  8
0
 10
895.616371
 20
351.80293
 30
0.0
 11
895.531947
 21
351.785648
 31
0.0
  0
LINE
  8
0
 10
895.702584
 20
351.814452
 30
0.0
 11
895.790981
 21
351.818226
 31
0.0
  0
LINE
  8
0
 10
895.616371
 20
351.80293
 30
0.0
 11
895.702584
 21
351.814452
 31
0.0
  0
LINE
  8
0
 10
905.402974
 20
343.769479
 30
0.0
 11
905.312789
 21
343.675519
 31
0.0
  0
LINE
  8
0
 10
905.312789
 20
343.675519
 30
0.0
 11
905.402974
 21
343.769479
 31
0.0
  0
LINE
  8
0
 10
905.312789
 20
343.675519
 30
0.0
 11
905.228364
 21
343.575799
 31
0.0
  0
LINE
  8
0
 10
905.228364
 20
343.575799
 30
0.0
 11
905.312789
 21
343.675519
 31
0.0
  0
LINE
  8
0
 10
905.228364
 20
343.575799
 30
0.0
 11
905.147714
 21
343.472106
 31
0.0
  0
LINE
  8
0
 10
905.147714
 20
343.472106
 30
0.0
 11
905.228364
 21
343.575799
 31
0.0
  0
LINE
  8
0
 10
905.147714
 20
343.472106
 30
0.0
 11
905.07481
 21
343.364638
 31
0.0
  0
LINE
  8
0
 10
905.07481
 20
343.364638
 30
0.0
 11
905.147714
 21
343.472106
 31
0.0
  0
LINE
  8
0
 10
905.07481
 20
343.364638
 30
0.0
 11
905.005682
 21
343.253396
 31
0.0
  0
LINE
  8
0
 10
905.005682
 20
343.253396
 30
0.0
 11
905.07481
 21
343.364638
 31
0.0
  0
LINE
  8
0
 10
905.005682
 20
343.253396
 30
0.0
 11
904.917648
 21
343.138181
 31
0.0
  0
LINE
  8
0
 10
904.917648
 20
343.138181
 30
0.0
 11
905.005682
 21
343.253396
 31
0.0
  0
LINE
  8
0
 10
904.917648
 20
343.138181
 30
0.0
 11
904.860041
 21
343.021179
 31
0.0
  0
LINE
  8
0
 10
904.860041
 20
343.021179
 30
0.0
 11
904.917648
 21
343.138181
 31
0.0
  0
LINE
  8
0
 10
904.860041
 20
343.021179
 30
0.0
 11
904.81018
 21
342.900203
 31
0.0
  0
LINE
  8
0
 10
904.81018
 20
342.900203
 30
0.0
 11
904.860041
 21
343.021179
 31
0.0
  0
LINE
  8
0
 10
904.81018
 20
342.900203
 30
0.0
 11
904.741415
 21
342.77744
 31
0.0
  0
LINE
  8
0
 10
904.741415
 20
342.77744
 30
0.0
 11
904.81018
 21
342.900203
 31
0.0
  0
LINE
  8
0
 10
904.741415
 20
342.77744
 30
0.0
 11
904.676226
 21
342.650704
 31
0.0
  0
LINE
  8
0
 10
904.676226
 20
342.650704
 30
0.0
 11
904.741415
 21
342.77744
 31
0.0
  0
LINE
  8
0
 10
904.620969
 20
342.523967
 30
0.0
 11
904.676226
 21
342.650704
 31
0.0
  0
LINE
  8
0
 10
904.569288
 20
342.395443
 30
0.0
 11
904.620969
 21
342.523967
 31
0.0
  0
LINE
  8
0
 10
904.552006
 20
342.266919
 30
0.0
 11
904.569288
 21
342.395443
 31
0.0
  0
LINE
  8
0
 10
904.557497
 20
342.136408
 30
0.0
 11
904.552006
 21
342.266919
 31
0.0
  0
LINE
  8
0
 10
904.553524
 20
342.005898
 30
0.0
 11
904.557497
 21
342.136408
 31
0.0
  0
LINE
  8
0
 10
904.557497
 20
342.136408
 30
0.0
 11
904.553524
 21
342.005898
 31
0.0
  0
LINE
  8
0
 10
904.552006
 20
342.266919
 30
0.0
 11
904.557497
 21
342.136408
 31
0.0
  0
LINE
  8
0
 10
904.569288
 20
342.395443
 30
0.0
 11
904.552006
 21
342.266919
 31
0.0
  0
LINE
  8
0
 10
904.620969
 20
342.523967
 30
0.0
 11
904.569288
 21
342.395443
 31
0.0
  0
LINE
  8
0
 10
904.676226
 20
342.650704
 30
0.0
 11
904.620969
 21
342.523967
 31
0.0
  0
LINE
  8
0
 10
902.075949
 20
306.537419
 30
0.0
 11
903.57096
 21
309.128163
 31
0.0
  0
LINE
  8
0
 10
900.57915
 20
309.128163
 30
0.0
 11
902.075949
 21
306.537419
 31
0.0
  0
LINE
  8
0
 10
900.57915
 20
334.857217
 30
0.0
 11
900.57915
 21
309.128163
 31
0.0
  0
LINE
  8
0
 10
901.07795
 20
337.851014
 30
0.0
 11
901.081923
 21
337.764801
 31
0.0
  0
LINE
  8
0
 10
901.081923
 20
337.764801
 30
0.0
 11
901.07795
 21
337.851014
 31
0.0
  0
LINE
  8
0
 10
901.081923
 20
337.764801
 30
0.0
 11
901.093445
 21
337.67839
 31
0.0
  0
LINE
  8
0
 10
901.093445
 20
337.67839
 30
0.0
 11
901.081923
 21
337.764801
 31
0.0
  0
LINE
  8
0
 10
901.093445
 20
337.67839
 30
0.0
 11
901.110727
 21
337.591979
 31
0.0
  0
LINE
  8
0
 10
901.110727
 20
337.591979
 30
0.0
 11
901.093445
 21
337.67839
 31
0.0
  0
LINE
  8
0
 10
901.110727
 20
337.591979
 30
0.0
 11
901.137544
 21
337.509541
 31
0.0
  0
LINE
  8
0
 10
901.137544
 20
337.509541
 30
0.0
 11
901.110727
 21
337.591979
 31
0.0
  0
LINE
  8
0
 10
901.137544
 20
337.509541
 30
0.0
 11
901.170122
 21
337.428891
 31
0.0
  0
LINE
  8
0
 10
901.170122
 20
337.428891
 30
0.0
 11
901.137544
 21
337.509541
 31
0.0
  0
LINE
  8
0
 10
901.170122
 20
337.428891
 30
0.0
 11
901.210447
 21
337.352015
 31
0.0
  0
LINE
  8
0
 10
901.210447
 20
337.352015
 30
0.0
 11
901.170122
 21
337.428891
 31
0.0
  0
LINE
  8
0
 10
901.210447
 20
337.352015
 30
0.0
 11
901.258321
 21
337.279111
 31
0.0
  0
LINE
  8
0
 10
901.258321
 20
337.279111
 30
0.0
 11
901.210447
 21
337.352015
 31
0.0
  0
LINE
  8
0
 10
901.258321
 20
337.279111
 30
0.0
 11
901.310168
 21
337.210181
 31
0.0
  0
LINE
  8
0
 10
901.310168
 20
337.210181
 30
0.0
 11
901.258321
 21
337.279111
 31
0.0
  0
LINE
  8
0
 10
901.310168
 20
337.210181
 30
0.0
 11
901.369761
 21
337.144827
 31
0.0
  0
LINE
  8
0
 10
901.369761
 20
337.144827
 30
0.0
 11
901.310168
 21
337.210181
 31
0.0
  0
LINE
  8
0
 10
901.369761
 20
337.144827
 30
0.0
 11
901.43313
 21
337.087219
 31
0.0
  0
LINE
  8
0
 10
901.43313
 20
337.087219
 30
0.0
 11
901.369761
 21
337.144827
 31
0.0
  0
LINE
  8
0
 10
901.43313
 20
337.087219
 30
0.0
 11
901.50206
 21
337.033585
 31
0.0
  0
LINE
  8
0
 10
901.50206
 20
337.033585
 30
0.0
 11
901.43313
 21
337.087219
 31
0.0
  0
LINE
  8
0
 10
901.50206
 20
337.033585
 30
0.0
 11
901.576949
 21
336.987499
 31
0.0
  0
LINE
  8
0
 10
901.576949
 20
336.987499
 30
0.0
 11
901.50206
 21
337.033585
 31
0.0
  0
LINE
  8
0
 10
901.576949
 20
336.987499
 30
0.0
 11
901.653825
 21
336.947174
 31
0.0
  0
LINE
  8
0
 10
901.653825
 20
336.947174
 30
0.0
 11
901.576949
 21
336.987499
 31
0.0
  0
LINE
  8
0
 10
901.653825
 20
336.947174
 30
0.0
 11
901.734277
 21
336.914596
 31
0.0
  0
LINE
  8
0
 10
901.734277
 20
336.914596
 30
0.0
 11
901.653825
 21
336.947174
 31
0.0
  0
LINE
  8
0
 10
901.734277
 20
336.914596
 30
0.0
 11
901.816914
 21
336.887778
 31
0.0
  0
LINE
  8
0
 10
901.816914
 20
336.887778
 30
0.0
 11
901.734277
 21
336.914596
 31
0.0
  0
LINE
  8
0
 10
901.816914
 20
336.887778
 30
0.0
 11
901.901339
 21
336.86851
 31
0.0
  0
LINE
  8
0
 10
901.901339
 20
336.86851
 30
0.0
 11
901.816914
 21
336.887778
 31
0.0
  0
LINE
  8
0
 10
903.068186
 20
337.764801
 30
0.0
 11
903.071961
 21
337.851014
 31
0.0
  0
LINE
  8
0
 10
903.056665
 20
337.67839
 30
0.0
 11
903.068186
 21
337.764801
 31
0.0
  0
LINE
  8
0
 10
903.039383
 20
337.591979
 30
0.0
 11
903.056665
 21
337.67839
 31
0.0
  0
LINE
  8
0
 10
903.012367
 20
337.509541
 30
0.0
 11
903.039383
 21
337.591979
 31
0.0
  0
LINE
  8
0
 10
902.979789
 20
337.428891
 30
0.0
 11
903.012367
 21
337.509541
 31
0.0
  0
LINE
  8
0
 10
902.939464
 20
337.352015
 30
0.0
 11
902.979789
 21
337.428891
 31
0.0
  0
LINE
  8
0
 10
902.89159
 20
337.279111
 30
0.0
 11
902.939464
 21
337.352015
 31
0.0
  0
LINE
  8
0
 10
902.839743
 20
337.210181
 30
0.0
 11
902.89159
 21
337.279111
 31
0.0
  0
LINE
  8
0
 10
902.780348
 20
337.144827
 30
0.0
 11
902.839743
 21
337.210181
 31
0.0
  0
LINE
  8
0
 10
902.71698
 20
337.087219
 30
0.0
 11
902.780348
 21
337.144827
 31
0.0
  0
LINE
  8
0
 10
902.647851
 20
337.033585
 30
0.0
 11
902.71698
 21
337.087219
 31
0.0
  0
LINE
  8
0
 10
902.572961
 20
336.987499
 30
0.0
 11
902.647851
 21
337.033585
 31
0.0
  0
LINE
  8
0
 10
902.496284
 20
336.947174
 30
0.0
 11
902.572961
 21
336.987499
 31
0.0
  0
LINE
  8
0
 10
902.415634
 20
336.914596
 30
0.0
 11
902.496284
 21
336.947174
 31
0.0
  0
LINE
  8
0
 10
902.333196
 20
336.887778
 30
0.0
 11
902.415634
 21
336.914596
 31
0.0
  0
LINE
  8
0
 10
902.248572
 20
336.86851
 30
0.0
 11
902.333196
 21
336.887778
 31
0.0
  0
LINE
  8
0
 10
902.16236
 20
336.856988
 30
0.0
 11
902.248572
 21
336.86851
 31
0.0
  0
LINE
  8
0
 10
902.075949
 20
336.853214
 30
0.0
 11
902.16236
 21
336.856988
 31
0.0
  0
LINE
  8
0
 10
901.98775
 20
336.856988
 30
0.0
 11
902.075949
 21
336.853214
 31
0.0
  0
LINE
  8
0
 10
901.901339
 20
336.86851
 30
0.0
 11
901.98775
 21
336.856988
 31
0.0
  0
LINE
  8
0
 10
901.98775
 20
336.856988
 30
0.0
 11
901.901339
 21
336.86851
 31
0.0
  0
LINE
  8
0
 10
902.075949
 20
336.853214
 30
0.0
 11
901.98775
 21
336.856988
 31
0.0
  0
LINE
  8
0
 10
902.16236
 20
336.856988
 30
0.0
 11
902.075949
 21
336.853214
 31
0.0
  0
LINE
  8
0
 10
902.248572
 20
336.86851
 30
0.0
 11
902.16236
 21
336.856988
 31
0.0
  0
LINE
  8
0
 10
902.333196
 20
336.887778
 30
0.0
 11
902.248572
 21
336.86851
 31
0.0
  0
LINE
  8
0
 10
902.415634
 20
336.914596
 30
0.0
 11
902.333196
 21
336.887778
 31
0.0
  0
LINE
  8
0
 10
902.496284
 20
336.947174
 30
0.0
 11
902.415634
 21
336.914596
 31
0.0
  0
LINE
  8
0
 10
902.572961
 20
336.987499
 30
0.0
 11
902.496284
 21
336.947174
 31
0.0
  0
LINE
  8
0
 10
903.068186
 20
337.764801
 30
0.0
 11
903.071961
 21
337.851014
 31
0.0
  0
LINE
  8
0
 10
903.056665
 20
337.67839
 30
0.0
 11
903.068186
 21
337.764801
 31
0.0
  0
LINE
  8
0
 10
903.039383
 20
337.591979
 30
0.0
 11
903.056665
 21
337.67839
 31
0.0
  0
LINE
  8
0
 10
903.012367
 20
337.509541
 30
0.0
 11
903.039383
 21
337.591979
 31
0.0
  0
LINE
  8
0
 10
902.979789
 20
337.428891
 30
0.0
 11
903.012367
 21
337.509541
 31
0.0
  0
LINE
  8
0
 10
902.939464
 20
337.352015
 30
0.0
 11
902.979789
 21
337.428891
 31
0.0
  0
LINE
  8
0
 10
902.89159
 20
337.279111
 30
0.0
 11
902.939464
 21
337.352015
 31
0.0
  0
LINE
  8
0
 10
902.839743
 20
337.210181
 30
0.0
 11
902.89159
 21
337.279111
 31
0.0
  0
LINE
  8
0
 10
902.780348
 20
337.144827
 30
0.0
 11
902.839743
 21
337.210181
 31
0.0
  0
LINE
  8
0
 10
902.71698
 20
337.087219
 30
0.0
 11
902.780348
 21
337.144827
 31
0.0
  0
LINE
  8
0
 10
902.647851
 20
337.033585
 30
0.0
 11
902.71698
 21
337.087219
 31
0.0
  0
LINE
  8
0
 10
902.572961
 20
336.987499
 30
0.0
 11
902.647851
 21
337.033585
 31
0.0
  0
LINE
  8
0
 10
901.576949
 20
335.855215
 30
0.0
 11
902.572961
 21
335.855215
 31
0.0
  0
LINE
  8
0
 10
902.572961
 20
335.855215
 30
0.0
 11
901.576949
 21
335.855215
 31
0.0
  0
LINE
  8
0
 10
903.57096
 20
334.857217
 30
0.0
 11
903.57096
 21
309.128163
 31
0.0
  0
LINE
  8
0
 10
903.57096
 20
334.857217
 30
0.0
 11
903.566987
 21
334.945614
 31
0.0
  0
LINE
  8
0
 10
903.566987
 20
334.945614
 30
0.0
 11
903.57096
 21
334.857217
 31
0.0
  0
LINE
  8
0
 10
903.566987
 20
334.945614
 30
0.0
 11
903.555466
 21
335.032026
 31
0.0
  0
LINE
  8
0
 10
903.555466
 20
335.032026
 30
0.0
 11
903.566987
 21
334.945614
 31
0.0
  0
LINE
  8
0
 10
903.555466
 20
335.032026
 30
0.0
 11
903.538382
 21
335.11645
 31
0.0
  0
LINE
  8
0
 10
903.538382
 20
335.11645
 30
0.0
 11
903.555466
 21
335.032026
 31
0.0
  0
LINE
  8
0
 10
903.538382
 20
335.11645
 30
0.0
 11
903.511366
 21
335.198888
 31
0.0
  0
LINE
  8
0
 10
903.511366
 20
335.198888
 30
0.0
 11
903.538382
 21
335.11645
 31
0.0
  0
LINE
  8
0
 10
903.511366
 20
335.198888
 30
0.0
 11
903.478788
 21
335.279539
 31
0.0
  0
LINE
  8
0
 10
903.478788
 20
335.279539
 30
0.0
 11
903.511366
 21
335.198888
 31
0.0
  0
LINE
  8
0
 10
903.478788
 20
335.279539
 30
0.0
 11
903.438463
 21
335.356216
 31
0.0
  0
LINE
  8
0
 10
903.438463
 20
335.356216
 30
0.0
 11
903.478788
 21
335.279539
 31
0.0
  0
LINE
  8
0
 10
903.438463
 20
335.356216
 30
0.0
 11
903.390589
 21
335.431106
 31
0.0
  0
LINE
  8
0
 10
903.390589
 20
335.431106
 30
0.0
 11
903.438463
 21
335.356216
 31
0.0
  0
LINE
  8
0
 10
903.390589
 20
335.431106
 30
0.0
 11
903.338743
 21
335.500235
 31
0.0
  0
LINE
  8
0
 10
903.338743
 20
335.500235
 30
0.0
 11
903.390589
 21
335.431106
 31
0.0
  0
LINE
  8
0
 10
903.338743
 20
335.500235
 30
0.0
 11
903.279149
 21
335.563603
 31
0.0
  0
LINE
  8
0
 10
903.279149
 20
335.563603
 30
0.0
 11
903.338743
 21
335.500235
 31
0.0
  0
LINE
  8
0
 10
903.279149
 20
335.563603
 30
0.0
 11
903.215781
 21
335.622998
 31
0.0
  0
LINE
  8
0
 10
903.215781
 20
335.622998
 30
0.0
 11
903.279149
 21
335.563603
 31
0.0
  0
LINE
  8
0
 10
903.215781
 20
335.622998
 30
0.0
 11
903.14685
 21
335.674845
 31
0.0
  0
LINE
  8
0
 10
903.14685
 20
335.674845
 30
0.0
 11
903.215781
 21
335.622998
 31
0.0
  0
LINE
  8
0
 10
903.14685
 20
335.674845
 30
0.0
 11
903.071961
 21
335.722718
 31
0.0
  0
LINE
  8
0
 10
903.071961
 20
335.722718
 30
0.0
 11
903.14685
 21
335.674845
 31
0.0
  0
LINE
  8
0
 10
903.071961
 20
335.722718
 30
0.0
 11
902.995283
 21
335.763044
 31
0.0
  0
LINE
  8
0
 10
902.995283
 20
335.763044
 30
0.0
 11
903.071961
 21
335.722718
 31
0.0
  0
LINE
  8
0
 10
902.995283
 20
335.763044
 30
0.0
 11
902.914633
 21
335.79582
 31
0.0
  0
LINE
  8
0
 10
902.914633
 20
335.79582
 30
0.0
 11
902.995283
 21
335.763044
 31
0.0
  0
LINE
  8
0
 10
902.914633
 20
335.79582
 30
0.0
 11
902.831996
 21
335.822637
 31
0.0
  0
LINE
  8
0
 10
902.831996
 20
335.822637
 30
0.0
 11
902.914633
 21
335.79582
 31
0.0
  0
LINE
  8
0
 10
902.831996
 20
335.822637
 30
0.0
 11
902.747572
 21
335.83992
 31
0.0
  0
LINE
  8
0
 10
902.747572
 20
335.83992
 30
0.0
 11
902.831996
 21
335.822637
 31
0.0
  0
LINE
  8
0
 10
902.747572
 20
335.83992
 30
0.0
 11
902.661359
 21
335.851441
 31
0.0
  0
LINE
  8
0
 10
902.661359
 20
335.851441
 30
0.0
 11
902.747572
 21
335.83992
 31
0.0
  0
LINE
  8
0
 10
902.661359
 20
335.851441
 30
0.0
 11
902.574948
 21
335.855215
 31
0.0
  0
LINE
  8
0
 10
902.572961
 20
335.855215
 30
0.0
 11
902.661359
 21
335.851441
 31
0.0
  0
LINE
  8
0
 10
901.576949
 20
335.855215
 30
0.0
 11
901.48875
 21
335.851441
 31
0.0
  0
LINE
  8
0
 10
901.574963
 20
335.855215
 30
0.0
 11
901.576949
 21
335.855215
 31
0.0
  0
LINE
  8
0
 10
901.48875
 20
335.851441
 30
0.0
 11
901.574963
 21
335.855215
 31
0.0
  0
LINE
  8
0
 10
901.48875
 20
335.851441
 30
0.0
 11
901.402339
 21
335.83992
 31
0.0
  0
LINE
  8
0
 10
901.402339
 20
335.83992
 30
0.0
 11
901.48875
 21
335.851441
 31
0.0
  0
LINE
  8
0
 10
901.402339
 20
335.83992
 30
0.0
 11
901.317915
 21
335.822637
 31
0.0
  0
LINE
  8
0
 10
901.317915
 20
335.822637
 30
0.0
 11
901.402339
 21
335.83992
 31
0.0
  0
LINE
  8
0
 10
901.317915
 20
335.822637
 30
0.0
 11
901.235477
 21
335.79582
 31
0.0
  0
LINE
  8
0
 10
901.235477
 20
335.79582
 30
0.0
 11
901.317915
 21
335.822637
 31
0.0
  0
LINE
  8
0
 10
901.235477
 20
335.79582
 30
0.0
 11
901.154826
 21
335.763044
 31
0.0
  0
LINE
  8
0
 10
901.154826
 20
335.763044
 30
0.0
 11
901.235477
 21
335.79582
 31
0.0
  0
LINE
  8
0
 10
901.154826
 20
335.763044
 30
0.0
 11
901.07795
 21
335.722718
 31
0.0
  0
LINE
  8
0
 10
901.07795
 20
335.722718
 30
0.0
 11
901.154826
 21
335.763044
 31
0.0
  0
LINE
  8
0
 10
901.07795
 20
335.722718
 30
0.0
 11
901.003259
 21
335.674845
 31
0.0
  0
LINE
  8
0
 10
901.003259
 20
335.674845
 30
0.0
 11
901.07795
 21
335.722718
 31
0.0
  0
LINE
  8
0
 10
901.003259
 20
335.674845
 30
0.0
 11
900.93413
 21
335.622998
 31
0.0
  0
LINE
  8
0
 10
900.93413
 20
335.622998
 30
0.0
 11
901.003259
 21
335.674845
 31
0.0
  0
LINE
  8
0
 10
900.93413
 20
335.622998
 30
0.0
 11
900.870762
 21
335.563603
 31
0.0
  0
LINE
  8
0
 10
900.870762
 20
335.563603
 30
0.0
 11
900.93413
 21
335.622998
 31
0.0
  0
LINE
  8
0
 10
900.870762
 20
335.563603
 30
0.0
 11
900.811168
 21
335.500235
 31
0.0
  0
LINE
  8
0
 10
900.811168
 20
335.500235
 30
0.0
 11
900.870762
 21
335.563603
 31
0.0
  0
LINE
  8
0
 10
900.811168
 20
335.500235
 30
0.0
 11
900.75952
 21
335.431106
 31
0.0
  0
LINE
  8
0
 10
900.75952
 20
335.431106
 30
0.0
 11
900.811168
 21
335.500235
 31
0.0
  0
LINE
  8
0
 10
900.75952
 20
335.431106
 30
0.0
 11
900.711448
 21
335.356216
 31
0.0
  0
LINE
  8
0
 10
900.711448
 20
335.356216
 30
0.0
 11
900.75952
 21
335.431106
 31
0.0
  0
LINE
  8
0
 10
900.711448
 20
335.356216
 30
0.0
 11
900.671123
 21
335.279539
 31
0.0
  0
LINE
  8
0
 10
900.671123
 20
335.279539
 30
0.0
 11
900.711448
 21
335.356216
 31
0.0
  0
LINE
  8
0
 10
900.671123
 20
335.279539
 30
0.0
 11
900.638545
 21
335.198888
 31
0.0
  0
LINE
  8
0
 10
900.638545
 20
335.198888
 30
0.0
 11
900.671123
 21
335.279539
 31
0.0
  0
LINE
  8
0
 10
900.638545
 20
335.198888
 30
0.0
 11
900.611727
 21
335.11645
 31
0.0
  0
LINE
  8
0
 10
900.611727
 20
335.11645
 30
0.0
 11
900.638545
 21
335.198888
 31
0.0
  0
LINE
  8
0
 10
900.582924
 20
334.945614
 30
0.0
 11
900.57915
 21
334.857217
 31
0.0
  0
LINE
  8
0
 10
900.594445
 20
335.032026
 30
0.0
 11
900.582924
 21
334.945614
 31
0.0
  0
LINE
  8
0
 10
900.611727
 20
335.11645
 30
0.0
 11
900.594445
 21
335.032026
 31
0.0
  0
LINE
  8
0
 10
900.594445
 20
335.032026
 30
0.0
 11
900.611727
 21
335.11645
 31
0.0
  0
LINE
  8
0
 10
900.582924
 20
334.945614
 30
0.0
 11
900.594445
 21
335.032026
 31
0.0
  0
LINE
  8
0
 10
900.57915
 20
334.859203
 30
0.0
 11
900.582924
 21
334.945614
 31
0.0
  0
LINE
  8
0
 10
900.57915
 20
334.857217
 30
0.0
 11
900.57915
 21
334.859203
 31
0.0
  0
LINE
  8
0
 10
908.462126
 20
348.947192
 30
0.0
 11
903.906175
 21
344.389454
 31
0.0
  0
LINE
  8
0
 10
903.906175
 20
344.389454
 30
0.0
 11
908.462126
 21
348.947192
 31
0.0
  0
LINE
  8
0
 10
900.99205
 20
306.418226
 30
0.0
 11
899.715436
 21
308.629164
 31
0.0
  0
LINE
  8
0
 10
903.144882
 20
306.395748
 30
0.0
 11
904.434475
 21
308.629164
 31
0.0
  0
LINE
  8
0
 10
841.233379
 20
306.000273
 30
0.0
 11
841.23349
 21
306.000081
 31
0.0
  0
LINE
  8
0
 10
841.23349
 20
306.000081
 30
0.0
 11
841.233379
 21
306.000273
 31
0.0
  0
LINE
  8
0
 10
839.581151
 20
309.128163
 30
0.0
 11
839.581151
 21
342.005898
 31
0.0
  0
LINE
  8
0
 10
839.581151
 20
342.005898
 30
0.0
 11
839.581151
 21
309.128163
 31
0.0
  0
LINE
  8
0
 10
841.07795
 20
337.851014
 30
0.0
 11
841.07795
 21
342.625674
 31
0.0
  0
LINE
  8
0
 10
841.07795
 20
342.625674
 30
0.0
 11
841.07795
 21
337.851014
 31
0.0
  0
LINE
  8
0
 10
843.071961
 20
337.851014
 30
0.0
 11
843.083377
 21
342.625674
 31
0.0
  0
LINE
  8
0
 10
843.083377
 20
342.625674
 30
0.0
 11
843.071961
 21
337.851014
 31
0.0
  0
LINE
  8
0
 10
844.56876
 20
309.128163
 30
0.0
 11
844.553524
 21
342.005898
 31
0.0
  0
LINE
  8
0
 10
844.553524
 20
342.005898
 30
0.0
 11
844.56876
 21
309.128163
 31
0.0
  0
LINE
  8
0
 10
845.402974
 20
343.769479
 30
0.0
 11
849.168313
 21
347.534818
 31
0.0
  0
LINE
  8
0
 10
849.168313
 20
347.534818
 30
0.0
 11
845.402974
 21
343.769479
 31
0.0
  0
LINE
  8
0
 10
849.459925
 20
348.241005
 30
0.0
 11
849.459925
 21
350.820227
 31
0.0
  0
LINE
  8
0
 10
849.459925
 20
350.820227
 30
0.0
 11
849.459925
 21
348.241005
 31
0.0
  0
LINE
  8
0
 10
847.423802
 20
348.753314
 30
0.0
 11
846.560287
 21
349.617027
 31
0.0
  0
LINE
  8
0
 10
846.560287
 20
349.617027
 30
0.0
 11
847.423802
 21
348.753314
 31
0.0
  0
LINE
  8
0
 10
848.128201
 20
349.4597
 30
0.0
 11
847.266474
 21
350.321228
 31
0.0
  0
LINE
  8
0
 10
847.266474
 20
350.321228
 30
0.0
 11
848.128201
 21
349.4597
 31
0.0
  0
LINE
  8
0
 10
847.266474
 20
350.321228
 30
0.0
 11
847.765473
 21
350.820227
 31
0.0
  0
LINE
  8
0
 10
847.765473
 20
350.820227
 30
0.0
 11
847.266474
 21
350.321228
 31
0.0
  0
LINE
  8
0
 10
848.462126
 20
350.820227
 30
0.0
 11
847.765473
 21
350.820227
 31
0.0
  0
LINE
  8
0
 10
848.462126
 20
348.947192
 30
0.0
 11
848.462126
 21
350.820227
 31
0.0
  0
LINE
  8
0
 10
848.462126
 20
348.947192
 30
0.0
 11
843.906175
 21
344.389454
 31
0.0
  0
LINE
  8
0
 10
848.462126
 20
350.820227
 30
0.0
 11
848.462126
 21
348.947192
 31
0.0
  0
LINE
  8
0
 10
847.765473
 20
350.820227
 30
0.0
 11
848.462126
 21
350.820227
 31
0.0
  0
LINE
  8
0
 10
848.462126
 20
351.818226
 30
0.0
 11
847.350899
 21
351.818226
 31
0.0
  0
LINE
  8
0
 10
847.350899
 20
351.818226
 30
0.0
 11
848.462126
 21
351.818226
 31
0.0
  0
LINE
  8
0
 10
846.560287
 20
351.027614
 30
0.0
 11
847.350899
 21
351.818226
 31
0.0
  0
LINE
  8
0
 10
847.350899
 20
351.818226
 30
0.0
 11
846.560287
 21
351.027614
 31
0.0
  0
LINE
  8
0
 10
836.90201
 20
351.818226
 30
0.0
 11
835.790981
 21
351.818226
 31
0.0
  0
LINE
  8
0
 10
835.790981
 20
351.818226
 30
0.0
 11
836.90201
 21
351.818226
 31
0.0
  0
LINE
  8
0
 10
838.849934
 20
343.769479
 30
0.0
 11
835.084794
 21
347.534818
 31
0.0
  0
LINE
  8
0
 10
835.084794
 20
347.534818
 30
0.0
 11
838.849934
 21
343.769479
 31
0.0
  0
LINE
  8
0
 10
834.792983
 20
350.820227
 30
0.0
 11
834.792983
 21
348.241005
 31
0.0
  0
LINE
  8
0
 10
834.792983
 20
348.241005
 30
0.0
 11
834.792983
 21
350.820227
 31
0.0
  0
LINE
  8
0
 10
840.346932
 20
344.389454
 30
0.0
 11
835.790981
 21
348.947192
 31
0.0
  0
LINE
  8
0
 10
835.790981
 20
348.947192
 30
0.0
 11
840.346932
 21
344.389454
 31
0.0
  0
LINE
  8
0
 10
835.790981
 20
350.820227
 30
0.0
 11
835.790981
 21
348.947192
 31
0.0
  0
LINE
  8
0
 10
836.487634
 20
350.820227
 30
0.0
 11
835.790981
 21
350.820227
 31
0.0
  0
LINE
  8
0
 10
836.986434
 20
350.321228
 30
0.0
 11
836.487634
 21
350.820227
 31
0.0
  0
LINE
  8
0
 10
836.487634
 20
350.820227
 30
0.0
 11
836.986434
 21
350.321228
 31
0.0
  0
LINE
  8
0
 10
835.790981
 20
350.820227
 30
0.0
 11
836.487634
 21
350.820227
 31
0.0
  0
LINE
  8
0
 10
835.790981
 20
348.947192
 30
0.0
 11
835.790981
 21
350.820227
 31
0.0
  0
LINE
  8
0
 10
836.986434
 20
350.321228
 30
0.0
 11
836.124906
 21
349.4597
 31
0.0
  0
LINE
  8
0
 10
836.124906
 20
349.4597
 30
0.0
 11
836.986434
 21
350.321228
 31
0.0
  0
LINE
  8
0
 10
836.124906
 20
349.4597
 30
0.0
 11
836.08458
 21
349.413614
 31
0.0
  0
LINE
  8
0
 10
836.08458
 20
349.413614
 30
0.0
 11
836.124906
 21
349.4597
 31
0.0
  0
LINE
  8
0
 10
836.08458
 20
349.413614
 30
0.0
 11
836.050016
 21
349.363753
 31
0.0
  0
LINE
  8
0
 10
836.050016
 20
349.363753
 30
0.0
 11
836.08458
 21
349.413614
 31
0.0
  0
LINE
  8
0
 10
836.050016
 20
349.363753
 30
0.0
 11
836.021212
 21
349.311907
 31
0.0
  0
LINE
  8
0
 10
836.021212
 20
349.311907
 30
0.0
 11
836.050016
 21
349.363753
 31
0.0
  0
LINE
  8
0
 10
836.021212
 20
349.311907
 30
0.0
 11
836.000156
 21
349.254299
 31
0.0
  0
LINE
  8
0
 10
836.000156
 20
349.254299
 30
0.0
 11
836.021212
 21
349.311907
 31
0.0
  0
LINE
  8
0
 10
836.000156
 20
349.254299
 30
0.0
 11
835.986648
 21
349.196692
 31
0.0
  0
LINE
  8
0
 10
835.986648
 20
349.196692
 30
0.0
 11
836.000156
 21
349.254299
 31
0.0
  0
LINE
  8
0
 10
835.986648
 20
349.196692
 30
0.0
 11
835.978901
 21
349.137297
 31
0.0
  0
LINE
  8
0
 10
835.978901
 20
349.137297
 30
0.0
 11
835.986648
 21
349.196692
 31
0.0
  0
LINE
  8
0
 10
835.978901
 20
349.137297
 30
0.0
 11
835.978901
 21
349.075716
 31
0.0
  0
LINE
  8
0
 10
835.978901
 20
349.075716
 30
0.0
 11
835.978901
 21
349.137297
 31
0.0
  0
LINE
  8
0
 10
835.978901
 20
349.075716
 30
0.0
 11
835.986648
 21
349.016321
 31
0.0
  0
LINE
  8
0
 10
835.986648
 20
349.016321
 30
0.0
 11
835.978901
 21
349.075716
 31
0.0
  0
LINE
  8
0
 10
835.986648
 20
349.016321
 30
0.0
 11
836.000156
 21
348.958714
 31
0.0
  0
LINE
  8
0
 10
836.000156
 20
348.958714
 30
0.0
 11
835.986648
 21
349.016321
 31
0.0
  0
LINE
  8
0
 10
836.000156
 20
348.958714
 30
0.0
 11
836.021212
 21
348.901106
 31
0.0
  0
LINE
  8
0
 10
836.021212
 20
348.901106
 30
0.0
 11
836.000156
 21
348.958714
 31
0.0
  0
LINE
  8
0
 10
836.021212
 20
348.901106
 30
0.0
 11
836.050016
 21
348.847472
 31
0.0
  0
LINE
  8
0
 10
836.050016
 20
348.847472
 30
0.0
 11
836.021212
 21
348.901106
 31
0.0
  0
LINE
  8
0
 10
836.050016
 20
348.847472
 30
0.0
 11
836.08458
 21
348.7994
 31
0.0
  0
LINE
  8
0
 10
836.08458
 20
348.7994
 30
0.0
 11
836.050016
 21
348.847472
 31
0.0
  0
LINE
  8
0
 10
836.08458
 20
348.7994
 30
0.0
 11
836.124906
 21
348.753314
 31
0.0
  0
LINE
  8
0
 10
836.124906
 20
348.753314
 30
0.0
 11
836.08458
 21
348.7994
 31
0.0
  0
LINE
  8
0
 10
836.124906
 20
348.753314
 30
0.0
 11
836.169005
 21
348.713187
 31
0.0
  0
LINE
  8
0
 10
836.169005
 20
348.713187
 30
0.0
 11
836.124906
 21
348.753314
 31
0.0
  0
LINE
  8
0
 10
836.169005
 20
348.713187
 30
0.0
 11
836.218865
 21
348.678623
 31
0.0
  0
LINE
  8
0
 10
836.218865
 20
348.678623
 30
0.0
 11
836.169005
 21
348.713187
 31
0.0
  0
LINE
  8
0
 10
836.218865
 20
348.678623
 30
0.0
 11
836.272698
 21
348.651607
 31
0.0
  0
LINE
  8
0
 10
836.272698
 20
348.651607
 30
0.0
 11
836.218865
 21
348.678623
 31
0.0
  0
LINE
  8
0
 10
836.272698
 20
348.651607
 30
0.0
 11
836.328319
 21
348.63055
 31
0.0
  0
LINE
  8
0
 10
836.328319
 20
348.63055
 30
0.0
 11
836.272698
 21
348.651607
 31
0.0
  0
LINE
  8
0
 10
836.328319
 20
348.63055
 30
0.0
 11
836.387715
 21
348.615255
 31
0.0
  0
LINE
  8
0
 10
836.387715
 20
348.615255
 30
0.0
 11
836.328319
 21
348.63055
 31
0.0
  0
LINE
  8
0
 10
836.387715
 20
348.615255
 30
0.0
 11
836.447308
 21
348.607507
 31
0.0
  0
LINE
  8
0
 10
836.447308
 20
348.607507
 30
0.0
 11
836.387715
 21
348.615255
 31
0.0
  0
LINE
  8
0
 10
836.447308
 20
348.607507
 30
0.0
 11
836.506704
 21
348.607507
 31
0.0
  0
LINE
  8
0
 10
836.506704
 20
348.607507
 30
0.0
 11
836.447308
 21
348.607507
 31
0.0
  0
LINE
  8
0
 10
836.506704
 20
348.607507
 30
0.0
 11
836.566297
 21
348.615255
 31
0.0
  0
LINE
  8
0
 10
836.566297
 20
348.615255
 30
0.0
 11
836.506704
 21
348.607507
 31
0.0
  0
LINE
  8
0
 10
836.566297
 20
348.615255
 30
0.0
 11
836.625693
 21
348.63055
 31
0.0
  0
LINE
  8
0
 10
836.625693
 20
348.63055
 30
0.0
 11
836.566297
 21
348.615255
 31
0.0
  0
LINE
  8
0
 10
836.625693
 20
348.63055
 30
0.0
 11
836.681314
 21
348.651607
 31
0.0
  0
LINE
  8
0
 10
836.681314
 20
348.651607
 30
0.0
 11
836.625693
 21
348.63055
 31
0.0
  0
LINE
  8
0
 10
836.681314
 20
348.651607
 30
0.0
 11
836.735147
 21
348.678623
 31
0.0
  0
LINE
  8
0
 10
836.735147
 20
348.678623
 30
0.0
 11
836.681314
 21
348.651607
 31
0.0
  0
LINE
  8
0
 10
836.735147
 20
348.678623
 30
0.0
 11
836.785007
 21
348.713187
 31
0.0
  0
LINE
  8
0
 10
836.785007
 20
348.713187
 30
0.0
 11
836.735147
 21
348.678623
 31
0.0
  0
LINE
  8
0
 10
837.69282
 20
349.617027
 30
0.0
 11
836.829106
 21
348.753314
 31
0.0
  0
LINE
  8
0
 10
837.752215
 20
349.680395
 30
0.0
 11
837.69282
 21
349.617027
 31
0.0
  0
LINE
  8
0
 10
837.804062
 20
349.749326
 30
0.0
 11
837.752215
 21
349.680395
 31
0.0
  0
LINE
  8
0
 10
837.852134
 20
349.824215
 30
0.0
 11
837.804062
 21
349.749326
 31
0.0
  0
LINE
  8
0
 10
837.890473
 20
349.901091
 30
0.0
 11
837.852134
 21
349.824215
 31
0.0
  0
LINE
  8
0
 10
837.925038
 20
349.981543
 30
0.0
 11
837.890473
 21
349.901091
 31
0.0
  0
LINE
  8
0
 10
837.949868
 20
350.06418
 30
0.0
 11
837.925038
 21
349.981543
 31
0.0
  0
LINE
  8
0
 10
837.969137
 20
350.148605
 30
0.0
 11
837.949868
 21
350.06418
 31
0.0
  0
LINE
  8
0
 10
837.980658
 20
350.235016
 30
0.0
 11
837.969137
 21
350.148605
 31
0.0
  0
LINE
  8
0
 10
837.984433
 20
350.321228
 30
0.0
 11
837.980658
 21
350.235016
 31
0.0
  0
LINE
  8
0
 10
837.980658
 20
350.409626
 30
0.0
 11
837.984433
 21
350.321228
 31
0.0
  0
LINE
  8
0
 10
837.969137
 20
350.496037
 30
0.0
 11
837.980658
 21
350.409626
 31
0.0
  0
LINE
  8
0
 10
837.949868
 20
350.580461
 30
0.0
 11
837.969137
 21
350.496037
 31
0.0
  0
LINE
  8
0
 10
837.925038
 20
350.6629
 30
0.0
 11
837.949868
 21
350.580461
 31
0.0
  0
LINE
  8
0
 10
837.890473
 20
350.74355
 30
0.0
 11
837.925038
 21
350.6629
 31
0.0
  0
LINE
  8
0
 10
837.852134
 20
350.820227
 30
0.0
 11
837.890473
 21
350.74355
 31
0.0
  0
LINE
  8
0
 10
837.804062
 20
350.895117
 30
0.0
 11
837.852134
 21
350.820227
 31
0.0
  0
LINE
  8
0
 10
837.752215
 20
350.964246
 30
0.0
 11
837.804062
 21
350.895117
 31
0.0
  0
LINE
  8
0
 10
837.69282
 20
351.027614
 30
0.0
 11
837.752215
 21
350.964246
 31
0.0
  0
LINE
  8
0
 10
836.90201
 20
351.818226
 30
0.0
 11
837.69282
 21
351.027614
 31
0.0
  0
LINE
  8
0
 10
837.69282
 20
351.027614
 30
0.0
 11
836.90201
 21
351.818226
 31
0.0
  0
LINE
  8
0
 10
837.752215
 20
350.964246
 30
0.0
 11
837.69282
 21
351.027614
 31
0.0
  0
LINE
  8
0
 10
837.804062
 20
350.895117
 30
0.0
 11
837.752215
 21
350.964246
 31
0.0
  0
LINE
  8
0
 10
837.852134
 20
350.820227
 30
0.0
 11
837.804062
 21
350.895117
 31
0.0
  0
LINE
  8
0
 10
837.890473
 20
350.74355
 30
0.0
 11
837.852134
 21
350.820227
 31
0.0
  0
LINE
  8
0
 10
837.925038
 20
350.6629
 30
0.0
 11
837.890473
 21
350.74355
 31
0.0
  0
LINE
  8
0
 10
837.949868
 20
350.580461
 30
0.0
 11
837.925038
 21
350.6629
 31
0.0
  0
LINE
  8
0
 10
837.969137
 20
350.496037
 30
0.0
 11
837.949868
 21
350.580461
 31
0.0
  0
LINE
  8
0
 10
837.980658
 20
350.409626
 30
0.0
 11
837.969137
 21
350.496037
 31
0.0
  0
LINE
  8
0
 10
837.984433
 20
350.321228
 30
0.0
 11
837.980658
 21
350.409626
 31
0.0
  0
LINE
  8
0
 10
837.980658
 20
350.235016
 30
0.0
 11
837.984433
 21
350.321228
 31
0.0
  0
LINE
  8
0
 10
837.969137
 20
350.148605
 30
0.0
 11
837.980658
 21
350.235016
 31
0.0
  0
LINE
  8
0
 10
837.949868
 20
350.06418
 30
0.0
 11
837.969137
 21
350.148605
 31
0.0
  0
LINE
  8
0
 10
837.925038
 20
349.981543
 30
0.0
 11
837.949868
 21
350.06418
 31
0.0
  0
LINE
  8
0
 10
837.890473
 20
349.901091
 30
0.0
 11
837.925038
 21
349.981543
 31
0.0
  0
LINE
  8
0
 10
837.852134
 20
349.824215
 30
0.0
 11
837.890473
 21
349.901091
 31
0.0
  0
LINE
  8
0
 10
837.804062
 20
349.749326
 30
0.0
 11
837.852134
 21
349.824215
 31
0.0
  0
LINE
  8
0
 10
837.752215
 20
349.680395
 30
0.0
 11
837.804062
 21
349.749326
 31
0.0
  0
LINE
  8
0
 10
837.69282
 20
349.617027
 30
0.0
 11
837.752215
 21
349.680395
 31
0.0
  0
LINE
  8
0
 10
836.829106
 20
348.753314
 30
0.0
 11
837.69282
 21
349.617027
 31
0.0
  0
LINE
  8
0
 10
836.785007
 20
348.713187
 30
0.0
 11
836.829106
 21
348.753314
 31
0.0
  0
LINE
  8
0
 10
836.829106
 20
348.753314
 30
0.0
 11
836.785007
 21
348.713187
 31
0.0
  0
LINE
  8
0
 10
841.07795
 20
342.625674
 30
0.0
 11
841.074176
 21
342.756185
 31
0.0
  0
LINE
  8
0
 10
841.074176
 20
342.756185
 30
0.0
 11
841.07795
 21
342.625674
 31
0.0
  0
LINE
  8
0
 10
841.074176
 20
342.756185
 30
0.0
 11
841.064641
 21
342.886695
 31
0.0
  0
LINE
  8
0
 10
841.064641
 20
342.886695
 30
0.0
 11
841.074176
 21
342.756185
 31
0.0
  0
LINE
  8
0
 10
841.064641
 20
342.886695
 30
0.0
 11
841.047359
 21
343.015418
 31
0.0
  0
LINE
  8
0
 10
841.047359
 20
343.015418
 30
0.0
 11
841.064641
 21
342.886695
 31
0.0
  0
LINE
  8
0
 10
841.047359
 20
343.015418
 30
0.0
 11
841.022329
 21
343.143942
 31
0.0
  0
LINE
  8
0
 10
841.022329
 20
343.143942
 30
0.0
 11
841.047359
 21
343.015418
 31
0.0
  0
LINE
  8
0
 10
841.022329
 20
343.143942
 30
0.0
 11
840.991738
 21
343.270678
 31
0.0
  0
LINE
  8
0
 10
840.991738
 20
343.270678
 30
0.0
 11
841.022329
 21
343.143942
 31
0.0
  0
LINE
  8
0
 10
840.991738
 20
343.270678
 30
0.0
 11
840.955187
 21
343.397216
 31
0.0
  0
LINE
  8
0
 10
840.955187
 20
343.397216
 30
0.0
 11
840.991738
 21
343.270678
 31
0.0
  0
LINE
  8
0
 10
840.955187
 20
343.397216
 30
0.0
 11
840.911087
 21
343.519979
 31
0.0
  0
LINE
  8
0
 10
840.911087
 20
343.519979
 30
0.0
 11
840.955187
 21
343.397216
 31
0.0
  0
LINE
  8
0
 10
840.911087
 20
343.519979
 30
0.0
 11
840.861227
 21
343.640955
 31
0.0
  0
LINE
  8
0
 10
840.861227
 20
343.640955
 30
0.0
 11
840.911087
 21
343.519979
 31
0.0
  0
LINE
  8
0
 10
840.861227
 20
343.640955
 30
0.0
 11
840.805606
 21
343.757957
 31
0.0
  0
LINE
  8
0
 10
840.805606
 20
343.757957
 30
0.0
 11
840.861227
 21
343.640955
 31
0.0
  0
LINE
  8
0
 10
840.805606
 20
343.757957
 30
0.0
 11
840.744026
 21
343.873172
 31
0.0
  0
LINE
  8
0
 10
840.744026
 20
343.873172
 30
0.0
 11
840.805606
 21
343.757957
 31
0.0
  0
LINE
  8
0
 10
840.744026
 20
343.873172
 30
0.0
 11
840.675096
 21
343.984414
 31
0.0
  0
LINE
  8
0
 10
840.675096
 20
343.984414
 30
0.0
 11
840.744026
 21
343.873172
 31
0.0
  0
LINE
  8
0
 10
840.675096
 20
343.984414
 30
0.0
 11
840.600206
 21
344.091882
 31
0.0
  0
LINE
  8
0
 10
840.600206
 20
344.091882
 30
0.0
 11
840.675096
 21
343.984414
 31
0.0
  0
LINE
  8
0
 10
840.600206
 20
344.091882
 30
0.0
 11
840.521542
 21
344.195575
 31
0.0
  0
LINE
  8
0
 10
840.521542
 20
344.195575
 30
0.0
 11
840.600206
 21
344.091882
 31
0.0
  0
LINE
  8
0
 10
840.521542
 20
344.195575
 30
0.0
 11
840.437117
 21
344.295295
 31
0.0
  0
LINE
  8
0
 10
840.437117
 20
344.295295
 30
0.0
 11
840.521542
 21
344.195575
 31
0.0
  0
LINE
  8
0
 10
840.437117
 20
344.295295
 30
0.0
 11
840.346932
 21
344.389454
 31
0.0
  0
LINE
  8
0
 10
840.346932
 20
344.389454
 30
0.0
 11
840.437117
 21
344.295295
 31
0.0
  0
LINE
  8
0
 10
843.828254
 20
344.295295
 30
0.0
 11
843.906175
 21
344.389454
 31
0.0
  0
LINE
  8
0
 10
843.747637
 20
344.195575
 30
0.0
 11
843.828254
 21
344.295295
 31
0.0
  0
LINE
  8
0
 10
843.67056
 20
344.091882
 30
0.0
 11
843.747637
 21
344.195575
 31
0.0
  0
LINE
  8
0
 10
843.59731
 20
343.984414
 30
0.0
 11
843.67056
 21
344.091882
 31
0.0
  0
LINE
  8
0
 10
843.528025
 20
343.873172
 30
0.0
 11
843.59731
 21
343.984414
 31
0.0
  0
LINE
  8
0
 10
843.462755
 20
343.757957
 30
0.0
 11
843.528025
 21
343.873172
 31
0.0
  0
LINE
  8
0
 10
843.402767
 20
343.640955
 30
0.0
 11
843.462755
 21
343.757957
 31
0.0
  0
LINE
  8
0
 10
843.346997
 20
343.519979
 30
0.0
 11
843.402767
 21
343.640955
 31
0.0
  0
LINE
  8
0
 10
843.296539
 20
343.397216
 30
0.0
 11
843.346997
 21
343.519979
 31
0.0
  0
LINE
  8
0
 10
843.25067
 20
343.270678
 30
0.0
 11
843.296539
 21
343.397216
 31
0.0
  0
LINE
  8
0
 10
843.210699
 20
343.143942
 30
0.0
 11
843.25067
 21
343.270678
 31
0.0
  0
LINE
  8
0
 10
843.176025
 20
343.015418
 30
0.0
 11
843.210699
 21
343.143942
 31
0.0
  0
LINE
  8
0
 10
843.147016
 20
342.886695
 30
0.0
 11
843.176025
 21
343.015418
 31
0.0
  0
LINE
  8
0
 10
843.115973
 20
342.756185
 30
0.0
 11
843.147016
 21
342.886695
 31
0.0
  0
LINE
  8
0
 10
843.083377
 20
342.625674
 30
0.0
 11
843.115973
 21
342.756185
 31
0.0
  0
LINE
  8
0
 10
843.115973
 20
342.756185
 30
0.0
 11
843.083377
 21
342.625674
 31
0.0
  0
LINE
  8
0
 10
843.147016
 20
342.886695
 30
0.0
 11
843.115973
 21
342.756185
 31
0.0
  0
LINE
  8
0
 10
843.176025
 20
343.015418
 30
0.0
 11
843.147016
 21
342.886695
 31
0.0
  0
LINE
  8
0
 10
843.210699
 20
343.143942
 30
0.0
 11
843.176025
 21
343.015418
 31
0.0
  0
LINE
  8
0
 10
843.25067
 20
343.270678
 30
0.0
 11
843.210699
 21
343.143942
 31
0.0
  0
LINE
  8
0
 10
843.296539
 20
343.397216
 30
0.0
 11
843.25067
 21
343.270678
 31
0.0
  0
LINE
  8
0
 10
843.346997
 20
343.519979
 30
0.0
 11
843.296539
 21
343.397216
 31
0.0
  0
LINE
  8
0
 10
843.402767
 20
343.640955
 30
0.0
 11
843.346997
 21
343.519979
 31
0.0
  0
LINE
  8
0
 10
843.462755
 20
343.757957
 30
0.0
 11
843.402767
 21
343.640955
 31
0.0
  0
LINE
  8
0
 10
843.528025
 20
343.873172
 30
0.0
 11
843.462755
 21
343.757957
 31
0.0
  0
LINE
  8
0
 10
843.59731
 20
343.984414
 30
0.0
 11
843.528025
 21
343.873172
 31
0.0
  0
LINE
  8
0
 10
843.67056
 20
344.091882
 30
0.0
 11
843.59731
 21
343.984414
 31
0.0
  0
LINE
  8
0
 10
843.747637
 20
344.195575
 30
0.0
 11
843.67056
 21
344.091882
 31
0.0
  0
LINE
  8
0
 10
843.828254
 20
344.295295
 30
0.0
 11
843.747637
 21
344.195575
 31
0.0
  0
LINE
  8
0
 10
843.906175
 20
344.389454
 30
0.0
 11
843.828254
 21
344.295295
 31
0.0
  0
LINE
  8
0
 10
847.423802
 20
348.753314
 30
0.0
 11
847.467901
 21
348.713187
 31
0.0
  0
LINE
  8
0
 10
847.467901
 20
348.713187
 30
0.0
 11
847.423802
 21
348.753314
 31
0.0
  0
LINE
  8
0
 10
847.467901
 20
348.713187
 30
0.0
 11
847.517761
 21
348.678623
 31
0.0
  0
LINE
  8
0
 10
847.517761
 20
348.678623
 30
0.0
 11
847.467901
 21
348.713187
 31
0.0
  0
LINE
  8
0
 10
847.517761
 20
348.678623
 30
0.0
 11
847.571595
 21
348.651607
 31
0.0
  0
LINE
  8
0
 10
847.571595
 20
348.651607
 30
0.0
 11
847.517761
 21
348.678623
 31
0.0
  0
LINE
  8
0
 10
847.571595
 20
348.651607
 30
0.0
 11
847.627216
 21
348.63055
 31
0.0
  0
LINE
  8
0
 10
847.627216
 20
348.63055
 30
0.0
 11
847.571595
 21
348.651607
 31
0.0
  0
LINE
  8
0
 10
847.627216
 20
348.63055
 30
0.0
 11
847.686809
 21
348.615255
 31
0.0
  0
LINE
  8
0
 10
847.686809
 20
348.615255
 30
0.0
 11
847.627216
 21
348.63055
 31
0.0
  0
LINE
  8
0
 10
847.686809
 20
348.615255
 30
0.0
 11
847.746205
 21
348.607507
 31
0.0
  0
LINE
  8
0
 10
847.746205
 20
348.607507
 30
0.0
 11
847.686809
 21
348.615255
 31
0.0
  0
LINE
  8
0
 10
847.746205
 20
348.607507
 30
0.0
 11
847.805798
 21
348.607507
 31
0.0
  0
LINE
  8
0
 10
847.805798
 20
348.607507
 30
0.0
 11
847.746205
 21
348.607507
 31
0.0
  0
LINE
  8
0
 10
847.805798
 20
348.607507
 30
0.0
 11
847.865194
 21
348.615255
 31
0.0
  0
LINE
  8
0
 10
847.865194
 20
348.615255
 30
0.0
 11
847.805798
 21
348.607507
 31
0.0
  0
LINE
  8
0
 10
847.865194
 20
348.615255
 30
0.0
 11
847.924589
 21
348.63055
 31
0.0
  0
LINE
  8
0
 10
847.924589
 20
348.63055
 30
0.0
 11
847.865194
 21
348.615255
 31
0.0
  0
LINE
  8
0
 10
847.924589
 20
348.63055
 30
0.0
 11
847.980408
 21
348.651607
 31
0.0
  0
LINE
  8
0
 10
847.980408
 20
348.651607
 30
0.0
 11
847.924589
 21
348.63055
 31
0.0
  0
LINE
  8
0
 10
847.980408
 20
348.651607
 30
0.0
 11
848.034043
 21
348.678623
 31
0.0
  0
LINE
  8
0
 10
848.034043
 20
348.678623
 30
0.0
 11
847.980408
 21
348.651607
 31
0.0
  0
LINE
  8
0
 10
848.034043
 20
348.678623
 30
0.0
 11
848.083903
 21
348.713187
 31
0.0
  0
LINE
  8
0
 10
848.083903
 20
348.713187
 30
0.0
 11
848.034043
 21
348.678623
 31
0.0
  0
LINE
  8
0
 10
848.083903
 20
348.713187
 30
0.0
 11
848.128201
 21
348.753314
 31
0.0
  0
LINE
  8
0
 10
848.128201
 20
348.753314
 30
0.0
 11
848.083903
 21
348.713187
 31
0.0
  0
LINE
  8
0
 10
848.168328
 20
348.7994
 30
0.0
 11
848.128201
 21
348.753314
 31
0.0
  0
LINE
  8
0
 10
848.202892
 20
348.847472
 30
0.0
 11
848.168328
 21
348.7994
 31
0.0
  0
LINE
  8
0
 10
848.231696
 20
348.901106
 30
0.0
 11
848.202892
 21
348.847472
 31
0.0
  0
LINE
  8
0
 10
848.252752
 20
348.958714
 30
0.0
 11
848.231696
 21
348.901106
 31
0.0
  0
LINE
  8
0
 10
848.26626
 20
349.016321
 30
0.0
 11
848.252752
 21
348.958714
 31
0.0
  0
LINE
  8
0
 10
848.274008
 20
349.075716
 30
0.0
 11
848.26626
 21
349.016321
 31
0.0
  0
LINE
  8
0
 10
848.274008
 20
349.137297
 30
0.0
 11
848.274008
 21
349.075716
 31
0.0
  0
LINE
  8
0
 10
848.26626
 20
349.196692
 30
0.0
 11
848.274008
 21
349.137297
 31
0.0
  0
LINE
  8
0
 10
848.252752
 20
349.254299
 30
0.0
 11
848.26626
 21
349.196692
 31
0.0
  0
LINE
  8
0
 10
848.231696
 20
349.311907
 30
0.0
 11
848.252752
 21
349.254299
 31
0.0
  0
LINE
  8
0
 10
848.202892
 20
349.363753
 30
0.0
 11
848.231696
 21
349.311907
 31
0.0
  0
LINE
  8
0
 10
848.168328
 20
349.413614
 30
0.0
 11
848.202892
 21
349.363753
 31
0.0
  0
LINE
  8
0
 10
848.128201
 20
349.4597
 30
0.0
 11
848.168328
 21
349.413614
 31
0.0
  0
LINE
  8
0
 10
848.168328
 20
349.413614
 30
0.0
 11
848.128201
 21
349.4597
 31
0.0
  0
LINE
  8
0
 10
848.202892
 20
349.363753
 30
0.0
 11
848.168328
 21
349.413614
 31
0.0
  0
LINE
  8
0
 10
848.231696
 20
349.311907
 30
0.0
 11
848.202892
 21
349.363753
 31
0.0
  0
LINE
  8
0
 10
848.252752
 20
349.254299
 30
0.0
 11
848.231696
 21
349.311907
 31
0.0
  0
LINE
  8
0
 10
848.26626
 20
349.196692
 30
0.0
 11
848.252752
 21
349.254299
 31
0.0
  0
LINE
  8
0
 10
848.274008
 20
349.137297
 30
0.0
 11
848.26626
 21
349.196692
 31
0.0
  0
LINE
  8
0
 10
848.274008
 20
349.075716
 30
0.0
 11
848.274008
 21
349.137297
 31
0.0
  0
LINE
  8
0
 10
848.26626
 20
349.016321
 30
0.0
 11
848.274008
 21
349.075716
 31
0.0
  0
LINE
  8
0
 10
848.252752
 20
348.958714
 30
0.0
 11
848.26626
 21
349.016321
 31
0.0
  0
LINE
  8
0
 10
848.231696
 20
348.901106
 30
0.0
 11
848.252752
 21
348.958714
 31
0.0
  0
LINE
  8
0
 10
848.202892
 20
348.847472
 30
0.0
 11
848.231696
 21
348.901106
 31
0.0
  0
LINE
  8
0
 10
848.168328
 20
348.7994
 30
0.0
 11
848.202892
 21
348.847472
 31
0.0
  0
LINE
  8
0
 10
848.128201
 20
348.753314
 30
0.0
 11
848.168328
 21
348.7994
 31
0.0
  0
LINE
  8
0
 10
849.168313
 20
347.534818
 30
0.0
 11
849.227708
 21
347.599974
 31
0.0
  0
LINE
  8
0
 10
849.227708
 20
347.599974
 30
0.0
 11
849.168313
 21
347.534818
 31
0.0
  0
LINE
  8
0
 10
849.227708
 20
347.599974
 30
0.0
 11
849.279555
 21
347.669103
 31
0.0
  0
LINE
  8
0
 10
849.279555
 20
347.669103
 30
0.0
 11
849.227708
 21
347.599974
 31
0.0
  0
LINE
  8
0
 10
849.279555
 20
347.669103
 30
0.0
 11
849.327627
 21
347.742006
 31
0.0
  0
LINE
  8
0
 10
849.327627
 20
347.742006
 30
0.0
 11
849.279555
 21
347.669103
 31
0.0
  0
LINE
  8
0
 10
849.327627
 20
347.742006
 30
0.0
 11
849.367754
 21
347.818882
 31
0.0
  0
LINE
  8
0
 10
849.367754
 20
347.818882
 30
0.0
 11
849.327627
 21
347.742006
 31
0.0
  0
LINE
  8
0
 10
849.367754
 20
347.818882
 30
0.0
 11
849.40053
 21
347.899334
 31
0.0
  0
LINE
  8
0
 10
849.40053
 20
347.899334
 30
0.0
 11
849.367754
 21
347.818882
 31
0.0
  0
LINE
  8
0
 10
849.40053
 20
347.899334
 30
0.0
 11
849.427347
 21
347.983758
 31
0.0
  0
LINE
  8
0
 10
849.427347
 20
347.983758
 30
0.0
 11
849.40053
 21
347.899334
 31
0.0
  0
LINE
  8
0
 10
849.427347
 20
347.983758
 30
0.0
 11
849.44463
 21
348.068382
 31
0.0
  0
LINE
  8
0
 10
849.44463
 20
348.068382
 30
0.0
 11
849.427347
 21
347.983758
 31
0.0
  0
LINE
  8
0
 10
849.44463
 20
348.068382
 30
0.0
 11
849.456151
 21
348.154594
 31
0.0
  0
LINE
  8
0
 10
849.456151
 20
348.154594
 30
0.0
 11
849.44463
 21
348.068382
 31
0.0
  0
LINE
  8
0
 10
849.456151
 20
348.154594
 30
0.0
 11
849.459925
 21
348.241005
 31
0.0
  0
LINE
  8
0
 10
849.459925
 20
348.241005
 30
0.0
 11
849.456151
 21
348.154594
 31
0.0
  0
LINE
  8
0
 10
849.459925
 20
350.820227
 30
0.0
 11
849.456151
 21
350.908625
 31
0.0
  0
LINE
  8
0
 10
849.456151
 20
350.908625
 30
0.0
 11
849.459925
 21
350.820227
 31
0.0
  0
LINE
  8
0
 10
849.456151
 20
350.908625
 30
0.0
 11
849.44463
 21
350.994837
 31
0.0
  0
LINE
  8
0
 10
849.44463
 20
350.994837
 30
0.0
 11
849.456151
 21
350.908625
 31
0.0
  0
LINE
  8
0
 10
849.44463
 20
350.994837
 30
0.0
 11
849.427347
 21
351.079262
 31
0.0
  0
LINE
  8
0
 10
849.427347
 20
351.079262
 30
0.0
 11
849.44463
 21
350.994837
 31
0.0
  0
LINE
  8
0
 10
849.427347
 20
351.079262
 30
0.0
 11
849.40053
 21
351.161899
 31
0.0
  0
LINE
  8
0
 10
849.40053
 20
351.161899
 30
0.0
 11
849.427347
 21
351.079262
 31
0.0
  0
LINE
  8
0
 10
849.40053
 20
351.161899
 30
0.0
 11
849.367754
 21
351.242549
 31
0.0
  0
LINE
  8
0
 10
849.367754
 20
351.242549
 30
0.0
 11
849.40053
 21
351.161899
 31
0.0
  0
LINE
  8
0
 10
849.367754
 20
351.242549
 30
0.0
 11
849.327627
 21
351.319227
 31
0.0
  0
LINE
  8
0
 10
849.327627
 20
351.319227
 30
0.0
 11
849.367754
 21
351.242549
 31
0.0
  0
LINE
  8
0
 10
849.327627
 20
351.319227
 30
0.0
 11
849.279555
 21
351.394116
 31
0.0
  0
LINE
  8
0
 10
849.279555
 20
351.394116
 30
0.0
 11
849.327627
 21
351.319227
 31
0.0
  0
LINE
  8
0
 10
849.279555
 20
351.394116
 30
0.0
 11
849.227708
 21
351.463245
 31
0.0
  0
LINE
  8
0
 10
849.227708
 20
351.463245
 30
0.0
 11
849.279555
 21
351.394116
 31
0.0
  0
LINE
  8
0
 10
849.227708
 20
351.463245
 30
0.0
 11
849.168313
 21
351.526415
 31
0.0
  0
LINE
  8
0
 10
849.168313
 20
351.526415
 30
0.0
 11
849.227708
 21
351.463245
 31
0.0
  0
LINE
  8
0
 10
849.168313
 20
351.526415
 30
0.0
 11
849.104945
 21
351.586009
 31
0.0
  0
LINE
  8
0
 10
849.104945
 20
351.586009
 30
0.0
 11
849.168313
 21
351.526415
 31
0.0
  0
LINE
  8
0
 10
849.104945
 20
351.586009
 30
0.0
 11
849.035816
 21
351.637855
 31
0.0
  0
LINE
  8
0
 10
849.035816
 20
351.637855
 30
0.0
 11
849.104945
 21
351.586009
 31
0.0
  0
LINE
  8
0
 10
849.035816
 20
351.637855
 30
0.0
 11
848.960926
 21
351.685729
 31
0.0
  0
LINE
  8
0
 10
848.960926
 20
351.685729
 30
0.0
 11
849.035816
 21
351.637855
 31
0.0
  0
LINE
  8
0
 10
848.960926
 20
351.685729
 30
0.0
 11
848.884249
 21
351.726054
 31
0.0
  0
LINE
  8
0
 10
848.884249
 20
351.726054
 30
0.0
 11
848.960926
 21
351.685729
 31
0.0
  0
LINE
  8
0
 10
848.884249
 20
351.726054
 30
0.0
 11
848.803598
 21
351.758632
 31
0.0
  0
LINE
  8
0
 10
848.803598
 20
351.758632
 30
0.0
 11
848.884249
 21
351.726054
 31
0.0
  0
LINE
  8
0
 10
848.803598
 20
351.758632
 30
0.0
 11
848.72116
 21
351.785648
 31
0.0
  0
LINE
  8
0
 10
848.72116
 20
351.785648
 30
0.0
 11
848.803598
 21
351.758632
 31
0.0
  0
LINE
  8
0
 10
848.72116
 20
351.785648
 30
0.0
 11
848.636736
 21
351.80293
 31
0.0
  0
LINE
  8
0
 10
848.636736
 20
351.80293
 30
0.0
 11
848.72116
 21
351.785648
 31
0.0
  0
LINE
  8
0
 10
848.636736
 20
351.80293
 30
0.0
 11
848.550324
 21
351.814452
 31
0.0
  0
LINE
  8
0
 10
848.550324
 20
351.814452
 30
0.0
 11
848.636736
 21
351.80293
 31
0.0
  0
LINE
  8
0
 10
848.550324
 20
351.814452
 30
0.0
 11
848.462126
 21
351.818226
 31
0.0
  0
LINE
  8
0
 10
848.462126
 20
351.818226
 30
0.0
 11
848.550324
 21
351.814452
 31
0.0
  0
LINE
  8
0
 10
846.560287
 20
351.027614
 30
0.0
 11
846.500693
 21
350.964246
 31
0.0
  0
LINE
  8
0
 10
846.500693
 20
350.964246
 30
0.0
 11
846.560287
 21
351.027614
 31
0.0
  0
LINE
  8
0
 10
846.500693
 20
350.964246
 30
0.0
 11
846.448846
 21
350.895117
 31
0.0
  0
LINE
  8
0
 10
846.448846
 20
350.895117
 30
0.0
 11
846.500693
 21
350.964246
 31
0.0
  0
LINE
  8
0
 10
846.448846
 20
350.895117
 30
0.0
 11
846.400972
 21
350.820227
 31
0.0
  0
LINE
  8
0
 10
846.400972
 20
350.820227
 30
0.0
 11
846.448846
 21
350.895117
 31
0.0
  0
LINE
  8
0
 10
846.400972
 20
350.820227
 30
0.0
 11
846.362634
 21
350.74355
 31
0.0
  0
LINE
  8
0
 10
846.362634
 20
350.74355
 30
0.0
 11
846.400972
 21
350.820227
 31
0.0
  0
LINE
  8
0
 10
846.362634
 20
350.74355
 30
0.0
 11
846.328069
 21
350.6629
 31
0.0
  0
LINE
  8
0
 10
846.328069
 20
350.6629
 30
0.0
 11
846.362634
 21
350.74355
 31
0.0
  0
LINE
  8
0
 10
846.328069
 20
350.6629
 30
0.0
 11
846.30304
 21
350.580461
 31
0.0
  0
LINE
  8
0
 10
846.30304
 20
350.580461
 30
0.0
 11
846.328069
 21
350.6629
 31
0.0
  0
LINE
  8
0
 10
846.30304
 20
350.580461
 30
0.0
 11
846.28397
 21
350.496037
 31
0.0
  0
LINE
  8
0
 10
846.28397
 20
350.496037
 30
0.0
 11
846.30304
 21
350.580461
 31
0.0
  0
LINE
  8
0
 10
846.28397
 20
350.496037
 30
0.0
 11
846.272448
 21
350.409626
 31
0.0
  0
LINE
  8
0
 10
846.272448
 20
350.409626
 30
0.0
 11
846.28397
 21
350.496037
 31
0.0
  0
LINE
  8
0
 10
846.272448
 20
350.409626
 30
0.0
 11
846.268475
 21
350.321228
 31
0.0
  0
LINE
  8
0
 10
846.268475
 20
350.321228
 30
0.0
 11
846.272448
 21
350.409626
 31
0.0
  0
LINE
  8
0
 10
846.268475
 20
350.321228
 30
0.0
 11
846.272448
 21
350.235016
 31
0.0
  0
LINE
  8
0
 10
846.272448
 20
350.235016
 30
0.0
 11
846.268475
 21
350.321228
 31
0.0
  0
LINE
  8
0
 10
846.272448
 20
350.235016
 30
0.0
 11
846.28397
 21
350.148605
 31
0.0
  0
LINE
  8
0
 10
846.28397
 20
350.148605
 30
0.0
 11
846.272448
 21
350.235016
 31
0.0
  0
LINE
  8
0
 10
846.28397
 20
350.148605
 30
0.0
 11
846.30304
 21
350.06418
 31
0.0
  0
LINE
  8
0
 10
846.30304
 20
350.06418
 30
0.0
 11
846.28397
 21
350.148605
 31
0.0
  0
LINE
  8
0
 10
846.30304
 20
350.06418
 30
0.0
 11
846.328069
 21
349.981543
 31
0.0
  0
LINE
  8
0
 10
846.328069
 20
349.981543
 30
0.0
 11
846.30304
 21
350.06418
 31
0.0
  0
LINE
  8
0
 10
846.328069
 20
349.981543
 30
0.0
 11
846.362634
 21
349.901091
 31
0.0
  0
LINE
  8
0
 10
846.362634
 20
349.901091
 30
0.0
 11
846.328069
 21
349.981543
 31
0.0
  0
LINE
  8
0
 10
846.362634
 20
349.901091
 30
0.0
 11
846.400972
 21
349.824215
 31
0.0
  0
LINE
  8
0
 10
846.400972
 20
349.824215
 30
0.0
 11
846.362634
 21
349.901091
 31
0.0
  0
LINE
  8
0
 10
846.400972
 20
349.824215
 30
0.0
 11
846.448846
 21
349.749326
 31
0.0
  0
LINE
  8
0
 10
846.448846
 20
349.749326
 30
0.0
 11
846.400972
 21
349.824215
 31
0.0
  0
LINE
  8
0
 10
846.448846
 20
349.749326
 30
0.0
 11
846.500693
 21
349.680395
 31
0.0
  0
LINE
  8
0
 10
846.500693
 20
349.680395
 30
0.0
 11
846.448846
 21
349.749326
 31
0.0
  0
LINE
  8
0
 10
846.500693
 20
349.680395
 30
0.0
 11
846.560287
 21
349.617027
 31
0.0
  0
LINE
  8
0
 10
846.560287
 20
349.617027
 30
0.0
 11
846.500693
 21
349.680395
 31
0.0
  0
LINE
  8
0
 10
844.4748
 20
308.707827
 30
0.0
 11
844.434475
 21
308.629164
 31
0.0
  0
LINE
  8
0
 10
844.509365
 20
308.788478
 30
0.0
 11
844.4748
 21
308.707827
 31
0.0
  0
LINE
  8
0
 10
844.534195
 20
308.870916
 30
0.0
 11
844.509365
 21
308.788478
 31
0.0
  0
LINE
  8
0
 10
844.553464
 20
308.955341
 30
0.0
 11
844.534195
 21
308.870916
 31
0.0
  0
LINE
  8
0
 10
844.564986
 20
309.041752
 30
0.0
 11
844.553464
 21
308.955341
 31
0.0
  0
LINE
  8
0
 10
844.56876
 20
309.128163
 30
0.0
 11
844.564986
 21
309.041752
 31
0.0
  0
LINE
  8
0
 10
844.564986
 20
309.041752
 30
0.0
 11
844.56876
 21
309.128163
 31
0.0
  0
LINE
  8
0
 10
844.553464
 20
308.955341
 30
0.0
 11
844.564986
 21
309.041752
 31
0.0
  0
LINE
  8
0
 10
844.534195
 20
308.870916
 30
0.0
 11
844.553464
 21
308.955341
 31
0.0
  0
LINE
  8
0
 10
844.509365
 20
308.788478
 30
0.0
 11
844.534195
 21
308.870916
 31
0.0
  0
LINE
  8
0
 10
844.4748
 20
308.707827
 30
0.0
 11
844.509365
 21
308.788478
 31
0.0
  0
LINE
  8
0
 10
844.434475
 20
308.629164
 30
0.0
 11
844.4748
 21
308.707827
 31
0.0
  0
LINE
  8
0
 10
839.584925
 20
309.041752
 30
0.0
 11
839.581151
 21
309.128163
 31
0.0
  0
LINE
  8
0
 10
839.596447
 20
308.955341
 30
0.0
 11
839.584925
 21
309.041752
 31
0.0
  0
LINE
  8
0
 10
839.615715
 20
308.870916
 30
0.0
 11
839.596447
 21
308.955341
 31
0.0
  0
LINE
  8
0
 10
839.640546
 20
308.788478
 30
0.0
 11
839.615715
 21
308.870916
 31
0.0
  0
LINE
  8
0
 10
839.675111
 20
308.707827
 30
0.0
 11
839.640546
 21
308.788478
 31
0.0
  0
LINE
  8
0
 10
839.715436
 20
308.629164
 30
0.0
 11
839.675111
 21
308.707827
 31
0.0
  0
LINE
  8
0
 10
839.675111
 20
308.707827
 30
0.0
 11
839.715436
 21
308.629164
 31
0.0
  0
LINE
  8
0
 10
839.640546
 20
308.788478
 30
0.0
 11
839.675111
 21
308.707827
 31
0.0
  0
LINE
  8
0
 10
839.615715
 20
308.870916
 30
0.0
 11
839.640546
 21
308.788478
 31
0.0
  0
LINE
  8
0
 10
839.596447
 20
308.955341
 30
0.0
 11
839.615715
 21
308.870916
 31
0.0
  0
LINE
  8
0
 10
839.584925
 20
309.041752
 30
0.0
 11
839.596447
 21
308.955341
 31
0.0
  0
LINE
  8
0
 10
839.581151
 20
309.128163
 30
0.0
 11
839.584925
 21
309.041752
 31
0.0
  0
LINE
  8
0
 10
839.581151
 20
342.005898
 30
0.0
 11
839.577377
 21
342.136408
 31
0.0
  0
LINE
  8
0
 10
839.577377
 20
342.136408
 30
0.0
 11
839.581151
 21
342.005898
 31
0.0
  0
LINE
  8
0
 10
839.577377
 20
342.136408
 30
0.0
 11
839.567643
 21
342.266919
 31
0.0
  0
LINE
  8
0
 10
839.567643
 20
342.266919
 30
0.0
 11
839.577377
 21
342.136408
 31
0.0
  0
LINE
  8
0
 10
839.567643
 20
342.266919
 30
0.0
 11
839.550361
 21
342.395443
 31
0.0
  0
LINE
  8
0
 10
839.550361
 20
342.395443
 30
0.0
 11
839.567643
 21
342.266919
 31
0.0
  0
LINE
  8
0
 10
839.550361
 20
342.395443
 30
0.0
 11
839.527318
 21
342.523967
 31
0.0
  0
LINE
  8
0
 10
839.527318
 20
342.523967
 30
0.0
 11
839.550361
 21
342.395443
 31
0.0
  0
LINE
  8
0
 10
839.527318
 20
342.523967
 30
0.0
 11
839.496726
 21
342.650704
 31
0.0
  0
LINE
  8
0
 10
839.496726
 20
342.650704
 30
0.0
 11
839.527318
 21
342.523967
 31
0.0
  0
LINE
  8
0
 10
839.496726
 20
342.650704
 30
0.0
 11
839.458388
 21
342.77744
 31
0.0
  0
LINE
  8
0
 10
839.458388
 20
342.77744
 30
0.0
 11
839.496726
 21
342.650704
 31
0.0
  0
LINE
  8
0
 10
839.458388
 20
342.77744
 30
0.0
 11
839.416076
 21
342.900203
 31
0.0
  0
LINE
  8
0
 10
839.416076
 20
342.900203
 30
0.0
 11
839.458388
 21
342.77744
 31
0.0
  0
LINE
  8
0
 10
839.416076
 20
342.900203
 30
0.0
 11
839.366216
 21
343.021179
 31
0.0
  0
LINE
  8
0
 10
839.366216
 20
343.021179
 30
0.0
 11
839.416076
 21
342.900203
 31
0.0
  0
LINE
  8
0
 10
839.366216
 20
343.021179
 30
0.0
 11
839.308608
 21
343.138181
 31
0.0
  0
LINE
  8
0
 10
839.308608
 20
343.138181
 30
0.0
 11
839.366216
 21
343.021179
 31
0.0
  0
LINE
  8
0
 10
839.308608
 20
343.138181
 30
0.0
 11
839.247227
 21
343.253396
 31
0.0
  0
LINE
  8
0
 10
839.247227
 20
343.253396
 30
0.0
 11
839.308608
 21
343.138181
 31
0.0
  0
LINE
  8
0
 10
839.247227
 20
343.253396
 30
0.0
 11
839.178098
 21
343.364638
 31
0.0
  0
LINE
  8
0
 10
839.178098
 20
343.364638
 30
0.0
 11
839.247227
 21
343.253396
 31
0.0
  0
LINE
  8
0
 10
839.178098
 20
343.364638
 30
0.0
 11
839.105195
 21
343.472106
 31
0.0
  0
LINE
  8
0
 10
839.105195
 20
343.472106
 30
0.0
 11
839.178098
 21
343.364638
 31
0.0
  0
LINE
  8
0
 10
839.105195
 20
343.472106
 30
0.0
 11
839.024544
 21
343.575799
 31
0.0
  0
LINE
  8
0
 10
839.024544
 20
343.575799
 30
0.0
 11
839.105195
 21
343.472106
 31
0.0
  0
LINE
  8
0
 10
839.024544
 20
343.575799
 30
0.0
 11
838.94012
 21
343.675519
 31
0.0
  0
LINE
  8
0
 10
838.94012
 20
343.675519
 30
0.0
 11
839.024544
 21
343.575799
 31
0.0
  0
LINE
  8
0
 10
838.94012
 20
343.675519
 30
0.0
 11
838.849934
 21
343.769479
 31
0.0
  0
LINE
  8
0
 10
838.849934
 20
343.769479
 30
0.0
 11
838.94012
 21
343.675519
 31
0.0
  0
LINE
  8
0
 10
835.0252
 20
347.599974
 30
0.0
 11
835.084794
 21
347.534818
 31
0.0
  0
LINE
  8
0
 10
834.973354
 20
347.669103
 30
0.0
 11
835.0252
 21
347.599974
 31
0.0
  0
LINE
  8
0
 10
834.92548
 20
347.742006
 30
0.0
 11
834.973354
 21
347.669103
 31
0.0
  0
LINE
  8
0
 10
834.885155
 20
347.818882
 30
0.0
 11
834.92548
 21
347.742006
 31
0.0
  0
LINE
  8
0
 10
834.852577
 20
347.899334
 30
0.0
 11
834.885155
 21
347.818882
 31
0.0
  0
LINE
  8
0
 10
834.825561
 20
347.983758
 30
0.0
 11
834.852577
 21
347.899334
 31
0.0
  0
LINE
  8
0
 10
834.808279
 20
348.068382
 30
0.0
 11
834.825561
 21
347.983758
 31
0.0
  0
LINE
  8
0
 10
834.796757
 20
348.154594
 30
0.0
 11
834.808279
 21
348.068382
 31
0.0
  0
LINE
  8
0
 10
834.796757
 20
348.154594
 30
0.0
 11
834.792983
 21
348.241005
 31
0.0
  0
LINE
  8
0
 10
835.0252
 20
347.599974
 30
0.0
 11
835.084794
 21
347.534818
 31
0.0
  0
LINE
  8
0
 10
834.973354
 20
347.669103
 30
0.0
 11
835.0252
 21
347.599974
 31
0.0
  0
LINE
  8
0
 10
834.92548
 20
347.742006
 30
0.0
 11
834.973354
 21
347.669103
 31
0.0
  0
LINE
  8
0
 10
834.885155
 20
347.818882
 30
0.0
 11
834.92548
 21
347.742006
 31
0.0
  0
LINE
  8
0
 10
834.852577
 20
347.899334
 30
0.0
 11
834.885155
 21
347.818882
 31
0.0
  0
LINE
  8
0
 10
834.825561
 20
347.983758
 30
0.0
 11
834.852577
 21
347.899334
 31
0.0
  0
LINE
  8
0
 10
834.808279
 20
348.068382
 30
0.0
 11
834.825561
 21
347.983758
 31
0.0
  0
LINE
  8
0
 10
834.796757
 20
348.154594
 30
0.0
 11
834.808279
 21
348.068382
 31
0.0
  0
LINE
  8
0
 10
834.792983
 20
348.241005
 30
0.0
 11
834.796757
 21
348.154594
 31
0.0
  0
LINE
  8
0
 10
834.796757
 20
350.908625
 30
0.0
 11
834.792983
 21
350.820227
 31
0.0
  0
LINE
  8
0
 10
834.808279
 20
350.994837
 30
0.0
 11
834.796757
 21
350.908625
 31
0.0
  0
LINE
  8
0
 10
834.825561
 20
351.079262
 30
0.0
 11
834.808279
 21
350.994837
 31
0.0
  0
LINE
  8
0
 10
834.852577
 20
351.161899
 30
0.0
 11
834.825561
 21
351.079262
 31
0.0
  0
LINE
  8
0
 10
834.885155
 20
351.242549
 30
0.0
 11
834.852577
 21
351.161899
 31
0.0
  0
LINE
  8
0
 10
834.92548
 20
351.319227
 30
0.0
 11
834.885155
 21
351.242549
 31
0.0
  0
LINE
  8
0
 10
834.973354
 20
351.394116
 30
0.0
 11
834.92548
 21
351.319227
 31
0.0
  0
LINE
  8
0
 10
835.0252
 20
351.463245
 30
0.0
 11
834.973354
 21
351.394116
 31
0.0
  0
LINE
  8
0
 10
835.084794
 20
351.526415
 30
0.0
 11
835.0252
 21
351.463245
 31
0.0
  0
LINE
  8
0
 10
835.147964
 20
351.586009
 30
0.0
 11
835.084794
 21
351.526415
 31
0.0
  0
LINE
  8
0
 10
835.217092
 20
351.637855
 30
0.0
 11
835.147964
 21
351.586009
 31
0.0
  0
LINE
  8
0
 10
835.291982
 20
351.685729
 30
0.0
 11
835.217092
 21
351.637855
 31
0.0
  0
LINE
  8
0
 10
835.368659
 20
351.726054
 30
0.0
 11
835.291982
 21
351.685729
 31
0.0
  0
LINE
  8
0
 10
835.44931
 20
351.758632
 30
0.0
 11
835.368659
 21
351.726054
 31
0.0
  0
LINE
  8
0
 10
835.531947
 20
351.785648
 30
0.0
 11
835.44931
 21
351.758632
 31
0.0
  0
LINE
  8
0
 10
835.616371
 20
351.80293
 30
0.0
 11
835.531947
 21
351.785648
 31
0.0
  0
LINE
  8
0
 10
835.702584
 20
351.814452
 30
0.0
 11
835.616371
 21
351.80293
 31
0.0
  0
LINE
  8
0
 10
835.702584
 20
351.814452
 30
0.0
 11
835.790981
 21
351.818226
 31
0.0
  0
LINE
  8
0
 10
834.796757
 20
350.908625
 30
0.0
 11
834.792983
 21
350.820227
 31
0.0
  0
LINE
  8
0
 10
834.808279
 20
350.994837
 30
0.0
 11
834.796757
 21
350.908625
 31
0.0
  0
LINE
  8
0
 10
834.825561
 20
351.079262
 30
0.0
 11
834.808279
 21
350.994837
 31
0.0
  0
LINE
  8
0
 10
834.852577
 20
351.161899
 30
0.0
 11
834.825561
 21
351.079262
 31
0.0
  0
LINE
  8
0
 10
834.885155
 20
351.242549
 30
0.0
 11
834.852577
 21
351.161899
 31
0.0
  0
LINE
  8
0
 10
834.92548
 20
351.319227
 30
0.0
 11
834.885155
 21
351.242549
 31
0.0
  0
LINE
  8
0
 10
834.973354
 20
351.394116
 30
0.0
 11
834.92548
 21
351.319227
 31
0.0
  0
LINE
  8
0
 10
835.0252
 20
351.463245
 30
0.0
 11
834.973354
 21
351.394116
 31
0.0
  0
LINE
  8
0
 10
835.084794
 20
351.526415
 30
0.0
 11
835.0252
 21
351.463245
 31
0.0
  0
LINE
  8
0
 10
835.147964
 20
351.586009
 30
0.0
 11
835.084794
 21
351.526415
 31
0.0
  0
LINE
  8
0
 10
835.217092
 20
351.637855
 30
0.0
 11
835.147964
 21
351.586009
 31
0.0
  0
LINE
  8
0
 10
835.291982
 20
351.685729
 30
0.0
 11
835.217092
 21
351.637855
 31
0.0
  0
LINE
  8
0
 10
835.368659
 20
351.726054
 30
0.0
 11
835.291982
 21
351.685729
 31
0.0
  0
LINE
  8
0
 10
835.44931
 20
351.758632
 30
0.0
 11
835.368659
 21
351.726054
 31
0.0
  0
LINE
  8
0
 10
835.531947
 20
351.785648
 30
0.0
 11
835.44931
 21
351.758632
 31
0.0
  0
LINE
  8
0
 10
835.616371
 20
351.80293
 30
0.0
 11
835.531947
 21
351.785648
 31
0.0
  0
LINE
  8
0
 10
835.702584
 20
351.814452
 30
0.0
 11
835.790981
 21
351.818226
 31
0.0
  0
LINE
  8
0
 10
835.616371
 20
351.80293
 30
0.0
 11
835.702584
 21
351.814452
 31
0.0
  0
LINE
  8
0
 10
845.402974
 20
343.769479
 30
0.0
 11
845.312789
 21
343.675519
 31
0.0
  0
LINE
  8
0
 10
845.312789
 20
343.675519
 30
0.0
 11
845.402974
 21
343.769479
 31
0.0
  0
LINE
  8
0
 10
845.312789
 20
343.675519
 30
0.0
 11
845.228364
 21
343.575799
 31
0.0
  0
LINE
  8
0
 10
845.228364
 20
343.575799
 30
0.0
 11
845.312789
 21
343.675519
 31
0.0
  0
LINE
  8
0
 10
845.228364
 20
343.575799
 30
0.0
 11
845.147714
 21
343.472106
 31
0.0
  0
LINE
  8
0
 10
845.147714
 20
343.472106
 30
0.0
 11
845.228364
 21
343.575799
 31
0.0
  0
LINE
  8
0
 10
845.147714
 20
343.472106
 30
0.0
 11
845.07481
 21
343.364638
 31
0.0
  0
LINE
  8
0
 10
845.07481
 20
343.364638
 30
0.0
 11
845.147714
 21
343.472106
 31
0.0
  0
LINE
  8
0
 10
845.07481
 20
343.364638
 30
0.0
 11
845.005682
 21
343.253396
 31
0.0
  0
LINE
  8
0
 10
845.005682
 20
343.253396
 30
0.0
 11
845.07481
 21
343.364638
 31
0.0
  0
LINE
  8
0
 10
845.005682
 20
343.253396
 30
0.0
 11
844.917648
 21
343.138181
 31
0.0
  0
LINE
  8
0
 10
844.917648
 20
343.138181
 30
0.0
 11
845.005682
 21
343.253396
 31
0.0
  0
LINE
  8
0
 10
844.917648
 20
343.138181
 30
0.0
 11
844.860041
 21
343.021179
 31
0.0
  0
LINE
  8
0
 10
844.860041
 20
343.021179
 30
0.0
 11
844.917648
 21
343.138181
 31
0.0
  0
LINE
  8
0
 10
844.860041
 20
343.021179
 30
0.0
 11
844.81018
 21
342.900203
 31
0.0
  0
LINE
  8
0
 10
844.81018
 20
342.900203
 30
0.0
 11
844.860041
 21
343.021179
 31
0.0
  0
LINE
  8
0
 10
844.81018
 20
342.900203
 30
0.0
 11
844.741415
 21
342.77744
 31
0.0
  0
LINE
  8
0
 10
844.741415
 20
342.77744
 30
0.0
 11
844.81018
 21
342.900203
 31
0.0
  0
LINE
  8
0
 10
844.741415
 20
342.77744
 30
0.0
 11
844.676226
 21
342.650704
 31
0.0
  0
LINE
  8
0
 10
844.676226
 20
342.650704
 30
0.0
 11
844.741415
 21
342.77744
 31
0.0
  0
LINE
  8
0
 10
844.620969
 20
342.523967
 30
0.0
 11
844.676226
 21
342.650704
 31
0.0
  0
LINE
  8
0
 10
844.569288
 20
342.395443
 30
0.0
 11
844.620969
 21
342.523967
 31
0.0
  0
LINE
  8
0
 10
844.552006
 20
342.266919
 30
0.0
 11
844.569288
 21
342.395443
 31
0.0
  0
LINE
  8
0
 10
844.557497
 20
342.136408
 30
0.0
 11
844.552006
 21
342.266919
 31
0.0
  0
LINE
  8
0
 10
844.553524
 20
342.005898
 30
0.0
 11
844.557497
 21
342.136408
 31
0.0
  0
LINE
  8
0
 10
844.557497
 20
342.136408
 30
0.0
 11
844.553524
 21
342.005898
 31
0.0
  0
LINE
  8
0
 10
844.552006
 20
342.266919
 30
0.0
 11
844.557497
 21
342.136408
 31
0.0
  0
LINE
  8
0
 10
844.569288
 20
342.395443
 30
0.0
 11
844.552006
 21
342.266919
 31
0.0
  0
LINE
  8
0
 10
844.620969
 20
342.523967
 30
0.0
 11
844.569288
 21
342.395443
 31
0.0
  0
LINE
  8
0
 10
844.676226
 20
342.650704
 30
0.0
 11
844.620969
 21
342.523967
 31
0.0
  0
LINE
  8
0
 10
840.57915
 20
309.128163
 30
0.0
 11
840.57915
 21
334.857217
 31
0.0
  0
LINE
  8
0
 10
842.075949
 20
306.537419
 30
0.0
 11
840.57915
 21
309.128163
 31
0.0
  0
LINE
  8
0
 10
843.57096
 20
309.128163
 30
0.0
 11
842.075949
 21
306.537419
 31
0.0
  0
LINE
  8
0
 10
842.075949
 20
306.537419
 30
0.0
 11
843.57096
 21
309.128163
 31
0.0
  0
LINE
  8
0
 10
840.57915
 20
309.128163
 30
0.0
 11
842.075949
 21
306.537419
 31
0.0
  0
LINE
  8
0
 10
840.57915
 20
334.857217
 30
0.0
 11
840.57915
 21
309.128163
 31
0.0
  0
LINE
  8
0
 10
841.07795
 20
337.851014
 30
0.0
 11
841.081923
 21
337.764801
 31
0.0
  0
LINE
  8
0
 10
841.081923
 20
337.764801
 30
0.0
 11
841.07795
 21
337.851014
 31
0.0
  0
LINE
  8
0
 10
841.081923
 20
337.764801
 30
0.0
 11
841.093445
 21
337.67839
 31
0.0
  0
LINE
  8
0
 10
841.093445
 20
337.67839
 30
0.0
 11
841.081923
 21
337.764801
 31
0.0
  0
LINE
  8
0
 10
841.093445
 20
337.67839
 30
0.0
 11
841.110727
 21
337.591979
 31
0.0
  0
LINE
  8
0
 10
841.110727
 20
337.591979
 30
0.0
 11
841.093445
 21
337.67839
 31
0.0
  0
LINE
  8
0
 10
841.110727
 20
337.591979
 30
0.0
 11
841.137544
 21
337.509541
 31
0.0
  0
LINE
  8
0
 10
841.137544
 20
337.509541
 30
0.0
 11
841.110727
 21
337.591979
 31
0.0
  0
LINE
  8
0
 10
841.137544
 20
337.509541
 30
0.0
 11
841.170122
 21
337.428891
 31
0.0
  0
LINE
  8
0
 10
841.170122
 20
337.428891
 30
0.0
 11
841.137544
 21
337.509541
 31
0.0
  0
LINE
  8
0
 10
841.170122
 20
337.428891
 30
0.0
 11
841.210447
 21
337.352015
 31
0.0
  0
LINE
  8
0
 10
841.210447
 20
337.352015
 30
0.0
 11
841.170122
 21
337.428891
 31
0.0
  0
LINE
  8
0
 10
841.210447
 20
337.352015
 30
0.0
 11
841.258321
 21
337.279111
 31
0.0
  0
LINE
  8
0
 10
841.258321
 20
337.279111
 30
0.0
 11
841.210447
 21
337.352015
 31
0.0
  0
LINE
  8
0
 10
841.258321
 20
337.279111
 30
0.0
 11
841.310168
 21
337.210181
 31
0.0
  0
LINE
  8
0
 10
841.310168
 20
337.210181
 30
0.0
 11
841.258321
 21
337.279111
 31
0.0
  0
LINE
  8
0
 10
841.310168
 20
337.210181
 30
0.0
 11
841.369761
 21
337.144827
 31
0.0
  0
LINE
  8
0
 10
841.369761
 20
337.144827
 30
0.0
 11
841.310168
 21
337.210181
 31
0.0
  0
LINE
  8
0
 10
841.369761
 20
337.144827
 30
0.0
 11
841.43313
 21
337.087219
 31
0.0
  0
LINE
  8
0
 10
841.43313
 20
337.087219
 30
0.0
 11
841.369761
 21
337.144827
 31
0.0
  0
LINE
  8
0
 10
841.43313
 20
337.087219
 30
0.0
 11
841.50206
 21
337.033585
 31
0.0
  0
LINE
  8
0
 10
841.50206
 20
337.033585
 30
0.0
 11
841.43313
 21
337.087219
 31
0.0
  0
LINE
  8
0
 10
841.50206
 20
337.033585
 30
0.0
 11
841.576949
 21
336.987499
 31
0.0
  0
LINE
  8
0
 10
841.576949
 20
336.987499
 30
0.0
 11
841.50206
 21
337.033585
 31
0.0
  0
LINE
  8
0
 10
841.576949
 20
336.987499
 30
0.0
 11
841.653825
 21
336.947174
 31
0.0
  0
LINE
  8
0
 10
841.653825
 20
336.947174
 30
0.0
 11
841.576949
 21
336.987499
 31
0.0
  0
LINE
  8
0
 10
841.653825
 20
336.947174
 30
0.0
 11
841.734277
 21
336.914596
 31
0.0
  0
LINE
  8
0
 10
841.734277
 20
336.914596
 30
0.0
 11
841.653825
 21
336.947174
 31
0.0
  0
LINE
  8
0
 10
841.734277
 20
336.914596
 30
0.0
 11
841.816914
 21
336.887778
 31
0.0
  0
LINE
  8
0
 10
841.816914
 20
336.887778
 30
0.0
 11
841.734277
 21
336.914596
 31
0.0
  0
LINE
  8
0
 10
841.816914
 20
336.887778
 30
0.0
 11
841.901339
 21
336.86851
 31
0.0
  0
LINE
  8
0
 10
841.901339
 20
336.86851
 30
0.0
 11
841.816914
 21
336.887778
 31
0.0
  0
LINE
  8
0
 10
843.068186
 20
337.764801
 30
0.0
 11
843.071961
 21
337.851014
 31
0.0
  0
LINE
  8
0
 10
843.056665
 20
337.67839
 30
0.0
 11
843.068186
 21
337.764801
 31
0.0
  0
LINE
  8
0
 10
843.039383
 20
337.591979
 30
0.0
 11
843.056665
 21
337.67839
 31
0.0
  0
LINE
  8
0
 10
843.012367
 20
337.509541
 30
0.0
 11
843.039383
 21
337.591979
 31
0.0
  0
LINE
  8
0
 10
842.979789
 20
337.428891
 30
0.0
 11
843.012367
 21
337.509541
 31
0.0
  0
LINE
  8
0
 10
842.939464
 20
337.352015
 30
0.0
 11
842.979789
 21
337.428891
 31
0.0
  0
LINE
  8
0
 10
842.89159
 20
337.279111
 30
0.0
 11
842.939464
 21
337.352015
 31
0.0
  0
LINE
  8
0
 10
842.839743
 20
337.210181
 30
0.0
 11
842.89159
 21
337.279111
 31
0.0
  0
LINE
  8
0
 10
842.780348
 20
337.144827
 30
0.0
 11
842.839743
 21
337.210181
 31
0.0
  0
LINE
  8
0
 10
842.71698
 20
337.087219
 30
0.0
 11
842.780348
 21
337.144827
 31
0.0
  0
LINE
  8
0
 10
842.647851
 20
337.033585
 30
0.0
 11
842.71698
 21
337.087219
 31
0.0
  0
LINE
  8
0
 10
842.572961
 20
336.987499
 30
0.0
 11
842.647851
 21
337.033585
 31
0.0
  0
LINE
  8
0
 10
842.496284
 20
336.947174
 30
0.0
 11
842.572961
 21
336.987499
 31
0.0
  0
LINE
  8
0
 10
842.415634
 20
336.914596
 30
0.0
 11
842.496284
 21
336.947174
 31
0.0
  0
LINE
  8
0
 10
842.333196
 20
336.887778
 30
0.0
 11
842.415634
 21
336.914596
 31
0.0
  0
LINE
  8
0
 10
842.248572
 20
336.86851
 30
0.0
 11
842.333196
 21
336.887778
 31
0.0
  0
LINE
  8
0
 10
842.16236
 20
336.856988
 30
0.0
 11
842.248572
 21
336.86851
 31
0.0
  0
LINE
  8
0
 10
842.075949
 20
336.853214
 30
0.0
 11
842.16236
 21
336.856988
 31
0.0
  0
LINE
  8
0
 10
841.98775
 20
336.856988
 30
0.0
 11
842.075949
 21
336.853214
 31
0.0
  0
LINE
  8
0
 10
841.901339
 20
336.86851
 30
0.0
 11
841.98775
 21
336.856988
 31
0.0
  0
LINE
  8
0
 10
841.98775
 20
336.856988
 30
0.0
 11
841.901339
 21
336.86851
 31
0.0
  0
LINE
  8
0
 10
842.075949
 20
336.853214
 30
0.0
 11
841.98775
 21
336.856988
 31
0.0
  0
LINE
  8
0
 10
842.16236
 20
336.856988
 30
0.0
 11
842.075949
 21
336.853214
 31
0.0
  0
LINE
  8
0
 10
842.248572
 20
336.86851
 30
0.0
 11
842.16236
 21
336.856988
 31
0.0
  0
LINE
  8
0
 10
842.333196
 20
336.887778
 30
0.0
 11
842.248572
 21
336.86851
 31
0.0
  0
LINE
  8
0
 10
842.415634
 20
336.914596
 30
0.0
 11
842.333196
 21
336.887778
 31
0.0
  0
LINE
  8
0
 10
842.496284
 20
336.947174
 30
0.0
 11
842.415634
 21
336.914596
 31
0.0
  0
LINE
  8
0
 10
842.572961
 20
336.987499
 30
0.0
 11
842.496284
 21
336.947174
 31
0.0
  0
LINE
  8
0
 10
843.068186
 20
337.764801
 30
0.0
 11
843.071961
 21
337.851014
 31
0.0
  0
LINE
  8
0
 10
843.056665
 20
337.67839
 30
0.0
 11
843.068186
 21
337.764801
 31
0.0
  0
LINE
  8
0
 10
843.039383
 20
337.591979
 30
0.0
 11
843.056665
 21
337.67839
 31
0.0
  0
LINE
  8
0
 10
843.012367
 20
337.509541
 30
0.0
 11
843.039383
 21
337.591979
 31
0.0
  0
LINE
  8
0
 10
842.979789
 20
337.428891
 30
0.0
 11
843.012367
 21
337.509541
 31
0.0
  0
LINE
  8
0
 10
842.939464
 20
337.352015
 30
0.0
 11
842.979789
 21
337.428891
 31
0.0
  0
LINE
  8
0
 10
842.89159
 20
337.279111
 30
0.0
 11
842.939464
 21
337.352015
 31
0.0
  0
LINE
  8
0
 10
842.839743
 20
337.210181
 30
0.0
 11
842.89159
 21
337.279111
 31
0.0
  0
LINE
  8
0
 10
842.780348
 20
337.144827
 30
0.0
 11
842.839743
 21
337.210181
 31
0.0
  0
LINE
  8
0
 10
842.71698
 20
337.087219
 30
0.0
 11
842.780348
 21
337.144827
 31
0.0
  0
LINE
  8
0
 10
842.647851
 20
337.033585
 30
0.0
 11
842.71698
 21
337.087219
 31
0.0
  0
LINE
  8
0
 10
842.572961
 20
336.987499
 30
0.0
 11
842.647851
 21
337.033585
 31
0.0
  0
LINE
  8
0
 10
841.576949
 20
335.855215
 30
0.0
 11
842.572961
 21
335.855215
 31
0.0
  0
LINE
  8
0
 10
842.572961
 20
335.855215
 30
0.0
 11
841.576949
 21
335.855215
 31
0.0
  0
LINE
  8
0
 10
843.57096
 20
309.128163
 30
0.0
 11
843.57096
 21
334.857217
 31
0.0
  0
LINE
  8
0
 10
843.57096
 20
334.857217
 30
0.0
 11
843.57096
 21
309.128163
 31
0.0
  0
LINE
  8
0
 10
843.57096
 20
334.857217
 30
0.0
 11
843.566987
 21
334.945614
 31
0.0
  0
LINE
  8
0
 10
843.566987
 20
334.945614
 30
0.0
 11
843.57096
 21
334.857217
 31
0.0
  0
LINE
  8
0
 10
843.566987
 20
334.945614
 30
0.0
 11
843.555466
 21
335.032026
 31
0.0
  0
LINE
  8
0
 10
843.555466
 20
335.032026
 30
0.0
 11
843.566987
 21
334.945614
 31
0.0
  0
LINE
  8
0
 10
843.555466
 20
335.032026
 30
0.0
 11
843.538382
 21
335.11645
 31
0.0
  0
LINE
  8
0
 10
843.538382
 20
335.11645
 30
0.0
 11
843.555466
 21
335.032026
 31
0.0
  0
LINE
  8
0
 10
843.538382
 20
335.11645
 30
0.0
 11
843.511366
 21
335.198888
 31
0.0
  0
LINE
  8
0
 10
843.511366
 20
335.198888
 30
0.0
 11
843.538382
 21
335.11645
 31
0.0
  0
LINE
  8
0
 10
843.511366
 20
335.198888
 30
0.0
 11
843.478788
 21
335.279539
 31
0.0
  0
LINE
  8
0
 10
843.478788
 20
335.279539
 30
0.0
 11
843.511366
 21
335.198888
 31
0.0
  0
LINE
  8
0
 10
843.478788
 20
335.279539
 30
0.0
 11
843.438463
 21
335.356216
 31
0.0
  0
LINE
  8
0
 10
843.438463
 20
335.356216
 30
0.0
 11
843.478788
 21
335.279539
 31
0.0
  0
LINE
  8
0
 10
843.438463
 20
335.356216
 30
0.0
 11
843.390589
 21
335.431106
 31
0.0
  0
LINE
  8
0
 10
843.390589
 20
335.431106
 30
0.0
 11
843.438463
 21
335.356216
 31
0.0
  0
LINE
  8
0
 10
843.390589
 20
335.431106
 30
0.0
 11
843.338743
 21
335.500235
 31
0.0
  0
LINE
  8
0
 10
843.338743
 20
335.500235
 30
0.0
 11
843.390589
 21
335.431106
 31
0.0
  0
LINE
  8
0
 10
843.338743
 20
335.500235
 30
0.0
 11
843.279149
 21
335.563603
 31
0.0
  0
LINE
  8
0
 10
843.279149
 20
335.563603
 30
0.0
 11
843.338743
 21
335.500235
 31
0.0
  0
LINE
  8
0
 10
843.279149
 20
335.563603
 30
0.0
 11
843.215781
 21
335.622998
 31
0.0
  0
LINE
  8
0
 10
843.215781
 20
335.622998
 30
0.0
 11
843.279149
 21
335.563603
 31
0.0
  0
LINE
  8
0
 10
843.215781
 20
335.622998
 30
0.0
 11
843.14685
 21
335.674845
 31
0.0
  0
LINE
  8
0
 10
843.14685
 20
335.674845
 30
0.0
 11
843.215781
 21
335.622998
 31
0.0
  0
LINE
  8
0
 10
843.14685
 20
335.674845
 30
0.0
 11
843.071961
 21
335.722718
 31
0.0
  0
LINE
  8
0
 10
843.071961
 20
335.722718
 30
0.0
 11
843.14685
 21
335.674845
 31
0.0
  0
LINE
  8
0
 10
843.071961
 20
335.722718
 30
0.0
 11
842.995283
 21
335.763044
 31
0.0
  0
LINE
  8
0
 10
842.995283
 20
335.763044
 30
0.0
 11
843.071961
 21
335.722718
 31
0.0
  0
LINE
  8
0
 10
842.995283
 20
335.763044
 30
0.0
 11
842.914633
 21
335.79582
 31
0.0
  0
LINE
  8
0
 10
842.914633
 20
335.79582
 30
0.0
 11
842.995283
 21
335.763044
 31
0.0
  0
LINE
  8
0
 10
842.914633
 20
335.79582
 30
0.0
 11
842.831996
 21
335.822637
 31
0.0
  0
LINE
  8
0
 10
842.831996
 20
335.822637
 30
0.0
 11
842.914633
 21
335.79582
 31
0.0
  0
LINE
  8
0
 10
842.831996
 20
335.822637
 30
0.0
 11
842.747572
 21
335.83992
 31
0.0
  0
LINE
  8
0
 10
842.747572
 20
335.83992
 30
0.0
 11
842.831996
 21
335.822637
 31
0.0
  0
LINE
  8
0
 10
842.747572
 20
335.83992
 30
0.0
 11
842.661359
 21
335.851441
 31
0.0
  0
LINE
  8
0
 10
842.661359
 20
335.851441
 30
0.0
 11
842.747572
 21
335.83992
 31
0.0
  0
LINE
  8
0
 10
842.661359
 20
335.851441
 30
0.0
 11
842.574948
 21
335.855215
 31
0.0
  0
LINE
  8
0
 10
842.572961
 20
335.855215
 30
0.0
 11
842.661359
 21
335.851441
 31
0.0
  0
LINE
  8
0
 10
841.576949
 20
335.855215
 30
0.0
 11
841.48875
 21
335.851441
 31
0.0
  0
LINE
  8
0
 10
841.574963
 20
335.855215
 30
0.0
 11
841.576949
 21
335.855215
 31
0.0
  0
LINE
  8
0
 10
841.48875
 20
335.851441
 30
0.0
 11
841.574963
 21
335.855215
 31
0.0
  0
LINE
  8
0
 10
841.48875
 20
335.851441
 30
0.0
 11
841.402339
 21
335.83992
 31
0.0
  0
LINE
  8
0
 10
841.402339
 20
335.83992
 30
0.0
 11
841.48875
 21
335.851441
 31
0.0
  0
LINE
  8
0
 10
841.402339
 20
335.83992
 30
0.0
 11
841.317915
 21
335.822637
 31
0.0
  0
LINE
  8
0
 10
841.317915
 20
335.822637
 30
0.0
 11
841.402339
 21
335.83992
 31
0.0
  0
LINE
  8
0
 10
841.317915
 20
335.822637
 30
0.0
 11
841.235477
 21
335.79582
 31
0.0
  0
LINE
  8
0
 10
841.235477
 20
335.79582
 30
0.0
 11
841.317915
 21
335.822637
 31
0.0
  0
LINE
  8
0
 10
841.235477
 20
335.79582
 30
0.0
 11
841.154826
 21
335.763044
 31
0.0
  0
LINE
  8
0
 10
841.154826
 20
335.763044
 30
0.0
 11
841.235477
 21
335.79582
 31
0.0
  0
LINE
  8
0
 10
841.154826
 20
335.763044
 30
0.0
 11
841.07795
 21
335.722718
 31
0.0
  0
LINE
  8
0
 10
841.07795
 20
335.722718
 30
0.0
 11
841.154826
 21
335.763044
 31
0.0
  0
LINE
  8
0
 10
841.07795
 20
335.722718
 30
0.0
 11
841.003259
 21
335.674845
 31
0.0
  0
LINE
  8
0
 10
841.003259
 20
335.674845
 30
0.0
 11
841.07795
 21
335.722718
 31
0.0
  0
LINE
  8
0
 10
841.003259
 20
335.674845
 30
0.0
 11
840.93413
 21
335.622998
 31
0.0
  0
LINE
  8
0
 10
840.93413
 20
335.622998
 30
0.0
 11
841.003259
 21
335.674845
 31
0.0
  0
LINE
  8
0
 10
840.93413
 20
335.622998
 30
0.0
 11
840.870762
 21
335.563603
 31
0.0
  0
LINE
  8
0
 10
840.870762
 20
335.563603
 30
0.0
 11
840.93413
 21
335.622998
 31
0.0
  0
LINE
  8
0
 10
840.870762
 20
335.563603
 30
0.0
 11
840.811168
 21
335.500235
 31
0.0
  0
LINE
  8
0
 10
840.811168
 20
335.500235
 30
0.0
 11
840.870762
 21
335.563603
 31
0.0
  0
LINE
  8
0
 10
840.811168
 20
335.500235
 30
0.0
 11
840.75952
 21
335.431106
 31
0.0
  0
LINE
  8
0
 10
840.75952
 20
335.431106
 30
0.0
 11
840.811168
 21
335.500235
 31
0.0
  0
LINE
  8
0
 10
840.75952
 20
335.431106
 30
0.0
 11
840.711448
 21
335.356216
 31
0.0
  0
LINE
  8
0
 10
840.711448
 20
335.356216
 30
0.0
 11
840.75952
 21
335.431106
 31
0.0
  0
LINE
  8
0
 10
840.711448
 20
335.356216
 30
0.0
 11
840.671123
 21
335.279539
 31
0.0
  0
LINE
  8
0
 10
840.671123
 20
335.279539
 30
0.0
 11
840.711448
 21
335.356216
 31
0.0
  0
LINE
  8
0
 10
840.671123
 20
335.279539
 30
0.0
 11
840.638545
 21
335.198888
 31
0.0
  0
LINE
  8
0
 10
840.638545
 20
335.198888
 30
0.0
 11
840.671123
 21
335.279539
 31
0.0
  0
LINE
  8
0
 10
840.638545
 20
335.198888
 30
0.0
 11
840.611727
 21
335.11645
 31
0.0
  0
LINE
  8
0
 10
840.611727
 20
335.11645
 30
0.0
 11
840.638545
 21
335.198888
 31
0.0
  0
LINE
  8
0
 10
840.582924
 20
334.945614
 30
0.0
 11
840.57915
 21
334.857217
 31
0.0
  0
LINE
  8
0
 10
840.594445
 20
335.032026
 30
0.0
 11
840.582924
 21
334.945614
 31
0.0
  0
LINE
  8
0
 10
840.611727
 20
335.11645
 30
0.0
 11
840.594445
 21
335.032026
 31
0.0
  0
LINE
  8
0
 10
840.594445
 20
335.032026
 30
0.0
 11
840.611727
 21
335.11645
 31
0.0
  0
LINE
  8
0
 10
840.582924
 20
334.945614
 30
0.0
 11
840.594445
 21
335.032026
 31
0.0
  0
LINE
  8
0
 10
840.57915
 20
334.859203
 30
0.0
 11
840.582924
 21
334.945614
 31
0.0
  0
LINE
  8
0
 10
840.57915
 20
334.857217
 30
0.0
 11
840.57915
 21
334.859203
 31
0.0
  0
LINE
  8
0
 10
848.462126
 20
348.947192
 30
0.0
 11
843.906175
 21
344.389454
 31
0.0
  0
LINE
  8
0
 10
843.906175
 20
344.389454
 30
0.0
 11
848.462126
 21
348.947192
 31
0.0
  0
LINE
  8
0
 10
841.01451
 20
306.379327
 30
0.0
 11
839.715436
 21
308.629164
 31
0.0
  0
LINE
  8
0
 10
843.157861
 20
306.418226
 30
0.0
 11
844.434475
 21
308.629164
 31
0.0
  0
LINE
  8
0
 10
873.906175
 20
344.389454
 30
0.0
 11
878.462126
 21
348.947192
 31
0.0
  0
LINE
  8
0
 10
878.462126
 20
348.947192
 30
0.0
 11
873.906175
 21
344.389454
 31
0.0
  0
LINE
  8
0
 10
870.57915
 20
334.857217
 30
0.0
 11
870.57915
 21
334.859203
 31
0.0
  0
LINE
  8
0
 10
870.57915
 20
334.859203
 30
0.0
 11
870.582924
 21
334.945614
 31
0.0
  0
LINE
  8
0
 10
870.582924
 20
334.945614
 30
0.0
 11
870.594445
 21
335.032026
 31
0.0
  0
LINE
  8
0
 10
870.594445
 20
335.032026
 30
0.0
 11
870.611727
 21
335.11645
 31
0.0
  0
LINE
  8
0
 10
870.611727
 20
335.11645
 30
0.0
 11
870.594445
 21
335.032026
 31
0.0
  0
LINE
  8
0
 10
870.594445
 20
335.032026
 30
0.0
 11
870.582924
 21
334.945614
 31
0.0
  0
LINE
  8
0
 10
870.582924
 20
334.945614
 30
0.0
 11
870.57915
 21
334.857217
 31
0.0
  0
LINE
  8
0
 10
870.611727
 20
335.11645
 30
0.0
 11
870.638545
 21
335.198888
 31
0.0
  0
LINE
  8
0
 10
870.638545
 20
335.198888
 30
0.0
 11
870.611727
 21
335.11645
 31
0.0
  0
LINE
  8
0
 10
870.638545
 20
335.198888
 30
0.0
 11
870.671123
 21
335.279539
 31
0.0
  0
LINE
  8
0
 10
870.671123
 20
335.279539
 30
0.0
 11
870.638545
 21
335.198888
 31
0.0
  0
LINE
  8
0
 10
870.671123
 20
335.279539
 30
0.0
 11
870.711448
 21
335.356216
 31
0.0
  0
LINE
  8
0
 10
870.711448
 20
335.356216
 30
0.0
 11
870.671123
 21
335.279539
 31
0.0
  0
LINE
  8
0
 10
870.711448
 20
335.356216
 30
0.0
 11
870.75952
 21
335.431106
 31
0.0
  0
LINE
  8
0
 10
870.75952
 20
335.431106
 30
0.0
 11
870.711448
 21
335.356216
 31
0.0
  0
LINE
  8
0
 10
870.75952
 20
335.431106
 30
0.0
 11
870.811168
 21
335.500235
 31
0.0
  0
LINE
  8
0
 10
870.811168
 20
335.500235
 30
0.0
 11
870.75952
 21
335.431106
 31
0.0
  0
LINE
  8
0
 10
870.811168
 20
335.500235
 30
0.0
 11
870.870762
 21
335.563603
 31
0.0
  0
LINE
  8
0
 10
870.870762
 20
335.563603
 30
0.0
 11
870.811168
 21
335.500235
 31
0.0
  0
LINE
  8
0
 10
870.870762
 20
335.563603
 30
0.0
 11
870.93413
 21
335.622998
 31
0.0
  0
LINE
  8
0
 10
870.93413
 20
335.622998
 30
0.0
 11
870.870762
 21
335.563603
 31
0.0
  0
LINE
  8
0
 10
870.93413
 20
335.622998
 30
0.0
 11
871.003259
 21
335.674845
 31
0.0
  0
LINE
  8
0
 10
871.003259
 20
335.674845
 30
0.0
 11
870.93413
 21
335.622998
 31
0.0
  0
LINE
  8
0
 10
871.003259
 20
335.674845
 30
0.0
 11
871.07795
 21
335.722718
 31
0.0
  0
LINE
  8
0
 10
871.07795
 20
335.722718
 30
0.0
 11
871.003259
 21
335.674845
 31
0.0
  0
LINE
  8
0
 10
871.07795
 20
335.722718
 30
0.0
 11
871.154826
 21
335.763044
 31
0.0
  0
LINE
  8
0
 10
871.154826
 20
335.763044
 30
0.0
 11
871.07795
 21
335.722718
 31
0.0
  0
LINE
  8
0
 10
871.154826
 20
335.763044
 30
0.0
 11
871.235477
 21
335.79582
 31
0.0
  0
LINE
  8
0
 10
871.235477
 20
335.79582
 30
0.0
 11
871.154826
 21
335.763044
 31
0.0
  0
LINE
  8
0
 10
871.235477
 20
335.79582
 30
0.0
 11
871.317915
 21
335.822637
 31
0.0
  0
LINE
  8
0
 10
871.317915
 20
335.822637
 30
0.0
 11
871.235477
 21
335.79582
 31
0.0
  0
LINE
  8
0
 10
871.317915
 20
335.822637
 30
0.0
 11
871.402339
 21
335.83992
 31
0.0
  0
LINE
  8
0
 10
871.402339
 20
335.83992
 30
0.0
 11
871.317915
 21
335.822637
 31
0.0
  0
LINE
  8
0
 10
871.402339
 20
335.83992
 30
0.0
 11
871.48875
 21
335.851441
 31
0.0
  0
LINE
  8
0
 10
871.48875
 20
335.851441
 30
0.0
 11
871.402339
 21
335.83992
 31
0.0
  0
LINE
  8
0
 10
871.48875
 20
335.851441
 30
0.0
 11
871.574963
 21
335.855215
 31
0.0
  0
LINE
  8
0
 10
871.574963
 20
335.855215
 30
0.0
 11
871.576949
 21
335.855215
 31
0.0
  0
LINE
  8
0
 10
871.576949
 20
335.855215
 30
0.0
 11
871.48875
 21
335.851441
 31
0.0
  0
LINE
  8
0
 10
872.572961
 20
335.855215
 30
0.0
 11
872.661359
 21
335.851441
 31
0.0
  0
LINE
  8
0
 10
872.661359
 20
335.851441
 30
0.0
 11
872.574948
 21
335.855215
 31
0.0
  0
LINE
  8
0
 10
872.661359
 20
335.851441
 30
0.0
 11
872.747572
 21
335.83992
 31
0.0
  0
LINE
  8
0
 10
872.747572
 20
335.83992
 30
0.0
 11
872.661359
 21
335.851441
 31
0.0
  0
LINE
  8
0
 10
872.747572
 20
335.83992
 30
0.0
 11
872.831996
 21
335.822637
 31
0.0
  0
LINE
  8
0
 10
872.831996
 20
335.822637
 30
0.0
 11
872.747572
 21
335.83992
 31
0.0
  0
LINE
  8
0
 10
872.831996
 20
335.822637
 30
0.0
 11
872.914633
 21
335.79582
 31
0.0
  0
LINE
  8
0
 10
872.914633
 20
335.79582
 30
0.0
 11
872.831996
 21
335.822637
 31
0.0
  0
LINE
  8
0
 10
872.914633
 20
335.79582
 30
0.0
 11
872.995283
 21
335.763044
 31
0.0
  0
LINE
  8
0
 10
872.995283
 20
335.763044
 30
0.0
 11
872.914633
 21
335.79582
 31
0.0
  0
LINE
  8
0
 10
872.995283
 20
335.763044
 30
0.0
 11
873.071961
 21
335.722718
 31
0.0
  0
LINE
  8
0
 10
873.071961
 20
335.722718
 30
0.0
 11
872.995283
 21
335.763044
 31
0.0
  0
LINE
  8
0
 10
873.071961
 20
335.722718
 30
0.0
 11
873.14685
 21
335.674845
 31
0.0
  0
LINE
  8
0
 10
873.14685
 20
335.674845
 30
0.0
 11
873.071961
 21
335.722718
 31
0.0
  0
LINE
  8
0
 10
873.14685
 20
335.674845
 30
0.0
 11
873.215781
 21
335.622998
 31
0.0
  0
LINE
  8
0
 10
873.215781
 20
335.622998
 30
0.0
 11
873.14685
 21
335.674845
 31
0.0
  0
LINE
  8
0
 10
873.215781
 20
335.622998
 30
0.0
 11
873.279149
 21
335.563603
 31
0.0
  0
LINE
  8
0
 10
873.279149
 20
335.563603
 30
0.0
 11
873.215781
 21
335.622998
 31
0.0
  0
LINE
  8
0
 10
873.279149
 20
335.563603
 30
0.0
 11
873.338743
 21
335.500235
 31
0.0
  0
LINE
  8
0
 10
873.338743
 20
335.500235
 30
0.0
 11
873.279149
 21
335.563603
 31
0.0
  0
LINE
  8
0
 10
873.338743
 20
335.500235
 30
0.0
 11
873.390589
 21
335.431106
 31
0.0
  0
LINE
  8
0
 10
873.390589
 20
335.431106
 30
0.0
 11
873.338743
 21
335.500235
 31
0.0
  0
LINE
  8
0
 10
873.390589
 20
335.431106
 30
0.0
 11
873.438463
 21
335.356216
 31
0.0
  0
LINE
  8
0
 10
873.438463
 20
335.356216
 30
0.0
 11
873.390589
 21
335.431106
 31
0.0
  0
LINE
  8
0
 10
873.438463
 20
335.356216
 30
0.0
 11
873.478788
 21
335.279539
 31
0.0
  0
LINE
  8
0
 10
873.478788
 20
335.279539
 30
0.0
 11
873.438463
 21
335.356216
 31
0.0
  0
LINE
  8
0
 10
873.478788
 20
335.279539
 30
0.0
 11
873.511366
 21
335.198888
 31
0.0
  0
LINE
  8
0
 10
873.511366
 20
335.198888
 30
0.0
 11
873.478788
 21
335.279539
 31
0.0
  0
LINE
  8
0
 10
873.511366
 20
335.198888
 30
0.0
 11
873.538382
 21
335.11645
 31
0.0
  0
LINE
  8
0
 10
873.538382
 20
335.11645
 30
0.0
 11
873.511366
 21
335.198888
 31
0.0
  0
LINE
  8
0
 10
873.538382
 20
335.11645
 30
0.0
 11
873.555466
 21
335.032026
 31
0.0
  0
LINE
  8
0
 10
873.555466
 20
335.032026
 30
0.0
 11
873.538382
 21
335.11645
 31
0.0
  0
LINE
  8
0
 10
873.555466
 20
335.032026
 30
0.0
 11
873.566987
 21
334.945614
 31
0.0
  0
LINE
  8
0
 10
873.566987
 20
334.945614
 30
0.0
 11
873.555466
 21
335.032026
 31
0.0
  0
LINE
  8
0
 10
873.566987
 20
334.945614
 30
0.0
 11
873.57096
 21
334.857217
 31
0.0
  0
LINE
  8
0
 10
873.57096
 20
334.857217
 30
0.0
 11
873.566987
 21
334.945614
 31
0.0
  0
LINE
  8
0
 10
873.57096
 20
334.857217
 30
0.0
 11
873.57096
 21
309.128163
 31
0.0
  0
LINE
  8
0
 10
873.57096
 20
309.128163
 30
0.0
 11
873.57096
 21
334.857217
 31
0.0
  0
LINE
  8
0
 10
872.572961
 20
335.855215
 30
0.0
 11
871.576949
 21
335.855215
 31
0.0
  0
LINE
  8
0
 10
871.576949
 20
335.855215
 30
0.0
 11
872.572961
 21
335.855215
 31
0.0
  0
LINE
  8
0
 10
872.572961
 20
336.987499
 30
0.0
 11
872.647851
 21
337.033585
 31
0.0
  0
LINE
  8
0
 10
872.647851
 20
337.033585
 30
0.0
 11
872.71698
 21
337.087219
 31
0.0
  0
LINE
  8
0
 10
872.71698
 20
337.087219
 30
0.0
 11
872.780348
 21
337.144827
 31
0.0
  0
LINE
  8
0
 10
872.780348
 20
337.144827
 30
0.0
 11
872.839743
 21
337.210181
 31
0.0
  0
LINE
  8
0
 10
872.839743
 20
337.210181
 30
0.0
 11
872.89159
 21
337.279111
 31
0.0
  0
LINE
  8
0
 10
872.89159
 20
337.279111
 30
0.0
 11
872.939464
 21
337.352015
 31
0.0
  0
LINE
  8
0
 10
872.939464
 20
337.352015
 30
0.0
 11
872.979789
 21
337.428891
 31
0.0
  0
LINE
  8
0
 10
872.979789
 20
337.428891
 30
0.0
 11
873.012367
 21
337.509541
 31
0.0
  0
LINE
  8
0
 10
873.012367
 20
337.509541
 30
0.0
 11
873.039383
 21
337.591979
 31
0.0
  0
LINE
  8
0
 10
873.039383
 20
337.591979
 30
0.0
 11
873.056665
 21
337.67839
 31
0.0
  0
LINE
  8
0
 10
873.056665
 20
337.67839
 30
0.0
 11
873.068186
 21
337.764801
 31
0.0
  0
LINE
  8
0
 10
873.068186
 20
337.764801
 30
0.0
 11
873.071961
 21
337.851014
 31
0.0
  0
LINE
  8
0
 10
872.572961
 20
336.987499
 30
0.0
 11
872.496284
 21
336.947174
 31
0.0
  0
LINE
  8
0
 10
872.496284
 20
336.947174
 30
0.0
 11
872.415634
 21
336.914596
 31
0.0
  0
LINE
  8
0
 10
872.415634
 20
336.914596
 30
0.0
 11
872.333196
 21
336.887778
 31
0.0
  0
LINE
  8
0
 10
872.333196
 20
336.887778
 30
0.0
 11
872.248572
 21
336.86851
 31
0.0
  0
LINE
  8
0
 10
872.248572
 20
336.86851
 30
0.0
 11
872.16236
 21
336.856988
 31
0.0
  0
LINE
  8
0
 10
872.16236
 20
336.856988
 30
0.0
 11
872.075949
 21
336.853214
 31
0.0
  0
LINE
  8
0
 10
872.075949
 20
336.853214
 30
0.0
 11
871.98775
 21
336.856988
 31
0.0
  0
LINE
  8
0
 10
871.98775
 20
336.856988
 30
0.0
 11
871.901339
 21
336.86851
 31
0.0
  0
LINE
  8
0
 10
871.901339
 20
336.86851
 30
0.0
 11
871.98775
 21
336.856988
 31
0.0
  0
LINE
  8
0
 10
871.98775
 20
336.856988
 30
0.0
 11
872.075949
 21
336.853214
 31
0.0
  0
LINE
  8
0
 10
872.075949
 20
336.853214
 30
0.0
 11
872.16236
 21
336.856988
 31
0.0
  0
LINE
  8
0
 10
872.16236
 20
336.856988
 30
0.0
 11
872.248572
 21
336.86851
 31
0.0
  0
LINE
  8
0
 10
872.248572
 20
336.86851
 30
0.0
 11
872.333196
 21
336.887778
 31
0.0
  0
LINE
  8
0
 10
872.333196
 20
336.887778
 30
0.0
 11
872.415634
 21
336.914596
 31
0.0
  0
LINE
  8
0
 10
872.415634
 20
336.914596
 30
0.0
 11
872.496284
 21
336.947174
 31
0.0
  0
LINE
  8
0
 10
872.496284
 20
336.947174
 30
0.0
 11
872.572961
 21
336.987499
 31
0.0
  0
LINE
  8
0
 10
872.572961
 20
336.987499
 30
0.0
 11
872.647851
 21
337.033585
 31
0.0
  0
LINE
  8
0
 10
872.647851
 20
337.033585
 30
0.0
 11
872.71698
 21
337.087219
 31
0.0
  0
LINE
  8
0
 10
872.71698
 20
337.087219
 30
0.0
 11
872.780348
 21
337.144827
 31
0.0
  0
LINE
  8
0
 10
872.780348
 20
337.144827
 30
0.0
 11
872.839743
 21
337.210181
 31
0.0
  0
LINE
  8
0
 10
872.839743
 20
337.210181
 30
0.0
 11
872.89159
 21
337.279111
 31
0.0
  0
LINE
  8
0
 10
872.89159
 20
337.279111
 30
0.0
 11
872.939464
 21
337.352015
 31
0.0
  0
LINE
  8
0
 10
872.939464
 20
337.352015
 30
0.0
 11
872.979789
 21
337.428891
 31
0.0
  0
LINE
  8
0
 10
872.979789
 20
337.428891
 30
0.0
 11
873.012367
 21
337.509541
 31
0.0
  0
LINE
  8
0
 10
873.012367
 20
337.509541
 30
0.0
 11
873.039383
 21
337.591979
 31
0.0
  0
LINE
  8
0
 10
873.039383
 20
337.591979
 30
0.0
 11
873.056665
 21
337.67839
 31
0.0
  0
LINE
  8
0
 10
873.056665
 20
337.67839
 30
0.0
 11
873.068186
 21
337.764801
 31
0.0
  0
LINE
  8
0
 10
873.068186
 20
337.764801
 30
0.0
 11
873.071961
 21
337.851014
 31
0.0
  0
LINE
  8
0
 10
871.901339
 20
336.86851
 30
0.0
 11
871.816914
 21
336.887778
 31
0.0
  0
LINE
  8
0
 10
871.816914
 20
336.887778
 30
0.0
 11
871.901339
 21
336.86851
 31
0.0
  0
LINE
  8
0
 10
871.816914
 20
336.887778
 30
0.0
 11
871.734277
 21
336.914596
 31
0.0
  0
LINE
  8
0
 10
871.734277
 20
336.914596
 30
0.0
 11
871.816914
 21
336.887778
 31
0.0
  0
LINE
  8
0
 10
871.734277
 20
336.914596
 30
0.0
 11
871.653825
 21
336.947174
 31
0.0
  0
LINE
  8
0
 10
871.653825
 20
336.947174
 30
0.0
 11
871.734277
 21
336.914596
 31
0.0
  0
LINE
  8
0
 10
871.653825
 20
336.947174
 30
0.0
 11
871.576949
 21
336.987499
 31
0.0
  0
LINE
  8
0
 10
871.576949
 20
336.987499
 30
0.0
 11
871.653825
 21
336.947174
 31
0.0
  0
LINE
  8
0
 10
871.576949
 20
336.987499
 30
0.0
 11
871.50206
 21
337.033585
 31
0.0
  0
LINE
  8
0
 10
871.50206
 20
337.033585
 30
0.0
 11
871.576949
 21
336.987499
 31
0.0
  0
LINE
  8
0
 10
871.50206
 20
337.033585
 30
0.0
 11
871.43313
 21
337.087219
 31
0.0
  0
LINE
  8
0
 10
871.43313
 20
337.087219
 30
0.0
 11
871.50206
 21
337.033585
 31
0.0
  0
LINE
  8
0
 10
871.43313
 20
337.087219
 30
0.0
 11
871.369761
 21
337.144827
 31
0.0
  0
LINE
  8
0
 10
871.369761
 20
337.144827
 30
0.0
 11
871.43313
 21
337.087219
 31
0.0
  0
LINE
  8
0
 10
871.369761
 20
337.144827
 30
0.0
 11
871.310168
 21
337.210181
 31
0.0
  0
LINE
  8
0
 10
871.310168
 20
337.210181
 30
0.0
 11
871.369761
 21
337.144827
 31
0.0
  0
LINE
  8
0
 10
871.310168
 20
337.210181
 30
0.0
 11
871.258321
 21
337.279111
 31
0.0
  0
LINE
  8
0
 10
871.258321
 20
337.279111
 30
0.0
 11
871.310168
 21
337.210181
 31
0.0
  0
LINE
  8
0
 10
871.258321
 20
337.279111
 30
0.0
 11
871.210447
 21
337.352015
 31
0.0
  0
LINE
  8
0
 10
871.210447
 20
337.352015
 30
0.0
 11
871.258321
 21
337.279111
 31
0.0
  0
LINE
  8
0
 10
871.210447
 20
337.352015
 30
0.0
 11
871.170122
 21
337.428891
 31
0.0
  0
LINE
  8
0
 10
871.170122
 20
337.428891
 30
0.0
 11
871.210447
 21
337.352015
 31
0.0
  0
LINE
  8
0
 10
871.170122
 20
337.428891
 30
0.0
 11
871.137544
 21
337.509541
 31
0.0
  0
LINE
  8
0
 10
871.137544
 20
337.509541
 30
0.0
 11
871.170122
 21
337.428891
 31
0.0
  0
LINE
  8
0
 10
871.137544
 20
337.509541
 30
0.0
 11
871.110727
 21
337.591979
 31
0.0
  0
LINE
  8
0
 10
871.110727
 20
337.591979
 30
0.0
 11
871.137544
 21
337.509541
 31
0.0
  0
LINE
  8
0
 10
871.110727
 20
337.591979
 30
0.0
 11
871.093445
 21
337.67839
 31
0.0
  0
LINE
  8
0
 10
871.093445
 20
337.67839
 30
0.0
 11
871.110727
 21
337.591979
 31
0.0
  0
LINE
  8
0
 10
871.093445
 20
337.67839
 30
0.0
 11
871.081923
 21
337.764801
 31
0.0
  0
LINE
  8
0
 10
871.081923
 20
337.764801
 30
0.0
 11
871.093445
 21
337.67839
 31
0.0
  0
LINE
  8
0
 10
871.081923
 20
337.764801
 30
0.0
 11
871.07795
 21
337.851014
 31
0.0
  0
LINE
  8
0
 10
871.07795
 20
337.851014
 30
0.0
 11
871.081923
 21
337.764801
 31
0.0
  0
LINE
  8
0
 10
870.57915
 20
334.857217
 30
0.0
 11
870.57915
 21
309.128163
 31
0.0
  0
LINE
  8
0
 10
870.57915
 20
309.128163
 30
0.0
 11
872.075949
 21
306.537419
 31
0.0
  0
LINE
  8
0
 10
872.075949
 20
306.537419
 30
0.0
 11
873.57096
 21
309.128163
 31
0.0
  0
LINE
  8
0
 10
873.57096
 20
309.128163
 30
0.0
 11
872.075949
 21
306.537419
 31
0.0
  0
LINE
  8
0
 10
872.075949
 20
306.537419
 30
0.0
 11
870.57915
 21
309.128163
 31
0.0
  0
LINE
  8
0
 10
870.57915
 20
309.128163
 30
0.0
 11
870.57915
 21
334.857217
 31
0.0
  0
LINE
  8
0
 10
874.676226
 20
342.650704
 30
0.0
 11
874.620969
 21
342.523967
 31
0.0
  0
LINE
  8
0
 10
874.620969
 20
342.523967
 30
0.0
 11
874.569288
 21
342.395443
 31
0.0
  0
LINE
  8
0
 10
874.569288
 20
342.395443
 30
0.0
 11
874.552006
 21
342.266919
 31
0.0
  0
LINE
  8
0
 10
874.552006
 20
342.266919
 30
0.0
 11
874.557497
 21
342.136408
 31
0.0
  0
LINE
  8
0
 10
874.557497
 20
342.136408
 30
0.0
 11
874.553524
 21
342.005898
 31
0.0
  0
LINE
  8
0
 10
874.553524
 20
342.005898
 30
0.0
 11
874.557497
 21
342.136408
 31
0.0
  0
LINE
  8
0
 10
874.557497
 20
342.136408
 30
0.0
 11
874.552006
 21
342.266919
 31
0.0
  0
LINE
  8
0
 10
874.552006
 20
342.266919
 30
0.0
 11
874.569288
 21
342.395443
 31
0.0
  0
LINE
  8
0
 10
874.569288
 20
342.395443
 30
0.0
 11
874.620969
 21
342.523967
 31
0.0
  0
LINE
  8
0
 10
874.620969
 20
342.523967
 30
0.0
 11
874.676226
 21
342.650704
 31
0.0
  0
LINE
  8
0
 10
874.676226
 20
342.650704
 30
0.0
 11
874.741415
 21
342.77744
 31
0.0
  0
LINE
  8
0
 10
874.741415
 20
342.77744
 30
0.0
 11
874.676226
 21
342.650704
 31
0.0
  0
LINE
  8
0
 10
874.741415
 20
342.77744
 30
0.0
 11
874.81018
 21
342.900203
 31
0.0
  0
LINE
  8
0
 10
874.81018
 20
342.900203
 30
0.0
 11
874.741415
 21
342.77744
 31
0.0
  0
LINE
  8
0
 10
874.81018
 20
342.900203
 30
0.0
 11
874.860041
 21
343.021179
 31
0.0
  0
LINE
  8
0
 10
874.860041
 20
343.021179
 30
0.0
 11
874.81018
 21
342.900203
 31
0.0
  0
LINE
  8
0
 10
874.860041
 20
343.021179
 30
0.0
 11
874.917648
 21
343.138181
 31
0.0
  0
LINE
  8
0
 10
874.917648
 20
343.138181
 30
0.0
 11
874.860041
 21
343.021179
 31
0.0
  0
LINE
  8
0
 10
874.917648
 20
343.138181
 30
0.0
 11
875.005682
 21
343.253396
 31
0.0
  0
LINE
  8
0
 10
875.005682
 20
343.253396
 30
0.0
 11
874.917648
 21
343.138181
 31
0.0
  0
LINE
  8
0
 10
875.005682
 20
343.253396
 30
0.0
 11
875.07481
 21
343.364638
 31
0.0
  0
LINE
  8
0
 10
875.07481
 20
343.364638
 30
0.0
 11
875.005682
 21
343.253396
 31
0.0
  0
LINE
  8
0
 10
875.07481
 20
343.364638
 30
0.0
 11
875.147714
 21
343.472106
 31
0.0
  0
LINE
  8
0
 10
875.147714
 20
343.472106
 30
0.0
 11
875.07481
 21
343.364638
 31
0.0
  0
LINE
  8
0
 10
875.147714
 20
343.472106
 30
0.0
 11
875.228364
 21
343.575799
 31
0.0
  0
LINE
  8
0
 10
875.228364
 20
343.575799
 30
0.0
 11
875.147714
 21
343.472106
 31
0.0
  0
LINE
  8
0
 10
875.228364
 20
343.575799
 30
0.0
 11
875.312789
 21
343.675519
 31
0.0
  0
LINE
  8
0
 10
875.312789
 20
343.675519
 30
0.0
 11
875.228364
 21
343.575799
 31
0.0
  0
LINE
  8
0
 10
875.312789
 20
343.675519
 30
0.0
 11
875.402974
 21
343.769479
 31
0.0
  0
LINE
  8
0
 10
875.402974
 20
343.769479
 30
0.0
 11
875.312789
 21
343.675519
 31
0.0
  0
LINE
  8
0
 10
865.616371
 20
351.80293
 30
0.0
 11
865.702584
 21
351.814452
 31
0.0
  0
LINE
  8
0
 10
865.702584
 20
351.814452
 30
0.0
 11
865.790981
 21
351.818226
 31
0.0
  0
LINE
  8
0
 10
865.616371
 20
351.80293
 30
0.0
 11
865.531947
 21
351.785648
 31
0.0
  0
LINE
  8
0
 10
865.531947
 20
351.785648
 30
0.0
 11
865.44931
 21
351.758632
 31
0.0
  0
LINE
  8
0
 10
865.44931
 20
351.758632
 30
0.0
 11
865.368659
 21
351.726054
 31
0.0
  0
LINE
  8
0
 10
865.368659
 20
351.726054
 30
0.0
 11
865.291982
 21
351.685729
 31
0.0
  0
LINE
  8
0
 10
865.291982
 20
351.685729
 30
0.0
 11
865.217092
 21
351.637855
 31
0.0
  0
LINE
  8
0
 10
865.217092
 20
351.637855
 30
0.0
 11
865.147964
 21
351.586009
 31
0.0
  0
LINE
  8
0
 10
865.147964
 20
351.586009
 30
0.0
 11
865.084794
 21
351.526415
 31
0.0
  0
LINE
  8
0
 10
865.084794
 20
351.526415
 30
0.0
 11
865.0252
 21
351.463245
 31
0.0
  0
LINE
  8
0
 10
865.0252
 20
351.463245
 30
0.0
 11
864.973354
 21
351.394116
 31
0.0
  0
LINE
  8
0
 10
864.973354
 20
351.394116
 30
0.0
 11
864.92548
 21
351.319227
 31
0.0
  0
LINE
  8
0
 10
864.92548
 20
351.319227
 30
0.0
 11
864.885155
 21
351.242549
 31
0.0
  0
LINE
  8
0
 10
864.885155
 20
351.242549
 30
0.0
 11
864.852577
 21
351.161899
 31
0.0
  0
LINE
  8
0
 10
864.852577
 20
351.161899
 30
0.0
 11
864.825561
 21
351.079262
 31
0.0
  0
LINE
  8
0
 10
864.825561
 20
351.079262
 30
0.0
 11
864.808279
 21
350.994837
 31
0.0
  0
LINE
  8
0
 10
864.808279
 20
350.994837
 30
0.0
 11
864.796757
 21
350.908625
 31
0.0
  0
LINE
  8
0
 10
864.796757
 20
350.908625
 30
0.0
 11
864.792983
 21
350.820227
 31
0.0
  0
LINE
  8
0
 10
865.702584
 20
351.814452
 30
0.0
 11
865.790981
 21
351.818226
 31
0.0
  0
LINE
  8
0
 10
865.702584
 20
351.814452
 30
0.0
 11
865.616371
 21
351.80293
 31
0.0
  0
LINE
  8
0
 10
865.616371
 20
351.80293
 30
0.0
 11
865.531947
 21
351.785648
 31
0.0
  0
LINE
  8
0
 10
865.531947
 20
351.785648
 30
0.0
 11
865.44931
 21
351.758632
 31
0.0
  0
LINE
  8
0
 10
865.44931
 20
351.758632
 30
0.0
 11
865.368659
 21
351.726054
 31
0.0
  0
LINE
  8
0
 10
865.368659
 20
351.726054
 30
0.0
 11
865.291982
 21
351.685729
 31
0.0
  0
LINE
  8
0
 10
865.291982
 20
351.685729
 30
0.0
 11
865.217092
 21
351.637855
 31
0.0
  0
LINE
  8
0
 10
865.217092
 20
351.637855
 30
0.0
 11
865.147964
 21
351.586009
 31
0.0
  0
LINE
  8
0
 10
865.147964
 20
351.586009
 30
0.0
 11
865.084794
 21
351.526415
 31
0.0
  0
LINE
  8
0
 10
865.084794
 20
351.526415
 30
0.0
 11
865.0252
 21
351.463245
 31
0.0
  0
LINE
  8
0
 10
865.0252
 20
351.463245
 30
0.0
 11
864.973354
 21
351.394116
 31
0.0
  0
LINE
  8
0
 10
864.973354
 20
351.394116
 30
0.0
 11
864.92548
 21
351.319227
 31
0.0
  0
LINE
  8
0
 10
864.92548
 20
351.319227
 30
0.0
 11
864.885155
 21
351.242549
 31
0.0
  0
LINE
  8
0
 10
864.885155
 20
351.242549
 30
0.0
 11
864.852577
 21
351.161899
 31
0.0
  0
LINE
  8
0
 10
864.852577
 20
351.161899
 30
0.0
 11
864.825561
 21
351.079262
 31
0.0
  0
LINE
  8
0
 10
864.825561
 20
351.079262
 30
0.0
 11
864.808279
 21
350.994837
 31
0.0
  0
LINE
  8
0
 10
864.808279
 20
350.994837
 30
0.0
 11
864.796757
 21
350.908625
 31
0.0
  0
LINE
  8
0
 10
864.796757
 20
350.908625
 30
0.0
 11
864.792983
 21
350.820227
 31
0.0
  0
LINE
  8
0
 10
864.792983
 20
348.241005
 30
0.0
 11
864.796757
 21
348.154594
 31
0.0
  0
LINE
  8
0
 10
864.796757
 20
348.154594
 30
0.0
 11
864.808279
 21
348.068382
 31
0.0
  0
LINE
  8
0
 10
864.808279
 20
348.068382
 30
0.0
 11
864.825561
 21
347.983758
 31
0.0
  0
LINE
  8
0
 10
864.825561
 20
347.983758
 30
0.0
 11
864.852577
 21
347.899334
 31
0.0
  0
LINE
  8
0
 10
864.852577
 20
347.899334
 30
0.0
 11
864.885155
 21
347.818882
 31
0.0
  0
LINE
  8
0
 10
864.885155
 20
347.818882
 30
0.0
 11
864.92548
 21
347.742006
 31
0.0
  0
LINE
  8
0
 10
864.92548
 20
347.742006
 30
0.0
 11
864.973354
 21
347.669103
 31
0.0
  0
LINE
  8
0
 10
864.973354
 20
347.669103
 30
0.0
 11
865.0252
 21
347.599974
 31
0.0
  0
LINE
  8
0
 10
865.0252
 20
347.599974
 30
0.0
 11
865.084794
 21
347.534818
 31
0.0
  0
LINE
  8
0
 10
864.796757
 20
348.154594
 30
0.0
 11
864.792983
 21
348.241005
 31
0.0
  0
LINE
  8
0
 10
864.796757
 20
348.154594
 30
0.0
 11
864.808279
 21
348.068382
 31
0.0
  0
LINE
  8
0
 10
864.808279
 20
348.068382
 30
0.0
 11
864.825561
 21
347.983758
 31
0.0
  0
LINE
  8
0
 10
864.825561
 20
347.983758
 30
0.0
 11
864.852577
 21
347.899334
 31
0.0
  0
LINE
  8
0
 10
864.852577
 20
347.899334
 30
0.0
 11
864.885155
 21
347.818882
 31
0.0
  0
LINE
  8
0
 10
864.885155
 20
347.818882
 30
0.0
 11
864.92548
 21
347.742006
 31
0.0
  0
LINE
  8
0
 10
864.92548
 20
347.742006
 30
0.0
 11
864.973354
 21
347.669103
 31
0.0
  0
LINE
  8
0
 10
864.973354
 20
347.669103
 30
0.0
 11
865.0252
 21
347.599974
 31
0.0
  0
LINE
  8
0
 10
865.0252
 20
347.599974
 30
0.0
 11
865.084794
 21
347.534818
 31
0.0
  0
LINE
  8
0
 10
868.849934
 20
343.769479
 30
0.0
 11
868.94012
 21
343.675519
 31
0.0
  0
LINE
  8
0
 10
868.94012
 20
343.675519
 30
0.0
 11
868.849934
 21
343.769479
 31
0.0
  0
LINE
  8
0
 10
868.94012
 20
343.675519
 30
0.0
 11
869.024544
 21
343.575799
 31
0.0
  0
LINE
  8
0
 10
869.024544
 20
343.575799
 30
0.0
 11
868.94012
 21
343.675519
 31
0.0
  0
LINE
  8
0
 10
869.024544
 20
343.575799
 30
0.0
 11
869.105195
 21
343.472106
 31
0.0
  0
LINE
  8
0
 10
869.105195
 20
343.472106
 30
0.0
 11
869.024544
 21
343.575799
 31
0.0
  0
LINE
  8
0
 10
869.105195
 20
343.472106
 30
0.0
 11
869.178098
 21
343.364638
 31
0.0
  0
LINE
  8
0
 10
869.178098
 20
343.364638
 30
0.0
 11
869.105195
 21
343.472106
 31
0.0
  0
LINE
  8
0
 10
869.178098
 20
343.364638
 30
0.0
 11
869.247227
 21
343.253396
 31
0.0
  0
LINE
  8
0
 10
869.247227
 20
343.253396
 30
0.0
 11
869.178098
 21
343.364638
 31
0.0
  0
LINE
  8
0
 10
869.247227
 20
343.253396
 30
0.0
 11
869.308608
 21
343.138181
 31
0.0
  0
LINE
  8
0
 10
869.308608
 20
343.138181
 30
0.0
 11
869.247227
 21
343.253396
 31
0.0
  0
LINE
  8
0
 10
869.308608
 20
343.138181
 30
0.0
 11
869.366216
 21
343.021179
 31
0.0
  0
LINE
  8
0
 10
869.366216
 20
343.021179
 30
0.0
 11
869.308608
 21
343.138181
 31
0.0
  0
LINE
  8
0
 10
869.366216
 20
343.021179
 30
0.0
 11
869.416076
 21
342.900203
 31
0.0
  0
LINE
  8
0
 10
869.416076
 20
342.900203
 30
0.0
 11
869.366216
 21
343.021179
 31
0.0
  0
LINE
  8
0
 10
869.416076
 20
342.900203
 30
0.0
 11
869.458388
 21
342.77744
 31
0.0
  0
LINE
  8
0
 10
869.458388
 20
342.77744
 30
0.0
 11
869.416076
 21
342.900203
 31
0.0
  0
LINE
  8
0
 10
869.458388
 20
342.77744
 30
0.0
 11
869.496726
 21
342.650704
 31
0.0
  0
LINE
  8
0
 10
869.496726
 20
342.650704
 30
0.0
 11
869.458388
 21
342.77744
 31
0.0
  0
LINE
  8
0
 10
869.496726
 20
342.650704
 30
0.0
 11
869.527318
 21
342.523967
 31
0.0
  0
LINE
  8
0
 10
869.527318
 20
342.523967
 30
0.0
 11
869.496726
 21
342.650704
 31
0.0
  0
LINE
  8
0
 10
869.527318
 20
342.523967
 30
0.0
 11
869.550361
 21
342.395443
 31
0.0
  0
LINE
  8
0
 10
869.550361
 20
342.395443
 30
0.0
 11
869.527318
 21
342.523967
 31
0.0
  0
LINE
  8
0
 10
869.550361
 20
342.395443
 30
0.0
 11
869.567643
 21
342.266919
 31
0.0
  0
LINE
  8
0
 10
869.567643
 20
342.266919
 30
0.0
 11
869.550361
 21
342.395443
 31
0.0
  0
LINE
  8
0
 10
869.567643
 20
342.266919
 30
0.0
 11
869.577377
 21
342.136408
 31
0.0
  0
LINE
  8
0
 10
869.577377
 20
342.136408
 30
0.0
 11
869.567643
 21
342.266919
 31
0.0
  0
LINE
  8
0
 10
869.577377
 20
342.136408
 30
0.0
 11
869.581151
 21
342.005898
 31
0.0
  0
LINE
  8
0
 10
869.581151
 20
342.005898
 30
0.0
 11
869.577377
 21
342.136408
 31
0.0
  0
LINE
  8
0
 10
869.581151
 20
309.128163
 30
0.0
 11
869.584925
 21
309.041752
 31
0.0
  0
LINE
  8
0
 10
869.584925
 20
309.041752
 30
0.0
 11
869.596447
 21
308.955341
 31
0.0
  0
LINE
  8
0
 10
869.596447
 20
308.955341
 30
0.0
 11
869.615715
 21
308.870916
 31
0.0
  0
LINE
  8
0
 10
869.615715
 20
308.870916
 30
0.0
 11
869.640546
 21
308.788478
 31
0.0
  0
LINE
  8
0
 10
869.640546
 20
308.788478
 30
0.0
 11
869.675111
 21
308.707827
 31
0.0
  0
LINE
  8
0
 10
869.675111
 20
308.707827
 30
0.0
 11
869.715436
 21
308.629164
 31
0.0
  0
LINE
  8
0
 10
869.715436
 20
308.629164
 30
0.0
 11
869.675111
 21
308.707827
 31
0.0
  0
LINE
  8
0
 10
869.675111
 20
308.707827
 30
0.0
 11
869.640546
 21
308.788478
 31
0.0
  0
LINE
  8
0
 10
869.640546
 20
308.788478
 30
0.0
 11
869.615715
 21
308.870916
 31
0.0
  0
LINE
  8
0
 10
869.615715
 20
308.870916
 30
0.0
 11
869.596447
 21
308.955341
 31
0.0
  0
LINE
  8
0
 10
869.596447
 20
308.955341
 30
0.0
 11
869.584925
 21
309.041752
 31
0.0
  0
LINE
  8
0
 10
869.584925
 20
309.041752
 30
0.0
 11
869.581151
 21
309.128163
 31
0.0
  0
LINE
  8
0
 10
874.434475
 20
308.629164
 30
0.0
 11
874.4748
 21
308.707827
 31
0.0
  0
LINE
  8
0
 10
874.4748
 20
308.707827
 30
0.0
 11
874.509365
 21
308.788478
 31
0.0
  0
LINE
  8
0
 10
874.509365
 20
308.788478
 30
0.0
 11
874.534195
 21
308.870916
 31
0.0
  0
LINE
  8
0
 10
874.534195
 20
308.870916
 30
0.0
 11
874.553464
 21
308.955341
 31
0.0
  0
LINE
  8
0
 10
874.553464
 20
308.955341
 30
0.0
 11
874.564986
 21
309.041752
 31
0.0
  0
LINE
  8
0
 10
874.564986
 20
309.041752
 30
0.0
 11
874.56876
 21
309.128163
 31
0.0
  0
LINE
  8
0
 10
874.56876
 20
309.128163
 30
0.0
 11
874.564986
 21
309.041752
 31
0.0
  0
LINE
  8
0
 10
874.564986
 20
309.041752
 30
0.0
 11
874.553464
 21
308.955341
 31
0.0
  0
LINE
  8
0
 10
874.553464
 20
308.955341
 30
0.0
 11
874.534195
 21
308.870916
 31
0.0
  0
LINE
  8
0
 10
874.534195
 20
308.870916
 30
0.0
 11
874.509365
 21
308.788478
 31
0.0
  0
LINE
  8
0
 10
874.509365
 20
308.788478
 30
0.0
 11
874.4748
 21
308.707827
 31
0.0
  0
LINE
  8
0
 10
874.4748
 20
308.707827
 30
0.0
 11
874.434475
 21
308.629164
 31
0.0
  0
LINE
  8
0
 10
876.560287
 20
349.617027
 30
0.0
 11
876.500693
 21
349.680395
 31
0.0
  0
LINE
  8
0
 10
876.500693
 20
349.680395
 30
0.0
 11
876.560287
 21
349.617027
 31
0.0
  0
LINE
  8
0
 10
876.500693
 20
349.680395
 30
0.0
 11
876.448846
 21
349.749326
 31
0.0
  0
LINE
  8
0
 10
876.448846
 20
349.749326
 30
0.0
 11
876.500693
 21
349.680395
 31
0.0
  0
LINE
  8
0
 10
876.448846
 20
349.749326
 30
0.0
 11
876.400972
 21
349.824215
 31
0.0
  0
LINE
  8
0
 10
876.400972
 20
349.824215
 30
0.0
 11
876.448846
 21
349.749326
 31
0.0
  0
LINE
  8
0
 10
876.400972
 20
349.824215
 30
0.0
 11
876.362634
 21
349.901091
 31
0.0
  0
LINE
  8
0
 10
876.362634
 20
349.901091
 30
0.0
 11
876.400972
 21
349.824215
 31
0.0
  0
LINE
  8
0
 10
876.362634
 20
349.901091
 30
0.0
 11
876.328069
 21
349.981543
 31
0.0
  0
LINE
  8
0
 10
876.328069
 20
349.981543
 30
0.0
 11
876.362634
 21
349.901091
 31
0.0
  0
LINE
  8
0
 10
876.328069
 20
349.981543
 30
0.0
 11
876.30304
 21
350.06418
 31
0.0
  0
LINE
  8
0
 10
876.30304
 20
350.06418
 30
0.0
 11
876.328069
 21
349.981543
 31
0.0
  0
LINE
  8
0
 10
876.30304
 20
350.06418
 30
0.0
 11
876.28397
 21
350.148605
 31
0.0
  0
LINE
  8
0
 10
876.28397
 20
350.148605
 30
0.0
 11
876.30304
 21
350.06418
 31
0.0
  0
LINE
  8
0
 10
876.28397
 20
350.148605
 30
0.0
 11
876.272448
 21
350.235016
 31
0.0
  0
LINE
  8
0
 10
876.272448
 20
350.235016
 30
0.0
 11
876.28397
 21
350.148605
 31
0.0
  0
LINE
  8
0
 10
876.272448
 20
350.235016
 30
0.0
 11
876.268475
 21
350.321228
 31
0.0
  0
LINE
  8
0
 10
876.268475
 20
350.321228
 30
0.0
 11
876.272448
 21
350.235016
 31
0.0
  0
LINE
  8
0
 10
876.268475
 20
350.321228
 30
0.0
 11
876.272448
 21
350.409626
 31
0.0
  0
LINE
  8
0
 10
876.272448
 20
350.409626
 30
0.0
 11
876.268475
 21
350.321228
 31
0.0
  0
LINE
  8
0
 10
876.272448
 20
350.409626
 30
0.0
 11
876.28397
 21
350.496037
 31
0.0
  0
LINE
  8
0
 10
876.28397
 20
350.496037
 30
0.0
 11
876.272448
 21
350.409626
 31
0.0
  0
LINE
  8
0
 10
876.28397
 20
350.496037
 30
0.0
 11
876.30304
 21
350.580461
 31
0.0
  0
LINE
  8
0
 10
876.30304
 20
350.580461
 30
0.0
 11
876.28397
 21
350.496037
 31
0.0
  0
LINE
  8
0
 10
876.30304
 20
350.580461
 30
0.0
 11
876.328069
 21
350.6629
 31
0.0
  0
LINE
  8
0
 10
876.328069
 20
350.6629
 30
0.0
 11
876.30304
 21
350.580461
 31
0.0
  0
LINE
  8
0
 10
876.328069
 20
350.6629
 30
0.0
 11
876.362634
 21
350.74355
 31
0.0
  0
LINE
  8
0
 10
876.362634
 20
350.74355
 30
0.0
 11
876.328069
 21
350.6629
 31
0.0
  0
LINE
  8
0
 10
876.362634
 20
350.74355
 30
0.0
 11
876.400972
 21
350.820227
 31
0.0
  0
LINE
  8
0
 10
876.400972
 20
350.820227
 30
0.0
 11
876.362634
 21
350.74355
 31
0.0
  0
LINE
  8
0
 10
876.400972
 20
350.820227
 30
0.0
 11
876.448846
 21
350.895117
 31
0.0
  0
LINE
  8
0
 10
876.448846
 20
350.895117
 30
0.0
 11
876.400972
 21
350.820227
 31
0.0
  0
LINE
  8
0
 10
876.448846
 20
350.895117
 30
0.0
 11
876.500693
 21
350.964246
 31
0.0
  0
LINE
  8
0
 10
876.500693
 20
350.964246
 30
0.0
 11
876.448846
 21
350.895117
 31
0.0
  0
LINE
  8
0
 10
876.500693
 20
350.964246
 30
0.0
 11
876.560287
 21
351.027614
 31
0.0
  0
LINE
  8
0
 10
876.560287
 20
351.027614
 30
0.0
 11
876.500693
 21
350.964246
 31
0.0
  0
LINE
  8
0
 10
878.462126
 20
351.818226
 30
0.0
 11
878.550324
 21
351.814452
 31
0.0
  0
LINE
  8
0
 10
878.550324
 20
351.814452
 30
0.0
 11
878.462126
 21
351.818226
 31
0.0
  0
LINE
  8
0
 10
878.550324
 20
351.814452
 30
0.0
 11
878.636736
 21
351.80293
 31
0.0
  0
LINE
  8
0
 10
878.636736
 20
351.80293
 30
0.0
 11
878.550324
 21
351.814452
 31
0.0
  0
LINE
  8
0
 10
878.636736
 20
351.80293
 30
0.0
 11
878.72116
 21
351.785648
 31
0.0
  0
LINE
  8
0
 10
878.72116
 20
351.785648
 30
0.0
 11
878.636736
 21
351.80293
 31
0.0
  0
LINE
  8
0
 10
878.72116
 20
351.785648
 30
0.0
 11
878.803598
 21
351.758632
 31
0.0
  0
LINE
  8
0
 10
878.803598
 20
351.758632
 30
0.0
 11
878.72116
 21
351.785648
 31
0.0
  0
LINE
  8
0
 10
878.803598
 20
351.758632
 30
0.0
 11
878.884249
 21
351.726054
 31
0.0
  0
LINE
  8
0
 10
878.884249
 20
351.726054
 30
0.0
 11
878.803598
 21
351.758632
 31
0.0
  0
LINE
  8
0
 10
878.884249
 20
351.726054
 30
0.0
 11
878.960926
 21
351.685729
 31
0.0
  0
LINE
  8
0
 10
878.960926
 20
351.685729
 30
0.0
 11
878.884249
 21
351.726054
 31
0.0
  0
LINE
  8
0
 10
878.960926
 20
351.685729
 30
0.0
 11
879.035816
 21
351.637855
 31
0.0
  0
LINE
  8
0
 10
879.035816
 20
351.637855
 30
0.0
 11
878.960926
 21
351.685729
 31
0.0
  0
LINE
  8
0
 10
879.035816
 20
351.637855
 30
0.0
 11
879.104945
 21
351.586009
 31
0.0
  0
LINE
  8
0
 10
879.104945
 20
351.586009
 30
0.0
 11
879.035816
 21
351.637855
 31
0.0
  0
LINE
  8
0
 10
879.104945
 20
351.586009
 30
0.0
 11
879.168313
 21
351.526415
 31
0.0
  0
LINE
  8
0
 10
879.168313
 20
351.526415
 30
0.0
 11
879.104945
 21
351.586009
 31
0.0
  0
LINE
  8
0
 10
879.168313
 20
351.526415
 30
0.0
 11
879.227708
 21
351.463245
 31
0.0
  0
LINE
  8
0
 10
879.227708
 20
351.463245
 30
0.0
 11
879.168313
 21
351.526415
 31
0.0
  0
LINE
  8
0
 10
879.227708
 20
351.463245
 30
0.0
 11
879.279555
 21
351.394116
 31
0.0
  0
LINE
  8
0
 10
879.279555
 20
351.394116
 30
0.0
 11
879.227708
 21
351.463245
 31
0.0
  0
LINE
  8
0
 10
879.279555
 20
351.394116
 30
0.0
 11
879.327627
 21
351.319227
 31
0.0
  0
LINE
  8
0
 10
879.327627
 20
351.319227
 30
0.0
 11
879.279555
 21
351.394116
 31
0.0
  0
LINE
  8
0
 10
879.327627
 20
351.319227
 30
0.0
 11
879.367754
 21
351.242549
 31
0.0
  0
LINE
  8
0
 10
879.367754
 20
351.242549
 30
0.0
 11
879.327627
 21
351.319227
 31
0.0
  0
LINE
  8
0
 10
879.367754
 20
351.242549
 30
0.0
 11
879.40053
 21
351.161899
 31
0.0
  0
LINE
  8
0
 10
879.40053
 20
351.161899
 30
0.0
 11
879.367754
 21
351.242549
 31
0.0
  0
LINE
  8
0
 10
879.40053
 20
351.161899
 30
0.0
 11
879.427347
 21
351.079262
 31
0.0
  0
LINE
  8
0
 10
879.427347
 20
351.079262
 30
0.0
 11
879.40053
 21
351.161899
 31
0.0
  0
LINE
  8
0
 10
879.427347
 20
351.079262
 30
0.0
 11
879.44463
 21
350.994837
 31
0.0
  0
LINE
  8
0
 10
879.44463
 20
350.994837
 30
0.0
 11
879.427347
 21
351.079262
 31
0.0
  0
LINE
  8
0
 10
879.44463
 20
350.994837
 30
0.0
 11
879.456151
 21
350.908625
 31
0.0
  0
LINE
  8
0
 10
879.456151
 20
350.908625
 30
0.0
 11
879.44463
 21
350.994837
 31
0.0
  0
LINE
  8
0
 10
879.456151
 20
350.908625
 30
0.0
 11
879.459925
 21
350.820227
 31
0.0
  0
LINE
  8
0
 10
879.459925
 20
350.820227
 30
0.0
 11
879.456151
 21
350.908625
 31
0.0
  0
LINE
  8
0
 10
879.459925
 20
348.241005
 30
0.0
 11
879.456151
 21
348.154594
 31
0.0
  0
LINE
  8
0
 10
879.456151
 20
348.154594
 30
0.0
 11
879.459925
 21
348.241005
 31
0.0
  0
LINE
  8
0
 10
879.456151
 20
348.154594
 30
0.0
 11
879.44463
 21
348.068382
 31
0.0
  0
LINE
  8
0
 10
879.44463
 20
348.068382
 30
0.0
 11
879.456151
 21
348.154594
 31
0.0
  0
LINE
  8
0
 10
879.44463
 20
348.068382
 30
0.0
 11
879.427347
 21
347.983758
 31
0.0
  0
LINE
  8
0
 10
879.427347
 20
347.983758
 30
0.0
 11
879.44463
 21
348.068382
 31
0.0
  0
LINE
  8
0
 10
879.427347
 20
347.983758
 30
0.0
 11
879.40053
 21
347.899334
 31
0.0
  0
LINE
  8
0
 10
879.40053
 20
347.899334
 30
0.0
 11
879.427347
 21
347.983758
 31
0.0
  0
LINE
  8
0
 10
879.40053
 20
347.899334
 30
0.0
 11
879.367754
 21
347.818882
 31
0.0
  0
LINE
  8
0
 10
879.367754
 20
347.818882
 30
0.0
 11
879.40053
 21
347.899334
 31
0.0
  0
LINE
  8
0
 10
879.367754
 20
347.818882
 30
0.0
 11
879.327627
 21
347.742006
 31
0.0
  0
LINE
  8
0
 10
879.327627
 20
347.742006
 30
0.0
 11
879.367754
 21
347.818882
 31
0.0
  0
LINE
  8
0
 10
879.327627
 20
347.742006
 30
0.0
 11
879.279555
 21
347.669103
 31
0.0
  0
LINE
  8
0
 10
879.279555
 20
347.669103
 30
0.0
 11
879.327627
 21
347.742006
 31
0.0
  0
LINE
  8
0
 10
879.279555
 20
347.669103
 30
0.0
 11
879.227708
 21
347.599974
 31
0.0
  0
LINE
  8
0
 10
879.227708
 20
347.599974
 30
0.0
 11
879.279555
 21
347.669103
 31
0.0
  0
LINE
  8
0
 10
879.227708
 20
347.599974
 30
0.0
 11
879.168313
 21
347.534818
 31
0.0
  0
LINE
  8
0
 10
879.168313
 20
347.534818
 30
0.0
 11
879.227708
 21
347.599974
 31
0.0
  0
LINE
  8
0
 10
878.128201
 20
348.753314
 30
0.0
 11
878.168328
 21
348.7994
 31
0.0
  0
LINE
  8
0
 10
878.168328
 20
348.7994
 30
0.0
 11
878.202892
 21
348.847472
 31
0.0
  0
LINE
  8
0
 10
878.202892
 20
348.847472
 30
0.0
 11
878.231696
 21
348.901106
 31
0.0
  0
LINE
  8
0
 10
878.231696
 20
348.901106
 30
0.0
 11
878.252752
 21
348.958714
 31
0.0
  0
LINE
  8
0
 10
878.252752
 20
348.958714
 30
0.0
 11
878.26626
 21
349.016321
 31
0.0
  0
LINE
  8
0
 10
878.26626
 20
349.016321
 30
0.0
 11
878.274008
 21
349.075716
 31
0.0
  0
LINE
  8
0
 10
878.274008
 20
349.075716
 30
0.0
 11
878.274008
 21
349.137297
 31
0.0
  0
LINE
  8
0
 10
878.274008
 20
349.137297
 30
0.0
 11
878.26626
 21
349.196692
 31
0.0
  0
LINE
  8
0
 10
878.26626
 20
349.196692
 30
0.0
 11
878.252752
 21
349.254299
 31
0.0
  0
LINE
  8
0
 10
878.252752
 20
349.254299
 30
0.0
 11
878.231696
 21
349.311907
 31
0.0
  0
LINE
  8
0
 10
878.231696
 20
349.311907
 30
0.0
 11
878.202892
 21
349.363753
 31
0.0
  0
LINE
  8
0
 10
878.202892
 20
349.363753
 30
0.0
 11
878.168328
 21
349.413614
 31
0.0
  0
LINE
  8
0
 10
878.168328
 20
349.413614
 30
0.0
 11
878.128201
 21
349.4597
 31
0.0
  0
LINE
  8
0
 10
878.128201
 20
349.4597
 30
0.0
 11
878.168328
 21
349.413614
 31
0.0
  0
LINE
  8
0
 10
878.168328
 20
349.413614
 30
0.0
 11
878.202892
 21
349.363753
 31
0.0
  0
LINE
  8
0
 10
878.202892
 20
349.363753
 30
0.0
 11
878.231696
 21
349.311907
 31
0.0
  0
LINE
  8
0
 10
878.231696
 20
349.311907
 30
0.0
 11
878.252752
 21
349.254299
 31
0.0
  0
LINE
  8
0
 10
878.252752
 20
349.254299
 30
0.0
 11
878.26626
 21
349.196692
 31
0.0
  0
LINE
  8
0
 10
878.26626
 20
349.196692
 30
0.0
 11
878.274008
 21
349.137297
 31
0.0
  0
LINE
  8
0
 10
878.274008
 20
349.137297
 30
0.0
 11
878.274008
 21
349.075716
 31
0.0
  0
LINE
  8
0
 10
878.274008
 20
349.075716
 30
0.0
 11
878.26626
 21
349.016321
 31
0.0
  0
LINE
  8
0
 10
878.26626
 20
349.016321
 30
0.0
 11
878.252752
 21
348.958714
 31
0.0
  0
LINE
  8
0
 10
878.252752
 20
348.958714
 30
0.0
 11
878.231696
 21
348.901106
 31
0.0
  0
LINE
  8
0
 10
878.231696
 20
348.901106
 30
0.0
 11
878.202892
 21
348.847472
 31
0.0
  0
LINE
  8
0
 10
878.202892
 20
348.847472
 30
0.0
 11
878.168328
 21
348.7994
 31
0.0
  0
LINE
  8
0
 10
878.168328
 20
348.7994
 30
0.0
 11
878.128201
 21
348.753314
 31
0.0
  0
LINE
  8
0
 10
878.128201
 20
348.753314
 30
0.0
 11
878.083903
 21
348.713187
 31
0.0
  0
LINE
  8
0
 10
878.083903
 20
348.713187
 30
0.0
 11
878.128201
 21
348.753314
 31
0.0
  0
LINE
  8
0
 10
878.083903
 20
348.713187
 30
0.0
 11
878.034043
 21
348.678623
 31
0.0
  0
LINE
  8
0
 10
878.034043
 20
348.678623
 30
0.0
 11
878.083903
 21
348.713187
 31
0.0
  0
LINE
  8
0
 10
878.034043
 20
348.678623
 30
0.0
 11
877.980408
 21
348.651607
 31
0.0
  0
LINE
  8
0
 10
877.980408
 20
348.651607
 30
0.0
 11
878.034043
 21
348.678623
 31
0.0
  0
LINE
  8
0
 10
877.980408
 20
348.651607
 30
0.0
 11
877.924589
 21
348.63055
 31
0.0
  0
LINE
  8
0
 10
877.924589
 20
348.63055
 30
0.0
 11
877.980408
 21
348.651607
 31
0.0
  0
LINE
  8
0
 10
877.924589
 20
348.63055
 30
0.0
 11
877.865194
 21
348.615255
 31
0.0
  0
LINE
  8
0
 10
877.865194
 20
348.615255
 30
0.0
 11
877.924589
 21
348.63055
 31
0.0
  0
LINE
  8
0
 10
877.865194
 20
348.615255
 30
0.0
 11
877.805798
 21
348.607507
 31
0.0
  0
LINE
  8
0
 10
877.805798
 20
348.607507
 30
0.0
 11
877.865194
 21
348.615255
 31
0.0
  0
LINE
  8
0
 10
877.805798
 20
348.607507
 30
0.0
 11
877.746205
 21
348.607507
 31
0.0
  0
LINE
  8
0
 10
877.746205
 20
348.607507
 30
0.0
 11
877.805798
 21
348.607507
 31
0.0
  0
LINE
  8
0
 10
877.746205
 20
348.607507
 30
0.0
 11
877.686809
 21
348.615255
 31
0.0
  0
LINE
  8
0
 10
877.686809
 20
348.615255
 30
0.0
 11
877.746205
 21
348.607507
 31
0.0
  0
LINE
  8
0
 10
877.686809
 20
348.615255
 30
0.0
 11
877.627216
 21
348.63055
 31
0.0
  0
LINE
  8
0
 10
877.627216
 20
348.63055
 30
0.0
 11
877.686809
 21
348.615255
 31
0.0
  0
LINE
  8
0
 10
877.627216
 20
348.63055
 30
0.0
 11
877.571595
 21
348.651607
 31
0.0
  0
LINE
  8
0
 10
877.571595
 20
348.651607
 30
0.0
 11
877.627216
 21
348.63055
 31
0.0
  0
LINE
  8
0
 10
877.571595
 20
348.651607
 30
0.0
 11
877.517761
 21
348.678623
 31
0.0
  0
LINE
  8
0
 10
877.517761
 20
348.678623
 30
0.0
 11
877.571595
 21
348.651607
 31
0.0
  0
LINE
  8
0
 10
877.517761
 20
348.678623
 30
0.0
 11
877.467901
 21
348.713187
 31
0.0
  0
LINE
  8
0
 10
877.467901
 20
348.713187
 30
0.0
 11
877.517761
 21
348.678623
 31
0.0
  0
LINE
  8
0
 10
877.467901
 20
348.713187
 30
0.0
 11
877.423802
 21
348.753314
 31
0.0
  0
LINE
  8
0
 10
877.423802
 20
348.753314
 30
0.0
 11
877.467901
 21
348.713187
 31
0.0
  0
LINE
  8
0
 10
873.906175
 20
344.389454
 30
0.0
 11
873.828254
 21
344.295295
 31
0.0
  0
LINE
  8
0
 10
873.828254
 20
344.295295
 30
0.0
 11
873.747637
 21
344.195575
 31
0.0
  0
LINE
  8
0
 10
873.747637
 20
344.195575
 30
0.0
 11
873.67056
 21
344.091882
 31
0.0
  0
LINE
  8
0
 10
873.67056
 20
344.091882
 30
0.0
 11
873.59731
 21
343.984414
 31
0.0
  0
LINE
  8
0
 10
873.59731
 20
343.984414
 30
0.0
 11
873.528025
 21
343.873172
 31
0.0
  0
LINE
  8
0
 10
873.528025
 20
343.873172
 30
0.0
 11
873.462755
 21
343.757957
 31
0.0
  0
LINE
  8
0
 10
873.462755
 20
343.757957
 30
0.0
 11
873.402767
 21
343.640955
 31
0.0
  0
LINE
  8
0
 10
873.402767
 20
343.640955
 30
0.0
 11
873.346997
 21
343.519979
 31
0.0
  0
LINE
  8
0
 10
873.346997
 20
343.519979
 30
0.0
 11
873.296539
 21
343.397216
 31
0.0
  0
LINE
  8
0
 10
873.296539
 20
343.397216
 30
0.0
 11
873.25067
 21
343.270678
 31
0.0
  0
LINE
  8
0
 10
873.25067
 20
343.270678
 30
0.0
 11
873.210699
 21
343.143942
 31
0.0
  0
LINE
  8
0
 10
873.210699
 20
343.143942
 30
0.0
 11
873.176025
 21
343.015418
 31
0.0
  0
LINE
  8
0
 10
873.176025
 20
343.015418
 30
0.0
 11
873.147016
 21
342.886695
 31
0.0
  0
LINE
  8
0
 10
873.147016
 20
342.886695
 30
0.0
 11
873.115973
 21
342.756185
 31
0.0
  0
LINE
  8
0
 10
873.115973
 20
342.756185
 30
0.0
 11
873.083377
 21
342.625674
 31
0.0
  0
LINE
  8
0
 10
873.083377
 20
342.625674
 30
0.0
 11
873.115973
 21
342.756185
 31
0.0
  0
LINE
  8
0
 10
873.115973
 20
342.756185
 30
0.0
 11
873.147016
 21
342.886695
 31
0.0
  0
LINE
  8
0
 10
873.147016
 20
342.886695
 30
0.0
 11
873.176025
 21
343.015418
 31
0.0
  0
LINE
  8
0
 10
873.176025
 20
343.015418
 30
0.0
 11
873.210699
 21
343.143942
 31
0.0
  0
LINE
  8
0
 10
873.210699
 20
343.143942
 30
0.0
 11
873.25067
 21
343.270678
 31
0.0
  0
LINE
  8
0
 10
873.25067
 20
343.270678
 30
0.0
 11
873.296539
 21
343.397216
 31
0.0
  0
LINE
  8
0
 10
873.296539
 20
343.397216
 30
0.0
 11
873.346997
 21
343.519979
 31
0.0
  0
LINE
  8
0
 10
873.346997
 20
343.519979
 30
0.0
 11
873.402767
 21
343.640955
 31
0.0
  0
LINE
  8
0
 10
873.402767
 20
343.640955
 30
0.0
 11
873.462755
 21
343.757957
 31
0.0
  0
LINE
  8
0
 10
873.462755
 20
343.757957
 30
0.0
 11
873.528025
 21
343.873172
 31
0.0
  0
LINE
  8
0
 10
873.528025
 20
343.873172
 30
0.0
 11
873.59731
 21
343.984414
 31
0.0
  0
LINE
  8
0
 10
873.59731
 20
343.984414
 30
0.0
 11
873.67056
 21
344.091882
 31
0.0
  0
LINE
  8
0
 10
873.67056
 20
344.091882
 30
0.0
 11
873.747637
 21
344.195575
 31
0.0
  0
LINE
  8
0
 10
873.747637
 20
344.195575
 30
0.0
 11
873.828254
 21
344.295295
 31
0.0
  0
LINE
  8
0
 10
873.828254
 20
344.295295
 30
0.0
 11
873.906175
 21
344.389454
 31
0.0
  0
LINE
  8
0
 10
870.346932
 20
344.389454
 30
0.0
 11
870.437117
 21
344.295295
 31
0.0
  0
LINE
  8
0
 10
870.437117
 20
344.295295
 30
0.0
 11
870.346932
 21
344.389454
 31
0.0
  0
LINE
  8
0
 10
870.437117
 20
344.295295
 30
0.0
 11
870.521542
 21
344.195575
 31
0.0
  0
LINE
  8
0
 10
870.521542
 20
344.195575
 30
0.0
 11
870.437117
 21
344.295295
 31
0.0
  0
LINE
  8
0
 10
870.521542
 20
344.195575
 30
0.0
 11
870.600206
 21
344.091882
 31
0.0
  0
LINE
  8
0
 10
870.600206
 20
344.091882
 30
0.0
 11
870.521542
 21
344.195575
 31
0.0
  0
LINE
  8
0
 10
870.600206
 20
344.091882
 30
0.0
 11
870.675096
 21
343.984414
 31
0.0
  0
LINE
  8
0
 10
870.675096
 20
343.984414
 30
0.0
 11
870.600206
 21
344.091882
 31
0.0
  0
LINE
  8
0
 10
870.675096
 20
343.984414
 30
0.0
 11
870.744026
 21
343.873172
 31
0.0
  0
LINE
  8
0
 10
870.744026
 20
343.873172
 30
0.0
 11
870.675096
 21
343.984414
 31
0.0
  0
LINE
  8
0
 10
870.744026
 20
343.873172
 30
0.0
 11
870.805606
 21
343.757957
 31
0.0
  0
LINE
  8
0
 10
870.805606
 20
343.757957
 30
0.0
 11
870.744026
 21
343.873172
 31
0.0
  0
LINE
  8
0
 10
870.805606
 20
343.757957
 30
0.0
 11
870.861227
 21
343.640955
 31
0.0
  0
LINE
  8
0
 10
870.861227
 20
343.640955
 30
0.0
 11
870.805606
 21
343.757957
 31
0.0
  0
LINE
  8
0
 10
870.861227
 20
343.640955
 30
0.0
 11
870.911087
 21
343.519979
 31
0.0
  0
LINE
  8
0
 10
870.911087
 20
343.519979
 30
0.0
 11
870.861227
 21
343.640955
 31
0.0
  0
LINE
  8
0
 10
870.911087
 20
343.519979
 30
0.0
 11
870.955187
 21
343.397216
 31
0.0
  0
LINE
  8
0
 10
870.955187
 20
343.397216
 30
0.0
 11
870.911087
 21
343.519979
 31
0.0
  0
LINE
  8
0
 10
870.955187
 20
343.397216
 30
0.0
 11
870.991738
 21
343.270678
 31
0.0
  0
LINE
  8
0
 10
870.991738
 20
343.270678
 30
0.0
 11
870.955187
 21
343.397216
 31
0.0
  0
LINE
  8
0
 10
870.991738
 20
343.270678
 30
0.0
 11
871.022329
 21
343.143942
 31
0.0
  0
LINE
  8
0
 10
871.022329
 20
343.143942
 30
0.0
 11
870.991738
 21
343.270678
 31
0.0
  0
LINE
  8
0
 10
871.022329
 20
343.143942
 30
0.0
 11
871.047359
 21
343.015418
 31
0.0
  0
LINE
  8
0
 10
871.047359
 20
343.015418
 30
0.0
 11
871.022329
 21
343.143942
 31
0.0
  0
LINE
  8
0
 10
871.047359
 20
343.015418
 30
0.0
 11
871.064641
 21
342.886695
 31
0.0
  0
LINE
  8
0
 10
871.064641
 20
342.886695
 30
0.0
 11
871.047359
 21
343.015418
 31
0.0
  0
LINE
  8
0
 10
871.064641
 20
342.886695
 30
0.0
 11
871.074176
 21
342.756185
 31
0.0
  0
LINE
  8
0
 10
871.074176
 20
342.756185
 30
0.0
 11
871.064641
 21
342.886695
 31
0.0
  0
LINE
  8
0
 10
871.074176
 20
342.756185
 30
0.0
 11
871.07795
 21
342.625674
 31
0.0
  0
LINE
  8
0
 10
871.07795
 20
342.625674
 30
0.0
 11
871.074176
 21
342.756185
 31
0.0
  0
LINE
  8
0
 10
866.829106
 20
348.753314
 30
0.0
 11
866.785007
 21
348.713187
 31
0.0
  0
LINE
  8
0
 10
866.785007
 20
348.713187
 30
0.0
 11
866.829106
 21
348.753314
 31
0.0
  0
LINE
  8
0
 10
866.829106
 20
348.753314
 30
0.0
 11
867.69282
 21
349.617027
 31
0.0
  0
LINE
  8
0
 10
867.69282
 20
349.617027
 30
0.0
 11
867.752215
 21
349.680395
 31
0.0
  0
LINE
  8
0
 10
867.752215
 20
349.680395
 30
0.0
 11
867.804062
 21
349.749326
 31
0.0
  0
LINE
  8
0
 10
867.804062
 20
349.749326
 30
0.0
 11
867.852134
 21
349.824215
 31
0.0
  0
LINE
  8
0
 10
867.852134
 20
349.824215
 30
0.0
 11
867.890473
 21
349.901091
 31
0.0
  0
LINE
  8
0
 10
867.890473
 20
349.901091
 30
0.0
 11
867.925038
 21
349.981543
 31
0.0
  0
LINE
  8
0
 10
867.925038
 20
349.981543
 30
0.0
 11
867.949868
 21
350.06418
 31
0.0
  0
LINE
  8
0
 10
867.949868
 20
350.06418
 30
0.0
 11
867.969137
 21
350.148605
 31
0.0
  0
LINE
  8
0
 10
867.969137
 20
350.148605
 30
0.0
 11
867.980658
 21
350.235016
 31
0.0
  0
LINE
  8
0
 10
867.980658
 20
350.235016
 30
0.0
 11
867.984433
 21
350.321228
 31
0.0
  0
LINE
  8
0
 10
867.984433
 20
350.321228
 30
0.0
 11
867.980658
 21
350.409626
 31
0.0
  0
LINE
  8
0
 10
867.980658
 20
350.409626
 30
0.0
 11
867.969137
 21
350.496037
 31
0.0
  0
LINE
  8
0
 10
867.969137
 20
350.496037
 30
0.0
 11
867.949868
 21
350.580461
 31
0.0
  0
LINE
  8
0
 10
867.949868
 20
350.580461
 30
0.0
 11
867.925038
 21
350.6629
 31
0.0
  0
LINE
  8
0
 10
867.925038
 20
350.6629
 30
0.0
 11
867.890473
 21
350.74355
 31
0.0
  0
LINE
  8
0
 10
867.890473
 20
350.74355
 30
0.0
 11
867.852134
 21
350.820227
 31
0.0
  0
LINE
  8
0
 10
867.852134
 20
350.820227
 30
0.0
 11
867.804062
 21
350.895117
 31
0.0
  0
LINE
  8
0
 10
867.804062
 20
350.895117
 30
0.0
 11
867.752215
 21
350.964246
 31
0.0
  0
LINE
  8
0
 10
867.752215
 20
350.964246
 30
0.0
 11
867.69282
 21
351.027614
 31
0.0
  0
LINE
  8
0
 10
867.69282
 20
351.027614
 30
0.0
 11
866.90201
 21
351.818226
 31
0.0
  0
LINE
  8
0
 10
866.90201
 20
351.818226
 30
0.0
 11
867.69282
 21
351.027614
 31
0.0
  0
LINE
  8
0
 10
867.69282
 20
351.027614
 30
0.0
 11
867.752215
 21
350.964246
 31
0.0
  0
LINE
  8
0
 10
867.752215
 20
350.964246
 30
0.0
 11
867.804062
 21
350.895117
 31
0.0
  0
LINE
  8
0
 10
867.804062
 20
350.895117
 30
0.0
 11
867.852134
 21
350.820227
 31
0.0
  0
LINE
  8
0
 10
867.852134
 20
350.820227
 30
0.0
 11
867.890473
 21
350.74355
 31
0.0
  0
LINE
  8
0
 10
867.890473
 20
350.74355
 30
0.0
 11
867.925038
 21
350.6629
 31
0.0
  0
LINE
  8
0
 10
867.925038
 20
350.6629
 30
0.0
 11
867.949868
 21
350.580461
 31
0.0
  0
LINE
  8
0
 10
867.949868
 20
350.580461
 30
0.0
 11
867.969137
 21
350.496037
 31
0.0
  0
LINE
  8
0
 10
867.969137
 20
350.496037
 30
0.0
 11
867.980658
 21
350.409626
 31
0.0
  0
LINE
  8
0
 10
867.980658
 20
350.409626
 30
0.0
 11
867.984433
 21
350.321228
 31
0.0
  0
LINE
  8
0
 10
867.984433
 20
350.321228
 30
0.0
 11
867.980658
 21
350.235016
 31
0.0
  0
LINE
  8
0
 10
867.980658
 20
350.235016
 30
0.0
 11
867.969137
 21
350.148605
 31
0.0
  0
LINE
  8
0
 10
867.969137
 20
350.148605
 30
0.0
 11
867.949868
 21
350.06418
 31
0.0
  0
LINE
  8
0
 10
867.949868
 20
350.06418
 30
0.0
 11
867.925038
 21
349.981543
 31
0.0
  0
LINE
  8
0
 10
867.925038
 20
349.981543
 30
0.0
 11
867.890473
 21
349.901091
 31
0.0
  0
LINE
  8
0
 10
867.890473
 20
349.901091
 30
0.0
 11
867.852134
 21
349.824215
 31
0.0
  0
LINE
  8
0
 10
867.852134
 20
349.824215
 30
0.0
 11
867.804062
 21
349.749326
 31
0.0
  0
LINE
  8
0
 10
867.804062
 20
349.749326
 30
0.0
 11
867.752215
 21
349.680395
 31
0.0
  0
LINE
  8
0
 10
867.752215
 20
349.680395
 30
0.0
 11
867.69282
 21
349.617027
 31
0.0
  0
LINE
  8
0
 10
867.69282
 20
349.617027
 30
0.0
 11
866.829106
 21
348.753314
 31
0.0
  0
LINE
  8
0
 10
866.785007
 20
348.713187
 30
0.0
 11
866.735147
 21
348.678623
 31
0.0
  0
LINE
  8
0
 10
866.735147
 20
348.678623
 30
0.0
 11
866.785007
 21
348.713187
 31
0.0
  0
LINE
  8
0
 10
866.735147
 20
348.678623
 30
0.0
 11
866.681314
 21
348.651607
 31
0.0
  0
LINE
  8
0
 10
866.681314
 20
348.651607
 30
0.0
 11
866.735147
 21
348.678623
 31
0.0
  0
LINE
  8
0
 10
866.681314
 20
348.651607
 30
0.0
 11
866.625693
 21
348.63055
 31
0.0
  0
LINE
  8
0
 10
866.625693
 20
348.63055
 30
0.0
 11
866.681314
 21
348.651607
 31
0.0
  0
LINE
  8
0
 10
866.625693
 20
348.63055
 30
0.0
 11
866.566297
 21
348.615255
 31
0.0
  0
LINE
  8
0
 10
866.566297
 20
348.615255
 30
0.0
 11
866.625693
 21
348.63055
 31
0.0
  0
LINE
  8
0
 10
866.566297
 20
348.615255
 30
0.0
 11
866.506704
 21
348.607507
 31
0.0
  0
LINE
  8
0
 10
866.506704
 20
348.607507
 30
0.0
 11
866.566297
 21
348.615255
 31
0.0
  0
LINE
  8
0
 10
866.506704
 20
348.607507
 30
0.0
 11
866.447308
 21
348.607507
 31
0.0
  0
LINE
  8
0
 10
866.447308
 20
348.607507
 30
0.0
 11
866.506704
 21
348.607507
 31
0.0
  0
LINE
  8
0
 10
866.447308
 20
348.607507
 30
0.0
 11
866.387715
 21
348.615255
 31
0.0
  0
LINE
  8
0
 10
866.387715
 20
348.615255
 30
0.0
 11
866.447308
 21
348.607507
 31
0.0
  0
LINE
  8
0
 10
866.387715
 20
348.615255
 30
0.0
 11
866.328319
 21
348.63055
 31
0.0
  0
LINE
  8
0
 10
866.328319
 20
348.63055
 30
0.0
 11
866.387715
 21
348.615255
 31
0.0
  0
LINE
  8
0
 10
866.328319
 20
348.63055
 30
0.0
 11
866.272698
 21
348.651607
 31
0.0
  0
LINE
  8
0
 10
866.272698
 20
348.651607
 30
0.0
 11
866.328319
 21
348.63055
 31
0.0
  0
LINE
  8
0
 10
866.272698
 20
348.651607
 30
0.0
 11
866.218865
 21
348.678623
 31
0.0
  0
LINE
  8
0
 10
866.218865
 20
348.678623
 30
0.0
 11
866.272698
 21
348.651607
 31
0.0
  0
LINE
  8
0
 10
866.218865
 20
348.678623
 30
0.0
 11
866.169005
 21
348.713187
 31
0.0
  0
LINE
  8
0
 10
866.169005
 20
348.713187
 30
0.0
 11
866.218865
 21
348.678623
 31
0.0
  0
LINE
  8
0
 10
866.169005
 20
348.713187
 30
0.0
 11
866.124906
 21
348.753314
 31
0.0
  0
LINE
  8
0
 10
866.124906
 20
348.753314
 30
0.0
 11
866.169005
 21
348.713187
 31
0.0
  0
LINE
  8
0
 10
866.124906
 20
348.753314
 30
0.0
 11
866.08458
 21
348.7994
 31
0.0
  0
LINE
  8
0
 10
866.08458
 20
348.7994
 30
0.0
 11
866.124906
 21
348.753314
 31
0.0
  0
LINE
  8
0
 10
866.08458
 20
348.7994
 30
0.0
 11
866.050016
 21
348.847472
 31
0.0
  0
LINE
  8
0
 10
866.050016
 20
348.847472
 30
0.0
 11
866.08458
 21
348.7994
 31
0.0
  0
LINE
  8
0
 10
866.050016
 20
348.847472
 30
0.0
 11
866.021212
 21
348.901106
 31
0.0
  0
LINE
  8
0
 10
866.021212
 20
348.901106
 30
0.0
 11
866.050016
 21
348.847472
 31
0.0
  0
LINE
  8
0
 10
866.021212
 20
348.901106
 30
0.0
 11
866.000156
 21
348.958714
 31
0.0
  0
LINE
  8
0
 10
866.000156
 20
348.958714
 30
0.0
 11
866.021212
 21
348.901106
 31
0.0
  0
LINE
  8
0
 10
866.000156
 20
348.958714
 30
0.0
 11
865.986648
 21
349.016321
 31
0.0
  0
LINE
  8
0
 10
865.986648
 20
349.016321
 30
0.0
 11
866.000156
 21
348.958714
 31
0.0
  0
LINE
  8
0
 10
865.986648
 20
349.016321
 30
0.0
 11
865.978901
 21
349.075716
 31
0.0
  0
LINE
  8
0
 10
865.978901
 20
349.075716
 30
0.0
 11
865.986648
 21
349.016321
 31
0.0
  0
LINE
  8
0
 10
865.978901
 20
349.075716
 30
0.0
 11
865.978901
 21
349.137297
 31
0.0
  0
LINE
  8
0
 10
865.978901
 20
349.137297
 30
0.0
 11
865.978901
 21
349.075716
 31
0.0
  0
LINE
  8
0
 10
865.978901
 20
349.137297
 30
0.0
 11
865.986648
 21
349.196692
 31
0.0
  0
LINE
  8
0
 10
865.986648
 20
349.196692
 30
0.0
 11
865.978901
 21
349.137297
 31
0.0
  0
LINE
  8
0
 10
865.986648
 20
349.196692
 30
0.0
 11
866.000156
 21
349.254299
 31
0.0
  0
LINE
  8
0
 10
866.000156
 20
349.254299
 30
0.0
 11
865.986648
 21
349.196692
 31
0.0
  0
LINE
  8
0
 10
866.000156
 20
349.254299
 30
0.0
 11
866.021212
 21
349.311907
 31
0.0
  0
LINE
  8
0
 10
866.021212
 20
349.311907
 30
0.0
 11
866.000156
 21
349.254299
 31
0.0
  0
LINE
  8
0
 10
866.021212
 20
349.311907
 30
0.0
 11
866.050016
 21
349.363753
 31
0.0
  0
LINE
  8
0
 10
866.050016
 20
349.363753
 30
0.0
 11
866.021212
 21
349.311907
 31
0.0
  0
LINE
  8
0
 10
866.050016
 20
349.363753
 30
0.0
 11
866.08458
 21
349.413614
 31
0.0
  0
LINE
  8
0
 10
866.08458
 20
349.413614
 30
0.0
 11
866.050016
 21
349.363753
 31
0.0
  0
LINE
  8
0
 10
866.08458
 20
349.413614
 30
0.0
 11
866.124906
 21
349.4597
 31
0.0
  0
LINE
  8
0
 10
866.124906
 20
349.4597
 30
0.0
 11
866.08458
 21
349.413614
 31
0.0
  0
LINE
  8
0
 10
866.124906
 20
349.4597
 30
0.0
 11
866.986434
 21
350.321228
 31
0.0
  0
LINE
  8
0
 10
866.986434
 20
350.321228
 30
0.0
 11
866.124906
 21
349.4597
 31
0.0
  0
LINE
  8
0
 10
865.790981
 20
348.947192
 30
0.0
 11
865.790981
 21
350.820227
 31
0.0
  0
LINE
  8
0
 10
865.790981
 20
350.820227
 30
0.0
 11
866.487634
 21
350.820227
 31
0.0
  0
LINE
  8
0
 10
866.487634
 20
350.820227
 30
0.0
 11
866.986434
 21
350.321228
 31
0.0
  0
LINE
  8
0
 10
866.986434
 20
350.321228
 30
0.0
 11
866.487634
 21
350.820227
 31
0.0
  0
LINE
  8
0
 10
866.487634
 20
350.820227
 30
0.0
 11
865.790981
 21
350.820227
 31
0.0
  0
LINE
  8
0
 10
865.790981
 20
350.820227
 30
0.0
 11
865.790981
 21
348.947192
 31
0.0
  0
LINE
  8
0
 10
865.790981
 20
348.947192
 30
0.0
 11
870.346932
 21
344.389454
 31
0.0
  0
LINE
  8
0
 10
870.346932
 20
344.389454
 30
0.0
 11
865.790981
 21
348.947192
 31
0.0
  0
LINE
  8
0
 10
864.792983
 20
348.241005
 30
0.0
 11
864.792983
 21
350.820227
 31
0.0
  0
LINE
  8
0
 10
864.792983
 20
350.820227
 30
0.0
 11
864.792983
 21
348.241005
 31
0.0
  0
LINE
  8
0
 10
865.084794
 20
347.534818
 30
0.0
 11
868.849934
 21
343.769479
 31
0.0
  0
LINE
  8
0
 10
868.849934
 20
343.769479
 30
0.0
 11
865.084794
 21
347.534818
 31
0.0
  0
LINE
  8
0
 10
865.790981
 20
351.818226
 30
0.0
 11
866.90201
 21
351.818226
 31
0.0
  0
LINE
  8
0
 10
866.90201
 20
351.818226
 30
0.0
 11
865.790981
 21
351.818226
 31
0.0
  0
LINE
  8
0
 10
877.350899
 20
351.818226
 30
0.0
 11
876.560287
 21
351.027614
 31
0.0
  0
LINE
  8
0
 10
876.560287
 20
351.027614
 30
0.0
 11
877.350899
 21
351.818226
 31
0.0
  0
LINE
  8
0
 10
877.350899
 20
351.818226
 30
0.0
 11
878.462126
 21
351.818226
 31
0.0
  0
LINE
  8
0
 10
878.462126
 20
351.818226
 30
0.0
 11
877.350899
 21
351.818226
 31
0.0
  0
LINE
  8
0
 10
877.765473
 20
350.820227
 30
0.0
 11
878.462126
 21
350.820227
 31
0.0
  0
LINE
  8
0
 10
878.462126
 20
350.820227
 30
0.0
 11
878.462126
 21
348.947192
 31
0.0
  0
LINE
  8
0
 10
878.462126
 20
348.947192
 30
0.0
 11
873.906175
 21
344.389454
 31
0.0
  0
LINE
  8
0
 10
878.462126
 20
348.947192
 30
0.0
 11
878.462126
 21
350.820227
 31
0.0
  0
LINE
  8
0
 10
878.462126
 20
350.820227
 30
0.0
 11
877.765473
 21
350.820227
 31
0.0
  0
LINE
  8
0
 10
877.765473
 20
350.820227
 30
0.0
 11
877.266474
 21
350.321228
 31
0.0
  0
LINE
  8
0
 10
877.266474
 20
350.321228
 30
0.0
 11
877.765473
 21
350.820227
 31
0.0
  0
LINE
  8
0
 10
877.266474
 20
350.321228
 30
0.0
 11
878.128201
 21
349.4597
 31
0.0
  0
LINE
  8
0
 10
878.128201
 20
349.4597
 30
0.0
 11
877.266474
 21
350.321228
 31
0.0
  0
LINE
  8
0
 10
876.560287
 20
349.617027
 30
0.0
 11
877.423802
 21
348.753314
 31
0.0
  0
LINE
  8
0
 10
877.423802
 20
348.753314
 30
0.0
 11
876.560287
 21
349.617027
 31
0.0
  0
LINE
  8
0
 10
879.459925
 20
350.820227
 30
0.0
 11
879.459925
 21
348.241005
 31
0.0
  0
LINE
  8
0
 10
879.459925
 20
348.241005
 30
0.0
 11
879.459925
 21
350.820227
 31
0.0
  0
LINE
  8
0
 10
879.168313
 20
347.534818
 30
0.0
 11
875.402974
 21
343.769479
 31
0.0
  0
LINE
  8
0
 10
875.402974
 20
343.769479
 30
0.0
 11
879.168313
 21
347.534818
 31
0.0
  0
LINE
  8
0
 10
874.553524
 20
342.005898
 30
0.0
 11
874.56876
 21
309.128163
 31
0.0
  0
LINE
  8
0
 10
874.56876
 20
309.128163
 30
0.0
 11
874.553524
 21
342.005898
 31
0.0
  0
LINE
  8
0
 10
873.083377
 20
342.625674
 30
0.0
 11
873.071961
 21
337.851014
 31
0.0
  0
LINE
  8
0
 10
873.071961
 20
337.851014
 30
0.0
 11
873.083377
 21
342.625674
 31
0.0
  0
LINE
  8
0
 10
871.07795
 20
342.625674
 30
0.0
 11
871.07795
 21
337.851014
 31
0.0
  0
LINE
  8
0
 10
871.07795
 20
337.851014
 30
0.0
 11
871.07795
 21
342.625674
 31
0.0
  0
LINE
  8
0
 10
869.581151
 20
342.005898
 30
0.0
 11
869.581151
 21
309.128163
 31
0.0
  0
LINE
  8
0
 10
869.581151
 20
309.128163
 30
0.0
 11
869.581151
 21
342.005898
 31
0.0
  0
LINE
  8
0
 10
871.23349
 20
306.000081
 30
0.0
 11
871.233379
 21
306.000273
 31
0.0
  0
LINE
  8
0
 10
872.916421
 20
306.000081
 30
0.0
 11
872.916532
 21
306.000273
 31
0.0
  0
LINE
  8
0
 10
872.916532
 20
306.000273
 30
0.0
 11
872.916421
 21
306.000081
 31
0.0
  0
LINE
  8
0
 10
871.233379
 20
306.000273
 30
0.0
 11
871.23349
 21
306.000081
 31
0.0
  0
LINE
  8
0
 10
870.99205
 20
306.418226
 30
0.0
 11
869.715436
 21
308.629164
 31
0.0
  0
LINE
  8
0
 10
873.157861
 20
306.418226
 30
0.0
 11
874.434475
 21
308.629164
 31
0.0
  0
LINE
  8
0
 10
816.559971
 20
300.861509
 30
0.0
 11
816.796828
 21
299.518226
 31
0.0
  0
LINE
  8
0
 10
837.126458
 20
296.418226
 30
0.0
 11
818.602091
 21
296.418226
 31
0.0
  0
LINE
  8
0
 10
819.322595
 20
298.118226
 30
0.0
 11
821.026458
 21
298.118226
 31
0.0
  0
LINE
  8
0
 10
821.326458
 20
303.718226
 30
0.0
 11
821.326458
 21
298.418226
 31
0.0
  0
LINE
  8
0
 10
837.534302
 20
303.39613
 30
0.0
 11
837.126458
 21
304.918226
 31
0.0
  0
LINE
  8
0
 10
837.126458
 20
304.918226
 30
0.0
 11
835.350178
 21
304.918226
 31
0.0
  0
LINE
  8
0
 10
835.350178
 20
304.918226
 30
0.0
 11
822.526458
 21
304.918226
 31
0.0
  0
LINE
  8
0
 10
835.350178
 20
302.518226
 30
0.0
 11
822.526458
 21
302.518226
 31
0.0
  0
LINE
  8
0
 10
838.06428
 20
301.418226
 30
0.0
 11
837.534302
 21
303.39613
 31
0.0
  0
LINE
  8
0
 10
839.408261
 20
304.488025
 30
0.0
 11
839.377152
 21
303.597176
 31
0.0
  0
LINE
  8
0
 10
839.377152
 20
303.597176
 30
0.0
 11
838.960854
 21
304.318226
 31
0.0
  0
LINE
  8
0
 10
838.787649
 20
304.418226
 30
0.0
 11
838.22774
 21
304.418226
 31
0.0
  0
LINE
  8
0
 10
839.408261
 20
304.488025
 30
0.0
 11
839.178839
 21
297.918226
 31
0.0
  0
LINE
  8
0
 10
838.06428
 20
301.418226
 30
0.0
 11
838.06428
 21
296.418226
 31
0.0
  0
LINE
  8
0
 10
839.178839
 20
297.918226
 30
0.0
 11
839.126458
 21
296.418226
 31
0.0
  0
LINE
  8
0
 10
838.06428
 20
296.418226
 30
0.0
 11
837.126458
 21
296.418226
 31
0.0
  0
LINE
  8
0
 10
842.126458
 20
296.418226
 30
0.0
 11
838.06428
 21
296.418226
 31
0.0
  0
LINE
  8
0
 10
859.574076
 20
297.918226
 30
0.0
 11
839.178839
 21
297.918226
 31
0.0
  0
LINE
  8
0
 10
839.126458
 20
296.418226
 30
0.0
 11
859.626458
 21
296.418226
 31
0.0
  0
LINE
  8
0
 10
857.345872
 20
306.418226
 30
0.0
 11
841.407043
 21
306.418226
 31
0.0
  0
LINE
  8
0
 10
926.037787
 20
301.291874
 30
0.0
 11
925.725045
 21
299.518226
 31
0.0
  0
LINE
  8
0
 10
927.424173
 20
297.657754
 30
0.0
 11
927.505367
 21
298.118226
 31
0.0
  0
LINE
  8
0
 10
925.946962
 20
296.418226
 30
0.0
 11
907.126458
 21
296.418226
 31
0.0
  0
LINE
  8
0
 10
923.226458
 20
298.118226
 30
0.0
 11
924.93032
 21
298.118226
 31
0.0
  0
LINE
  8
0
 10
922.926458
 20
298.418226
 30
0.0
 11
922.926458
 21
303.718226
 31
0.0
  0
LINE
  8
0
 10
921.726458
 20
304.918226
 30
0.0
 11
908.902737
 21
304.918226
 31
0.0
  0
LINE
  8
0
 10
921.726458
 20
302.518226
 30
0.0
 11
908.902737
 21
302.518226
 31
0.0
  0
LINE
  8
0
 10
908.902737
 20
304.918226
 30
0.0
 11
907.126458
 21
304.918226
 31
0.0
  0
LINE
  8
0
 10
907.126458
 20
304.918226
 30
0.0
 11
907.126458
 21
296.418226
 31
0.0
  0
LINE
  8
0
 10
907.126458
 20
304.918226
 30
0.0
 11
906.718613
 21
303.39613
 31
0.0
  0
LINE
  8
0
 10
907.126458
 20
296.418226
 30
0.0
 11
906.188635
 21
296.418226
 31
0.0
  0
LINE
  8
0
 10
906.188635
 20
296.418226
 30
0.0
 11
902.126458
 21
296.418226
 31
0.0
  0
LINE
  8
0
 10
906.188635
 20
296.418226
 30
0.0
 11
906.188635
 21
301.418226
 31
0.0
  0
LINE
  8
0
 10
905.074076
 20
297.918226
 30
0.0
 11
904.844654
 21
304.488025
 31
0.0
  0
LINE
  8
0
 10
905.074076
 20
297.918226
 30
0.0
 11
884.678839
 21
297.918226
 31
0.0
  0
LINE
  8
0
 10
905.126458
 20
296.418226
 30
0.0
 11
905.074076
 21
297.918226
 31
0.0
  0
LINE
  8
0
 10
884.626458
 20
296.418226
 30
0.0
 11
905.126458
 21
296.418226
 31
0.0
  0
LINE
  8
0
 10
906.718613
 20
303.39613
 30
0.0
 11
906.188635
 21
301.418226
 31
0.0
  0
LINE
  8
0
 10
904.875763
 20
303.597176
 30
0.0
 11
904.844654
 21
304.488025
 31
0.0
  0
LINE
  8
0
 10
905.292061
 20
304.318226
 30
0.0
 11
904.875763
 21
303.597176
 31
0.0
  0
LINE
  8
0
 10
906.025175
 20
304.418226
 30
0.0
 11
905.465266
 21
304.418226
 31
0.0
  0
LINE
  8
0
 10
902.845872
 20
306.418226
 30
0.0
 11
886.907043
 21
306.418226
 31
0.0
  0
LINE
  8
0
 10
883.451854
 20
301.418226
 30
0.0
 11
883.344654
 21
304.488025
 31
0.0
  0
LINE
  8
0
 10
884.801061
 20
301.418226
 30
0.0
 11
883.451854
 21
301.418226
 31
0.0
  0
LINE
  8
0
 10
884.908261
 20
304.488025
 30
0.0
 11
884.801061
 21
301.418226
 31
0.0
  0
LINE
  8
0
 10
881.345872
 20
306.418226
 30
0.0
 11
872.126458
 21
306.418226
 31
0.0
  0
LINE
  8
0
 10
883.574076
 20
297.918226
 30
0.0
 11
883.451854
 21
301.418226
 31
0.0
  0
LINE
  8
0
 10
884.801061
 20
301.418226
 30
0.0
 11
884.678839
 21
297.918226
 31
0.0
  0
LINE
  8
0
 10
860.626458
 20
296.418226
 30
0.0
 11
883.626458
 21
296.418226
 31
0.0
  0
LINE
  8
0
 10
883.626458
 20
296.418226
 30
0.0
 11
883.574076
 21
297.918226
 31
0.0
  0
LINE
  8
0
 10
884.626458
 20
296.418226
 30
0.0
 11
883.626458
 21
296.418226
 31
0.0
  0
LINE
  8
0
 10
884.678839
 20
297.918226
 30
0.0
 11
884.626458
 21
296.418226
 31
0.0
  0
LINE
  8
0
 10
883.574076
 20
297.918226
 30
0.0
 11
860.678839
 21
297.918226
 31
0.0
  0
LINE
  8
0
 10
860.908261
 20
304.488025
 30
0.0
 11
860.801061
 21
301.418226
 31
0.0
  0
LINE
  8
0
 10
860.801061
 20
301.418226
 30
0.0
 11
859.451854
 21
301.418226
 31
0.0
  0
LINE
  8
0
 10
872.126458
 20
306.418226
 30
0.0
 11
862.907043
 21
306.418226
 31
0.0
  0
LINE
  8
0
 10
859.451854
 20
301.418226
 30
0.0
 11
859.344654
 21
304.488025
 31
0.0
  0
LINE
  8
0
 10
860.801061
 20
301.418226
 30
0.0
 11
860.678839
 21
297.918226
 31
0.0
  0
LINE
  8
0
 10
859.574076
 20
297.918226
 30
0.0
 11
859.451854
 21
301.418226
 31
0.0
  0
LINE
  8
0
 10
860.626458
 20
296.418226
 30
0.0
 11
859.626458
 21
296.418226
 31
0.0
  0
LINE
  8
0
 10
860.678839
 20
297.918226
 30
0.0
 11
860.626458
 21
296.418226
 31
0.0
  0
LINE
  8
0
 10
859.626458
 20
296.418226
 30
0.0
 11
859.574076
 21
297.918226
 31
0.0
  0
LINE
  8
0
 10
837.126458
 20
296.418226
 30
0.0
 11
837.126458
 21
304.918226
 31
0.0
  0
LINE
  8
0
 10
818.824007
 20
299.518226
 30
0.0
 11
818.511265
 21
301.291874
 31
0.0
  0
LINE
  8
0
 10
817.043686
 20
298.118226
 30
0.0
 11
817.12488
 21
297.657754
 31
0.0
  0
LINE
  8
0
 10
927.752225
 20
299.518226
 30
0.0
 11
927.989082
 21
300.861509
 31
0.0
  0
ARC
  8
0
 10
817.526458
 20
301.118226
 30
0.0
 40
1.0
 50
194.875362
 51
10.0
  0
ARC
  8
0
 10
817.526458
 20
301.118226
 30
0.0
 40
1.0
 50
10.0
 51
194.875362
  0
ARC
  8
0
 10
822.526458
 20
303.718226
 30
0.0
 40
1.2
 50
90.0
 51
180.0
  0
ARC
  8
0
 10
822.526458
 20
303.718226
 30
0.0
 40
1.2
 50
180.0
 51
270.0
  0
ARC
  8
0
 10
835.350178
 20
303.718226
 30
0.0
 40
1.2
 50
270.0
 51
0.0
  0
ARC
  8
0
 10
842.126458
 20
301.418226
 30
0.0
 40
5.0
 50
144.314665
 51
156.697793
  0
ARC
  8
0
 10
927.022595
 20
301.118226
 30
0.0
 40
1.0
 50
170.0
 51
345.124638
  0
ARC
  8
0
 10
927.022595
 20
301.118226
 30
0.0
 40
1.0
 50
345.124638
 51
170.0
  0
ARC
  8
0
 10
921.726458
 20
303.718226
 30
0.0
 40
1.2
 50
270.0
 51
0.0
  0
ARC
  8
0
 10
921.726458
 20
303.718226
 30
0.0
 40
1.2
 50
0.0
 51
90.0
  0
ARC
  8
0
 10
908.902737
 20
303.718226
 30
0.0
 40
1.2
 50
180.0
 51
270.0
  0
ARC
  8
0
 10
902.126458
 20
301.418226
 30
0.0
 40
5.0
 50
23.302207
 51
35.685335
  0
ARC
  8
0
 10
818.602091
 20
297.918226
 30
0.0
 40
1.5
 50
190.0
 51
270.0
  0
ARC
  8
0
 10
821.026458
 20
298.418226
 30
0.0
 40
0.3
 50
270.0
 51
0.0
  0
ARC
  8
0
 10
835.350178
 20
303.718226
 30
0.0
 40
1.2
 50
0.0
 51
90.0
  0
ARC
  8
0
 10
838.787649
 20
304.218226
 30
0.0
 40
0.2
 50
30.0
 51
90.0
  0
ARC
  8
0
 10
838.22774
 20
304.218226
 30
0.0
 40
0.2
 50
90.0
 51
144.314665
  0
ARC
  8
0
 10
841.407043
 20
304.418226
 30
0.0
 40
2.0
 50
90.0
 51
178.0
  0
ARC
  8
0
 10
841.407043
 20
304.418226
 30
0.0
 40
2.0
 50
90.0
 51
178.0
  0
ARC
  8
0
 10
925.946962
 20
297.918226
 30
0.0
 40
1.5
 50
270.0
 51
350.0
  0
ARC
  8
0
 10
923.226458
 20
298.418226
 30
0.0
 40
0.3
 50
180.0
 51
270.0
  0
ARC
  8
0
 10
908.902737
 20
303.718226
 30
0.0
 40
1.2
 50
90.0
 51
180.0
  0
ARC
  8
0
 10
905.465266
 20
304.218226
 30
0.0
 40
0.2
 50
90.0
 51
150.0
  0
ARC
  8
0
 10
906.025175
 20
304.218226
 30
0.0
 40
0.2
 50
35.685335
 51
90.0
  0
ARC
  8
0
 10
902.845872
 20
304.418226
 30
0.0
 40
2.0
 50
2.0
 51
90.0
  0
ARC
  8
0
 10
902.845872
 20
304.418226
 30
0.0
 40
2.0
 50
2.0
 51
90.0
  0
ARC
  8
0
 10
881.345872
 20
304.418226
 30
0.0
 40
2.0
 50
2.0
 51
90.0
  0
ARC
  8
0
 10
886.907043
 20
304.418226
 30
0.0
 40
2.0
 50
90.0
 51
178.0
  0
ARC
  8
0
 10
862.907043
 20
304.418226
 30
0.0
 40
2.0
 50
90.0
 51
178.0
  0
ARC
  8
0
 10
857.345872
 20
304.418226
 30
0.0
 40
2.0
 50
2.0
 51
90.0
  0
LINE
  8
0
 10
808.826458
 20
300.643097
 30
0.0
 11
808.126458
 21
301.855533
 31
0.0
  0
LINE
  8
0
 10
808.126458
 20
301.855533
 30
0.0
 11
808.126458
 21
302.618226
 31
0.0
  0
LINE
  8
0
 10
809.176458
 20
303.224444
 30
0.0
 11
809.326458
 21
303.137841
 31
0.0
  0
LINE
  8
0
 10
809.326458
 20
302.791431
 30
0.0
 11
808.454214
 21
302.287841
 31
0.0
  0
LINE
  8
0
 10
808.954214
 20
301.421816
 30
0.0
 11
810.426458
 21
302.271816
 31
0.0
  0
LINE
  8
0
 10
807.126458
 20
302.618226
 30
0.0
 11
807.126458
 21
296.118226
 31
0.0
  0
LINE
  8
0
 10
809.126458
 20
294.118226
 30
0.0
 11
872.126458
 21
294.118226
 31
0.0
  0
LINE
  8
0
 10
872.126458
 20
295.818226
 30
0.0
 11
810.326458
 21
295.818226
 31
0.0
  0
LINE
  8
0
 10
808.826458
 20
297.318226
 30
0.0
 11
808.826458
 21
300.643097
 31
0.0
  0
LINE
  8
0
 10
936.126458
 20
301.855533
 30
0.0
 11
935.426458
 21
300.643097
 31
0.0
  0
LINE
  8
0
 10
936.126458
 20
302.618226
 30
0.0
 11
936.126458
 21
301.855533
 31
0.0
  0
LINE
  8
0
 10
934.926458
 20
303.137841
 30
0.0
 11
935.076458
 21
303.224444
 31
0.0
  0
LINE
  8
0
 10
935.798701
 20
302.287841
 30
0.0
 11
934.926458
 21
302.791431
 31
0.0
  0
LINE
  8
0
 10
933.826458
 20
302.271816
 30
0.0
 11
935.298701
 21
301.421816
 31
0.0
  0
LINE
  8
0
 10
934.576458
 20
304.090469
 30
0.0
 11
933.826458
 21
303.657456
 31
0.0
  0
LINE
  8
0
 10
937.126458
 20
296.118226
 30
0.0
 11
937.126458
 21
302.618226
 31
0.0
  0
LINE
  8
0
 10
872.126458
 20
294.118226
 30
0.0
 11
935.126458
 21
294.118226
 31
0.0
  0
LINE
  8
0
 10
933.926458
 20
295.818226
 30
0.0
 11
872.126458
 21
295.818226
 31
0.0
  0
LINE
  8
0
 10
935.426458
 20
300.643097
 30
0.0
 11
935.426458
 21
297.318226
 31
0.0
  0
ARC
  8
0
 10
808.826458
 20
302.618226
 30
0.0
 40
0.7
 50
60.0
 51
180.0
  0
ARC
  8
0
 10
809.226458
 20
302.964636
 30
0.0
 40
0.2
 50
300.0
 51
60.0
  0
ARC
  8
0
 10
808.704214
 20
301.854829
 30
0.0
 40
0.5
 50
120.0
 51
300.0
  0
ARC
  8
0
 10
810.026458
 20
302.964636
 30
0.0
 40
0.8
 50
300.0
 51
60.0
  0
ARC
  8
0
 10
808.826458
 20
302.618226
 30
0.0
 40
1.7
 50
60.0
 51
180.0
  0
ARC
  8
0
 10
935.426458
 20
302.618226
 30
0.0
 40
0.7
 50
0.0
 51
120.0
  0
ARC
  8
0
 10
935.026458
 20
302.964636
 30
0.0
 40
0.2
 50
120.0
 51
240.0
  0
ARC
  8
0
 10
935.548701
 20
301.854829
 30
0.0
 40
0.5
 50
240.0
 51
60.0
  0
ARC
  8
0
 10
934.226458
 20
302.964636
 30
0.0
 40
0.8
 50
120.0
 51
240.0
  0
ARC
  8
0
 10
935.426458
 20
302.618226
 30
0.0
 40
1.7
 50
0.0
 51
120.0
  0
ARC
  8
0
 10
809.126458
 20
296.118226
 30
0.0
 40
2.0
 50
180.0
 51
270.0
  0
ARC
  8
0
 10
810.326458
 20
297.318226
 30
0.0
 40
1.5
 50
180.0
 51
270.0
  0
ARC
  8
0
 10
935.126458
 20
296.118226
 30
0.0
 40
2.0
 50
270.0
 51
0.0
  0
ARC
  8
0
 10
933.926458
 20
297.318226
 30
0.0
 40
1.5
 50
270.0
 51
0.0
  0
LINE
  8
0
 10
935.126458
 20
354.118226
 30
0.0
 11
957.126458
 21
354.118226
 31
0.0
  0
LINE
  8
0
 10
809.126458
 20
354.118226
 30
0.0
 11
787.126458
 21
354.118226
 31
0.0
  0
LINE
  8
0
 10
951.037246
 20
374.118226
 30
0.0
 11
957.126458
 21
368.029014
 31
0.0
  0
LINE
  8
0
 10
943.966178
 20
374.118226
 30
0.0
 11
957.126458
 21
360.957946
 31
0.0
  0
LINE
  8
0
 10
936.89511
 20
374.118226
 30
0.0
 11
956.89511
 21
354.118226
 31
0.0
  0
LINE
  8
0
 10
929.824042
 20
374.118226
 30
0.0
 11
949.824042
 21
354.118226
 31
0.0
  0
LINE
  8
0
 10
922.752975
 20
374.118226
 30
0.0
 11
942.752975
 21
354.118226
 31
0.0
  0
LINE
  8
0
 10
915.681907
 20
374.118226
 30
0.0
 11
935.681907
 21
354.118226
 31
0.0
  0
LINE
  8
0
 10
908.610839
 20
374.118226
 30
0.0
 11
928.610839
 21
354.118226
 31
0.0
  0
LINE
  8
0
 10
901.539771
 20
374.118226
 30
0.0
 11
921.539771
 21
354.118226
 31
0.0
  0
LINE
  8
0
 10
894.468703
 20
374.118226
 30
0.0
 11
914.468703
 21
354.118226
 31
0.0
  0
LINE
  8
0
 10
887.397636
 20
374.118226
 30
0.0
 11
907.397636
 21
354.118226
 31
0.0
  0
LINE
  8
0
 10
880.326568
 20
374.118226
 30
0.0
 11
900.326568
 21
354.118226
 31
0.0
  0
LINE
  8
0
 10
873.2555
 20
374.118226
 30
0.0
 11
893.2555
 21
354.118226
 31
0.0
  0
LINE
  8
0
 10
866.184432
 20
374.118226
 30
0.0
 11
886.184432
 21
354.118226
 31
0.0
  0
LINE
  8
0
 10
859.113364
 20
374.118226
 30
0.0
 11
879.113364
 21
354.118226
 31
0.0
  0
LINE
  8
0
 10
852.042297
 20
374.118226
 30
0.0
 11
872.042297
 21
354.118226
 31
0.0
  0
LINE
  8
0
 10
844.971229
 20
374.118226
 30
0.0
 11
864.971229
 21
354.118226
 31
0.0
  0
LINE
  8
0
 10
837.900161
 20
374.118226
 30
0.0
 11
857.900161
 21
354.118226
 31
0.0
  0
LINE
  8
0
 10
830.829093
 20
374.118226
 30
0.0
 11
850.829093
 21
354.118226
 31
0.0
  0
LINE
  8
0
 10
823.758025
 20
374.118226
 30
0.0
 11
843.758025
 21
354.118226
 31
0.0
  0
LINE
  8
0
 10
816.686958
 20
374.118226
 30
0.0
 11
836.686958
 21
354.118226
 31
0.0
  0
LINE
  8
0
 10
809.61589
 20
374.118226
 30
0.0
 11
829.61589
 21
354.118226
 31
0.0
  0
LINE
  8
0
 10
802.544822
 20
374.118226
 30
0.0
 11
822.544822
 21
354.118226
 31
0.0
  0
LINE
  8
0
 10
795.473754
 20
374.118226
 30
0.0
 11
815.473754
 21
354.118226
 31
0.0
  0
LINE
  8
0
 10
788.402686
 20
374.118226
 30
0.0
 11
808.402686
 21
354.118226
 31
0.0
  0
LINE
  8
0
 10
787.126458
 20
368.323386
 30
0.0
 11
801.331618
 21
354.118226
 31
0.0
  0
LINE
  8
0
 10
787.126458
 20
361.252319
 30
0.0
 11
794.260551
 21
354.118226
 31
0.0
  0
LINE
  8
0
 10
787.126458
 20
354.181251
 30
0.0
 11
787.189483
 21
354.118226
 31
0.0
  0
ENDSEC
  0
EOF
