  0
SECTION
  2
HEADER
  9
$ACADVER
  1
AC1009
  9
$INSBASE
 10
0.0
 20
0.0
 30
0.0
  9
$EXTMIN
 10
789.681372
 20
309.425554
 30
0.0
  9
$EXTMAX
 10
959.681372
 20
407.839768
 30
0.0
  9
$LIMMIN
 10
855.039764
 20
266.864907
  9
$LIMMAX
 10
935.039764
 20
436.864907
  9
$ORTHOMODE
 70
     0
  9
$REGENMODE
 70
     1
  9
$FILLMODE
 70
     1
  9
$QTEXTMODE
 70
     0
  9
$MIRRTEXT
 70
     1
  9
$DRAGMODE
 70
     2
  9
$LTSCALE
 40
1.0
  9
$OSMODE
 70
     0
  9
$ATTMODE
 70
     1
  9
$TEXTSIZE
 40
3.5
  9
$TRACEWID
 40
0.5
  9
$TEXTSTYLE
  7
STANDARD
  9
$CLAYER
  8
0
  9
$CELTYPE
  6
BYLAYER
  9
$CECOLOR
 62
   256
  9
$DIMSCALE
 40
1.0
  9
$DIMASZ
 40
0.18
  9
$DIMEXO
 40
0.0625
  9
$DIMDLI
 40
0.38
  9
$DIMRND
 40
0.0
  9
$DIMDLE
 40
0.0
  9
$DIMEXE
 40
0.18
  9
$DIMTP
 40
0.0
  9
$DIMTM
 40
0.0
  9
$DIMTXT
 40
0.18
  9
$DIMCEN
 40
0.09
  9
$DIMTSZ
 40
0.0
  9
$DIMTOL
 70
     0
  9
$DIMLIM
 70
     0
  9
$DIMTIH
 70
     1
  9
$DIMTOH
 70
     1
  9
$DIMSE1
 70
     0
  9
$DIMSE2
 70
     0
  9
$DIMTAD
 70
     0
  9
$DIMZIN
 70
     0
  9
$DIMBLK
  1

  9
$DIMASO
 70
     1
  9
$DIMSHO
 70
     1
  9
$DIMPOST
  1

  9
$DIMAPOST
  1

  9
$DIMALT
 70
     0
  9
$DIMALTD
 70
     2
  9
$DIMALTF
 40
25.4
  9
$DIMLFAC
 40
1.0
  9
$DIMTOFL
 70
     0
  9
$DIMTVP
 40
0.0
  9
$DIMTIX
 70
     0
  9
$DIMSOXD
 70
     0
  9
$DIMSAH
 70
     0
  9
$DIMBLK1
  1

  9
$DIMBLK2
  1

  9
$DIMSTYLE
  2
*UNNAMED
  9
$DIMCLRD
 70
     0
  9
$DIMCLRE
 70
     0
  9
$DIMCLRT
 70
     0
  9
$DIMTFAC
 40
1.0
  9
$DIMGAP
 40
0.09
  9
$LUNITS
 70
     2
  9
$LUPREC
 70
     4
  9
$SKETCHINC
 40
0.1
  9
$FILLETRAD
 40
2.0
  9
$AUNITS
 70
     0
  9
$AUPREC
 70
     0
  9
$MENU
  1
ACAD
  9
$ELEVATION
 40
0.0
  9
$PELEVATION
 40
0.0
  9
$THICKNESS
 40
0.0
  9
$LIMCHECK
 70
     0
  9
$BLIPMODE
 70
     1
  9
$CHAMFERA
 40
0.0
  9
$CHAMFERB
 40
0.0
  9
$SKPOLY
 70
     0
  9
$TDCREATE
 40
2450773.645751505
  9
$TDUPDATE
 40
2450946.538651157
  9
$TDINDWG
 40
0.0031753472
  9
$TDUSRTIMER
 40
0.0031753472
  9
$USRTIMER
 70
     1
  9
$ANGBASE
 50
0.0
  9
$ANGDIR
 70
     0
  9
$PDMODE
 70
     0
  9
$PDSIZE
 40
0.0
  9
$PLINEWID
 40
0.0
  9
$COORDS
 70
     2
  9
$SPLFRAME
 70
     0
  9
$SPLINETYPE
 70
     6
  9
$SPLINESEGS
 70
     8
  9
$ATTDIA
 70
     0
  9
$ATTREQ
 70
     1
  9
$HANDLING
 70
     0
  9
$HANDSEED
  5
0
  9
$SURFTAB1
 70
     6
  9
$SURFTAB2
 70
     6
  9
$SURFTYPE
 70
     6
  9
$SURFU
 70
     6
  9
$SURFV
 70
     6
  9
$UCSNAME
  2

  9
$UCSORG
 10
0.0
 20
0.0
 30
0.0
  9
$UCSXDIR
 10
1.0
 20
0.0
 30
0.0
  9
$UCSYDIR
 10
0.0
 20
1.0
 30
0.0
  9
$PUCSNAME
  2

  9
$PUCSORG
 10
0.0
 20
0.0
 30
0.0
  9
$PUCSXDIR
 10
1.0
 20
0.0
 30
0.0
  9
$PUCSYDIR
 10
0.0
 20
1.0
 30
0.0
  9
$USERI1
 70
     0
  9
$USERI2
 70
     0
  9
$USERI3
 70
     0
  9
$USERI4
 70
     0
  9
$USERI5
 70
     0
  9
$USERR1
 40
0.0
  9
$USERR2
 40
0.0
  9
$USERR3
 40
0.0
  9
$USERR4
 40
0.0
  9
$USERR5
 40
0.0
  9
$WORLDVIEW
 70
     1
  9
$SHADEDGE
 70
     3
  9
$SHADEDIF
 70
    70
  9
$TILEMODE
 70
     1
  9
$MAXACTVP
 70
    16
  9
$PINSBASE
 10
0.0
 20
0.0
 30
0.0
  9
$PLIMCHECK
 70
     0
  9
$PEXTMIN
 10
1.000000E+20
 20
1.000000E+20
 30
1.000000E+20
  9
$PEXTMAX
 10
-1.000000E+20
 20
-1.000000E+20
 30
-1.000000E+20
  9
$PLIMMIN
 10
0.0
 20
0.0
  9
$PLIMMAX
 10
420.0
 20
297.0
  9
$UNITMODE
 70
     0
  9
$VISRETAIN
 70
     0
  9
$PLINEGEN
 70
     0
  9
$PSLTSCALE
 70
     1
  9
$TREEDEPTH
 70
  3020
  9
$DWGCODEPAGE
  3
iso8859-1
  0
ENDSEC
  0
SECTION
  2
TABLES
  0
TABLE
  2
VPORT
 70
     2
  0
VPORT
  2
*ACTIVE
 70
     0
 10
0.0
 20
0.0
 11
1.0
 21
1.0
 12
971.028086
 22
370.627687
 13
0.0
 23
0.0
 14
1.0
 24
1.0
 15
0.0
 25
0.0
 16
0.0
 26
0.0
 36
1.0
 17
0.0
 27
0.0
 37
0.0
 40
256.617634
 41
1.748359
 42
50.0
 43
0.0
 44
0.0
 50
0.0
 51
0.0
 71
     0
 72
   100
 73
     1
 74
     0
 75
     0
 76
     0
 77
     0
 78
     0
  0
ENDTAB
  0
TABLE
  2
LTYPE
 70
     1
  0
LTYPE
  2
CONTINUOUS
 70
    64
  3
Solid line
 72
    65
 73
     0
 40
0.0
  0
ENDTAB
  0
TABLE
  2
LAYER
 70
     1
  0
LAYER
  2
0
 70
    64
 62
     7
  6
CONTINUOUS
  0
ENDTAB
  0
TABLE
  2
STYLE
 70
     1
  0
STYLE
  2
STANDARD
 70
     0
 40
0.0
 41
1.0
 50
0.0
 71
     0
 42
3.5
  3
txt
  4

  0
ENDTAB
  0
TABLE
  2
VIEW
 70
     0
  0
ENDTAB
  0
TABLE
  2
UCS
 70
     0
  0
ENDTAB
  0
TABLE
  2
APPID
 70
     1
  0
APPID
  2
ACAD
 70
    64
  0
ENDTAB
  0
TABLE
  2
DIMSTYLE
 70
     0
  0
ENDTAB
  0
ENDSEC
  0
SECTION
  2
BLOCKS
  0
ENDSEC
  0
SECTION
  2
ENTITIES
  0
LINE
  8
0
 10
935.825924
 20
397.886324
 30
0.0
 11
936.575924
 21
397.453311
 31
0.0
  0
LINE
  8
0
 10
812.225924
 20
401.925554
 30
0.0
 11
812.225924
 21
401.325554
 31
0.0
  0
LINE
  8
0
 10
810.825924
 20
401.925554
 30
0.0
 11
810.825924
 21
401.325554
 31
0.0
  0
LINE
  8
0
 10
936.025924
 20
401.925554
 30
0.0
 11
936.025924
 21
401.325554
 31
0.0
  0
LINE
  8
0
 10
936.825924
 20
351.725554
 30
0.0
 11
936.825924
 21
393.442948
 31
0.0
  0
LINE
  8
0
 10
871.625924
 20
354.735605
 30
0.0
 11
870.974452
 21
354.084133
 31
0.0
  0
LINE
  8
0
 10
870.974452
 20
354.084133
 30
0.0
 11
871.479477
 21
353.579108
 31
0.0
  0
LINE
  8
0
 10
871.125924
 20
352.725554
 30
0.0
 11
869.125924
 21
352.725554
 31
0.0
  0
LINE
  8
0
 10
868.77237
 20
353.579108
 30
0.0
 11
870.665263
 21
355.472001
 31
0.0
  0
LINE
  8
0
 10
873.225924
 20
354.411341
 30
0.0
 11
873.225924
 21
350.625554
 31
0.0
  0
LINE
  8
0
 10
871.625924
 20
354.735605
 30
0.0
 11
871.625924
 21
350.725554
 31
0.0
  0
LINE
  8
0
 10
877.277395
 20
354.084133
 30
0.0
 11
876.625924
 21
354.735605
 31
0.0
  0
LINE
  8
0
 10
876.77237
 20
353.579108
 30
0.0
 11
877.277395
 21
354.084133
 31
0.0
  0
LINE
  8
0
 10
879.125924
 20
352.725554
 30
0.0
 11
877.125924
 21
352.725554
 31
0.0
  0
LINE
  8
0
 10
877.586584
 20
355.472001
 30
0.0
 11
879.479477
 21
353.579108
 31
0.0
  0
LINE
  8
0
 10
875.025924
 20
350.625554
 30
0.0
 11
875.025924
 21
354.411341
 31
0.0
  0
LINE
  8
0
 10
876.625924
 20
350.725554
 30
0.0
 11
876.625924
 21
354.735605
 31
0.0
  0
LINE
  8
0
 10
931.725924
 20
401.525554
 30
0.0
 11
931.725924
 21
399.325554
 31
0.0
  0
LINE
  8
0
 10
931.725924
 20
403.925554
 30
0.0
 11
931.725924
 21
404.925554
 31
0.0
  0
LINE
  8
0
 10
932.225924
 20
405.425554
 30
0.0
 11
933.925924
 21
405.425554
 31
0.0
  0
LINE
  8
0
 10
937.425924
 20
401.925554
 30
0.0
 11
937.425924
 21
401.325554
 31
0.0
  0
LINE
  8
0
 10
933.925924
 20
404.025554
 30
0.0
 11
933.625924
 21
404.025554
 31
0.0
  0
LINE
  8
0
 10
933.125924
 20
403.525554
 30
0.0
 11
933.125924
 21
399.967006
 31
0.0
  0
LINE
  8
0
 10
931.225924
 20
403.425554
 30
0.0
 11
929.208695
 21
403.425554
 31
0.0
  0
LINE
  8
0
 10
925.425924
 20
402.425554
 30
0.0
 11
925.425924
 21
398.425554
 31
0.0
  0
LINE
  8
0
 10
931.225924
 20
402.025554
 30
0.0
 11
929.455553
 21
402.025554
 31
0.0
  0
LINE
  8
0
 10
926.825924
 20
401.525554
 30
0.0
 11
926.825924
 21
399.325554
 31
0.0
  0
LINE
  8
0
 10
931.225924
 20
398.825554
 30
0.0
 11
927.325924
 21
398.825554
 31
0.0
  0
LINE
  8
0
 10
809.125924
 20
349.425554
 30
0.0
 11
809.125924
 21
394.770854
 31
0.0
  0
LINE
  8
0
 10
811.425924
 20
351.725554
 30
0.0
 11
811.425924
 21
393.442948
 31
0.0
  0
LINE
  8
0
 10
816.525924
 20
404.925554
 30
0.0
 11
816.525924
 21
403.925554
 31
0.0
  0
LINE
  8
0
 10
814.325924
 20
405.425554
 30
0.0
 11
816.025924
 21
405.425554
 31
0.0
  0
LINE
  8
0
 10
814.625924
 20
404.025554
 30
0.0
 11
814.325924
 21
404.025554
 31
0.0
  0
LINE
  8
0
 10
815.125924
 20
399.974225
 30
0.0
 11
815.125924
 21
403.525554
 31
0.0
  0
LINE
  8
0
 10
822.825924
 20
398.425554
 30
0.0
 11
822.825924
 21
402.425554
 31
0.0
  0
LINE
  8
0
 10
821.425924
 20
399.325554
 30
0.0
 11
821.425924
 21
401.525554
 31
0.0
  0
LINE
  8
0
 10
817.025924
 20
398.825554
 30
0.0
 11
820.925924
 21
398.825554
 31
0.0
  0
LINE
  8
0
 10
821.825924
 20
403.425554
 30
0.0
 11
817.025924
 21
403.425554
 31
0.0
  0
LINE
  8
0
 10
927.225924
 20
403.425554
 30
0.0
 11
926.425924
 21
403.425554
 31
0.0
  0
LINE
  8
0
 10
938.125924
 20
396.502904
 30
0.0
 11
933.625924
 21
399.100981
 31
0.0
  0
LINE
  8
0
 10
815.125924
 20
399.974225
 30
0.0
 11
815.125924
 21
399.967006
 31
0.0
  0
LINE
  8
0
 10
814.625924
 20
399.100981
 30
0.0
 11
810.125924
 21
396.502904
 31
0.0
  0
LINE
  8
0
 10
935.825924
 20
395.174999
 30
0.0
 11
931.927847
 21
397.425554
 31
0.0
  0
LINE
  8
0
 10
931.927847
 20
397.425554
 30
0.0
 11
926.425924
 21
397.425554
 31
0.0
  0
LINE
  8
0
 10
812.425924
 20
395.174999
 30
0.0
 11
816.324
 21
397.425554
 31
0.0
  0
LINE
  8
0
 10
816.324
 20
397.425554
 30
0.0
 11
821.825924
 21
397.425554
 31
0.0
  0
LINE
  8
0
 10
939.125924
 20
394.770854
 30
0.0
 11
939.125924
 21
349.425554
 31
0.0
  0
LINE
  8
0
 10
937.125924
 20
347.425554
 30
0.0
 11
811.125924
 21
347.425554
 31
0.0
  0
LINE
  8
0
 10
901.625924
 20
354.735605
 30
0.0
 11
900.974452
 21
354.084133
 31
0.0
  0
LINE
  8
0
 10
900.974452
 20
354.084133
 30
0.0
 11
901.479477
 21
353.579108
 31
0.0
  0
LINE
  8
0
 10
901.125924
 20
352.725554
 30
0.0
 11
899.125924
 21
352.725554
 31
0.0
  0
LINE
  8
0
 10
898.77237
 20
353.579108
 30
0.0
 11
900.665263
 21
355.472001
 31
0.0
  0
LINE
  8
0
 10
903.225924
 20
354.411341
 30
0.0
 11
903.225924
 21
350.625554
 31
0.0
  0
LINE
  8
0
 10
901.625924
 20
354.735605
 30
0.0
 11
901.625924
 21
350.725554
 31
0.0
  0
LINE
  8
0
 10
907.277395
 20
354.084133
 30
0.0
 11
906.625924
 21
354.735605
 31
0.0
  0
LINE
  8
0
 10
906.77237
 20
353.579108
 30
0.0
 11
907.277395
 21
354.084133
 31
0.0
  0
LINE
  8
0
 10
909.125924
 20
352.725554
 30
0.0
 11
907.125924
 21
352.725554
 31
0.0
  0
LINE
  8
0
 10
907.586584
 20
355.472001
 30
0.0
 11
909.479477
 21
353.579108
 31
0.0
  0
LINE
  8
0
 10
905.025924
 20
350.625554
 30
0.0
 11
905.025924
 21
354.411341
 31
0.0
  0
LINE
  8
0
 10
906.625924
 20
350.725554
 30
0.0
 11
906.625924
 21
354.735605
 31
0.0
  0
LINE
  8
0
 10
841.625924
 20
354.735605
 30
0.0
 11
840.974452
 21
354.084133
 31
0.0
  0
LINE
  8
0
 10
840.974452
 20
354.084133
 30
0.0
 11
841.479477
 21
353.579108
 31
0.0
  0
LINE
  8
0
 10
841.125924
 20
352.725554
 30
0.0
 11
839.125924
 21
352.725554
 31
0.0
  0
LINE
  8
0
 10
838.77237
 20
353.579108
 30
0.0
 11
840.665263
 21
355.472001
 31
0.0
  0
LINE
  8
0
 10
843.225924
 20
354.411341
 30
0.0
 11
843.225924
 21
350.625554
 31
0.0
  0
LINE
  8
0
 10
841.625924
 20
354.735605
 30
0.0
 11
841.625924
 21
350.725554
 31
0.0
  0
LINE
  8
0
 10
847.277395
 20
354.084133
 30
0.0
 11
846.625924
 21
354.735605
 31
0.0
  0
LINE
  8
0
 10
846.77237
 20
353.579108
 30
0.0
 11
847.277395
 21
354.084133
 31
0.0
  0
LINE
  8
0
 10
849.125924
 20
352.725554
 30
0.0
 11
847.125924
 21
352.725554
 31
0.0
  0
LINE
  8
0
 10
847.586584
 20
355.472001
 30
0.0
 11
849.479477
 21
353.579108
 31
0.0
  0
LINE
  8
0
 10
845.025924
 20
350.625554
 30
0.0
 11
845.025924
 21
354.411341
 31
0.0
  0
LINE
  8
0
 10
846.625924
 20
350.725554
 30
0.0
 11
846.625924
 21
354.735605
 31
0.0
  0
LINE
  8
0
 10
813.425924
 20
349.725554
 30
0.0
 11
840.625924
 21
349.725554
 31
0.0
  0
LINE
  8
0
 10
847.625924
 20
349.725554
 30
0.0
 11
870.625924
 21
349.725554
 31
0.0
  0
LINE
  8
0
 10
877.625924
 20
349.725554
 30
0.0
 11
900.625924
 21
349.725554
 31
0.0
  0
LINE
  8
0
 10
907.625924
 20
349.725554
 30
0.0
 11
934.825924
 21
349.725554
 31
0.0
  0
LINE
  8
0
 10
927.428374
 20
402.025554
 30
0.0
 11
927.325924
 21
402.025554
 31
0.0
  0
LINE
  8
0
 10
927.225924
 20
403.425554
 30
0.0
 11
929.208695
 21
403.425554
 31
0.0
  0
LINE
  8
0
 10
927.428374
 20
402.025554
 30
0.0
 11
929.455553
 21
402.025554
 31
0.0
  0
LINE
  8
0
 10
820.925924
 20
402.025554
 30
0.0
 11
817.025924
 21
402.025554
 31
0.0
  0
LINE
  8
0
 10
816.525924
 20
401.525554
 30
0.0
 11
816.525924
 21
399.325554
 31
0.0
  0
ARC
  8
0
 10
879.125924
 20
353.225554
 30
0.0
 40
0.5
 50
270.0
 51
0.0
  0
ARC
  8
0
 10
869.125924
 20
353.225554
 30
0.0
 40
0.5
 50
135.0
 51
180.0
  0
ARC
  8
0
 10
871.125924
 20
353.225554
 30
0.0
 40
0.5
 50
270.0
 51
45.0
  0
ARC
  8
0
 10
869.125924
 20
353.225554
 30
0.0
 40
0.5
 50
180.0
 51
270.0
  0
ARC
  8
0
 10
871.725924
 20
354.411341
 30
0.0
 40
1.5
 50
0.0
 51
135.0
  0
ARC
  8
0
 10
877.125924
 20
353.225554
 30
0.0
 40
0.5
 50
135.0
 51
270.0
  0
ARC
  8
0
 10
879.125924
 20
353.225554
 30
0.0
 40
0.5
 50
0.0
 51
45.0
  0
ARC
  8
0
 10
876.525924
 20
354.411341
 30
0.0
 40
1.5
 50
45.0
 51
180.0
  0
ARC
  8
0
 10
909.125924
 20
353.225554
 30
0.0
 40
0.5
 50
270.0
 51
0.0
  0
ARC
  8
0
 10
899.125924
 20
353.225554
 30
0.0
 40
0.5
 50
135.0
 51
180.0
  0
ARC
  8
0
 10
901.125924
 20
353.225554
 30
0.0
 40
0.5
 50
270.0
 51
45.0
  0
ARC
  8
0
 10
899.125924
 20
353.225554
 30
0.0
 40
0.5
 50
180.0
 51
270.0
  0
ARC
  8
0
 10
901.725924
 20
354.411341
 30
0.0
 40
1.5
 50
0.0
 51
135.0
  0
ARC
  8
0
 10
907.125924
 20
353.225554
 30
0.0
 40
0.5
 50
135.0
 51
270.0
  0
ARC
  8
0
 10
909.125924
 20
353.225554
 30
0.0
 40
0.5
 50
0.0
 51
45.0
  0
ARC
  8
0
 10
906.525924
 20
354.411341
 30
0.0
 40
1.5
 50
45.0
 51
180.0
  0
ARC
  8
0
 10
849.125924
 20
353.225554
 30
0.0
 40
0.5
 50
270.0
 51
0.0
  0
ARC
  8
0
 10
839.125924
 20
353.225554
 30
0.0
 40
0.5
 50
135.0
 51
180.0
  0
ARC
  8
0
 10
841.125924
 20
353.225554
 30
0.0
 40
0.5
 50
270.0
 51
45.0
  0
ARC
  8
0
 10
839.125924
 20
353.225554
 30
0.0
 40
0.5
 50
180.0
 51
270.0
  0
ARC
  8
0
 10
841.725924
 20
354.411341
 30
0.0
 40
1.5
 50
0.0
 51
135.0
  0
ARC
  8
0
 10
847.125924
 20
353.225554
 30
0.0
 40
0.5
 50
135.0
 51
270.0
  0
ARC
  8
0
 10
849.125924
 20
353.225554
 30
0.0
 40
0.5
 50
0.0
 51
45.0
  0
ARC
  8
0
 10
846.525924
 20
354.411341
 30
0.0
 40
1.5
 50
45.0
 51
180.0
  0
ARC
  8
0
 10
934.825924
 20
351.725554
 30
0.0
 40
2.0
 50
270.0
 51
0.0
  0
ARC
  8
0
 10
877.625924
 20
350.725554
 30
0.0
 40
1.0
 50
180.0
 51
270.0
  0
ARC
  8
0
 10
870.625924
 20
350.725554
 30
0.0
 40
1.0
 50
270.0
 51
0.0
  0
ARC
  8
0
 10
874.125924
 20
350.625554
 30
0.0
 40
0.9
 50
180.0
 51
0.0
  0
ARC
  8
0
 10
931.225924
 20
399.325554
 30
0.0
 40
0.5
 50
270.0
 51
0.0
  0
ARC
  8
0
 10
931.225924
 20
401.525554
 30
0.0
 40
0.5
 50
0.0
 51
90.0
  0
ARC
  8
0
 10
931.225924
 20
403.925554
 30
0.0
 40
0.5
 50
270.0
 51
0.0
  0
ARC
  8
0
 10
932.225924
 20
404.925554
 30
0.0
 40
0.5
 50
90.0
 51
180.0
  0
ARC
  8
0
 10
926.425924
 20
398.425554
 30
0.0
 40
1.0
 50
180.0
 51
270.0
  0
ARC
  8
0
 10
926.425924
 20
402.425554
 30
0.0
 40
1.0
 50
90.0
 51
180.0
  0
ARC
  8
0
 10
933.925924
 20
401.925554
 30
0.0
 40
3.5
 50
0.0
 51
90.0
  0
ARC
  8
0
 10
933.925924
 20
401.925554
 30
0.0
 40
2.1
 50
0.0
 51
90.0
  0
ARC
  8
0
 10
933.625924
 20
403.525554
 30
0.0
 40
0.5
 50
90.0
 51
180.0
  0
ARC
  8
0
 10
936.725924
 20
401.325554
 30
0.0
 40
0.7
 50
270.0
 51
0.0
  0
ARC
  8
0
 10
936.725924
 20
401.325554
 30
0.0
 40
0.7
 50
180.0
 51
270.0
  0
ARC
  8
0
 10
813.425924
 20
351.725554
 30
0.0
 40
2.0
 50
180.0
 51
270.0
  0
ARC
  8
0
 10
817.025924
 20
399.325554
 30
0.0
 40
0.5
 50
180.0
 51
270.0
  0
ARC
  8
0
 10
817.025924
 20
403.925554
 30
0.0
 40
0.5
 50
180.0
 51
270.0
  0
ARC
  8
0
 10
816.025924
 20
404.925554
 30
0.0
 40
0.5
 50
0.0
 51
90.0
  0
ARC
  8
0
 10
821.825924
 20
398.425554
 30
0.0
 40
1.0
 50
270.0
 51
0.0
  0
ARC
  8
0
 10
821.825924
 20
402.425554
 30
0.0
 40
1.0
 50
0.0
 51
90.0
  0
ARC
  8
0
 10
814.325924
 20
401.925554
 30
0.0
 40
3.5
 50
90.0
 51
180.0
  0
ARC
  8
0
 10
814.325924
 20
401.925554
 30
0.0
 40
2.1
 50
90.0
 51
180.0
  0
ARC
  8
0
 10
814.625924
 20
403.525554
 30
0.0
 40
0.5
 50
0.0
 51
90.0
  0
ARC
  8
0
 10
811.525924
 20
401.325554
 30
0.0
 40
0.7
 50
180.0
 51
270.0
  0
ARC
  8
0
 10
811.525924
 20
401.325554
 30
0.0
 40
0.7
 50
270.0
 51
0.0
  0
ARC
  8
0
 10
927.325924
 20
401.525554
 30
0.0
 40
0.5
 50
90.0
 51
180.0
  0
ARC
  8
0
 10
927.325924
 20
399.325554
 30
0.0
 40
0.5
 50
180.0
 51
270.0
  0
ARC
  8
0
 10
820.925924
 20
401.525554
 30
0.0
 40
0.5
 50
0.0
 51
90.0
  0
ARC
  8
0
 10
820.925924
 20
399.325554
 30
0.0
 40
0.5
 50
270.0
 51
0.0
  0
ARC
  8
0
 10
937.125924
 20
394.770854
 30
0.0
 40
2.0
 50
0.0
 51
60.0
  0
ARC
  8
0
 10
934.125924
 20
399.967006
 30
0.0
 40
1.0
 50
180.0
 51
240.0
  0
ARC
  8
0
 10
811.125924
 20
394.770854
 30
0.0
 40
2.0
 50
120.0
 51
180.0
  0
ARC
  8
0
 10
814.125924
 20
399.967006
 30
0.0
 40
1.0
 50
300.0
 51
0.0
  0
ARC
  8
0
 10
934.825924
 20
393.442948
 30
0.0
 40
2.0
 50
0.0
 51
60.0
  0
ARC
  8
0
 10
813.425924
 20
393.442948
 30
0.0
 40
2.0
 50
120.0
 51
180.0
  0
ARC
  8
0
 10
811.125924
 20
349.425554
 30
0.0
 40
2.0
 50
180.0
 51
270.0
  0
ARC
  8
0
 10
937.125924
 20
349.425554
 30
0.0
 40
2.0
 50
270.0
 51
0.0
  0
ARC
  8
0
 10
907.625924
 20
350.725554
 30
0.0
 40
1.0
 50
180.0
 51
270.0
  0
ARC
  8
0
 10
900.625924
 20
350.725554
 30
0.0
 40
1.0
 50
270.0
 51
0.0
  0
ARC
  8
0
 10
904.125924
 20
350.625554
 30
0.0
 40
0.9
 50
180.0
 51
0.0
  0
ARC
  8
0
 10
847.625924
 20
350.725554
 30
0.0
 40
1.0
 50
180.0
 51
270.0
  0
ARC
  8
0
 10
840.625924
 20
350.725554
 30
0.0
 40
1.0
 50
270.0
 51
0.0
  0
ARC
  8
0
 10
844.125924
 20
350.625554
 30
0.0
 40
0.9
 50
180.0
 51
0.0
  0
ARC
  8
0
 10
817.025924
 20
401.525554
 30
0.0
 40
0.5
 50
90.0
 51
180.0
  0
LINE
  8
0
 10
937.125924
 20
347.425554
 30
0.0
 11
937.126923
 21
329.426887
 31
0.0
  0
LINE
  8
0
 10
811.125924
 20
347.425554
 30
0.0
 11
811.125924
 21
329.425554
 31
0.0
  0
LINE
  8
0
 10
938.405144
 20
329.425554
 30
0.0
 11
811.681372
 21
329.425554
 31
0.0
  0
LINE
  8
0
 10
811.681372
 20
329.425554
 30
0.0
 11
789.681372
 21
329.425554
 31
0.0
  0
LINE
  8
0
 10
937.681372
 20
329.425554
 30
0.0
 11
959.681372
 21
329.425554
 31
0.0
  0
LINE
  8
0
 10
795.770584
 20
309.425554
 30
0.0
 11
789.681372
 21
315.514767
 31
0.0
  0
LINE
  8
0
 10
802.841652
 20
309.425554
 30
0.0
 11
789.681372
 21
322.585834
 31
0.0
  0
LINE
  8
0
 10
809.91272
 20
309.425554
 30
0.0
 11
789.91272
 21
329.425554
 31
0.0
  0
LINE
  8
0
 10
816.983788
 20
309.425554
 30
0.0
 11
796.983788
 21
329.425554
 31
0.0
  0
LINE
  8
0
 10
824.054856
 20
309.425554
 30
0.0
 11
804.054856
 21
329.425554
 31
0.0
  0
LINE
  8
0
 10
831.125924
 20
309.425554
 30
0.0
 11
811.125924
 21
329.425554
 31
0.0
  0
LINE
  8
0
 10
838.196991
 20
309.425554
 30
0.0
 11
818.196991
 21
329.425554
 31
0.0
  0
LINE
  8
0
 10
845.268059
 20
309.425554
 30
0.0
 11
825.268059
 21
329.425554
 31
0.0
  0
LINE
  8
0
 10
852.339127
 20
309.425554
 30
0.0
 11
832.339127
 21
329.425554
 31
0.0
  0
LINE
  8
0
 10
859.410195
 20
309.425554
 30
0.0
 11
839.410195
 21
329.425554
 31
0.0
  0
LINE
  8
0
 10
866.481263
 20
309.425554
 30
0.0
 11
846.481263
 21
329.425554
 31
0.0
  0
LINE
  8
0
 10
873.55233
 20
309.425554
 30
0.0
 11
853.55233
 21
329.425554
 31
0.0
  0
LINE
  8
0
 10
880.623398
 20
309.425554
 30
0.0
 11
860.623398
 21
329.425554
 31
0.0
  0
LINE
  8
0
 10
887.694466
 20
309.425554
 30
0.0
 11
867.694466
 21
329.425554
 31
0.0
  0
LINE
  8
0
 10
894.765534
 20
309.425554
 30
0.0
 11
874.765534
 21
329.425554
 31
0.0
  0
LINE
  8
0
 10
901.836602
 20
309.425554
 30
0.0
 11
881.836602
 21
329.425554
 31
0.0
  0
LINE
  8
0
 10
908.907669
 20
309.425554
 30
0.0
 11
888.907669
 21
329.425554
 31
0.0
  0
LINE
  8
0
 10
915.978737
 20
309.425554
 30
0.0
 11
895.978737
 21
329.425554
 31
0.0
  0
LINE
  8
0
 10
923.049805
 20
309.425554
 30
0.0
 11
903.049805
 21
329.425554
 31
0.0
  0
LINE
  8
0
 10
930.120873
 20
309.425554
 30
0.0
 11
910.120873
 21
329.425554
 31
0.0
  0
LINE
  8
0
 10
937.191941
 20
309.425554
 30
0.0
 11
917.191941
 21
329.425554
 31
0.0
  0
LINE
  8
0
 10
944.263008
 20
309.425554
 30
0.0
 11
924.263008
 21
329.425554
 31
0.0
  0
LINE
  8
0
 10
951.334076
 20
309.425554
 30
0.0
 11
931.334076
 21
329.425554
 31
0.0
  0
LINE
  8
0
 10
958.405144
 20
309.425554
 30
0.0
 11
938.405144
 21
329.425554
 31
0.0
  0
LINE
  8
0
 10
959.681372
 20
315.220394
 30
0.0
 11
945.476212
 21
329.425554
 31
0.0
  0
LINE
  8
0
 10
959.681372
 20
322.291462
 30
0.0
 11
952.54728
 21
329.425554
 31
0.0
  0
LINE
  8
0
 10
959.681372
 20
329.36253
 30
0.0
 11
959.618348
 21
329.425554
 31
0.0
  0
LINE
  8
0
 10
937.425924
 20
400.900683
 30
0.0
 11
938.125924
 21
399.688247
 31
0.0
  0
LINE
  8
0
 10
938.125924
 20
399.688247
 30
0.0
 11
938.125924
 21
398.925554
 31
0.0
  0
LINE
  8
0
 10
937.075924
 20
398.319336
 30
0.0
 11
936.925924
 21
398.405939
 31
0.0
  0
LINE
  8
0
 10
936.925924
 20
398.752349
 30
0.0
 11
937.798167
 21
399.255939
 31
0.0
  0
LINE
  8
0
 10
937.298167
 20
400.121964
 30
0.0
 11
935.825924
 21
399.271964
 31
0.0
  0
LINE
  8
0
 10
939.125924
 20
398.925554
 30
0.0
 11
939.125924
 21
405.425554
 31
0.0
  0
LINE
  8
0
 10
937.125924
 20
407.425554
 30
0.0
 11
874.125924
 21
407.425554
 31
0.0
  0
LINE
  8
0
 10
874.125924
 20
405.725554
 30
0.0
 11
935.925924
 21
405.725554
 31
0.0
  0
LINE
  8
0
 10
937.425924
 20
404.225554
 30
0.0
 11
937.425924
 21
400.900683
 31
0.0
  0
LINE
  8
0
 10
810.125924
 20
399.688247
 30
0.0
 11
810.825924
 21
400.900683
 31
0.0
  0
LINE
  8
0
 10
810.125924
 20
398.925554
 30
0.0
 11
810.125924
 21
399.688247
 31
0.0
  0
LINE
  8
0
 10
811.325924
 20
398.405939
 30
0.0
 11
811.175924
 21
398.319336
 31
0.0
  0
LINE
  8
0
 10
810.45368
 20
399.255939
 30
0.0
 11
811.325924
 21
398.752349
 31
0.0
  0
LINE
  8
0
 10
812.425924
 20
399.271964
 30
0.0
 11
810.95368
 21
400.121964
 31
0.0
  0
LINE
  8
0
 10
811.675924
 20
397.453311
 30
0.0
 11
812.425924
 21
397.886324
 31
0.0
  0
LINE
  8
0
 10
809.125924
 20
405.425554
 30
0.0
 11
809.125924
 21
398.925554
 31
0.0
  0
LINE
  8
0
 10
874.125924
 20
407.425554
 30
0.0
 11
811.125924
 21
407.425554
 31
0.0
  0
LINE
  8
0
 10
812.325924
 20
405.725554
 30
0.0
 11
874.125924
 21
405.725554
 31
0.0
  0
LINE
  8
0
 10
810.825924
 20
400.900683
 30
0.0
 11
810.825924
 21
404.225554
 31
0.0
  0
ARC
  8
0
 10
937.425924
 20
398.925554
 30
0.0
 40
0.7
 50
240.0
 51
0.0
  0
ARC
  8
0
 10
937.025924
 20
398.579144
 30
0.0
 40
0.2
 50
120.0
 51
240.0
  0
ARC
  8
0
 10
937.548167
 20
399.688952
 30
0.0
 40
0.5
 50
300.0
 51
120.0
  0
ARC
  8
0
 10
936.225924
 20
398.579144
 30
0.0
 40
0.8
 50
120.0
 51
240.0
  0
ARC
  8
0
 10
937.425924
 20
398.925554
 30
0.0
 40
1.7
 50
240.0
 51
0.0
  0
ARC
  8
0
 10
810.825924
 20
398.925554
 30
0.0
 40
0.7
 50
180.0
 51
300.0
  0
ARC
  8
0
 10
811.225924
 20
398.579144
 30
0.0
 40
0.2
 50
300.0
 51
60.0
  0
ARC
  8
0
 10
810.70368
 20
399.688952
 30
0.0
 40
0.5
 50
60.0
 51
240.0
  0
ARC
  8
0
 10
812.025924
 20
398.579144
 30
0.0
 40
0.8
 50
300.0
 51
60.0
  0
ARC
  8
0
 10
810.825924
 20
398.925554
 30
0.0
 40
1.7
 50
180.0
 51
300.0
  0
ARC
  8
0
 10
937.125924
 20
405.425554
 30
0.0
 40
2.0
 50
0.0
 51
90.0
  0
ARC
  8
0
 10
935.925924
 20
404.225554
 30
0.0
 40
1.5
 50
0.0
 51
90.0
  0
ARC
  8
0
 10
811.125924
 20
405.425554
 30
0.0
 40
2.0
 50
90.0
 51
180.0
  0
ARC
  8
0
 10
812.325924
 20
404.225554
 30
0.0
 40
1.5
 50
90.0
 51
180.0
  0
LINE
  8
0
 10
905.019002
 20
395.543507
 30
0.0
 11
905.018891
 21
395.543699
 31
0.0
  0
LINE
  8
0
 10
905.018891
 20
395.543699
 30
0.0
 11
905.019002
 21
395.543507
 31
0.0
  0
LINE
  8
0
 10
906.67123
 20
392.415617
 30
0.0
 11
906.67123
 21
359.537882
 31
0.0
  0
LINE
  8
0
 10
906.67123
 20
359.537882
 30
0.0
 11
906.67123
 21
392.415617
 31
0.0
  0
LINE
  8
0
 10
905.174431
 20
363.692766
 30
0.0
 11
905.174431
 21
358.918106
 31
0.0
  0
LINE
  8
0
 10
905.174431
 20
358.918106
 30
0.0
 11
905.174431
 21
363.692766
 31
0.0
  0
LINE
  8
0
 10
903.18042
 20
363.692766
 30
0.0
 11
903.169004
 21
358.918106
 31
0.0
  0
LINE
  8
0
 10
903.169004
 20
358.918106
 30
0.0
 11
903.18042
 21
363.692766
 31
0.0
  0
LINE
  8
0
 10
901.683621
 20
392.415617
 30
0.0
 11
901.698857
 21
359.537882
 31
0.0
  0
LINE
  8
0
 10
901.698857
 20
359.537882
 30
0.0
 11
901.683621
 21
392.415617
 31
0.0
  0
LINE
  8
0
 10
900.849407
 20
357.774301
 30
0.0
 11
897.084068
 21
354.008962
 31
0.0
  0
LINE
  8
0
 10
897.084068
 20
354.008962
 30
0.0
 11
900.849407
 21
357.774301
 31
0.0
  0
LINE
  8
0
 10
896.792456
 20
353.302775
 30
0.0
 11
896.792456
 21
350.723553
 31
0.0
  0
LINE
  8
0
 10
896.792456
 20
350.723553
 30
0.0
 11
896.792456
 21
353.302775
 31
0.0
  0
LINE
  8
0
 10
898.828579
 20
352.790466
 30
0.0
 11
899.692094
 21
351.926753
 31
0.0
  0
LINE
  8
0
 10
899.692094
 20
351.926753
 30
0.0
 11
898.828579
 21
352.790466
 31
0.0
  0
LINE
  8
0
 10
898.12418
 20
352.084081
 30
0.0
 11
898.985907
 21
351.222552
 31
0.0
  0
LINE
  8
0
 10
898.985907
 20
351.222552
 30
0.0
 11
898.12418
 21
352.084081
 31
0.0
  0
LINE
  8
0
 10
898.985907
 20
351.222552
 30
0.0
 11
898.486908
 21
350.723553
 31
0.0
  0
LINE
  8
0
 10
898.486908
 20
350.723553
 30
0.0
 11
898.985907
 21
351.222552
 31
0.0
  0
LINE
  8
0
 10
897.790256
 20
350.723553
 30
0.0
 11
898.486908
 21
350.723553
 31
0.0
  0
LINE
  8
0
 10
897.790256
 20
352.596588
 30
0.0
 11
897.790256
 21
350.723553
 31
0.0
  0
LINE
  8
0
 10
897.790256
 20
352.596588
 30
0.0
 11
902.346206
 21
357.154326
 31
0.0
  0
LINE
  8
0
 10
897.790256
 20
350.723553
 30
0.0
 11
897.790256
 21
352.596588
 31
0.0
  0
LINE
  8
0
 10
898.486908
 20
350.723553
 30
0.0
 11
897.790256
 21
350.723553
 31
0.0
  0
LINE
  8
0
 10
897.790256
 20
349.725554
 30
0.0
 11
898.901483
 21
349.725554
 31
0.0
  0
LINE
  8
0
 10
898.901483
 20
349.725554
 30
0.0
 11
897.790256
 21
349.725554
 31
0.0
  0
LINE
  8
0
 10
899.692094
 20
350.516166
 30
0.0
 11
898.901483
 21
349.725554
 31
0.0
  0
LINE
  8
0
 10
898.901483
 20
349.725554
 30
0.0
 11
899.692094
 21
350.516166
 31
0.0
  0
LINE
  8
0
 10
909.350372
 20
349.725554
 30
0.0
 11
910.4614
 21
349.725554
 31
0.0
  0
LINE
  8
0
 10
910.4614
 20
349.725554
 30
0.0
 11
909.350372
 21
349.725554
 31
0.0
  0
LINE
  8
0
 10
907.402447
 20
357.774301
 30
0.0
 11
911.167587
 21
354.008962
 31
0.0
  0
LINE
  8
0
 10
911.167587
 20
354.008962
 30
0.0
 11
907.402447
 21
357.774301
 31
0.0
  0
LINE
  8
0
 10
911.459398
 20
350.723553
 30
0.0
 11
911.459398
 21
353.302775
 31
0.0
  0
LINE
  8
0
 10
911.459398
 20
353.302775
 30
0.0
 11
911.459398
 21
350.723553
 31
0.0
  0
LINE
  8
0
 10
905.905449
 20
357.154326
 30
0.0
 11
910.4614
 21
352.596588
 31
0.0
  0
LINE
  8
0
 10
910.4614
 20
352.596588
 30
0.0
 11
905.905449
 21
357.154326
 31
0.0
  0
LINE
  8
0
 10
910.4614
 20
350.723553
 30
0.0
 11
910.4614
 21
352.596588
 31
0.0
  0
LINE
  8
0
 10
909.764748
 20
350.723553
 30
0.0
 11
910.4614
 21
350.723553
 31
0.0
  0
LINE
  8
0
 10
909.265947
 20
351.222552
 30
0.0
 11
909.764748
 21
350.723553
 31
0.0
  0
LINE
  8
0
 10
909.764748
 20
350.723553
 30
0.0
 11
909.265947
 21
351.222552
 31
0.0
  0
LINE
  8
0
 10
910.4614
 20
350.723553
 30
0.0
 11
909.764748
 21
350.723553
 31
0.0
  0
LINE
  8
0
 10
910.4614
 20
352.596588
 30
0.0
 11
910.4614
 21
350.723553
 31
0.0
  0
LINE
  8
0
 10
909.265947
 20
351.222552
 30
0.0
 11
910.127476
 21
352.084081
 31
0.0
  0
LINE
  8
0
 10
910.127476
 20
352.084081
 30
0.0
 11
909.265947
 21
351.222552
 31
0.0
  0
LINE
  8
0
 10
910.127476
 20
352.084081
 30
0.0
 11
910.167801
 21
352.130166
 31
0.0
  0
LINE
  8
0
 10
910.167801
 20
352.130166
 30
0.0
 11
910.127476
 21
352.084081
 31
0.0
  0
LINE
  8
0
 10
910.167801
 20
352.130166
 30
0.0
 11
910.202365
 21
352.180027
 31
0.0
  0
LINE
  8
0
 10
910.202365
 20
352.180027
 30
0.0
 11
910.167801
 21
352.130166
 31
0.0
  0
LINE
  8
0
 10
910.202365
 20
352.180027
 30
0.0
 11
910.231169
 21
352.231873
 31
0.0
  0
LINE
  8
0
 10
910.231169
 20
352.231873
 30
0.0
 11
910.202365
 21
352.180027
 31
0.0
  0
LINE
  8
0
 10
910.231169
 20
352.231873
 30
0.0
 11
910.252225
 21
352.289481
 31
0.0
  0
LINE
  8
0
 10
910.252225
 20
352.289481
 30
0.0
 11
910.231169
 21
352.231873
 31
0.0
  0
LINE
  8
0
 10
910.252225
 20
352.289481
 30
0.0
 11
910.265733
 21
352.347088
 31
0.0
  0
LINE
  8
0
 10
910.265733
 20
352.347088
 30
0.0
 11
910.252225
 21
352.289481
 31
0.0
  0
LINE
  8
0
 10
910.265733
 20
352.347088
 30
0.0
 11
910.273481
 21
352.406483
 31
0.0
  0
LINE
  8
0
 10
910.273481
 20
352.406483
 30
0.0
 11
910.265733
 21
352.347088
 31
0.0
  0
LINE
  8
0
 10
910.273481
 20
352.406483
 30
0.0
 11
910.273481
 21
352.468064
 31
0.0
  0
LINE
  8
0
 10
910.273481
 20
352.468064
 30
0.0
 11
910.273481
 21
352.406483
 31
0.0
  0
LINE
  8
0
 10
910.273481
 20
352.468064
 30
0.0
 11
910.265733
 21
352.527459
 31
0.0
  0
LINE
  8
0
 10
910.265733
 20
352.527459
 30
0.0
 11
910.273481
 21
352.468064
 31
0.0
  0
LINE
  8
0
 10
910.265733
 20
352.527459
 30
0.0
 11
910.252225
 21
352.585066
 31
0.0
  0
LINE
  8
0
 10
910.252225
 20
352.585066
 30
0.0
 11
910.265733
 21
352.527459
 31
0.0
  0
LINE
  8
0
 10
910.252225
 20
352.585066
 30
0.0
 11
910.231169
 21
352.642674
 31
0.0
  0
LINE
  8
0
 10
910.231169
 20
352.642674
 30
0.0
 11
910.252225
 21
352.585066
 31
0.0
  0
LINE
  8
0
 10
910.231169
 20
352.642674
 30
0.0
 11
910.202365
 21
352.696308
 31
0.0
  0
LINE
  8
0
 10
910.202365
 20
352.696308
 30
0.0
 11
910.231169
 21
352.642674
 31
0.0
  0
LINE
  8
0
 10
910.202365
 20
352.696308
 30
0.0
 11
910.167801
 21
352.744381
 31
0.0
  0
LINE
  8
0
 10
910.167801
 20
352.744381
 30
0.0
 11
910.202365
 21
352.696308
 31
0.0
  0
LINE
  8
0
 10
910.167801
 20
352.744381
 30
0.0
 11
910.127476
 21
352.790466
 31
0.0
  0
LINE
  8
0
 10
910.127476
 20
352.790466
 30
0.0
 11
910.167801
 21
352.744381
 31
0.0
  0
LINE
  8
0
 10
910.127476
 20
352.790466
 30
0.0
 11
910.083376
 21
352.830593
 31
0.0
  0
LINE
  8
0
 10
910.083376
 20
352.830593
 30
0.0
 11
910.127476
 21
352.790466
 31
0.0
  0
LINE
  8
0
 10
910.083376
 20
352.830593
 30
0.0
 11
910.033516
 21
352.865157
 31
0.0
  0
LINE
  8
0
 10
910.033516
 20
352.865157
 30
0.0
 11
910.083376
 21
352.830593
 31
0.0
  0
LINE
  8
0
 10
910.033516
 20
352.865157
 30
0.0
 11
909.979683
 21
352.892173
 31
0.0
  0
LINE
  8
0
 10
909.979683
 20
352.892173
 30
0.0
 11
910.033516
 21
352.865157
 31
0.0
  0
LINE
  8
0
 10
909.979683
 20
352.892173
 30
0.0
 11
909.924062
 21
352.91323
 31
0.0
  0
LINE
  8
0
 10
909.924062
 20
352.91323
 30
0.0
 11
909.979683
 21
352.892173
 31
0.0
  0
LINE
  8
0
 10
909.924062
 20
352.91323
 30
0.0
 11
909.864667
 21
352.928526
 31
0.0
  0
LINE
  8
0
 10
909.864667
 20
352.928526
 30
0.0
 11
909.924062
 21
352.91323
 31
0.0
  0
LINE
  8
0
 10
909.864667
 20
352.928526
 30
0.0
 11
909.805073
 21
352.936273
 31
0.0
  0
LINE
  8
0
 10
909.805073
 20
352.936273
 30
0.0
 11
909.864667
 21
352.928526
 31
0.0
  0
LINE
  8
0
 10
909.805073
 20
352.936273
 30
0.0
 11
909.745678
 21
352.936273
 31
0.0
  0
LINE
  8
0
 10
909.745678
 20
352.936273
 30
0.0
 11
909.805073
 21
352.936273
 31
0.0
  0
LINE
  8
0
 10
909.745678
 20
352.936273
 30
0.0
 11
909.686084
 21
352.928526
 31
0.0
  0
LINE
  8
0
 10
909.686084
 20
352.928526
 30
0.0
 11
909.745678
 21
352.936273
 31
0.0
  0
LINE
  8
0
 10
909.686084
 20
352.928526
 30
0.0
 11
909.626688
 21
352.91323
 31
0.0
  0
LINE
  8
0
 10
909.626688
 20
352.91323
 30
0.0
 11
909.686084
 21
352.928526
 31
0.0
  0
LINE
  8
0
 10
909.626688
 20
352.91323
 30
0.0
 11
909.571068
 21
352.892173
 31
0.0
  0
LINE
  8
0
 10
909.571068
 20
352.892173
 30
0.0
 11
909.626688
 21
352.91323
 31
0.0
  0
LINE
  8
0
 10
909.571068
 20
352.892173
 30
0.0
 11
909.517234
 21
352.865157
 31
0.0
  0
LINE
  8
0
 10
909.517234
 20
352.865157
 30
0.0
 11
909.571068
 21
352.892173
 31
0.0
  0
LINE
  8
0
 10
909.517234
 20
352.865157
 30
0.0
 11
909.467374
 21
352.830593
 31
0.0
  0
LINE
  8
0
 10
909.467374
 20
352.830593
 30
0.0
 11
909.517234
 21
352.865157
 31
0.0
  0
LINE
  8
0
 10
908.559561
 20
351.926753
 30
0.0
 11
909.423275
 21
352.790466
 31
0.0
  0
LINE
  8
0
 10
908.500166
 20
351.863385
 30
0.0
 11
908.559561
 21
351.926753
 31
0.0
  0
LINE
  8
0
 10
908.448319
 20
351.794454
 30
0.0
 11
908.500166
 21
351.863385
 31
0.0
  0
LINE
  8
0
 10
908.400247
 20
351.719565
 30
0.0
 11
908.448319
 21
351.794454
 31
0.0
  0
LINE
  8
0
 10
908.361908
 20
351.642689
 30
0.0
 11
908.400247
 21
351.719565
 31
0.0
  0
LINE
  8
0
 10
908.327344
 20
351.562237
 30
0.0
 11
908.361908
 21
351.642689
 31
0.0
  0
LINE
  8
0
 10
908.302513
 20
351.4796
 30
0.0
 11
908.327344
 21
351.562237
 31
0.0
  0
LINE
  8
0
 10
908.283244
 20
351.395175
 30
0.0
 11
908.302513
 21
351.4796
 31
0.0
  0
LINE
  8
0
 10
908.271723
 20
351.308764
 30
0.0
 11
908.283244
 21
351.395175
 31
0.0
  0
LINE
  8
0
 10
908.267948
 20
351.222552
 30
0.0
 11
908.271723
 21
351.308764
 31
0.0
  0
LINE
  8
0
 10
908.271723
 20
351.134154
 30
0.0
 11
908.267948
 21
351.222552
 31
0.0
  0
LINE
  8
0
 10
908.283244
 20
351.047743
 30
0.0
 11
908.271723
 21
351.134154
 31
0.0
  0
LINE
  8
0
 10
908.302513
 20
350.963319
 30
0.0
 11
908.283244
 21
351.047743
 31
0.0
  0
LINE
  8
0
 10
908.327344
 20
350.88088
 30
0.0
 11
908.302513
 21
350.963319
 31
0.0
  0
LINE
  8
0
 10
908.361908
 20
350.80023
 30
0.0
 11
908.327344
 21
350.88088
 31
0.0
  0
LINE
  8
0
 10
908.400247
 20
350.723553
 30
0.0
 11
908.361908
 21
350.80023
 31
0.0
  0
LINE
  8
0
 10
908.448319
 20
350.648663
 30
0.0
 11
908.400247
 21
350.723553
 31
0.0
  0
LINE
  8
0
 10
908.500166
 20
350.579534
 30
0.0
 11
908.448319
 21
350.648663
 31
0.0
  0
LINE
  8
0
 10
908.559561
 20
350.516166
 30
0.0
 11
908.500166
 21
350.579534
 31
0.0
  0
LINE
  8
0
 10
909.350372
 20
349.725554
 30
0.0
 11
908.559561
 21
350.516166
 31
0.0
  0
LINE
  8
0
 10
908.559561
 20
350.516166
 30
0.0
 11
909.350372
 21
349.725554
 31
0.0
  0
LINE
  8
0
 10
908.500166
 20
350.579534
 30
0.0
 11
908.559561
 21
350.516166
 31
0.0
  0
LINE
  8
0
 10
908.448319
 20
350.648663
 30
0.0
 11
908.500166
 21
350.579534
 31
0.0
  0
LINE
  8
0
 10
908.400247
 20
350.723553
 30
0.0
 11
908.448319
 21
350.648663
 31
0.0
  0
LINE
  8
0
 10
908.361908
 20
350.80023
 30
0.0
 11
908.400247
 21
350.723553
 31
0.0
  0
LINE
  8
0
 10
908.327344
 20
350.88088
 30
0.0
 11
908.361908
 21
350.80023
 31
0.0
  0
LINE
  8
0
 10
908.302513
 20
350.963319
 30
0.0
 11
908.327344
 21
350.88088
 31
0.0
  0
LINE
  8
0
 10
908.283244
 20
351.047743
 30
0.0
 11
908.302513
 21
350.963319
 31
0.0
  0
LINE
  8
0
 10
908.271723
 20
351.134154
 30
0.0
 11
908.283244
 21
351.047743
 31
0.0
  0
LINE
  8
0
 10
908.267948
 20
351.222552
 30
0.0
 11
908.271723
 21
351.134154
 31
0.0
  0
LINE
  8
0
 10
908.271723
 20
351.308764
 30
0.0
 11
908.267948
 21
351.222552
 31
0.0
  0
LINE
  8
0
 10
908.283244
 20
351.395175
 30
0.0
 11
908.271723
 21
351.308764
 31
0.0
  0
LINE
  8
0
 10
908.302513
 20
351.4796
 30
0.0
 11
908.283244
 21
351.395175
 31
0.0
  0
LINE
  8
0
 10
908.327344
 20
351.562237
 30
0.0
 11
908.302513
 21
351.4796
 31
0.0
  0
LINE
  8
0
 10
908.361908
 20
351.642689
 30
0.0
 11
908.327344
 21
351.562237
 31
0.0
  0
LINE
  8
0
 10
908.400247
 20
351.719565
 30
0.0
 11
908.361908
 21
351.642689
 31
0.0
  0
LINE
  8
0
 10
908.448319
 20
351.794454
 30
0.0
 11
908.400247
 21
351.719565
 31
0.0
  0
LINE
  8
0
 10
908.500166
 20
351.863385
 30
0.0
 11
908.448319
 21
351.794454
 31
0.0
  0
LINE
  8
0
 10
908.559561
 20
351.926753
 30
0.0
 11
908.500166
 21
351.863385
 31
0.0
  0
LINE
  8
0
 10
909.423275
 20
352.790466
 30
0.0
 11
908.559561
 21
351.926753
 31
0.0
  0
LINE
  8
0
 10
909.467374
 20
352.830593
 30
0.0
 11
909.423275
 21
352.790466
 31
0.0
  0
LINE
  8
0
 10
909.423275
 20
352.790466
 30
0.0
 11
909.467374
 21
352.830593
 31
0.0
  0
LINE
  8
0
 10
905.174431
 20
358.918106
 30
0.0
 11
905.178205
 21
358.787595
 31
0.0
  0
LINE
  8
0
 10
905.178205
 20
358.787595
 30
0.0
 11
905.174431
 21
358.918106
 31
0.0
  0
LINE
  8
0
 10
905.178205
 20
358.787595
 30
0.0
 11
905.18774
 21
358.657085
 31
0.0
  0
LINE
  8
0
 10
905.18774
 20
358.657085
 30
0.0
 11
905.178205
 21
358.787595
 31
0.0
  0
LINE
  8
0
 10
905.18774
 20
358.657085
 30
0.0
 11
905.205023
 21
358.528362
 31
0.0
  0
LINE
  8
0
 10
905.205023
 20
358.528362
 30
0.0
 11
905.18774
 21
358.657085
 31
0.0
  0
LINE
  8
0
 10
905.205023
 20
358.528362
 30
0.0
 11
905.230052
 21
358.399838
 31
0.0
  0
LINE
  8
0
 10
905.230052
 20
358.399838
 30
0.0
 11
905.205023
 21
358.528362
 31
0.0
  0
LINE
  8
0
 10
905.230052
 20
358.399838
 30
0.0
 11
905.260643
 21
358.273102
 31
0.0
  0
LINE
  8
0
 10
905.260643
 20
358.273102
 30
0.0
 11
905.230052
 21
358.399838
 31
0.0
  0
LINE
  8
0
 10
905.260643
 20
358.273102
 30
0.0
 11
905.297194
 21
358.146564
 31
0.0
  0
LINE
  8
0
 10
905.297194
 20
358.146564
 30
0.0
 11
905.260643
 21
358.273102
 31
0.0
  0
LINE
  8
0
 10
905.297194
 20
358.146564
 30
0.0
 11
905.341294
 21
358.023801
 31
0.0
  0
LINE
  8
0
 10
905.341294
 20
358.023801
 30
0.0
 11
905.297194
 21
358.146564
 31
0.0
  0
LINE
  8
0
 10
905.341294
 20
358.023801
 30
0.0
 11
905.391154
 21
357.902825
 31
0.0
  0
LINE
  8
0
 10
905.391154
 20
357.902825
 30
0.0
 11
905.341294
 21
358.023801
 31
0.0
  0
LINE
  8
0
 10
905.391154
 20
357.902825
 30
0.0
 11
905.446775
 21
357.785823
 31
0.0
  0
LINE
  8
0
 10
905.446775
 20
357.785823
 30
0.0
 11
905.391154
 21
357.902825
 31
0.0
  0
LINE
  8
0
 10
905.446775
 20
357.785823
 30
0.0
 11
905.508355
 21
357.670608
 31
0.0
  0
LINE
  8
0
 10
905.508355
 20
357.670608
 30
0.0
 11
905.446775
 21
357.785823
 31
0.0
  0
LINE
  8
0
 10
905.508355
 20
357.670608
 30
0.0
 11
905.577286
 21
357.559366
 31
0.0
  0
LINE
  8
0
 10
905.577286
 20
357.559366
 30
0.0
 11
905.508355
 21
357.670608
 31
0.0
  0
LINE
  8
0
 10
905.577286
 20
357.559366
 30
0.0
 11
905.652175
 21
357.451898
 31
0.0
  0
LINE
  8
0
 10
905.652175
 20
357.451898
 30
0.0
 11
905.577286
 21
357.559366
 31
0.0
  0
LINE
  8
0
 10
905.652175
 20
357.451898
 30
0.0
 11
905.730839
 21
357.348205
 31
0.0
  0
LINE
  8
0
 10
905.730839
 20
357.348205
 30
0.0
 11
905.652175
 21
357.451898
 31
0.0
  0
LINE
  8
0
 10
905.730839
 20
357.348205
 30
0.0
 11
905.815264
 21
357.248485
 31
0.0
  0
LINE
  8
0
 10
905.815264
 20
357.248485
 30
0.0
 11
905.730839
 21
357.348205
 31
0.0
  0
LINE
  8
0
 10
905.815264
 20
357.248485
 30
0.0
 11
905.905449
 21
357.154326
 31
0.0
  0
LINE
  8
0
 10
905.905449
 20
357.154326
 30
0.0
 11
905.815264
 21
357.248485
 31
0.0
  0
LINE
  8
0
 10
902.424127
 20
357.248485
 30
0.0
 11
902.346206
 21
357.154326
 31
0.0
  0
LINE
  8
0
 10
902.504744
 20
357.348205
 30
0.0
 11
902.424127
 21
357.248485
 31
0.0
  0
LINE
  8
0
 10
902.581821
 20
357.451898
 30
0.0
 11
902.504744
 21
357.348205
 31
0.0
  0
LINE
  8
0
 10
902.655071
 20
357.559366
 30
0.0
 11
902.581821
 21
357.451898
 31
0.0
  0
LINE
  8
0
 10
902.724356
 20
357.670608
 30
0.0
 11
902.655071
 21
357.559366
 31
0.0
  0
LINE
  8
0
 10
902.789627
 20
357.785823
 30
0.0
 11
902.724356
 21
357.670608
 31
0.0
  0
LINE
  8
0
 10
902.849615
 20
357.902825
 30
0.0
 11
902.789627
 21
357.785823
 31
0.0
  0
LINE
  8
0
 10
902.905384
 20
358.023801
 30
0.0
 11
902.849615
 21
357.902825
 31
0.0
  0
LINE
  8
0
 10
902.955842
 20
358.146564
 30
0.0
 11
902.905384
 21
358.023801
 31
0.0
  0
LINE
  8
0
 10
903.001711
 20
358.273102
 30
0.0
 11
902.955842
 21
358.146564
 31
0.0
  0
LINE
  8
0
 10
903.041683
 20
358.399838
 30
0.0
 11
903.001711
 21
358.273102
 31
0.0
  0
LINE
  8
0
 10
903.076357
 20
358.528362
 30
0.0
 11
903.041683
 21
358.399838
 31
0.0
  0
LINE
  8
0
 10
903.105366
 20
358.657085
 30
0.0
 11
903.076357
 21
358.528362
 31
0.0
  0
LINE
  8
0
 10
903.136408
 20
358.787595
 30
0.0
 11
903.105366
 21
358.657085
 31
0.0
  0
LINE
  8
0
 10
903.169004
 20
358.918106
 30
0.0
 11
903.136408
 21
358.787595
 31
0.0
  0
LINE
  8
0
 10
903.136408
 20
358.787595
 30
0.0
 11
903.169004
 21
358.918106
 31
0.0
  0
LINE
  8
0
 10
903.105366
 20
358.657085
 30
0.0
 11
903.136408
 21
358.787595
 31
0.0
  0
LINE
  8
0
 10
903.076357
 20
358.528362
 30
0.0
 11
903.105366
 21
358.657085
 31
0.0
  0
LINE
  8
0
 10
903.041683
 20
358.399838
 30
0.0
 11
903.076357
 21
358.528362
 31
0.0
  0
LINE
  8
0
 10
903.001711
 20
358.273102
 30
0.0
 11
903.041683
 21
358.399838
 31
0.0
  0
LINE
  8
0
 10
902.955842
 20
358.146564
 30
0.0
 11
903.001711
 21
358.273102
 31
0.0
  0
LINE
  8
0
 10
902.905384
 20
358.023801
 30
0.0
 11
902.955842
 21
358.146564
 31
0.0
  0
LINE
  8
0
 10
902.849615
 20
357.902825
 30
0.0
 11
902.905384
 21
358.023801
 31
0.0
  0
LINE
  8
0
 10
902.789627
 20
357.785823
 30
0.0
 11
902.849615
 21
357.902825
 31
0.0
  0
LINE
  8
0
 10
902.724356
 20
357.670608
 30
0.0
 11
902.789627
 21
357.785823
 31
0.0
  0
LINE
  8
0
 10
902.655071
 20
357.559366
 30
0.0
 11
902.724356
 21
357.670608
 31
0.0
  0
LINE
  8
0
 10
902.581821
 20
357.451898
 30
0.0
 11
902.655071
 21
357.559366
 31
0.0
  0
LINE
  8
0
 10
902.504744
 20
357.348205
 30
0.0
 11
902.581821
 21
357.451898
 31
0.0
  0
LINE
  8
0
 10
902.424127
 20
357.248485
 30
0.0
 11
902.504744
 21
357.348205
 31
0.0
  0
LINE
  8
0
 10
902.346206
 20
357.154326
 30
0.0
 11
902.424127
 21
357.248485
 31
0.0
  0
LINE
  8
0
 10
898.828579
 20
352.790466
 30
0.0
 11
898.78448
 21
352.830593
 31
0.0
  0
LINE
  8
0
 10
898.78448
 20
352.830593
 30
0.0
 11
898.828579
 21
352.790466
 31
0.0
  0
LINE
  8
0
 10
898.78448
 20
352.830593
 30
0.0
 11
898.73462
 21
352.865157
 31
0.0
  0
LINE
  8
0
 10
898.73462
 20
352.865157
 30
0.0
 11
898.78448
 21
352.830593
 31
0.0
  0
LINE
  8
0
 10
898.73462
 20
352.865157
 30
0.0
 11
898.680787
 21
352.892173
 31
0.0
  0
LINE
  8
0
 10
898.680787
 20
352.892173
 30
0.0
 11
898.73462
 21
352.865157
 31
0.0
  0
LINE
  8
0
 10
898.680787
 20
352.892173
 30
0.0
 11
898.625166
 21
352.91323
 31
0.0
  0
LINE
  8
0
 10
898.625166
 20
352.91323
 30
0.0
 11
898.680787
 21
352.892173
 31
0.0
  0
LINE
  8
0
 10
898.625166
 20
352.91323
 30
0.0
 11
898.565572
 21
352.928526
 31
0.0
  0
LINE
  8
0
 10
898.565572
 20
352.928526
 30
0.0
 11
898.625166
 21
352.91323
 31
0.0
  0
LINE
  8
0
 10
898.565572
 20
352.928526
 30
0.0
 11
898.506177
 21
352.936273
 31
0.0
  0
LINE
  8
0
 10
898.506177
 20
352.936273
 30
0.0
 11
898.565572
 21
352.928526
 31
0.0
  0
LINE
  8
0
 10
898.506177
 20
352.936273
 30
0.0
 11
898.446583
 21
352.936273
 31
0.0
  0
LINE
  8
0
 10
898.446583
 20
352.936273
 30
0.0
 11
898.506177
 21
352.936273
 31
0.0
  0
LINE
  8
0
 10
898.446583
 20
352.936273
 30
0.0
 11
898.387187
 21
352.928526
 31
0.0
  0
LINE
  8
0
 10
898.387187
 20
352.928526
 30
0.0
 11
898.446583
 21
352.936273
 31
0.0
  0
LINE
  8
0
 10
898.387187
 20
352.928526
 30
0.0
 11
898.327792
 21
352.91323
 31
0.0
  0
LINE
  8
0
 10
898.327792
 20
352.91323
 30
0.0
 11
898.387187
 21
352.928526
 31
0.0
  0
LINE
  8
0
 10
898.327792
 20
352.91323
 30
0.0
 11
898.271973
 21
352.892173
 31
0.0
  0
LINE
  8
0
 10
898.271973
 20
352.892173
 30
0.0
 11
898.327792
 21
352.91323
 31
0.0
  0
LINE
  8
0
 10
898.271973
 20
352.892173
 30
0.0
 11
898.218338
 21
352.865157
 31
0.0
  0
LINE
  8
0
 10
898.218338
 20
352.865157
 30
0.0
 11
898.271973
 21
352.892173
 31
0.0
  0
LINE
  8
0
 10
898.218338
 20
352.865157
 30
0.0
 11
898.168478
 21
352.830593
 31
0.0
  0
LINE
  8
0
 10
898.168478
 20
352.830593
 30
0.0
 11
898.218338
 21
352.865157
 31
0.0
  0
LINE
  8
0
 10
898.168478
 20
352.830593
 30
0.0
 11
898.12418
 21
352.790466
 31
0.0
  0
LINE
  8
0
 10
898.12418
 20
352.790466
 30
0.0
 11
898.168478
 21
352.830593
 31
0.0
  0
LINE
  8
0
 10
898.084053
 20
352.744381
 30
0.0
 11
898.12418
 21
352.790466
 31
0.0
  0
LINE
  8
0
 10
898.049489
 20
352.696308
 30
0.0
 11
898.084053
 21
352.744381
 31
0.0
  0
LINE
  8
0
 10
898.020685
 20
352.642674
 30
0.0
 11
898.049489
 21
352.696308
 31
0.0
  0
LINE
  8
0
 10
897.999629
 20
352.585066
 30
0.0
 11
898.020685
 21
352.642674
 31
0.0
  0
LINE
  8
0
 10
897.986121
 20
352.527459
 30
0.0
 11
897.999629
 21
352.585066
 31
0.0
  0
LINE
  8
0
 10
897.978374
 20
352.468064
 30
0.0
 11
897.986121
 21
352.527459
 31
0.0
  0
LINE
  8
0
 10
897.978374
 20
352.406483
 30
0.0
 11
897.978374
 21
352.468064
 31
0.0
  0
LINE
  8
0
 10
897.986121
 20
352.347088
 30
0.0
 11
897.978374
 21
352.406483
 31
0.0
  0
LINE
  8
0
 10
897.999629
 20
352.289481
 30
0.0
 11
897.986121
 21
352.347088
 31
0.0
  0
LINE
  8
0
 10
898.020685
 20
352.231873
 30
0.0
 11
897.999629
 21
352.289481
 31
0.0
  0
LINE
  8
0
 10
898.049489
 20
352.180027
 30
0.0
 11
898.020685
 21
352.231873
 31
0.0
  0
LINE
  8
0
 10
898.084053
 20
352.130166
 30
0.0
 11
898.049489
 21
352.180027
 31
0.0
  0
LINE
  8
0
 10
898.12418
 20
352.084081
 30
0.0
 11
898.084053
 21
352.130166
 31
0.0
  0
LINE
  8
0
 10
898.084053
 20
352.130166
 30
0.0
 11
898.12418
 21
352.084081
 31
0.0
  0
LINE
  8
0
 10
898.049489
 20
352.180027
 30
0.0
 11
898.084053
 21
352.130166
 31
0.0
  0
LINE
  8
0
 10
898.020685
 20
352.231873
 30
0.0
 11
898.049489
 21
352.180027
 31
0.0
  0
LINE
  8
0
 10
897.999629
 20
352.289481
 30
0.0
 11
898.020685
 21
352.231873
 31
0.0
  0
LINE
  8
0
 10
897.986121
 20
352.347088
 30
0.0
 11
897.999629
 21
352.289481
 31
0.0
  0
LINE
  8
0
 10
897.978374
 20
352.406483
 30
0.0
 11
897.986121
 21
352.347088
 31
0.0
  0
LINE
  8
0
 10
897.978374
 20
352.468064
 30
0.0
 11
897.978374
 21
352.406483
 31
0.0
  0
LINE
  8
0
 10
897.986121
 20
352.527459
 30
0.0
 11
897.978374
 21
352.468064
 31
0.0
  0
LINE
  8
0
 10
897.999629
 20
352.585066
 30
0.0
 11
897.986121
 21
352.527459
 31
0.0
  0
LINE
  8
0
 10
898.020685
 20
352.642674
 30
0.0
 11
897.999629
 21
352.585066
 31
0.0
  0
LINE
  8
0
 10
898.049489
 20
352.696308
 30
0.0
 11
898.020685
 21
352.642674
 31
0.0
  0
LINE
  8
0
 10
898.084053
 20
352.744381
 30
0.0
 11
898.049489
 21
352.696308
 31
0.0
  0
LINE
  8
0
 10
898.12418
 20
352.790466
 30
0.0
 11
898.084053
 21
352.744381
 31
0.0
  0
LINE
  8
0
 10
897.084068
 20
354.008962
 30
0.0
 11
897.024673
 21
353.943806
 31
0.0
  0
LINE
  8
0
 10
897.024673
 20
353.943806
 30
0.0
 11
897.084068
 21
354.008962
 31
0.0
  0
LINE
  8
0
 10
897.024673
 20
353.943806
 30
0.0
 11
896.972826
 21
353.874677
 31
0.0
  0
LINE
  8
0
 10
896.972826
 20
353.874677
 30
0.0
 11
897.024673
 21
353.943806
 31
0.0
  0
LINE
  8
0
 10
896.972826
 20
353.874677
 30
0.0
 11
896.924754
 21
353.801774
 31
0.0
  0
LINE
  8
0
 10
896.924754
 20
353.801774
 30
0.0
 11
896.972826
 21
353.874677
 31
0.0
  0
LINE
  8
0
 10
896.924754
 20
353.801774
 30
0.0
 11
896.884628
 21
353.724898
 31
0.0
  0
LINE
  8
0
 10
896.884628
 20
353.724898
 30
0.0
 11
896.924754
 21
353.801774
 31
0.0
  0
LINE
  8
0
 10
896.884628
 20
353.724898
 30
0.0
 11
896.851851
 21
353.644446
 31
0.0
  0
LINE
  8
0
 10
896.851851
 20
353.644446
 30
0.0
 11
896.884628
 21
353.724898
 31
0.0
  0
LINE
  8
0
 10
896.851851
 20
353.644446
 30
0.0
 11
896.825034
 21
353.560022
 31
0.0
  0
LINE
  8
0
 10
896.825034
 20
353.560022
 30
0.0
 11
896.851851
 21
353.644446
 31
0.0
  0
LINE
  8
0
 10
896.825034
 20
353.560022
 30
0.0
 11
896.807751
 21
353.475399
 31
0.0
  0
LINE
  8
0
 10
896.807751
 20
353.475399
 30
0.0
 11
896.825034
 21
353.560022
 31
0.0
  0
LINE
  8
0
 10
896.807751
 20
353.475399
 30
0.0
 11
896.79623
 21
353.389186
 31
0.0
  0
LINE
  8
0
 10
896.79623
 20
353.389186
 30
0.0
 11
896.807751
 21
353.475399
 31
0.0
  0
LINE
  8
0
 10
896.79623
 20
353.389186
 30
0.0
 11
896.792456
 21
353.302775
 31
0.0
  0
LINE
  8
0
 10
896.792456
 20
353.302775
 30
0.0
 11
896.79623
 21
353.389186
 31
0.0
  0
LINE
  8
0
 10
896.792456
 20
350.723553
 30
0.0
 11
896.79623
 21
350.635155
 31
0.0
  0
LINE
  8
0
 10
896.79623
 20
350.635155
 30
0.0
 11
896.792456
 21
350.723553
 31
0.0
  0
LINE
  8
0
 10
896.79623
 20
350.635155
 30
0.0
 11
896.807751
 21
350.548943
 31
0.0
  0
LINE
  8
0
 10
896.807751
 20
350.548943
 30
0.0
 11
896.79623
 21
350.635155
 31
0.0
  0
LINE
  8
0
 10
896.807751
 20
350.548943
 30
0.0
 11
896.825034
 21
350.464518
 31
0.0
  0
LINE
  8
0
 10
896.825034
 20
350.464518
 30
0.0
 11
896.807751
 21
350.548943
 31
0.0
  0
LINE
  8
0
 10
896.825034
 20
350.464518
 30
0.0
 11
896.851851
 21
350.381881
 31
0.0
  0
LINE
  8
0
 10
896.851851
 20
350.381881
 30
0.0
 11
896.825034
 21
350.464518
 31
0.0
  0
LINE
  8
0
 10
896.851851
 20
350.381881
 30
0.0
 11
896.884628
 21
350.301231
 31
0.0
  0
LINE
  8
0
 10
896.884628
 20
350.301231
 30
0.0
 11
896.851851
 21
350.381881
 31
0.0
  0
LINE
  8
0
 10
896.884628
 20
350.301231
 30
0.0
 11
896.924754
 21
350.224553
 31
0.0
  0
LINE
  8
0
 10
896.924754
 20
350.224553
 30
0.0
 11
896.884628
 21
350.301231
 31
0.0
  0
LINE
  8
0
 10
896.924754
 20
350.224553
 30
0.0
 11
896.972826
 21
350.149664
 31
0.0
  0
LINE
  8
0
 10
896.972826
 20
350.149664
 30
0.0
 11
896.924754
 21
350.224553
 31
0.0
  0
LINE
  8
0
 10
896.972826
 20
350.149664
 30
0.0
 11
897.024673
 21
350.080535
 31
0.0
  0
LINE
  8
0
 10
897.024673
 20
350.080535
 30
0.0
 11
896.972826
 21
350.149664
 31
0.0
  0
LINE
  8
0
 10
897.024673
 20
350.080535
 30
0.0
 11
897.084068
 21
350.017365
 31
0.0
  0
LINE
  8
0
 10
897.084068
 20
350.017365
 30
0.0
 11
897.024673
 21
350.080535
 31
0.0
  0
LINE
  8
0
 10
897.084068
 20
350.017365
 30
0.0
 11
897.147437
 21
349.957772
 31
0.0
  0
LINE
  8
0
 10
897.147437
 20
349.957772
 30
0.0
 11
897.084068
 21
350.017365
 31
0.0
  0
LINE
  8
0
 10
897.147437
 20
349.957772
 30
0.0
 11
897.216565
 21
349.905925
 31
0.0
  0
LINE
  8
0
 10
897.216565
 20
349.905925
 30
0.0
 11
897.147437
 21
349.957772
 31
0.0
  0
LINE
  8
0
 10
897.216565
 20
349.905925
 30
0.0
 11
897.291455
 21
349.858051
 31
0.0
  0
LINE
  8
0
 10
897.291455
 20
349.858051
 30
0.0
 11
897.216565
 21
349.905925
 31
0.0
  0
LINE
  8
0
 10
897.291455
 20
349.858051
 30
0.0
 11
897.368132
 21
349.817726
 31
0.0
  0
LINE
  8
0
 10
897.368132
 20
349.817726
 30
0.0
 11
897.291455
 21
349.858051
 31
0.0
  0
LINE
  8
0
 10
897.368132
 20
349.817726
 30
0.0
 11
897.448783
 21
349.785148
 31
0.0
  0
LINE
  8
0
 10
897.448783
 20
349.785148
 30
0.0
 11
897.368132
 21
349.817726
 31
0.0
  0
LINE
  8
0
 10
897.448783
 20
349.785148
 30
0.0
 11
897.531221
 21
349.758132
 31
0.0
  0
LINE
  8
0
 10
897.531221
 20
349.758132
 30
0.0
 11
897.448783
 21
349.785148
 31
0.0
  0
LINE
  8
0
 10
897.531221
 20
349.758132
 30
0.0
 11
897.615646
 21
349.74085
 31
0.0
  0
LINE
  8
0
 10
897.615646
 20
349.74085
 30
0.0
 11
897.531221
 21
349.758132
 31
0.0
  0
LINE
  8
0
 10
897.615646
 20
349.74085
 30
0.0
 11
897.702057
 21
349.729328
 31
0.0
  0
LINE
  8
0
 10
897.702057
 20
349.729328
 30
0.0
 11
897.615646
 21
349.74085
 31
0.0
  0
LINE
  8
0
 10
897.702057
 20
349.729328
 30
0.0
 11
897.790256
 21
349.725554
 31
0.0
  0
LINE
  8
0
 10
897.790256
 20
349.725554
 30
0.0
 11
897.702057
 21
349.729328
 31
0.0
  0
LINE
  8
0
 10
899.692094
 20
350.516166
 30
0.0
 11
899.751688
 21
350.579534
 31
0.0
  0
LINE
  8
0
 10
899.751688
 20
350.579534
 30
0.0
 11
899.692094
 21
350.516166
 31
0.0
  0
LINE
  8
0
 10
899.751688
 20
350.579534
 30
0.0
 11
899.803535
 21
350.648663
 31
0.0
  0
LINE
  8
0
 10
899.803535
 20
350.648663
 30
0.0
 11
899.751688
 21
350.579534
 31
0.0
  0
LINE
  8
0
 10
899.803535
 20
350.648663
 30
0.0
 11
899.851409
 21
350.723553
 31
0.0
  0
LINE
  8
0
 10
899.851409
 20
350.723553
 30
0.0
 11
899.803535
 21
350.648663
 31
0.0
  0
LINE
  8
0
 10
899.851409
 20
350.723553
 30
0.0
 11
899.889747
 21
350.80023
 31
0.0
  0
LINE
  8
0
 10
899.889747
 20
350.80023
 30
0.0
 11
899.851409
 21
350.723553
 31
0.0
  0
LINE
  8
0
 10
899.889747
 20
350.80023
 30
0.0
 11
899.924312
 21
350.88088
 31
0.0
  0
LINE
  8
0
 10
899.924312
 20
350.88088
 30
0.0
 11
899.889747
 21
350.80023
 31
0.0
  0
LINE
  8
0
 10
899.924312
 20
350.88088
 30
0.0
 11
899.949341
 21
350.963319
 31
0.0
  0
LINE
  8
0
 10
899.949341
 20
350.963319
 30
0.0
 11
899.924312
 21
350.88088
 31
0.0
  0
LINE
  8
0
 10
899.949341
 20
350.963319
 30
0.0
 11
899.968411
 21
351.047743
 31
0.0
  0
LINE
  8
0
 10
899.968411
 20
351.047743
 30
0.0
 11
899.949341
 21
350.963319
 31
0.0
  0
LINE
  8
0
 10
899.968411
 20
351.047743
 30
0.0
 11
899.979933
 21
351.134154
 31
0.0
  0
LINE
  8
0
 10
899.979933
 20
351.134154
 30
0.0
 11
899.968411
 21
351.047743
 31
0.0
  0
LINE
  8
0
 10
899.979933
 20
351.134154
 30
0.0
 11
899.983906
 21
351.222552
 31
0.0
  0
LINE
  8
0
 10
899.983906
 20
351.222552
 30
0.0
 11
899.979933
 21
351.134154
 31
0.0
  0
LINE
  8
0
 10
899.983906
 20
351.222552
 30
0.0
 11
899.979933
 21
351.308764
 31
0.0
  0
LINE
  8
0
 10
899.979933
 20
351.308764
 30
0.0
 11
899.983906
 21
351.222552
 31
0.0
  0
LINE
  8
0
 10
899.979933
 20
351.308764
 30
0.0
 11
899.968411
 21
351.395175
 31
0.0
  0
LINE
  8
0
 10
899.968411
 20
351.395175
 30
0.0
 11
899.979933
 21
351.308764
 31
0.0
  0
LINE
  8
0
 10
899.968411
 20
351.395175
 30
0.0
 11
899.949341
 21
351.4796
 31
0.0
  0
LINE
  8
0
 10
899.949341
 20
351.4796
 30
0.0
 11
899.968411
 21
351.395175
 31
0.0
  0
LINE
  8
0
 10
899.949341
 20
351.4796
 30
0.0
 11
899.924312
 21
351.562237
 31
0.0
  0
LINE
  8
0
 10
899.924312
 20
351.562237
 30
0.0
 11
899.949341
 21
351.4796
 31
0.0
  0
LINE
  8
0
 10
899.924312
 20
351.562237
 30
0.0
 11
899.889747
 21
351.642689
 31
0.0
  0
LINE
  8
0
 10
899.889747
 20
351.642689
 30
0.0
 11
899.924312
 21
351.562237
 31
0.0
  0
LINE
  8
0
 10
899.889747
 20
351.642689
 30
0.0
 11
899.851409
 21
351.719565
 31
0.0
  0
LINE
  8
0
 10
899.851409
 20
351.719565
 30
0.0
 11
899.889747
 21
351.642689
 31
0.0
  0
LINE
  8
0
 10
899.851409
 20
351.719565
 30
0.0
 11
899.803535
 21
351.794454
 31
0.0
  0
LINE
  8
0
 10
899.803535
 20
351.794454
 30
0.0
 11
899.851409
 21
351.719565
 31
0.0
  0
LINE
  8
0
 10
899.803535
 20
351.794454
 30
0.0
 11
899.751688
 21
351.863385
 31
0.0
  0
LINE
  8
0
 10
899.751688
 20
351.863385
 30
0.0
 11
899.803535
 21
351.794454
 31
0.0
  0
LINE
  8
0
 10
899.751688
 20
351.863385
 30
0.0
 11
899.692094
 21
351.926753
 31
0.0
  0
LINE
  8
0
 10
899.692094
 20
351.926753
 30
0.0
 11
899.751688
 21
351.863385
 31
0.0
  0
LINE
  8
0
 10
901.777581
 20
392.835953
 30
0.0
 11
901.817906
 21
392.914617
 31
0.0
  0
LINE
  8
0
 10
901.743016
 20
392.755302
 30
0.0
 11
901.777581
 21
392.835953
 31
0.0
  0
LINE
  8
0
 10
901.718186
 20
392.672864
 30
0.0
 11
901.743016
 21
392.755302
 31
0.0
  0
LINE
  8
0
 10
901.698917
 20
392.58844
 30
0.0
 11
901.718186
 21
392.672864
 31
0.0
  0
LINE
  8
0
 10
901.687395
 20
392.502028
 30
0.0
 11
901.698917
 21
392.58844
 31
0.0
  0
LINE
  8
0
 10
901.683621
 20
392.415617
 30
0.0
 11
901.687395
 21
392.502028
 31
0.0
  0
LINE
  8
0
 10
901.687395
 20
392.502028
 30
0.0
 11
901.683621
 21
392.415617
 31
0.0
  0
LINE
  8
0
 10
901.698917
 20
392.58844
 30
0.0
 11
901.687395
 21
392.502028
 31
0.0
  0
LINE
  8
0
 10
901.718186
 20
392.672864
 30
0.0
 11
901.698917
 21
392.58844
 31
0.0
  0
LINE
  8
0
 10
901.743016
 20
392.755302
 30
0.0
 11
901.718186
 21
392.672864
 31
0.0
  0
LINE
  8
0
 10
901.777581
 20
392.835953
 30
0.0
 11
901.743016
 21
392.755302
 31
0.0
  0
LINE
  8
0
 10
901.817906
 20
392.914617
 30
0.0
 11
901.777581
 21
392.835953
 31
0.0
  0
LINE
  8
0
 10
906.667456
 20
392.502028
 30
0.0
 11
906.67123
 21
392.415617
 31
0.0
  0
LINE
  8
0
 10
906.655934
 20
392.58844
 30
0.0
 11
906.667456
 21
392.502028
 31
0.0
  0
LINE
  8
0
 10
906.636666
 20
392.672864
 30
0.0
 11
906.655934
 21
392.58844
 31
0.0
  0
LINE
  8
0
 10
906.611835
 20
392.755302
 30
0.0
 11
906.636666
 21
392.672864
 31
0.0
  0
LINE
  8
0
 10
906.577271
 20
392.835953
 30
0.0
 11
906.611835
 21
392.755302
 31
0.0
  0
LINE
  8
0
 10
906.536945
 20
392.914617
 30
0.0
 11
906.577271
 21
392.835953
 31
0.0
  0
LINE
  8
0
 10
906.577271
 20
392.835953
 30
0.0
 11
906.536945
 21
392.914617
 31
0.0
  0
LINE
  8
0
 10
906.611835
 20
392.755302
 30
0.0
 11
906.577271
 21
392.835953
 31
0.0
  0
LINE
  8
0
 10
906.636666
 20
392.672864
 30
0.0
 11
906.611835
 21
392.755302
 31
0.0
  0
LINE
  8
0
 10
906.655934
 20
392.58844
 30
0.0
 11
906.636666
 21
392.672864
 31
0.0
  0
LINE
  8
0
 10
906.667456
 20
392.502028
 30
0.0
 11
906.655934
 21
392.58844
 31
0.0
  0
LINE
  8
0
 10
906.67123
 20
392.415617
 30
0.0
 11
906.667456
 21
392.502028
 31
0.0
  0
LINE
  8
0
 10
906.67123
 20
359.537882
 30
0.0
 11
906.675004
 21
359.407372
 31
0.0
  0
LINE
  8
0
 10
906.675004
 20
359.407372
 30
0.0
 11
906.67123
 21
359.537882
 31
0.0
  0
LINE
  8
0
 10
906.675004
 20
359.407372
 30
0.0
 11
906.684738
 21
359.276861
 31
0.0
  0
LINE
  8
0
 10
906.684738
 20
359.276861
 30
0.0
 11
906.675004
 21
359.407372
 31
0.0
  0
LINE
  8
0
 10
906.684738
 20
359.276861
 30
0.0
 11
906.70202
 21
359.148337
 31
0.0
  0
LINE
  8
0
 10
906.70202
 20
359.148337
 30
0.0
 11
906.684738
 21
359.276861
 31
0.0
  0
LINE
  8
0
 10
906.70202
 20
359.148337
 30
0.0
 11
906.725063
 21
359.019813
 31
0.0
  0
LINE
  8
0
 10
906.725063
 20
359.019813
 30
0.0
 11
906.70202
 21
359.148337
 31
0.0
  0
LINE
  8
0
 10
906.725063
 20
359.019813
 30
0.0
 11
906.755655
 21
358.893077
 31
0.0
  0
LINE
  8
0
 10
906.755655
 20
358.893077
 30
0.0
 11
906.725063
 21
359.019813
 31
0.0
  0
LINE
  8
0
 10
906.755655
 20
358.893077
 30
0.0
 11
906.793994
 21
358.76634
 31
0.0
  0
LINE
  8
0
 10
906.793994
 20
358.76634
 30
0.0
 11
906.755655
 21
358.893077
 31
0.0
  0
LINE
  8
0
 10
906.793994
 20
358.76634
 30
0.0
 11
906.836305
 21
358.643577
 31
0.0
  0
LINE
  8
0
 10
906.836305
 20
358.643577
 30
0.0
 11
906.793994
 21
358.76634
 31
0.0
  0
LINE
  8
0
 10
906.836305
 20
358.643577
 30
0.0
 11
906.886165
 21
358.522601
 31
0.0
  0
LINE
  8
0
 10
906.886165
 20
358.522601
 30
0.0
 11
906.836305
 21
358.643577
 31
0.0
  0
LINE
  8
0
 10
906.886165
 20
358.522601
 30
0.0
 11
906.943773
 21
358.405599
 31
0.0
  0
LINE
  8
0
 10
906.943773
 20
358.405599
 30
0.0
 11
906.886165
 21
358.522601
 31
0.0
  0
LINE
  8
0
 10
906.943773
 20
358.405599
 30
0.0
 11
907.005154
 21
358.290384
 31
0.0
  0
LINE
  8
0
 10
907.005154
 20
358.290384
 30
0.0
 11
906.943773
 21
358.405599
 31
0.0
  0
LINE
  8
0
 10
907.005154
 20
358.290384
 30
0.0
 11
907.074283
 21
358.179142
 31
0.0
  0
LINE
  8
0
 10
907.074283
 20
358.179142
 30
0.0
 11
907.005154
 21
358.290384
 31
0.0
  0
LINE
  8
0
 10
907.074283
 20
358.179142
 30
0.0
 11
907.147187
 21
358.071675
 31
0.0
  0
LINE
  8
0
 10
907.147187
 20
358.071675
 30
0.0
 11
907.074283
 21
358.179142
 31
0.0
  0
LINE
  8
0
 10
907.147187
 20
358.071675
 30
0.0
 11
907.227837
 21
357.967981
 31
0.0
  0
LINE
  8
0
 10
907.227837
 20
357.967981
 30
0.0
 11
907.147187
 21
358.071675
 31
0.0
  0
LINE
  8
0
 10
907.227837
 20
357.967981
 30
0.0
 11
907.312262
 21
357.868261
 31
0.0
  0
LINE
  8
0
 10
907.312262
 20
357.868261
 30
0.0
 11
907.227837
 21
357.967981
 31
0.0
  0
LINE
  8
0
 10
907.312262
 20
357.868261
 30
0.0
 11
907.402447
 21
357.774301
 31
0.0
  0
LINE
  8
0
 10
907.402447
 20
357.774301
 30
0.0
 11
907.312262
 21
357.868261
 31
0.0
  0
LINE
  8
0
 10
911.227181
 20
353.943806
 30
0.0
 11
911.167587
 21
354.008962
 31
0.0
  0
LINE
  8
0
 10
911.279028
 20
353.874677
 30
0.0
 11
911.227181
 21
353.943806
 31
0.0
  0
LINE
  8
0
 10
911.326901
 20
353.801774
 30
0.0
 11
911.279028
 21
353.874677
 31
0.0
  0
LINE
  8
0
 10
911.367227
 20
353.724898
 30
0.0
 11
911.326901
 21
353.801774
 31
0.0
  0
LINE
  8
0
 10
911.399805
 20
353.644446
 30
0.0
 11
911.367227
 21
353.724898
 31
0.0
  0
LINE
  8
0
 10
911.42682
 20
353.560022
 30
0.0
 11
911.399805
 21
353.644446
 31
0.0
  0
LINE
  8
0
 10
911.444103
 20
353.475399
 30
0.0
 11
911.42682
 21
353.560022
 31
0.0
  0
LINE
  8
0
 10
911.455624
 20
353.389186
 30
0.0
 11
911.444103
 21
353.475399
 31
0.0
  0
LINE
  8
0
 10
911.455624
 20
353.389186
 30
0.0
 11
911.459398
 21
353.302775
 31
0.0
  0
LINE
  8
0
 10
911.227181
 20
353.943806
 30
0.0
 11
911.167587
 21
354.008962
 31
0.0
  0
LINE
  8
0
 10
911.279028
 20
353.874677
 30
0.0
 11
911.227181
 21
353.943806
 31
0.0
  0
LINE
  8
0
 10
911.326901
 20
353.801774
 30
0.0
 11
911.279028
 21
353.874677
 31
0.0
  0
LINE
  8
0
 10
911.367227
 20
353.724898
 30
0.0
 11
911.326901
 21
353.801774
 31
0.0
  0
LINE
  8
0
 10
911.399805
 20
353.644446
 30
0.0
 11
911.367227
 21
353.724898
 31
0.0
  0
LINE
  8
0
 10
911.42682
 20
353.560022
 30
0.0
 11
911.399805
 21
353.644446
 31
0.0
  0
LINE
  8
0
 10
911.444103
 20
353.475399
 30
0.0
 11
911.42682
 21
353.560022
 31
0.0
  0
LINE
  8
0
 10
911.455624
 20
353.389186
 30
0.0
 11
911.444103
 21
353.475399
 31
0.0
  0
LINE
  8
0
 10
911.459398
 20
353.302775
 30
0.0
 11
911.455624
 21
353.389186
 31
0.0
  0
LINE
  8
0
 10
911.455624
 20
350.635155
 30
0.0
 11
911.459398
 21
350.723553
 31
0.0
  0
LINE
  8
0
 10
911.444103
 20
350.548943
 30
0.0
 11
911.455624
 21
350.635155
 31
0.0
  0
LINE
  8
0
 10
911.42682
 20
350.464518
 30
0.0
 11
911.444103
 21
350.548943
 31
0.0
  0
LINE
  8
0
 10
911.399805
 20
350.381881
 30
0.0
 11
911.42682
 21
350.464518
 31
0.0
  0
LINE
  8
0
 10
911.367227
 20
350.301231
 30
0.0
 11
911.399805
 21
350.381881
 31
0.0
  0
LINE
  8
0
 10
911.326901
 20
350.224553
 30
0.0
 11
911.367227
 21
350.301231
 31
0.0
  0
LINE
  8
0
 10
911.279028
 20
350.149664
 30
0.0
 11
911.326901
 21
350.224553
 31
0.0
  0
LINE
  8
0
 10
911.227181
 20
350.080535
 30
0.0
 11
911.279028
 21
350.149664
 31
0.0
  0
LINE
  8
0
 10
911.167587
 20
350.017365
 30
0.0
 11
911.227181
 21
350.080535
 31
0.0
  0
LINE
  8
0
 10
911.104418
 20
349.957772
 30
0.0
 11
911.167587
 21
350.017365
 31
0.0
  0
LINE
  8
0
 10
911.035289
 20
349.905925
 30
0.0
 11
911.104418
 21
349.957772
 31
0.0
  0
LINE
  8
0
 10
910.960399
 20
349.858051
 30
0.0
 11
911.035289
 21
349.905925
 31
0.0
  0
LINE
  8
0
 10
910.883722
 20
349.817726
 30
0.0
 11
910.960399
 21
349.858051
 31
0.0
  0
LINE
  8
0
 10
910.803071
 20
349.785148
 30
0.0
 11
910.883722
 21
349.817726
 31
0.0
  0
LINE
  8
0
 10
910.720434
 20
349.758132
 30
0.0
 11
910.803071
 21
349.785148
 31
0.0
  0
LINE
  8
0
 10
910.63601
 20
349.74085
 30
0.0
 11
910.720434
 21
349.758132
 31
0.0
  0
LINE
  8
0
 10
910.549797
 20
349.729328
 30
0.0
 11
910.63601
 21
349.74085
 31
0.0
  0
LINE
  8
0
 10
910.549797
 20
349.729328
 30
0.0
 11
910.4614
 21
349.725554
 31
0.0
  0
LINE
  8
0
 10
911.455624
 20
350.635155
 30
0.0
 11
911.459398
 21
350.723553
 31
0.0
  0
LINE
  8
0
 10
911.444103
 20
350.548943
 30
0.0
 11
911.455624
 21
350.635155
 31
0.0
  0
LINE
  8
0
 10
911.42682
 20
350.464518
 30
0.0
 11
911.444103
 21
350.548943
 31
0.0
  0
LINE
  8
0
 10
911.399805
 20
350.381881
 30
0.0
 11
911.42682
 21
350.464518
 31
0.0
  0
LINE
  8
0
 10
911.367227
 20
350.301231
 30
0.0
 11
911.399805
 21
350.381881
 31
0.0
  0
LINE
  8
0
 10
911.326901
 20
350.224553
 30
0.0
 11
911.367227
 21
350.301231
 31
0.0
  0
LINE
  8
0
 10
911.279028
 20
350.149664
 30
0.0
 11
911.326901
 21
350.224553
 31
0.0
  0
LINE
  8
0
 10
911.227181
 20
350.080535
 30
0.0
 11
911.279028
 21
350.149664
 31
0.0
  0
LINE
  8
0
 10
911.167587
 20
350.017365
 30
0.0
 11
911.227181
 21
350.080535
 31
0.0
  0
LINE
  8
0
 10
911.104418
 20
349.957772
 30
0.0
 11
911.167587
 21
350.017365
 31
0.0
  0
LINE
  8
0
 10
911.035289
 20
349.905925
 30
0.0
 11
911.104418
 21
349.957772
 31
0.0
  0
LINE
  8
0
 10
910.960399
 20
349.858051
 30
0.0
 11
911.035289
 21
349.905925
 31
0.0
  0
LINE
  8
0
 10
910.883722
 20
349.817726
 30
0.0
 11
910.960399
 21
349.858051
 31
0.0
  0
LINE
  8
0
 10
910.803071
 20
349.785148
 30
0.0
 11
910.883722
 21
349.817726
 31
0.0
  0
LINE
  8
0
 10
910.720434
 20
349.758132
 30
0.0
 11
910.803071
 21
349.785148
 31
0.0
  0
LINE
  8
0
 10
910.63601
 20
349.74085
 30
0.0
 11
910.720434
 21
349.758132
 31
0.0
  0
LINE
  8
0
 10
910.549797
 20
349.729328
 30
0.0
 11
910.4614
 21
349.725554
 31
0.0
  0
LINE
  8
0
 10
910.63601
 20
349.74085
 30
0.0
 11
910.549797
 21
349.729328
 31
0.0
  0
LINE
  8
0
 10
900.849407
 20
357.774301
 30
0.0
 11
900.939593
 21
357.868261
 31
0.0
  0
LINE
  8
0
 10
900.939593
 20
357.868261
 30
0.0
 11
900.849407
 21
357.774301
 31
0.0
  0
LINE
  8
0
 10
900.939593
 20
357.868261
 30
0.0
 11
901.024017
 21
357.967981
 31
0.0
  0
LINE
  8
0
 10
901.024017
 20
357.967981
 30
0.0
 11
900.939593
 21
357.868261
 31
0.0
  0
LINE
  8
0
 10
901.024017
 20
357.967981
 30
0.0
 11
901.104668
 21
358.071675
 31
0.0
  0
LINE
  8
0
 10
901.104668
 20
358.071675
 30
0.0
 11
901.024017
 21
357.967981
 31
0.0
  0
LINE
  8
0
 10
901.104668
 20
358.071675
 30
0.0
 11
901.177571
 21
358.179142
 31
0.0
  0
LINE
  8
0
 10
901.177571
 20
358.179142
 30
0.0
 11
901.104668
 21
358.071675
 31
0.0
  0
LINE
  8
0
 10
901.177571
 20
358.179142
 30
0.0
 11
901.2467
 21
358.290384
 31
0.0
  0
LINE
  8
0
 10
901.2467
 20
358.290384
 30
0.0
 11
901.177571
 21
358.179142
 31
0.0
  0
LINE
  8
0
 10
901.2467
 20
358.290384
 30
0.0
 11
901.334733
 21
358.405599
 31
0.0
  0
LINE
  8
0
 10
901.334733
 20
358.405599
 30
0.0
 11
901.2467
 21
358.290384
 31
0.0
  0
LINE
  8
0
 10
901.334733
 20
358.405599
 30
0.0
 11
901.392341
 21
358.522601
 31
0.0
  0
LINE
  8
0
 10
901.392341
 20
358.522601
 30
0.0
 11
901.334733
 21
358.405599
 31
0.0
  0
LINE
  8
0
 10
901.392341
 20
358.522601
 30
0.0
 11
901.442201
 21
358.643577
 31
0.0
  0
LINE
  8
0
 10
901.442201
 20
358.643577
 30
0.0
 11
901.392341
 21
358.522601
 31
0.0
  0
LINE
  8
0
 10
901.442201
 20
358.643577
 30
0.0
 11
901.510966
 21
358.76634
 31
0.0
  0
LINE
  8
0
 10
901.510966
 20
358.76634
 30
0.0
 11
901.442201
 21
358.643577
 31
0.0
  0
LINE
  8
0
 10
901.510966
 20
358.76634
 30
0.0
 11
901.576155
 21
358.893077
 31
0.0
  0
LINE
  8
0
 10
901.576155
 20
358.893077
 30
0.0
 11
901.510966
 21
358.76634
 31
0.0
  0
LINE
  8
0
 10
901.631412
 20
359.019813
 30
0.0
 11
901.576155
 21
358.893077
 31
0.0
  0
LINE
  8
0
 10
901.683093
 20
359.148337
 30
0.0
 11
901.631412
 21
359.019813
 31
0.0
  0
LINE
  8
0
 10
901.700375
 20
359.276861
 30
0.0
 11
901.683093
 21
359.148337
 31
0.0
  0
LINE
  8
0
 10
901.694884
 20
359.407372
 30
0.0
 11
901.700375
 21
359.276861
 31
0.0
  0
LINE
  8
0
 10
901.698857
 20
359.537882
 30
0.0
 11
901.694884
 21
359.407372
 31
0.0
  0
LINE
  8
0
 10
901.694884
 20
359.407372
 30
0.0
 11
901.698857
 21
359.537882
 31
0.0
  0
LINE
  8
0
 10
901.700375
 20
359.276861
 30
0.0
 11
901.694884
 21
359.407372
 31
0.0
  0
LINE
  8
0
 10
901.683093
 20
359.148337
 30
0.0
 11
901.700375
 21
359.276861
 31
0.0
  0
LINE
  8
0
 10
901.631412
 20
359.019813
 30
0.0
 11
901.683093
 21
359.148337
 31
0.0
  0
LINE
  8
0
 10
901.576155
 20
358.893077
 30
0.0
 11
901.631412
 21
359.019813
 31
0.0
  0
LINE
  8
0
 10
905.673232
 20
392.415617
 30
0.0
 11
905.673232
 21
366.686563
 31
0.0
  0
LINE
  8
0
 10
904.176432
 20
395.006361
 30
0.0
 11
905.673232
 21
392.415617
 31
0.0
  0
LINE
  8
0
 10
902.681421
 20
392.415617
 30
0.0
 11
904.176432
 21
395.006361
 31
0.0
  0
LINE
  8
0
 10
904.176432
 20
395.006361
 30
0.0
 11
902.681421
 21
392.415617
 31
0.0
  0
LINE
  8
0
 10
905.673232
 20
392.415617
 30
0.0
 11
904.176432
 21
395.006361
 31
0.0
  0
LINE
  8
0
 10
905.673232
 20
366.686563
 30
0.0
 11
905.673232
 21
392.415617
 31
0.0
  0
LINE
  8
0
 10
905.174431
 20
363.692766
 30
0.0
 11
905.170458
 21
363.778979
 31
0.0
  0
LINE
  8
0
 10
905.170458
 20
363.778979
 30
0.0
 11
905.174431
 21
363.692766
 31
0.0
  0
LINE
  8
0
 10
905.170458
 20
363.778979
 30
0.0
 11
905.158937
 21
363.86539
 31
0.0
  0
LINE
  8
0
 10
905.158937
 20
363.86539
 30
0.0
 11
905.170458
 21
363.778979
 31
0.0
  0
LINE
  8
0
 10
905.158937
 20
363.86539
 30
0.0
 11
905.141654
 21
363.951801
 31
0.0
  0
LINE
  8
0
 10
905.141654
 20
363.951801
 30
0.0
 11
905.158937
 21
363.86539
 31
0.0
  0
LINE
  8
0
 10
905.141654
 20
363.951801
 30
0.0
 11
905.114837
 21
364.034239
 31
0.0
  0
LINE
  8
0
 10
905.114837
 20
364.034239
 30
0.0
 11
905.141654
 21
363.951801
 31
0.0
  0
LINE
  8
0
 10
905.114837
 20
364.034239
 30
0.0
 11
905.082259
 21
364.114889
 31
0.0
  0
LINE
  8
0
 10
905.082259
 20
364.114889
 30
0.0
 11
905.114837
 21
364.034239
 31
0.0
  0
LINE
  8
0
 10
905.082259
 20
364.114889
 30
0.0
 11
905.041934
 21
364.191766
 31
0.0
  0
LINE
  8
0
 10
905.041934
 20
364.191766
 30
0.0
 11
905.082259
 21
364.114889
 31
0.0
  0
LINE
  8
0
 10
905.041934
 20
364.191766
 30
0.0
 11
904.99406
 21
364.264669
 31
0.0
  0
LINE
  8
0
 10
904.99406
 20
364.264669
 30
0.0
 11
905.041934
 21
364.191766
 31
0.0
  0
LINE
  8
0
 10
904.99406
 20
364.264669
 30
0.0
 11
904.942214
 21
364.333599
 31
0.0
  0
LINE
  8
0
 10
904.942214
 20
364.333599
 30
0.0
 11
904.99406
 21
364.264669
 31
0.0
  0
LINE
  8
0
 10
904.942214
 20
364.333599
 30
0.0
 11
904.88262
 21
364.398954
 31
0.0
  0
LINE
  8
0
 10
904.88262
 20
364.398954
 30
0.0
 11
904.942214
 21
364.333599
 31
0.0
  0
LINE
  8
0
 10
904.88262
 20
364.398954
 30
0.0
 11
904.819252
 21
364.456561
 31
0.0
  0
LINE
  8
0
 10
904.819252
 20
364.456561
 30
0.0
 11
904.88262
 21
364.398954
 31
0.0
  0
LINE
  8
0
 10
904.819252
 20
364.456561
 30
0.0
 11
904.750321
 21
364.510195
 31
0.0
  0
LINE
  8
0
 10
904.750321
 20
364.510195
 30
0.0
 11
904.819252
 21
364.456561
 31
0.0
  0
LINE
  8
0
 10
904.750321
 20
364.510195
 30
0.0
 11
904.675432
 21
364.556281
 31
0.0
  0
LINE
  8
0
 10
904.675432
 20
364.556281
 30
0.0
 11
904.750321
 21
364.510195
 31
0.0
  0
LINE
  8
0
 10
904.675432
 20
364.556281
 30
0.0
 11
904.598556
 21
364.596606
 31
0.0
  0
LINE
  8
0
 10
904.598556
 20
364.596606
 30
0.0
 11
904.675432
 21
364.556281
 31
0.0
  0
LINE
  8
0
 10
904.598556
 20
364.596606
 30
0.0
 11
904.518104
 21
364.629184
 31
0.0
  0
LINE
  8
0
 10
904.518104
 20
364.629184
 30
0.0
 11
904.598556
 21
364.596606
 31
0.0
  0
LINE
  8
0
 10
904.518104
 20
364.629184
 30
0.0
 11
904.435467
 21
364.656002
 31
0.0
  0
LINE
  8
0
 10
904.435467
 20
364.656002
 30
0.0
 11
904.518104
 21
364.629184
 31
0.0
  0
LINE
  8
0
 10
904.435467
 20
364.656002
 30
0.0
 11
904.351042
 21
364.67527
 31
0.0
  0
LINE
  8
0
 10
904.351042
 20
364.67527
 30
0.0
 11
904.435467
 21
364.656002
 31
0.0
  0
LINE
  8
0
 10
903.184195
 20
363.778979
 30
0.0
 11
903.18042
 21
363.692766
 31
0.0
  0
LINE
  8
0
 10
903.195716
 20
363.86539
 30
0.0
 11
903.184195
 21
363.778979
 31
0.0
  0
LINE
  8
0
 10
903.212998
 20
363.951801
 30
0.0
 11
903.195716
 21
363.86539
 31
0.0
  0
LINE
  8
0
 10
903.240014
 20
364.034239
 30
0.0
 11
903.212998
 21
363.951801
 31
0.0
  0
LINE
  8
0
 10
903.272592
 20
364.114889
 30
0.0
 11
903.240014
 21
364.034239
 31
0.0
  0
LINE
  8
0
 10
903.312917
 20
364.191766
 30
0.0
 11
903.272592
 21
364.114889
 31
0.0
  0
LINE
  8
0
 10
903.360791
 20
364.264669
 30
0.0
 11
903.312917
 21
364.191766
 31
0.0
  0
LINE
  8
0
 10
903.412638
 20
364.333599
 30
0.0
 11
903.360791
 21
364.264669
 31
0.0
  0
LINE
  8
0
 10
903.472033
 20
364.398954
 30
0.0
 11
903.412638
 21
364.333599
 31
0.0
  0
LINE
  8
0
 10
903.535401
 20
364.456561
 30
0.0
 11
903.472033
 21
364.398954
 31
0.0
  0
LINE
  8
0
 10
903.60453
 20
364.510195
 30
0.0
 11
903.535401
 21
364.456561
 31
0.0
  0
LINE
  8
0
 10
903.67942
 20
364.556281
 30
0.0
 11
903.60453
 21
364.510195
 31
0.0
  0
LINE
  8
0
 10
903.756097
 20
364.596606
 30
0.0
 11
903.67942
 21
364.556281
 31
0.0
  0
LINE
  8
0
 10
903.836747
 20
364.629184
 30
0.0
 11
903.756097
 21
364.596606
 31
0.0
  0
LINE
  8
0
 10
903.919186
 20
364.656002
 30
0.0
 11
903.836747
 21
364.629184
 31
0.0
  0
LINE
  8
0
 10
904.003809
 20
364.67527
 30
0.0
 11
903.919186
 21
364.656002
 31
0.0
  0
LINE
  8
0
 10
904.090021
 20
364.686792
 30
0.0
 11
904.003809
 21
364.67527
 31
0.0
  0
LINE
  8
0
 10
904.176432
 20
364.690566
 30
0.0
 11
904.090021
 21
364.686792
 31
0.0
  0
LINE
  8
0
 10
904.264631
 20
364.686792
 30
0.0
 11
904.176432
 21
364.690566
 31
0.0
  0
LINE
  8
0
 10
904.351042
 20
364.67527
 30
0.0
 11
904.264631
 21
364.686792
 31
0.0
  0
LINE
  8
0
 10
904.264631
 20
364.686792
 30
0.0
 11
904.351042
 21
364.67527
 31
0.0
  0
LINE
  8
0
 10
904.176432
 20
364.690566
 30
0.0
 11
904.264631
 21
364.686792
 31
0.0
  0
LINE
  8
0
 10
904.090021
 20
364.686792
 30
0.0
 11
904.176432
 21
364.690566
 31
0.0
  0
LINE
  8
0
 10
904.003809
 20
364.67527
 30
0.0
 11
904.090021
 21
364.686792
 31
0.0
  0
LINE
  8
0
 10
903.919186
 20
364.656002
 30
0.0
 11
904.003809
 21
364.67527
 31
0.0
  0
LINE
  8
0
 10
903.836747
 20
364.629184
 30
0.0
 11
903.919186
 21
364.656002
 31
0.0
  0
LINE
  8
0
 10
903.756097
 20
364.596606
 30
0.0
 11
903.836747
 21
364.629184
 31
0.0
  0
LINE
  8
0
 10
903.67942
 20
364.556281
 30
0.0
 11
903.756097
 21
364.596606
 31
0.0
  0
LINE
  8
0
 10
903.184195
 20
363.778979
 30
0.0
 11
903.18042
 21
363.692766
 31
0.0
  0
LINE
  8
0
 10
903.195716
 20
363.86539
 30
0.0
 11
903.184195
 21
363.778979
 31
0.0
  0
LINE
  8
0
 10
903.212998
 20
363.951801
 30
0.0
 11
903.195716
 21
363.86539
 31
0.0
  0
LINE
  8
0
 10
903.240014
 20
364.034239
 30
0.0
 11
903.212998
 21
363.951801
 31
0.0
  0
LINE
  8
0
 10
903.272592
 20
364.114889
 30
0.0
 11
903.240014
 21
364.034239
 31
0.0
  0
LINE
  8
0
 10
903.312917
 20
364.191766
 30
0.0
 11
903.272592
 21
364.114889
 31
0.0
  0
LINE
  8
0
 10
903.360791
 20
364.264669
 30
0.0
 11
903.312917
 21
364.191766
 31
0.0
  0
LINE
  8
0
 10
903.412638
 20
364.333599
 30
0.0
 11
903.360791
 21
364.264669
 31
0.0
  0
LINE
  8
0
 10
903.472033
 20
364.398954
 30
0.0
 11
903.412638
 21
364.333599
 31
0.0
  0
LINE
  8
0
 10
903.535401
 20
364.456561
 30
0.0
 11
903.472033
 21
364.398954
 31
0.0
  0
LINE
  8
0
 10
903.60453
 20
364.510195
 30
0.0
 11
903.535401
 21
364.456561
 31
0.0
  0
LINE
  8
0
 10
903.67942
 20
364.556281
 30
0.0
 11
903.60453
 21
364.510195
 31
0.0
  0
LINE
  8
0
 10
904.675432
 20
365.688565
 30
0.0
 11
903.67942
 21
365.688565
 31
0.0
  0
LINE
  8
0
 10
903.67942
 20
365.688565
 30
0.0
 11
904.675432
 21
365.688565
 31
0.0
  0
LINE
  8
0
 10
902.681421
 20
392.415617
 30
0.0
 11
902.681421
 21
366.686563
 31
0.0
  0
LINE
  8
0
 10
902.681421
 20
366.686563
 30
0.0
 11
902.681421
 21
392.415617
 31
0.0
  0
LINE
  8
0
 10
902.681421
 20
366.686563
 30
0.0
 11
902.685394
 21
366.598166
 31
0.0
  0
LINE
  8
0
 10
902.685394
 20
366.598166
 30
0.0
 11
902.681421
 21
366.686563
 31
0.0
  0
LINE
  8
0
 10
902.685394
 20
366.598166
 30
0.0
 11
902.696916
 21
366.511755
 31
0.0
  0
LINE
  8
0
 10
902.696916
 20
366.511755
 30
0.0
 11
902.685394
 21
366.598166
 31
0.0
  0
LINE
  8
0
 10
902.696916
 20
366.511755
 30
0.0
 11
902.713999
 21
366.42733
 31
0.0
  0
LINE
  8
0
 10
902.713999
 20
366.42733
 30
0.0
 11
902.696916
 21
366.511755
 31
0.0
  0
LINE
  8
0
 10
902.713999
 20
366.42733
 30
0.0
 11
902.741015
 21
366.344892
 31
0.0
  0
LINE
  8
0
 10
902.741015
 20
366.344892
 30
0.0
 11
902.713999
 21
366.42733
 31
0.0
  0
LINE
  8
0
 10
902.741015
 20
366.344892
 30
0.0
 11
902.773593
 21
366.264241
 31
0.0
  0
LINE
  8
0
 10
902.773593
 20
366.264241
 30
0.0
 11
902.741015
 21
366.344892
 31
0.0
  0
LINE
  8
0
 10
902.773593
 20
366.264241
 30
0.0
 11
902.813918
 21
366.187564
 31
0.0
  0
LINE
  8
0
 10
902.813918
 20
366.187564
 30
0.0
 11
902.773593
 21
366.264241
 31
0.0
  0
LINE
  8
0
 10
902.813918
 20
366.187564
 30
0.0
 11
902.861792
 21
366.112674
 31
0.0
  0
LINE
  8
0
 10
902.861792
 20
366.112674
 30
0.0
 11
902.813918
 21
366.187564
 31
0.0
  0
LINE
  8
0
 10
902.861792
 20
366.112674
 30
0.0
 11
902.913639
 21
366.043545
 31
0.0
  0
LINE
  8
0
 10
902.913639
 20
366.043545
 30
0.0
 11
902.861792
 21
366.112674
 31
0.0
  0
LINE
  8
0
 10
902.913639
 20
366.043545
 30
0.0
 11
902.973232
 21
365.980177
 31
0.0
  0
LINE
  8
0
 10
902.973232
 20
365.980177
 30
0.0
 11
902.913639
 21
366.043545
 31
0.0
  0
LINE
  8
0
 10
902.973232
 20
365.980177
 30
0.0
 11
903.036601
 21
365.920782
 31
0.0
  0
LINE
  8
0
 10
903.036601
 20
365.920782
 30
0.0
 11
902.973232
 21
365.980177
 31
0.0
  0
LINE
  8
0
 10
903.036601
 20
365.920782
 30
0.0
 11
903.105531
 21
365.868935
 31
0.0
  0
LINE
  8
0
 10
903.105531
 20
365.868935
 30
0.0
 11
903.036601
 21
365.920782
 31
0.0
  0
LINE
  8
0
 10
903.105531
 20
365.868935
 30
0.0
 11
903.18042
 21
365.821062
 31
0.0
  0
LINE
  8
0
 10
903.18042
 20
365.821062
 30
0.0
 11
903.105531
 21
365.868935
 31
0.0
  0
LINE
  8
0
 10
903.18042
 20
365.821062
 30
0.0
 11
903.257098
 21
365.780737
 31
0.0
  0
LINE
  8
0
 10
903.257098
 20
365.780737
 30
0.0
 11
903.18042
 21
365.821062
 31
0.0
  0
LINE
  8
0
 10
903.257098
 20
365.780737
 30
0.0
 11
903.337748
 21
365.74796
 31
0.0
  0
LINE
  8
0
 10
903.337748
 20
365.74796
 30
0.0
 11
903.257098
 21
365.780737
 31
0.0
  0
LINE
  8
0
 10
903.337748
 20
365.74796
 30
0.0
 11
903.420385
 21
365.721143
 31
0.0
  0
LINE
  8
0
 10
903.420385
 20
365.721143
 30
0.0
 11
903.337748
 21
365.74796
 31
0.0
  0
LINE
  8
0
 10
903.420385
 20
365.721143
 30
0.0
 11
903.50481
 21
365.70386
 31
0.0
  0
LINE
  8
0
 10
903.50481
 20
365.70386
 30
0.0
 11
903.420385
 21
365.721143
 31
0.0
  0
LINE
  8
0
 10
903.50481
 20
365.70386
 30
0.0
 11
903.591022
 21
365.692339
 31
0.0
  0
LINE
  8
0
 10
903.591022
 20
365.692339
 30
0.0
 11
903.50481
 21
365.70386
 31
0.0
  0
LINE
  8
0
 10
903.591022
 20
365.692339
 30
0.0
 11
903.677433
 21
365.688565
 31
0.0
  0
LINE
  8
0
 10
903.67942
 20
365.688565
 30
0.0
 11
903.591022
 21
365.692339
 31
0.0
  0
LINE
  8
0
 10
904.675432
 20
365.688565
 30
0.0
 11
904.763631
 21
365.692339
 31
0.0
  0
LINE
  8
0
 10
904.677418
 20
365.688565
 30
0.0
 11
904.675432
 21
365.688565
 31
0.0
  0
LINE
  8
0
 10
904.763631
 20
365.692339
 30
0.0
 11
904.677418
 21
365.688565
 31
0.0
  0
LINE
  8
0
 10
904.763631
 20
365.692339
 30
0.0
 11
904.850042
 21
365.70386
 31
0.0
  0
LINE
  8
0
 10
904.850042
 20
365.70386
 30
0.0
 11
904.763631
 21
365.692339
 31
0.0
  0
LINE
  8
0
 10
904.850042
 20
365.70386
 30
0.0
 11
904.934466
 21
365.721143
 31
0.0
  0
LINE
  8
0
 10
904.934466
 20
365.721143
 30
0.0
 11
904.850042
 21
365.70386
 31
0.0
  0
LINE
  8
0
 10
904.934466
 20
365.721143
 30
0.0
 11
905.016905
 21
365.74796
 31
0.0
  0
LINE
  8
0
 10
905.016905
 20
365.74796
 30
0.0
 11
904.934466
 21
365.721143
 31
0.0
  0
LINE
  8
0
 10
905.016905
 20
365.74796
 30
0.0
 11
905.097555
 21
365.780737
 31
0.0
  0
LINE
  8
0
 10
905.097555
 20
365.780737
 30
0.0
 11
905.016905
 21
365.74796
 31
0.0
  0
LINE
  8
0
 10
905.097555
 20
365.780737
 30
0.0
 11
905.174431
 21
365.821062
 31
0.0
  0
LINE
  8
0
 10
905.174431
 20
365.821062
 30
0.0
 11
905.097555
 21
365.780737
 31
0.0
  0
LINE
  8
0
 10
905.174431
 20
365.821062
 30
0.0
 11
905.249122
 21
365.868935
 31
0.0
  0
LINE
  8
0
 10
905.249122
 20
365.868935
 30
0.0
 11
905.174431
 21
365.821062
 31
0.0
  0
LINE
  8
0
 10
905.249122
 20
365.868935
 30
0.0
 11
905.318251
 21
365.920782
 31
0.0
  0
LINE
  8
0
 10
905.318251
 20
365.920782
 30
0.0
 11
905.249122
 21
365.868935
 31
0.0
  0
LINE
  8
0
 10
905.318251
 20
365.920782
 30
0.0
 11
905.381619
 21
365.980177
 31
0.0
  0
LINE
  8
0
 10
905.381619
 20
365.980177
 30
0.0
 11
905.318251
 21
365.920782
 31
0.0
  0
LINE
  8
0
 10
905.381619
 20
365.980177
 30
0.0
 11
905.441213
 21
366.043545
 31
0.0
  0
LINE
  8
0
 10
905.441213
 20
366.043545
 30
0.0
 11
905.381619
 21
365.980177
 31
0.0
  0
LINE
  8
0
 10
905.441213
 20
366.043545
 30
0.0
 11
905.492861
 21
366.112674
 31
0.0
  0
LINE
  8
0
 10
905.492861
 20
366.112674
 30
0.0
 11
905.441213
 21
366.043545
 31
0.0
  0
LINE
  8
0
 10
905.492861
 20
366.112674
 30
0.0
 11
905.540933
 21
366.187564
 31
0.0
  0
LINE
  8
0
 10
905.540933
 20
366.187564
 30
0.0
 11
905.492861
 21
366.112674
 31
0.0
  0
LINE
  8
0
 10
905.540933
 20
366.187564
 30
0.0
 11
905.581258
 21
366.264241
 31
0.0
  0
LINE
  8
0
 10
905.581258
 20
366.264241
 30
0.0
 11
905.540933
 21
366.187564
 31
0.0
  0
LINE
  8
0
 10
905.581258
 20
366.264241
 30
0.0
 11
905.613836
 21
366.344892
 31
0.0
  0
LINE
  8
0
 10
905.613836
 20
366.344892
 30
0.0
 11
905.581258
 21
366.264241
 31
0.0
  0
LINE
  8
0
 10
905.613836
 20
366.344892
 30
0.0
 11
905.640654
 21
366.42733
 31
0.0
  0
LINE
  8
0
 10
905.640654
 20
366.42733
 30
0.0
 11
905.613836
 21
366.344892
 31
0.0
  0
LINE
  8
0
 10
905.669457
 20
366.598166
 30
0.0
 11
905.673232
 21
366.686563
 31
0.0
  0
LINE
  8
0
 10
905.657936
 20
366.511755
 30
0.0
 11
905.669457
 21
366.598166
 31
0.0
  0
LINE
  8
0
 10
905.640654
 20
366.42733
 30
0.0
 11
905.657936
 21
366.511755
 31
0.0
  0
LINE
  8
0
 10
905.657936
 20
366.511755
 30
0.0
 11
905.640654
 21
366.42733
 31
0.0
  0
LINE
  8
0
 10
905.669457
 20
366.598166
 30
0.0
 11
905.657936
 21
366.511755
 31
0.0
  0
LINE
  8
0
 10
905.673232
 20
366.684577
 30
0.0
 11
905.669457
 21
366.598166
 31
0.0
  0
LINE
  8
0
 10
905.673232
 20
366.686563
 30
0.0
 11
905.673232
 21
366.684577
 31
0.0
  0
LINE
  8
0
 10
897.790256
 20
352.596588
 30
0.0
 11
902.346206
 21
357.154326
 31
0.0
  0
LINE
  8
0
 10
902.346206
 20
357.154326
 30
0.0
 11
897.790256
 21
352.596588
 31
0.0
  0
LINE
  8
0
 10
905.237871
 20
395.164453
 30
0.0
 11
906.536945
 21
392.914617
 31
0.0
  0
LINE
  8
0
 10
903.09452
 20
395.125554
 30
0.0
 11
901.817906
 21
392.914617
 31
0.0
  0
LINE
  8
0
 10
846.67123
 20
359.537882
 30
0.0
 11
846.67123
 21
392.415617
 31
0.0
  0
LINE
  8
0
 10
845.174431
 20
358.918106
 30
0.0
 11
845.174431
 21
363.692766
 31
0.0
  0
LINE
  8
0
 10
843.169004
 20
358.918106
 30
0.0
 11
843.18042
 21
363.692766
 31
0.0
  0
LINE
  8
0
 10
841.698857
 20
359.537882
 30
0.0
 11
841.683621
 21
392.415617
 31
0.0
  0
LINE
  8
0
 10
840.849407
 20
357.774301
 30
0.0
 11
837.084068
 21
354.008962
 31
0.0
  0
LINE
  8
0
 10
837.084068
 20
354.008962
 30
0.0
 11
840.849407
 21
357.774301
 31
0.0
  0
LINE
  8
0
 10
836.792456
 20
350.723553
 30
0.0
 11
836.792456
 21
353.302775
 31
0.0
  0
LINE
  8
0
 10
838.828579
 20
352.790466
 30
0.0
 11
839.692094
 21
351.926753
 31
0.0
  0
LINE
  8
0
 10
839.692094
 20
351.926753
 30
0.0
 11
838.828579
 21
352.790466
 31
0.0
  0
LINE
  8
0
 10
838.12418
 20
352.084081
 30
0.0
 11
838.985907
 21
351.222552
 31
0.0
  0
LINE
  8
0
 10
838.985907
 20
351.222552
 30
0.0
 11
838.12418
 21
352.084081
 31
0.0
  0
LINE
  8
0
 10
838.985907
 20
351.222552
 30
0.0
 11
838.486908
 21
350.723553
 31
0.0
  0
LINE
  8
0
 10
838.486908
 20
350.723553
 30
0.0
 11
838.985907
 21
351.222552
 31
0.0
  0
LINE
  8
0
 10
837.790256
 20
350.723553
 30
0.0
 11
838.486908
 21
350.723553
 31
0.0
  0
LINE
  8
0
 10
837.790256
 20
352.596588
 30
0.0
 11
837.790256
 21
350.723553
 31
0.0
  0
LINE
  8
0
 10
837.790256
 20
352.596588
 30
0.0
 11
842.346206
 21
357.154326
 31
0.0
  0
LINE
  8
0
 10
837.790256
 20
350.723553
 30
0.0
 11
837.790256
 21
352.596588
 31
0.0
  0
LINE
  8
0
 10
838.486908
 20
350.723553
 30
0.0
 11
837.790256
 21
350.723553
 31
0.0
  0
LINE
  8
0
 10
838.901483
 20
349.725554
 30
0.0
 11
837.790256
 21
349.725554
 31
0.0
  0
LINE
  8
0
 10
838.901483
 20
349.725554
 30
0.0
 11
839.692094
 21
350.516166
 31
0.0
  0
LINE
  8
0
 10
850.4614
 20
349.725554
 30
0.0
 11
849.350372
 21
349.725554
 31
0.0
  0
LINE
  8
0
 10
847.402447
 20
357.774301
 30
0.0
 11
851.167587
 21
354.008962
 31
0.0
  0
LINE
  8
0
 10
851.167587
 20
354.008962
 30
0.0
 11
847.402447
 21
357.774301
 31
0.0
  0
LINE
  8
0
 10
851.459398
 20
353.302775
 30
0.0
 11
851.459398
 21
350.723553
 31
0.0
  0
LINE
  8
0
 10
850.4614
 20
352.596588
 30
0.0
 11
845.905449
 21
357.154326
 31
0.0
  0
LINE
  8
0
 10
849.764748
 20
350.723553
 30
0.0
 11
849.265947
 21
351.222552
 31
0.0
  0
LINE
  8
0
 10
850.4614
 20
350.723553
 30
0.0
 11
849.764748
 21
350.723553
 31
0.0
  0
LINE
  8
0
 10
850.4614
 20
352.596588
 30
0.0
 11
850.4614
 21
350.723553
 31
0.0
  0
LINE
  8
0
 10
849.265947
 20
351.222552
 30
0.0
 11
850.127476
 21
352.084081
 31
0.0
  0
LINE
  8
0
 10
850.127476
 20
352.084081
 30
0.0
 11
850.167801
 21
352.130166
 31
0.0
  0
LINE
  8
0
 10
850.167801
 20
352.130166
 30
0.0
 11
850.127476
 21
352.084081
 31
0.0
  0
LINE
  8
0
 10
850.167801
 20
352.130166
 30
0.0
 11
850.202365
 21
352.180027
 31
0.0
  0
LINE
  8
0
 10
850.202365
 20
352.180027
 30
0.0
 11
850.167801
 21
352.130166
 31
0.0
  0
LINE
  8
0
 10
850.202365
 20
352.180027
 30
0.0
 11
850.231169
 21
352.231873
 31
0.0
  0
LINE
  8
0
 10
850.231169
 20
352.231873
 30
0.0
 11
850.202365
 21
352.180027
 31
0.0
  0
LINE
  8
0
 10
850.231169
 20
352.231873
 30
0.0
 11
850.252225
 21
352.289481
 31
0.0
  0
LINE
  8
0
 10
850.252225
 20
352.289481
 30
0.0
 11
850.231169
 21
352.231873
 31
0.0
  0
LINE
  8
0
 10
850.252225
 20
352.289481
 30
0.0
 11
850.265733
 21
352.347088
 31
0.0
  0
LINE
  8
0
 10
850.265733
 20
352.347088
 30
0.0
 11
850.252225
 21
352.289481
 31
0.0
  0
LINE
  8
0
 10
850.265733
 20
352.347088
 30
0.0
 11
850.273481
 21
352.406483
 31
0.0
  0
LINE
  8
0
 10
850.273481
 20
352.406483
 30
0.0
 11
850.265733
 21
352.347088
 31
0.0
  0
LINE
  8
0
 10
850.273481
 20
352.406483
 30
0.0
 11
850.273481
 21
352.468064
 31
0.0
  0
LINE
  8
0
 10
850.273481
 20
352.468064
 30
0.0
 11
850.273481
 21
352.406483
 31
0.0
  0
LINE
  8
0
 10
850.273481
 20
352.468064
 30
0.0
 11
850.265733
 21
352.527459
 31
0.0
  0
LINE
  8
0
 10
850.265733
 20
352.527459
 30
0.0
 11
850.273481
 21
352.468064
 31
0.0
  0
LINE
  8
0
 10
850.265733
 20
352.527459
 30
0.0
 11
850.252225
 21
352.585066
 31
0.0
  0
LINE
  8
0
 10
850.252225
 20
352.585066
 30
0.0
 11
850.265733
 21
352.527459
 31
0.0
  0
LINE
  8
0
 10
850.252225
 20
352.585066
 30
0.0
 11
850.231169
 21
352.642674
 31
0.0
  0
LINE
  8
0
 10
850.231169
 20
352.642674
 30
0.0
 11
850.252225
 21
352.585066
 31
0.0
  0
LINE
  8
0
 10
850.231169
 20
352.642674
 30
0.0
 11
850.202365
 21
352.696308
 31
0.0
  0
LINE
  8
0
 10
850.202365
 20
352.696308
 30
0.0
 11
850.231169
 21
352.642674
 31
0.0
  0
LINE
  8
0
 10
850.202365
 20
352.696308
 30
0.0
 11
850.167801
 21
352.744381
 31
0.0
  0
LINE
  8
0
 10
850.167801
 20
352.744381
 30
0.0
 11
850.202365
 21
352.696308
 31
0.0
  0
LINE
  8
0
 10
850.167801
 20
352.744381
 30
0.0
 11
850.127476
 21
352.790466
 31
0.0
  0
LINE
  8
0
 10
850.127476
 20
352.790466
 30
0.0
 11
850.167801
 21
352.744381
 31
0.0
  0
LINE
  8
0
 10
850.127476
 20
352.790466
 30
0.0
 11
850.083376
 21
352.830593
 31
0.0
  0
LINE
  8
0
 10
850.083376
 20
352.830593
 30
0.0
 11
850.127476
 21
352.790466
 31
0.0
  0
LINE
  8
0
 10
850.083376
 20
352.830593
 30
0.0
 11
850.033516
 21
352.865157
 31
0.0
  0
LINE
  8
0
 10
850.033516
 20
352.865157
 30
0.0
 11
850.083376
 21
352.830593
 31
0.0
  0
LINE
  8
0
 10
850.033516
 20
352.865157
 30
0.0
 11
849.979683
 21
352.892173
 31
0.0
  0
LINE
  8
0
 10
849.979683
 20
352.892173
 30
0.0
 11
850.033516
 21
352.865157
 31
0.0
  0
LINE
  8
0
 10
849.979683
 20
352.892173
 30
0.0
 11
849.924062
 21
352.91323
 31
0.0
  0
LINE
  8
0
 10
849.924062
 20
352.91323
 30
0.0
 11
849.979683
 21
352.892173
 31
0.0
  0
LINE
  8
0
 10
849.924062
 20
352.91323
 30
0.0
 11
849.864667
 21
352.928526
 31
0.0
  0
LINE
  8
0
 10
849.864667
 20
352.928526
 30
0.0
 11
849.924062
 21
352.91323
 31
0.0
  0
LINE
  8
0
 10
849.864667
 20
352.928526
 30
0.0
 11
849.805073
 21
352.936273
 31
0.0
  0
LINE
  8
0
 10
849.805073
 20
352.936273
 30
0.0
 11
849.864667
 21
352.928526
 31
0.0
  0
LINE
  8
0
 10
849.805073
 20
352.936273
 30
0.0
 11
849.745678
 21
352.936273
 31
0.0
  0
LINE
  8
0
 10
849.745678
 20
352.936273
 30
0.0
 11
849.805073
 21
352.936273
 31
0.0
  0
LINE
  8
0
 10
849.745678
 20
352.936273
 30
0.0
 11
849.686084
 21
352.928526
 31
0.0
  0
LINE
  8
0
 10
849.686084
 20
352.928526
 30
0.0
 11
849.745678
 21
352.936273
 31
0.0
  0
LINE
  8
0
 10
849.686084
 20
352.928526
 30
0.0
 11
849.626688
 21
352.91323
 31
0.0
  0
LINE
  8
0
 10
849.626688
 20
352.91323
 30
0.0
 11
849.686084
 21
352.928526
 31
0.0
  0
LINE
  8
0
 10
849.626688
 20
352.91323
 30
0.0
 11
849.571068
 21
352.892173
 31
0.0
  0
LINE
  8
0
 10
849.571068
 20
352.892173
 30
0.0
 11
849.626688
 21
352.91323
 31
0.0
  0
LINE
  8
0
 10
849.571068
 20
352.892173
 30
0.0
 11
849.517234
 21
352.865157
 31
0.0
  0
LINE
  8
0
 10
849.517234
 20
352.865157
 30
0.0
 11
849.571068
 21
352.892173
 31
0.0
  0
LINE
  8
0
 10
849.517234
 20
352.865157
 30
0.0
 11
849.467374
 21
352.830593
 31
0.0
  0
LINE
  8
0
 10
849.467374
 20
352.830593
 30
0.0
 11
849.517234
 21
352.865157
 31
0.0
  0
LINE
  8
0
 10
848.559561
 20
351.926753
 30
0.0
 11
849.423275
 21
352.790466
 31
0.0
  0
LINE
  8
0
 10
848.500166
 20
351.863385
 30
0.0
 11
848.559561
 21
351.926753
 31
0.0
  0
LINE
  8
0
 10
848.448319
 20
351.794454
 30
0.0
 11
848.500166
 21
351.863385
 31
0.0
  0
LINE
  8
0
 10
848.400247
 20
351.719565
 30
0.0
 11
848.448319
 21
351.794454
 31
0.0
  0
LINE
  8
0
 10
848.361908
 20
351.642689
 30
0.0
 11
848.400247
 21
351.719565
 31
0.0
  0
LINE
  8
0
 10
848.327344
 20
351.562237
 30
0.0
 11
848.361908
 21
351.642689
 31
0.0
  0
LINE
  8
0
 10
848.302513
 20
351.4796
 30
0.0
 11
848.327344
 21
351.562237
 31
0.0
  0
LINE
  8
0
 10
848.283244
 20
351.395175
 30
0.0
 11
848.302513
 21
351.4796
 31
0.0
  0
LINE
  8
0
 10
848.271723
 20
351.308764
 30
0.0
 11
848.283244
 21
351.395175
 31
0.0
  0
LINE
  8
0
 10
848.267948
 20
351.222552
 30
0.0
 11
848.271723
 21
351.308764
 31
0.0
  0
LINE
  8
0
 10
848.271723
 20
351.134154
 30
0.0
 11
848.267948
 21
351.222552
 31
0.0
  0
LINE
  8
0
 10
848.283244
 20
351.047743
 30
0.0
 11
848.271723
 21
351.134154
 31
0.0
  0
LINE
  8
0
 10
848.302513
 20
350.963319
 30
0.0
 11
848.283244
 21
351.047743
 31
0.0
  0
LINE
  8
0
 10
848.327344
 20
350.88088
 30
0.0
 11
848.302513
 21
350.963319
 31
0.0
  0
LINE
  8
0
 10
848.361908
 20
350.80023
 30
0.0
 11
848.327344
 21
350.88088
 31
0.0
  0
LINE
  8
0
 10
848.400247
 20
350.723553
 30
0.0
 11
848.361908
 21
350.80023
 31
0.0
  0
LINE
  8
0
 10
848.448319
 20
350.648663
 30
0.0
 11
848.400247
 21
350.723553
 31
0.0
  0
LINE
  8
0
 10
848.500166
 20
350.579534
 30
0.0
 11
848.448319
 21
350.648663
 31
0.0
  0
LINE
  8
0
 10
848.559561
 20
350.516166
 30
0.0
 11
848.500166
 21
350.579534
 31
0.0
  0
LINE
  8
0
 10
849.350372
 20
349.725554
 30
0.0
 11
848.559561
 21
350.516166
 31
0.0
  0
LINE
  8
0
 10
848.559561
 20
350.516166
 30
0.0
 11
849.350372
 21
349.725554
 31
0.0
  0
LINE
  8
0
 10
848.500166
 20
350.579534
 30
0.0
 11
848.559561
 21
350.516166
 31
0.0
  0
LINE
  8
0
 10
848.448319
 20
350.648663
 30
0.0
 11
848.500166
 21
350.579534
 31
0.0
  0
LINE
  8
0
 10
848.400247
 20
350.723553
 30
0.0
 11
848.448319
 21
350.648663
 31
0.0
  0
LINE
  8
0
 10
848.361908
 20
350.80023
 30
0.0
 11
848.400247
 21
350.723553
 31
0.0
  0
LINE
  8
0
 10
848.327344
 20
350.88088
 30
0.0
 11
848.361908
 21
350.80023
 31
0.0
  0
LINE
  8
0
 10
848.302513
 20
350.963319
 30
0.0
 11
848.327344
 21
350.88088
 31
0.0
  0
LINE
  8
0
 10
848.283244
 20
351.047743
 30
0.0
 11
848.302513
 21
350.963319
 31
0.0
  0
LINE
  8
0
 10
848.271723
 20
351.134154
 30
0.0
 11
848.283244
 21
351.047743
 31
0.0
  0
LINE
  8
0
 10
848.267948
 20
351.222552
 30
0.0
 11
848.271723
 21
351.134154
 31
0.0
  0
LINE
  8
0
 10
848.271723
 20
351.308764
 30
0.0
 11
848.267948
 21
351.222552
 31
0.0
  0
LINE
  8
0
 10
848.283244
 20
351.395175
 30
0.0
 11
848.271723
 21
351.308764
 31
0.0
  0
LINE
  8
0
 10
848.302513
 20
351.4796
 30
0.0
 11
848.283244
 21
351.395175
 31
0.0
  0
LINE
  8
0
 10
848.327344
 20
351.562237
 30
0.0
 11
848.302513
 21
351.4796
 31
0.0
  0
LINE
  8
0
 10
848.361908
 20
351.642689
 30
0.0
 11
848.327344
 21
351.562237
 31
0.0
  0
LINE
  8
0
 10
848.400247
 20
351.719565
 30
0.0
 11
848.361908
 21
351.642689
 31
0.0
  0
LINE
  8
0
 10
848.448319
 20
351.794454
 30
0.0
 11
848.400247
 21
351.719565
 31
0.0
  0
LINE
  8
0
 10
848.500166
 20
351.863385
 30
0.0
 11
848.448319
 21
351.794454
 31
0.0
  0
LINE
  8
0
 10
848.559561
 20
351.926753
 30
0.0
 11
848.500166
 21
351.863385
 31
0.0
  0
LINE
  8
0
 10
849.423275
 20
352.790466
 30
0.0
 11
848.559561
 21
351.926753
 31
0.0
  0
LINE
  8
0
 10
849.467374
 20
352.830593
 30
0.0
 11
849.423275
 21
352.790466
 31
0.0
  0
LINE
  8
0
 10
849.423275
 20
352.790466
 30
0.0
 11
849.467374
 21
352.830593
 31
0.0
  0
LINE
  8
0
 10
845.174431
 20
358.918106
 30
0.0
 11
845.178205
 21
358.787595
 31
0.0
  0
LINE
  8
0
 10
845.178205
 20
358.787595
 30
0.0
 11
845.174431
 21
358.918106
 31
0.0
  0
LINE
  8
0
 10
845.178205
 20
358.787595
 30
0.0
 11
845.18774
 21
358.657085
 31
0.0
  0
LINE
  8
0
 10
845.18774
 20
358.657085
 30
0.0
 11
845.178205
 21
358.787595
 31
0.0
  0
LINE
  8
0
 10
845.18774
 20
358.657085
 30
0.0
 11
845.205023
 21
358.528362
 31
0.0
  0
LINE
  8
0
 10
845.205023
 20
358.528362
 30
0.0
 11
845.18774
 21
358.657085
 31
0.0
  0
LINE
  8
0
 10
845.205023
 20
358.528362
 30
0.0
 11
845.230052
 21
358.399838
 31
0.0
  0
LINE
  8
0
 10
845.230052
 20
358.399838
 30
0.0
 11
845.205023
 21
358.528362
 31
0.0
  0
LINE
  8
0
 10
845.230052
 20
358.399838
 30
0.0
 11
845.260643
 21
358.273102
 31
0.0
  0
LINE
  8
0
 10
845.260643
 20
358.273102
 30
0.0
 11
845.230052
 21
358.399838
 31
0.0
  0
LINE
  8
0
 10
845.260643
 20
358.273102
 30
0.0
 11
845.297194
 21
358.146564
 31
0.0
  0
LINE
  8
0
 10
845.297194
 20
358.146564
 30
0.0
 11
845.260643
 21
358.273102
 31
0.0
  0
LINE
  8
0
 10
845.297194
 20
358.146564
 30
0.0
 11
845.341294
 21
358.023801
 31
0.0
  0
LINE
  8
0
 10
845.341294
 20
358.023801
 30
0.0
 11
845.297194
 21
358.146564
 31
0.0
  0
LINE
  8
0
 10
845.341294
 20
358.023801
 30
0.0
 11
845.391154
 21
357.902825
 31
0.0
  0
LINE
  8
0
 10
845.391154
 20
357.902825
 30
0.0
 11
845.341294
 21
358.023801
 31
0.0
  0
LINE
  8
0
 10
845.391154
 20
357.902825
 30
0.0
 11
845.446775
 21
357.785823
 31
0.0
  0
LINE
  8
0
 10
845.446775
 20
357.785823
 30
0.0
 11
845.391154
 21
357.902825
 31
0.0
  0
LINE
  8
0
 10
845.446775
 20
357.785823
 30
0.0
 11
845.508355
 21
357.670608
 31
0.0
  0
LINE
  8
0
 10
845.508355
 20
357.670608
 30
0.0
 11
845.446775
 21
357.785823
 31
0.0
  0
LINE
  8
0
 10
845.508355
 20
357.670608
 30
0.0
 11
845.577286
 21
357.559366
 31
0.0
  0
LINE
  8
0
 10
845.577286
 20
357.559366
 30
0.0
 11
845.508355
 21
357.670608
 31
0.0
  0
LINE
  8
0
 10
845.577286
 20
357.559366
 30
0.0
 11
845.652175
 21
357.451898
 31
0.0
  0
LINE
  8
0
 10
845.652175
 20
357.451898
 30
0.0
 11
845.577286
 21
357.559366
 31
0.0
  0
LINE
  8
0
 10
845.652175
 20
357.451898
 30
0.0
 11
845.730839
 21
357.348205
 31
0.0
  0
LINE
  8
0
 10
845.730839
 20
357.348205
 30
0.0
 11
845.652175
 21
357.451898
 31
0.0
  0
LINE
  8
0
 10
845.730839
 20
357.348205
 30
0.0
 11
845.815264
 21
357.248485
 31
0.0
  0
LINE
  8
0
 10
845.815264
 20
357.248485
 30
0.0
 11
845.730839
 21
357.348205
 31
0.0
  0
LINE
  8
0
 10
845.815264
 20
357.248485
 30
0.0
 11
845.905449
 21
357.154326
 31
0.0
  0
LINE
  8
0
 10
845.905449
 20
357.154326
 30
0.0
 11
845.815264
 21
357.248485
 31
0.0
  0
LINE
  8
0
 10
842.424127
 20
357.248485
 30
0.0
 11
842.346206
 21
357.154326
 31
0.0
  0
LINE
  8
0
 10
842.504744
 20
357.348205
 30
0.0
 11
842.424127
 21
357.248485
 31
0.0
  0
LINE
  8
0
 10
842.581821
 20
357.451898
 30
0.0
 11
842.504744
 21
357.348205
 31
0.0
  0
LINE
  8
0
 10
842.655071
 20
357.559366
 30
0.0
 11
842.581821
 21
357.451898
 31
0.0
  0
LINE
  8
0
 10
842.724356
 20
357.670608
 30
0.0
 11
842.655071
 21
357.559366
 31
0.0
  0
LINE
  8
0
 10
842.789627
 20
357.785823
 30
0.0
 11
842.724356
 21
357.670608
 31
0.0
  0
LINE
  8
0
 10
842.849615
 20
357.902825
 30
0.0
 11
842.789627
 21
357.785823
 31
0.0
  0
LINE
  8
0
 10
842.905384
 20
358.023801
 30
0.0
 11
842.849615
 21
357.902825
 31
0.0
  0
LINE
  8
0
 10
842.955842
 20
358.146564
 30
0.0
 11
842.905384
 21
358.023801
 31
0.0
  0
LINE
  8
0
 10
843.001711
 20
358.273102
 30
0.0
 11
842.955842
 21
358.146564
 31
0.0
  0
LINE
  8
0
 10
843.041683
 20
358.399838
 30
0.0
 11
843.001711
 21
358.273102
 31
0.0
  0
LINE
  8
0
 10
843.076357
 20
358.528362
 30
0.0
 11
843.041683
 21
358.399838
 31
0.0
  0
LINE
  8
0
 10
843.105366
 20
358.657085
 30
0.0
 11
843.076357
 21
358.528362
 31
0.0
  0
LINE
  8
0
 10
843.136408
 20
358.787595
 30
0.0
 11
843.105366
 21
358.657085
 31
0.0
  0
LINE
  8
0
 10
843.169004
 20
358.918106
 30
0.0
 11
843.136408
 21
358.787595
 31
0.0
  0
LINE
  8
0
 10
843.136408
 20
358.787595
 30
0.0
 11
843.169004
 21
358.918106
 31
0.0
  0
LINE
  8
0
 10
843.105366
 20
358.657085
 30
0.0
 11
843.136408
 21
358.787595
 31
0.0
  0
LINE
  8
0
 10
843.076357
 20
358.528362
 30
0.0
 11
843.105366
 21
358.657085
 31
0.0
  0
LINE
  8
0
 10
843.041683
 20
358.399838
 30
0.0
 11
843.076357
 21
358.528362
 31
0.0
  0
LINE
  8
0
 10
843.001711
 20
358.273102
 30
0.0
 11
843.041683
 21
358.399838
 31
0.0
  0
LINE
  8
0
 10
842.955842
 20
358.146564
 30
0.0
 11
843.001711
 21
358.273102
 31
0.0
  0
LINE
  8
0
 10
842.905384
 20
358.023801
 30
0.0
 11
842.955842
 21
358.146564
 31
0.0
  0
LINE
  8
0
 10
842.849615
 20
357.902825
 30
0.0
 11
842.905384
 21
358.023801
 31
0.0
  0
LINE
  8
0
 10
842.789627
 20
357.785823
 30
0.0
 11
842.849615
 21
357.902825
 31
0.0
  0
LINE
  8
0
 10
842.724356
 20
357.670608
 30
0.0
 11
842.789627
 21
357.785823
 31
0.0
  0
LINE
  8
0
 10
842.655071
 20
357.559366
 30
0.0
 11
842.724356
 21
357.670608
 31
0.0
  0
LINE
  8
0
 10
842.581821
 20
357.451898
 30
0.0
 11
842.655071
 21
357.559366
 31
0.0
  0
LINE
  8
0
 10
842.504744
 20
357.348205
 30
0.0
 11
842.581821
 21
357.451898
 31
0.0
  0
LINE
  8
0
 10
842.424127
 20
357.248485
 30
0.0
 11
842.504744
 21
357.348205
 31
0.0
  0
LINE
  8
0
 10
842.346206
 20
357.154326
 30
0.0
 11
842.424127
 21
357.248485
 31
0.0
  0
LINE
  8
0
 10
838.828579
 20
352.790466
 30
0.0
 11
838.78448
 21
352.830593
 31
0.0
  0
LINE
  8
0
 10
838.78448
 20
352.830593
 30
0.0
 11
838.828579
 21
352.790466
 31
0.0
  0
LINE
  8
0
 10
838.78448
 20
352.830593
 30
0.0
 11
838.73462
 21
352.865157
 31
0.0
  0
LINE
  8
0
 10
838.73462
 20
352.865157
 30
0.0
 11
838.78448
 21
352.830593
 31
0.0
  0
LINE
  8
0
 10
838.73462
 20
352.865157
 30
0.0
 11
838.680787
 21
352.892173
 31
0.0
  0
LINE
  8
0
 10
838.680787
 20
352.892173
 30
0.0
 11
838.73462
 21
352.865157
 31
0.0
  0
LINE
  8
0
 10
838.680787
 20
352.892173
 30
0.0
 11
838.625166
 21
352.91323
 31
0.0
  0
LINE
  8
0
 10
838.625166
 20
352.91323
 30
0.0
 11
838.680787
 21
352.892173
 31
0.0
  0
LINE
  8
0
 10
838.625166
 20
352.91323
 30
0.0
 11
838.565572
 21
352.928526
 31
0.0
  0
LINE
  8
0
 10
838.565572
 20
352.928526
 30
0.0
 11
838.625166
 21
352.91323
 31
0.0
  0
LINE
  8
0
 10
838.565572
 20
352.928526
 30
0.0
 11
838.506177
 21
352.936273
 31
0.0
  0
LINE
  8
0
 10
838.506177
 20
352.936273
 30
0.0
 11
838.565572
 21
352.928526
 31
0.0
  0
LINE
  8
0
 10
838.506177
 20
352.936273
 30
0.0
 11
838.446583
 21
352.936273
 31
0.0
  0
LINE
  8
0
 10
838.446583
 20
352.936273
 30
0.0
 11
838.506177
 21
352.936273
 31
0.0
  0
LINE
  8
0
 10
838.446583
 20
352.936273
 30
0.0
 11
838.387187
 21
352.928526
 31
0.0
  0
LINE
  8
0
 10
838.387187
 20
352.928526
 30
0.0
 11
838.446583
 21
352.936273
 31
0.0
  0
LINE
  8
0
 10
838.387187
 20
352.928526
 30
0.0
 11
838.327792
 21
352.91323
 31
0.0
  0
LINE
  8
0
 10
838.327792
 20
352.91323
 30
0.0
 11
838.387187
 21
352.928526
 31
0.0
  0
LINE
  8
0
 10
838.327792
 20
352.91323
 30
0.0
 11
838.271973
 21
352.892173
 31
0.0
  0
LINE
  8
0
 10
838.271973
 20
352.892173
 30
0.0
 11
838.327792
 21
352.91323
 31
0.0
  0
LINE
  8
0
 10
838.271973
 20
352.892173
 30
0.0
 11
838.218338
 21
352.865157
 31
0.0
  0
LINE
  8
0
 10
838.218338
 20
352.865157
 30
0.0
 11
838.271973
 21
352.892173
 31
0.0
  0
LINE
  8
0
 10
838.218338
 20
352.865157
 30
0.0
 11
838.168478
 21
352.830593
 31
0.0
  0
LINE
  8
0
 10
838.168478
 20
352.830593
 30
0.0
 11
838.218338
 21
352.865157
 31
0.0
  0
LINE
  8
0
 10
838.168478
 20
352.830593
 30
0.0
 11
838.12418
 21
352.790466
 31
0.0
  0
LINE
  8
0
 10
838.12418
 20
352.790466
 30
0.0
 11
838.168478
 21
352.830593
 31
0.0
  0
LINE
  8
0
 10
838.084053
 20
352.744381
 30
0.0
 11
838.12418
 21
352.790466
 31
0.0
  0
LINE
  8
0
 10
838.049489
 20
352.696308
 30
0.0
 11
838.084053
 21
352.744381
 31
0.0
  0
LINE
  8
0
 10
838.020685
 20
352.642674
 30
0.0
 11
838.049489
 21
352.696308
 31
0.0
  0
LINE
  8
0
 10
837.999629
 20
352.585066
 30
0.0
 11
838.020685
 21
352.642674
 31
0.0
  0
LINE
  8
0
 10
837.986121
 20
352.527459
 30
0.0
 11
837.999629
 21
352.585066
 31
0.0
  0
LINE
  8
0
 10
837.978374
 20
352.468064
 30
0.0
 11
837.986121
 21
352.527459
 31
0.0
  0
LINE
  8
0
 10
837.978374
 20
352.406483
 30
0.0
 11
837.978374
 21
352.468064
 31
0.0
  0
LINE
  8
0
 10
837.986121
 20
352.347088
 30
0.0
 11
837.978374
 21
352.406483
 31
0.0
  0
LINE
  8
0
 10
837.999629
 20
352.289481
 30
0.0
 11
837.986121
 21
352.347088
 31
0.0
  0
LINE
  8
0
 10
838.020685
 20
352.231873
 30
0.0
 11
837.999629
 21
352.289481
 31
0.0
  0
LINE
  8
0
 10
838.049489
 20
352.180027
 30
0.0
 11
838.020685
 21
352.231873
 31
0.0
  0
LINE
  8
0
 10
838.084053
 20
352.130166
 30
0.0
 11
838.049489
 21
352.180027
 31
0.0
  0
LINE
  8
0
 10
838.12418
 20
352.084081
 30
0.0
 11
838.084053
 21
352.130166
 31
0.0
  0
LINE
  8
0
 10
838.084053
 20
352.130166
 30
0.0
 11
838.12418
 21
352.084081
 31
0.0
  0
LINE
  8
0
 10
838.049489
 20
352.180027
 30
0.0
 11
838.084053
 21
352.130166
 31
0.0
  0
LINE
  8
0
 10
838.020685
 20
352.231873
 30
0.0
 11
838.049489
 21
352.180027
 31
0.0
  0
LINE
  8
0
 10
837.999629
 20
352.289481
 30
0.0
 11
838.020685
 21
352.231873
 31
0.0
  0
LINE
  8
0
 10
837.986121
 20
352.347088
 30
0.0
 11
837.999629
 21
352.289481
 31
0.0
  0
LINE
  8
0
 10
837.978374
 20
352.406483
 30
0.0
 11
837.986121
 21
352.347088
 31
0.0
  0
LINE
  8
0
 10
837.978374
 20
352.468064
 30
0.0
 11
837.978374
 21
352.406483
 31
0.0
  0
LINE
  8
0
 10
837.986121
 20
352.527459
 30
0.0
 11
837.978374
 21
352.468064
 31
0.0
  0
LINE
  8
0
 10
837.999629
 20
352.585066
 30
0.0
 11
837.986121
 21
352.527459
 31
0.0
  0
LINE
  8
0
 10
838.020685
 20
352.642674
 30
0.0
 11
837.999629
 21
352.585066
 31
0.0
  0
LINE
  8
0
 10
838.049489
 20
352.696308
 30
0.0
 11
838.020685
 21
352.642674
 31
0.0
  0
LINE
  8
0
 10
838.084053
 20
352.744381
 30
0.0
 11
838.049489
 21
352.696308
 31
0.0
  0
LINE
  8
0
 10
838.12418
 20
352.790466
 30
0.0
 11
838.084053
 21
352.744381
 31
0.0
  0
LINE
  8
0
 10
837.084068
 20
354.008962
 30
0.0
 11
837.024673
 21
353.943806
 31
0.0
  0
LINE
  8
0
 10
837.024673
 20
353.943806
 30
0.0
 11
837.084068
 21
354.008962
 31
0.0
  0
LINE
  8
0
 10
837.024673
 20
353.943806
 30
0.0
 11
836.972826
 21
353.874677
 31
0.0
  0
LINE
  8
0
 10
836.972826
 20
353.874677
 30
0.0
 11
837.024673
 21
353.943806
 31
0.0
  0
LINE
  8
0
 10
836.972826
 20
353.874677
 30
0.0
 11
836.924754
 21
353.801774
 31
0.0
  0
LINE
  8
0
 10
836.924754
 20
353.801774
 30
0.0
 11
836.972826
 21
353.874677
 31
0.0
  0
LINE
  8
0
 10
836.924754
 20
353.801774
 30
0.0
 11
836.884628
 21
353.724898
 31
0.0
  0
LINE
  8
0
 10
836.884628
 20
353.724898
 30
0.0
 11
836.924754
 21
353.801774
 31
0.0
  0
LINE
  8
0
 10
836.884628
 20
353.724898
 30
0.0
 11
836.851851
 21
353.644446
 31
0.0
  0
LINE
  8
0
 10
836.851851
 20
353.644446
 30
0.0
 11
836.884628
 21
353.724898
 31
0.0
  0
LINE
  8
0
 10
836.851851
 20
353.644446
 30
0.0
 11
836.825034
 21
353.560022
 31
0.0
  0
LINE
  8
0
 10
836.825034
 20
353.560022
 30
0.0
 11
836.851851
 21
353.644446
 31
0.0
  0
LINE
  8
0
 10
836.825034
 20
353.560022
 30
0.0
 11
836.807751
 21
353.475399
 31
0.0
  0
LINE
  8
0
 10
836.807751
 20
353.475399
 30
0.0
 11
836.825034
 21
353.560022
 31
0.0
  0
LINE
  8
0
 10
836.807751
 20
353.475399
 30
0.0
 11
836.79623
 21
353.389186
 31
0.0
  0
LINE
  8
0
 10
836.79623
 20
353.389186
 30
0.0
 11
836.807751
 21
353.475399
 31
0.0
  0
LINE
  8
0
 10
836.79623
 20
353.389186
 30
0.0
 11
836.792456
 21
353.302775
 31
0.0
  0
LINE
  8
0
 10
836.792456
 20
353.302775
 30
0.0
 11
836.79623
 21
353.389186
 31
0.0
  0
LINE
  8
0
 10
836.792456
 20
350.723553
 30
0.0
 11
836.79623
 21
350.635155
 31
0.0
  0
LINE
  8
0
 10
836.79623
 20
350.635155
 30
0.0
 11
836.792456
 21
350.723553
 31
0.0
  0
LINE
  8
0
 10
836.79623
 20
350.635155
 30
0.0
 11
836.807751
 21
350.548943
 31
0.0
  0
LINE
  8
0
 10
836.807751
 20
350.548943
 30
0.0
 11
836.79623
 21
350.635155
 31
0.0
  0
LINE
  8
0
 10
836.807751
 20
350.548943
 30
0.0
 11
836.825034
 21
350.464518
 31
0.0
  0
LINE
  8
0
 10
836.825034
 20
350.464518
 30
0.0
 11
836.807751
 21
350.548943
 31
0.0
  0
LINE
  8
0
 10
836.825034
 20
350.464518
 30
0.0
 11
836.851851
 21
350.381881
 31
0.0
  0
LINE
  8
0
 10
836.851851
 20
350.381881
 30
0.0
 11
836.825034
 21
350.464518
 31
0.0
  0
LINE
  8
0
 10
836.851851
 20
350.381881
 30
0.0
 11
836.884628
 21
350.301231
 31
0.0
  0
LINE
  8
0
 10
836.884628
 20
350.301231
 30
0.0
 11
836.851851
 21
350.381881
 31
0.0
  0
LINE
  8
0
 10
836.884628
 20
350.301231
 30
0.0
 11
836.924754
 21
350.224553
 31
0.0
  0
LINE
  8
0
 10
836.924754
 20
350.224553
 30
0.0
 11
836.884628
 21
350.301231
 31
0.0
  0
LINE
  8
0
 10
836.924754
 20
350.224553
 30
0.0
 11
836.972826
 21
350.149664
 31
0.0
  0
LINE
  8
0
 10
836.972826
 20
350.149664
 30
0.0
 11
836.924754
 21
350.224553
 31
0.0
  0
LINE
  8
0
 10
836.972826
 20
350.149664
 30
0.0
 11
837.024673
 21
350.080535
 31
0.0
  0
LINE
  8
0
 10
837.024673
 20
350.080535
 30
0.0
 11
836.972826
 21
350.149664
 31
0.0
  0
LINE
  8
0
 10
837.024673
 20
350.080535
 30
0.0
 11
837.084068
 21
350.017365
 31
0.0
  0
LINE
  8
0
 10
837.084068
 20
350.017365
 30
0.0
 11
837.024673
 21
350.080535
 31
0.0
  0
LINE
  8
0
 10
837.084068
 20
350.017365
 30
0.0
 11
837.147437
 21
349.957772
 31
0.0
  0
LINE
  8
0
 10
837.147437
 20
349.957772
 30
0.0
 11
837.084068
 21
350.017365
 31
0.0
  0
LINE
  8
0
 10
837.147437
 20
349.957772
 30
0.0
 11
837.216565
 21
349.905925
 31
0.0
  0
LINE
  8
0
 10
837.216565
 20
349.905925
 30
0.0
 11
837.147437
 21
349.957772
 31
0.0
  0
LINE
  8
0
 10
837.216565
 20
349.905925
 30
0.0
 11
837.291455
 21
349.858051
 31
0.0
  0
LINE
  8
0
 10
837.291455
 20
349.858051
 30
0.0
 11
837.216565
 21
349.905925
 31
0.0
  0
LINE
  8
0
 10
837.291455
 20
349.858051
 30
0.0
 11
837.368132
 21
349.817726
 31
0.0
  0
LINE
  8
0
 10
837.368132
 20
349.817726
 30
0.0
 11
837.291455
 21
349.858051
 31
0.0
  0
LINE
  8
0
 10
837.368132
 20
349.817726
 30
0.0
 11
837.448783
 21
349.785148
 31
0.0
  0
LINE
  8
0
 10
837.448783
 20
349.785148
 30
0.0
 11
837.368132
 21
349.817726
 31
0.0
  0
LINE
  8
0
 10
837.448783
 20
349.785148
 30
0.0
 11
837.531221
 21
349.758132
 31
0.0
  0
LINE
  8
0
 10
837.531221
 20
349.758132
 30
0.0
 11
837.448783
 21
349.785148
 31
0.0
  0
LINE
  8
0
 10
837.531221
 20
349.758132
 30
0.0
 11
837.615646
 21
349.74085
 31
0.0
  0
LINE
  8
0
 10
837.615646
 20
349.74085
 30
0.0
 11
837.531221
 21
349.758132
 31
0.0
  0
LINE
  8
0
 10
837.615646
 20
349.74085
 30
0.0
 11
837.702057
 21
349.729328
 31
0.0
  0
LINE
  8
0
 10
837.702057
 20
349.729328
 30
0.0
 11
837.615646
 21
349.74085
 31
0.0
  0
LINE
  8
0
 10
837.702057
 20
349.729328
 30
0.0
 11
837.790256
 21
349.725554
 31
0.0
  0
LINE
  8
0
 10
837.790256
 20
349.725554
 30
0.0
 11
837.702057
 21
349.729328
 31
0.0
  0
LINE
  8
0
 10
839.692094
 20
350.516166
 30
0.0
 11
839.751688
 21
350.579534
 31
0.0
  0
LINE
  8
0
 10
839.751688
 20
350.579534
 30
0.0
 11
839.692094
 21
350.516166
 31
0.0
  0
LINE
  8
0
 10
839.751688
 20
350.579534
 30
0.0
 11
839.803535
 21
350.648663
 31
0.0
  0
LINE
  8
0
 10
839.803535
 20
350.648663
 30
0.0
 11
839.751688
 21
350.579534
 31
0.0
  0
LINE
  8
0
 10
839.803535
 20
350.648663
 30
0.0
 11
839.851409
 21
350.723553
 31
0.0
  0
LINE
  8
0
 10
839.851409
 20
350.723553
 30
0.0
 11
839.803535
 21
350.648663
 31
0.0
  0
LINE
  8
0
 10
839.851409
 20
350.723553
 30
0.0
 11
839.889747
 21
350.80023
 31
0.0
  0
LINE
  8
0
 10
839.889747
 20
350.80023
 30
0.0
 11
839.851409
 21
350.723553
 31
0.0
  0
LINE
  8
0
 10
839.889747
 20
350.80023
 30
0.0
 11
839.924312
 21
350.88088
 31
0.0
  0
LINE
  8
0
 10
839.924312
 20
350.88088
 30
0.0
 11
839.889747
 21
350.80023
 31
0.0
  0
LINE
  8
0
 10
839.924312
 20
350.88088
 30
0.0
 11
839.949341
 21
350.963319
 31
0.0
  0
LINE
  8
0
 10
839.949341
 20
350.963319
 30
0.0
 11
839.924312
 21
350.88088
 31
0.0
  0
LINE
  8
0
 10
839.949341
 20
350.963319
 30
0.0
 11
839.968411
 21
351.047743
 31
0.0
  0
LINE
  8
0
 10
839.968411
 20
351.047743
 30
0.0
 11
839.949341
 21
350.963319
 31
0.0
  0
LINE
  8
0
 10
839.968411
 20
351.047743
 30
0.0
 11
839.979933
 21
351.134154
 31
0.0
  0
LINE
  8
0
 10
839.979933
 20
351.134154
 30
0.0
 11
839.968411
 21
351.047743
 31
0.0
  0
LINE
  8
0
 10
839.979933
 20
351.134154
 30
0.0
 11
839.983906
 21
351.222552
 31
0.0
  0
LINE
  8
0
 10
839.983906
 20
351.222552
 30
0.0
 11
839.979933
 21
351.134154
 31
0.0
  0
LINE
  8
0
 10
839.983906
 20
351.222552
 30
0.0
 11
839.979933
 21
351.308764
 31
0.0
  0
LINE
  8
0
 10
839.979933
 20
351.308764
 30
0.0
 11
839.983906
 21
351.222552
 31
0.0
  0
LINE
  8
0
 10
839.979933
 20
351.308764
 30
0.0
 11
839.968411
 21
351.395175
 31
0.0
  0
LINE
  8
0
 10
839.968411
 20
351.395175
 30
0.0
 11
839.979933
 21
351.308764
 31
0.0
  0
LINE
  8
0
 10
839.968411
 20
351.395175
 30
0.0
 11
839.949341
 21
351.4796
 31
0.0
  0
LINE
  8
0
 10
839.949341
 20
351.4796
 30
0.0
 11
839.968411
 21
351.395175
 31
0.0
  0
LINE
  8
0
 10
839.949341
 20
351.4796
 30
0.0
 11
839.924312
 21
351.562237
 31
0.0
  0
LINE
  8
0
 10
839.924312
 20
351.562237
 30
0.0
 11
839.949341
 21
351.4796
 31
0.0
  0
LINE
  8
0
 10
839.924312
 20
351.562237
 30
0.0
 11
839.889747
 21
351.642689
 31
0.0
  0
LINE
  8
0
 10
839.889747
 20
351.642689
 30
0.0
 11
839.924312
 21
351.562237
 31
0.0
  0
LINE
  8
0
 10
839.889747
 20
351.642689
 30
0.0
 11
839.851409
 21
351.719565
 31
0.0
  0
LINE
  8
0
 10
839.851409
 20
351.719565
 30
0.0
 11
839.889747
 21
351.642689
 31
0.0
  0
LINE
  8
0
 10
839.851409
 20
351.719565
 30
0.0
 11
839.803535
 21
351.794454
 31
0.0
  0
LINE
  8
0
 10
839.803535
 20
351.794454
 30
0.0
 11
839.851409
 21
351.719565
 31
0.0
  0
LINE
  8
0
 10
839.803535
 20
351.794454
 30
0.0
 11
839.751688
 21
351.863385
 31
0.0
  0
LINE
  8
0
 10
839.751688
 20
351.863385
 30
0.0
 11
839.803535
 21
351.794454
 31
0.0
  0
LINE
  8
0
 10
839.751688
 20
351.863385
 30
0.0
 11
839.692094
 21
351.926753
 31
0.0
  0
LINE
  8
0
 10
839.692094
 20
351.926753
 30
0.0
 11
839.751688
 21
351.863385
 31
0.0
  0
LINE
  8
0
 10
841.777581
 20
392.835953
 30
0.0
 11
841.817906
 21
392.914617
 31
0.0
  0
LINE
  8
0
 10
841.743016
 20
392.755302
 30
0.0
 11
841.777581
 21
392.835953
 31
0.0
  0
LINE
  8
0
 10
841.718186
 20
392.672864
 30
0.0
 11
841.743016
 21
392.755302
 31
0.0
  0
LINE
  8
0
 10
841.698917
 20
392.58844
 30
0.0
 11
841.718186
 21
392.672864
 31
0.0
  0
LINE
  8
0
 10
841.687395
 20
392.502028
 30
0.0
 11
841.698917
 21
392.58844
 31
0.0
  0
LINE
  8
0
 10
841.683621
 20
392.415617
 30
0.0
 11
841.687395
 21
392.502028
 31
0.0
  0
LINE
  8
0
 10
841.687395
 20
392.502028
 30
0.0
 11
841.683621
 21
392.415617
 31
0.0
  0
LINE
  8
0
 10
841.698917
 20
392.58844
 30
0.0
 11
841.687395
 21
392.502028
 31
0.0
  0
LINE
  8
0
 10
841.718186
 20
392.672864
 30
0.0
 11
841.698917
 21
392.58844
 31
0.0
  0
LINE
  8
0
 10
841.743016
 20
392.755302
 30
0.0
 11
841.718186
 21
392.672864
 31
0.0
  0
LINE
  8
0
 10
841.777581
 20
392.835953
 30
0.0
 11
841.743016
 21
392.755302
 31
0.0
  0
LINE
  8
0
 10
841.817906
 20
392.914617
 30
0.0
 11
841.777581
 21
392.835953
 31
0.0
  0
LINE
  8
0
 10
846.667456
 20
392.502028
 30
0.0
 11
846.67123
 21
392.415617
 31
0.0
  0
LINE
  8
0
 10
846.655934
 20
392.58844
 30
0.0
 11
846.667456
 21
392.502028
 31
0.0
  0
LINE
  8
0
 10
846.636666
 20
392.672864
 30
0.0
 11
846.655934
 21
392.58844
 31
0.0
  0
LINE
  8
0
 10
846.611835
 20
392.755302
 30
0.0
 11
846.636666
 21
392.672864
 31
0.0
  0
LINE
  8
0
 10
846.577271
 20
392.835953
 30
0.0
 11
846.611835
 21
392.755302
 31
0.0
  0
LINE
  8
0
 10
846.536945
 20
392.914617
 30
0.0
 11
846.577271
 21
392.835953
 31
0.0
  0
LINE
  8
0
 10
846.577271
 20
392.835953
 30
0.0
 11
846.536945
 21
392.914617
 31
0.0
  0
LINE
  8
0
 10
846.611835
 20
392.755302
 30
0.0
 11
846.577271
 21
392.835953
 31
0.0
  0
LINE
  8
0
 10
846.636666
 20
392.672864
 30
0.0
 11
846.611835
 21
392.755302
 31
0.0
  0
LINE
  8
0
 10
846.655934
 20
392.58844
 30
0.0
 11
846.636666
 21
392.672864
 31
0.0
  0
LINE
  8
0
 10
846.667456
 20
392.502028
 30
0.0
 11
846.655934
 21
392.58844
 31
0.0
  0
LINE
  8
0
 10
846.67123
 20
392.415617
 30
0.0
 11
846.667456
 21
392.502028
 31
0.0
  0
LINE
  8
0
 10
846.67123
 20
359.537882
 30
0.0
 11
846.675004
 21
359.407372
 31
0.0
  0
LINE
  8
0
 10
846.675004
 20
359.407372
 30
0.0
 11
846.67123
 21
359.537882
 31
0.0
  0
LINE
  8
0
 10
846.675004
 20
359.407372
 30
0.0
 11
846.684738
 21
359.276861
 31
0.0
  0
LINE
  8
0
 10
846.684738
 20
359.276861
 30
0.0
 11
846.675004
 21
359.407372
 31
0.0
  0
LINE
  8
0
 10
846.684738
 20
359.276861
 30
0.0
 11
846.70202
 21
359.148337
 31
0.0
  0
LINE
  8
0
 10
846.70202
 20
359.148337
 30
0.0
 11
846.684738
 21
359.276861
 31
0.0
  0
LINE
  8
0
 10
846.70202
 20
359.148337
 30
0.0
 11
846.725063
 21
359.019813
 31
0.0
  0
LINE
  8
0
 10
846.725063
 20
359.019813
 30
0.0
 11
846.70202
 21
359.148337
 31
0.0
  0
LINE
  8
0
 10
846.725063
 20
359.019813
 30
0.0
 11
846.755655
 21
358.893077
 31
0.0
  0
LINE
  8
0
 10
846.755655
 20
358.893077
 30
0.0
 11
846.725063
 21
359.019813
 31
0.0
  0
LINE
  8
0
 10
846.755655
 20
358.893077
 30
0.0
 11
846.793994
 21
358.76634
 31
0.0
  0
LINE
  8
0
 10
846.793994
 20
358.76634
 30
0.0
 11
846.755655
 21
358.893077
 31
0.0
  0
LINE
  8
0
 10
846.793994
 20
358.76634
 30
0.0
 11
846.836305
 21
358.643577
 31
0.0
  0
LINE
  8
0
 10
846.836305
 20
358.643577
 30
0.0
 11
846.793994
 21
358.76634
 31
0.0
  0
LINE
  8
0
 10
846.836305
 20
358.643577
 30
0.0
 11
846.886165
 21
358.522601
 31
0.0
  0
LINE
  8
0
 10
846.886165
 20
358.522601
 30
0.0
 11
846.836305
 21
358.643577
 31
0.0
  0
LINE
  8
0
 10
846.886165
 20
358.522601
 30
0.0
 11
846.943773
 21
358.405599
 31
0.0
  0
LINE
  8
0
 10
846.943773
 20
358.405599
 30
0.0
 11
846.886165
 21
358.522601
 31
0.0
  0
LINE
  8
0
 10
846.943773
 20
358.405599
 30
0.0
 11
847.005154
 21
358.290384
 31
0.0
  0
LINE
  8
0
 10
847.005154
 20
358.290384
 30
0.0
 11
846.943773
 21
358.405599
 31
0.0
  0
LINE
  8
0
 10
847.005154
 20
358.290384
 30
0.0
 11
847.074283
 21
358.179142
 31
0.0
  0
LINE
  8
0
 10
847.074283
 20
358.179142
 30
0.0
 11
847.005154
 21
358.290384
 31
0.0
  0
LINE
  8
0
 10
847.074283
 20
358.179142
 30
0.0
 11
847.147187
 21
358.071675
 31
0.0
  0
LINE
  8
0
 10
847.147187
 20
358.071675
 30
0.0
 11
847.074283
 21
358.179142
 31
0.0
  0
LINE
  8
0
 10
847.147187
 20
358.071675
 30
0.0
 11
847.227837
 21
357.967981
 31
0.0
  0
LINE
  8
0
 10
847.227837
 20
357.967981
 30
0.0
 11
847.147187
 21
358.071675
 31
0.0
  0
LINE
  8
0
 10
847.227837
 20
357.967981
 30
0.0
 11
847.312262
 21
357.868261
 31
0.0
  0
LINE
  8
0
 10
847.312262
 20
357.868261
 30
0.0
 11
847.227837
 21
357.967981
 31
0.0
  0
LINE
  8
0
 10
847.312262
 20
357.868261
 30
0.0
 11
847.402447
 21
357.774301
 31
0.0
  0
LINE
  8
0
 10
847.402447
 20
357.774301
 30
0.0
 11
847.312262
 21
357.868261
 31
0.0
  0
LINE
  8
0
 10
851.227181
 20
353.943806
 30
0.0
 11
851.167587
 21
354.008962
 31
0.0
  0
LINE
  8
0
 10
851.279028
 20
353.874677
 30
0.0
 11
851.227181
 21
353.943806
 31
0.0
  0
LINE
  8
0
 10
851.326901
 20
353.801774
 30
0.0
 11
851.279028
 21
353.874677
 31
0.0
  0
LINE
  8
0
 10
851.367227
 20
353.724898
 30
0.0
 11
851.326901
 21
353.801774
 31
0.0
  0
LINE
  8
0
 10
851.399805
 20
353.644446
 30
0.0
 11
851.367227
 21
353.724898
 31
0.0
  0
LINE
  8
0
 10
851.42682
 20
353.560022
 30
0.0
 11
851.399805
 21
353.644446
 31
0.0
  0
LINE
  8
0
 10
851.444103
 20
353.475399
 30
0.0
 11
851.42682
 21
353.560022
 31
0.0
  0
LINE
  8
0
 10
851.455624
 20
353.389186
 30
0.0
 11
851.444103
 21
353.475399
 31
0.0
  0
LINE
  8
0
 10
851.455624
 20
353.389186
 30
0.0
 11
851.459398
 21
353.302775
 31
0.0
  0
LINE
  8
0
 10
851.227181
 20
353.943806
 30
0.0
 11
851.167587
 21
354.008962
 31
0.0
  0
LINE
  8
0
 10
851.279028
 20
353.874677
 30
0.0
 11
851.227181
 21
353.943806
 31
0.0
  0
LINE
  8
0
 10
851.326901
 20
353.801774
 30
0.0
 11
851.279028
 21
353.874677
 31
0.0
  0
LINE
  8
0
 10
851.367227
 20
353.724898
 30
0.0
 11
851.326901
 21
353.801774
 31
0.0
  0
LINE
  8
0
 10
851.399805
 20
353.644446
 30
0.0
 11
851.367227
 21
353.724898
 31
0.0
  0
LINE
  8
0
 10
851.42682
 20
353.560022
 30
0.0
 11
851.399805
 21
353.644446
 31
0.0
  0
LINE
  8
0
 10
851.444103
 20
353.475399
 30
0.0
 11
851.42682
 21
353.560022
 31
0.0
  0
LINE
  8
0
 10
851.455624
 20
353.389186
 30
0.0
 11
851.444103
 21
353.475399
 31
0.0
  0
LINE
  8
0
 10
851.459398
 20
353.302775
 30
0.0
 11
851.455624
 21
353.389186
 31
0.0
  0
LINE
  8
0
 10
851.455624
 20
350.635155
 30
0.0
 11
851.459398
 21
350.723553
 31
0.0
  0
LINE
  8
0
 10
851.444103
 20
350.548943
 30
0.0
 11
851.455624
 21
350.635155
 31
0.0
  0
LINE
  8
0
 10
851.42682
 20
350.464518
 30
0.0
 11
851.444103
 21
350.548943
 31
0.0
  0
LINE
  8
0
 10
851.399805
 20
350.381881
 30
0.0
 11
851.42682
 21
350.464518
 31
0.0
  0
LINE
  8
0
 10
851.367227
 20
350.301231
 30
0.0
 11
851.399805
 21
350.381881
 31
0.0
  0
LINE
  8
0
 10
851.326901
 20
350.224553
 30
0.0
 11
851.367227
 21
350.301231
 31
0.0
  0
LINE
  8
0
 10
851.279028
 20
350.149664
 30
0.0
 11
851.326901
 21
350.224553
 31
0.0
  0
LINE
  8
0
 10
851.227181
 20
350.080535
 30
0.0
 11
851.279028
 21
350.149664
 31
0.0
  0
LINE
  8
0
 10
851.167587
 20
350.017365
 30
0.0
 11
851.227181
 21
350.080535
 31
0.0
  0
LINE
  8
0
 10
851.104418
 20
349.957772
 30
0.0
 11
851.167587
 21
350.017365
 31
0.0
  0
LINE
  8
0
 10
851.035289
 20
349.905925
 30
0.0
 11
851.104418
 21
349.957772
 31
0.0
  0
LINE
  8
0
 10
850.960399
 20
349.858051
 30
0.0
 11
851.035289
 21
349.905925
 31
0.0
  0
LINE
  8
0
 10
850.883722
 20
349.817726
 30
0.0
 11
850.960399
 21
349.858051
 31
0.0
  0
LINE
  8
0
 10
850.803071
 20
349.785148
 30
0.0
 11
850.883722
 21
349.817726
 31
0.0
  0
LINE
  8
0
 10
850.720434
 20
349.758132
 30
0.0
 11
850.803071
 21
349.785148
 31
0.0
  0
LINE
  8
0
 10
850.63601
 20
349.74085
 30
0.0
 11
850.720434
 21
349.758132
 31
0.0
  0
LINE
  8
0
 10
850.549797
 20
349.729328
 30
0.0
 11
850.63601
 21
349.74085
 31
0.0
  0
LINE
  8
0
 10
850.549797
 20
349.729328
 30
0.0
 11
850.4614
 21
349.725554
 31
0.0
  0
LINE
  8
0
 10
851.455624
 20
350.635155
 30
0.0
 11
851.459398
 21
350.723553
 31
0.0
  0
LINE
  8
0
 10
851.444103
 20
350.548943
 30
0.0
 11
851.455624
 21
350.635155
 31
0.0
  0
LINE
  8
0
 10
851.42682
 20
350.464518
 30
0.0
 11
851.444103
 21
350.548943
 31
0.0
  0
LINE
  8
0
 10
851.399805
 20
350.381881
 30
0.0
 11
851.42682
 21
350.464518
 31
0.0
  0
LINE
  8
0
 10
851.367227
 20
350.301231
 30
0.0
 11
851.399805
 21
350.381881
 31
0.0
  0
LINE
  8
0
 10
851.326901
 20
350.224553
 30
0.0
 11
851.367227
 21
350.301231
 31
0.0
  0
LINE
  8
0
 10
851.279028
 20
350.149664
 30
0.0
 11
851.326901
 21
350.224553
 31
0.0
  0
LINE
  8
0
 10
851.227181
 20
350.080535
 30
0.0
 11
851.279028
 21
350.149664
 31
0.0
  0
LINE
  8
0
 10
851.167587
 20
350.017365
 30
0.0
 11
851.227181
 21
350.080535
 31
0.0
  0
LINE
  8
0
 10
851.104418
 20
349.957772
 30
0.0
 11
851.167587
 21
350.017365
 31
0.0
  0
LINE
  8
0
 10
851.035289
 20
349.905925
 30
0.0
 11
851.104418
 21
349.957772
 31
0.0
  0
LINE
  8
0
 10
850.960399
 20
349.858051
 30
0.0
 11
851.035289
 21
349.905925
 31
0.0
  0
LINE
  8
0
 10
850.883722
 20
349.817726
 30
0.0
 11
850.960399
 21
349.858051
 31
0.0
  0
LINE
  8
0
 10
850.803071
 20
349.785148
 30
0.0
 11
850.883722
 21
349.817726
 31
0.0
  0
LINE
  8
0
 10
850.720434
 20
349.758132
 30
0.0
 11
850.803071
 21
349.785148
 31
0.0
  0
LINE
  8
0
 10
850.63601
 20
349.74085
 30
0.0
 11
850.720434
 21
349.758132
 31
0.0
  0
LINE
  8
0
 10
850.549797
 20
349.729328
 30
0.0
 11
850.4614
 21
349.725554
 31
0.0
  0
LINE
  8
0
 10
850.63601
 20
349.74085
 30
0.0
 11
850.549797
 21
349.729328
 31
0.0
  0
LINE
  8
0
 10
840.849407
 20
357.774301
 30
0.0
 11
840.939593
 21
357.868261
 31
0.0
  0
LINE
  8
0
 10
840.939593
 20
357.868261
 30
0.0
 11
840.849407
 21
357.774301
 31
0.0
  0
LINE
  8
0
 10
840.939593
 20
357.868261
 30
0.0
 11
841.024017
 21
357.967981
 31
0.0
  0
LINE
  8
0
 10
841.024017
 20
357.967981
 30
0.0
 11
840.939593
 21
357.868261
 31
0.0
  0
LINE
  8
0
 10
841.024017
 20
357.967981
 30
0.0
 11
841.104668
 21
358.071675
 31
0.0
  0
LINE
  8
0
 10
841.104668
 20
358.071675
 30
0.0
 11
841.024017
 21
357.967981
 31
0.0
  0
LINE
  8
0
 10
841.104668
 20
358.071675
 30
0.0
 11
841.177571
 21
358.179142
 31
0.0
  0
LINE
  8
0
 10
841.177571
 20
358.179142
 30
0.0
 11
841.104668
 21
358.071675
 31
0.0
  0
LINE
  8
0
 10
841.177571
 20
358.179142
 30
0.0
 11
841.2467
 21
358.290384
 31
0.0
  0
LINE
  8
0
 10
841.2467
 20
358.290384
 30
0.0
 11
841.177571
 21
358.179142
 31
0.0
  0
LINE
  8
0
 10
841.2467
 20
358.290384
 30
0.0
 11
841.334733
 21
358.405599
 31
0.0
  0
LINE
  8
0
 10
841.334733
 20
358.405599
 30
0.0
 11
841.2467
 21
358.290384
 31
0.0
  0
LINE
  8
0
 10
841.334733
 20
358.405599
 30
0.0
 11
841.392341
 21
358.522601
 31
0.0
  0
LINE
  8
0
 10
841.392341
 20
358.522601
 30
0.0
 11
841.334733
 21
358.405599
 31
0.0
  0
LINE
  8
0
 10
841.392341
 20
358.522601
 30
0.0
 11
841.442201
 21
358.643577
 31
0.0
  0
LINE
  8
0
 10
841.442201
 20
358.643577
 30
0.0
 11
841.392341
 21
358.522601
 31
0.0
  0
LINE
  8
0
 10
841.442201
 20
358.643577
 30
0.0
 11
841.510966
 21
358.76634
 31
0.0
  0
LINE
  8
0
 10
841.510966
 20
358.76634
 30
0.0
 11
841.442201
 21
358.643577
 31
0.0
  0
LINE
  8
0
 10
841.510966
 20
358.76634
 30
0.0
 11
841.576155
 21
358.893077
 31
0.0
  0
LINE
  8
0
 10
841.576155
 20
358.893077
 30
0.0
 11
841.510966
 21
358.76634
 31
0.0
  0
LINE
  8
0
 10
841.631412
 20
359.019813
 30
0.0
 11
841.576155
 21
358.893077
 31
0.0
  0
LINE
  8
0
 10
841.683093
 20
359.148337
 30
0.0
 11
841.631412
 21
359.019813
 31
0.0
  0
LINE
  8
0
 10
841.700375
 20
359.276861
 30
0.0
 11
841.683093
 21
359.148337
 31
0.0
  0
LINE
  8
0
 10
841.694884
 20
359.407372
 30
0.0
 11
841.700375
 21
359.276861
 31
0.0
  0
LINE
  8
0
 10
841.698857
 20
359.537882
 30
0.0
 11
841.694884
 21
359.407372
 31
0.0
  0
LINE
  8
0
 10
841.694884
 20
359.407372
 30
0.0
 11
841.698857
 21
359.537882
 31
0.0
  0
LINE
  8
0
 10
841.700375
 20
359.276861
 30
0.0
 11
841.694884
 21
359.407372
 31
0.0
  0
LINE
  8
0
 10
841.683093
 20
359.148337
 30
0.0
 11
841.700375
 21
359.276861
 31
0.0
  0
LINE
  8
0
 10
841.631412
 20
359.019813
 30
0.0
 11
841.683093
 21
359.148337
 31
0.0
  0
LINE
  8
0
 10
841.576155
 20
358.893077
 30
0.0
 11
841.631412
 21
359.019813
 31
0.0
  0
LINE
  8
0
 10
844.176432
 20
395.006361
 30
0.0
 11
842.681421
 21
392.415617
 31
0.0
  0
LINE
  8
0
 10
845.673232
 20
392.415617
 30
0.0
 11
844.176432
 21
395.006361
 31
0.0
  0
LINE
  8
0
 10
845.673232
 20
366.686563
 30
0.0
 11
845.673232
 21
392.415617
 31
0.0
  0
LINE
  8
0
 10
845.174431
 20
363.692766
 30
0.0
 11
845.170458
 21
363.778979
 31
0.0
  0
LINE
  8
0
 10
845.170458
 20
363.778979
 30
0.0
 11
845.174431
 21
363.692766
 31
0.0
  0
LINE
  8
0
 10
845.170458
 20
363.778979
 30
0.0
 11
845.158937
 21
363.86539
 31
0.0
  0
LINE
  8
0
 10
845.158937
 20
363.86539
 30
0.0
 11
845.170458
 21
363.778979
 31
0.0
  0
LINE
  8
0
 10
845.158937
 20
363.86539
 30
0.0
 11
845.141654
 21
363.951801
 31
0.0
  0
LINE
  8
0
 10
845.141654
 20
363.951801
 30
0.0
 11
845.158937
 21
363.86539
 31
0.0
  0
LINE
  8
0
 10
845.141654
 20
363.951801
 30
0.0
 11
845.114837
 21
364.034239
 31
0.0
  0
LINE
  8
0
 10
845.114837
 20
364.034239
 30
0.0
 11
845.141654
 21
363.951801
 31
0.0
  0
LINE
  8
0
 10
845.114837
 20
364.034239
 30
0.0
 11
845.082259
 21
364.114889
 31
0.0
  0
LINE
  8
0
 10
845.082259
 20
364.114889
 30
0.0
 11
845.114837
 21
364.034239
 31
0.0
  0
LINE
  8
0
 10
845.082259
 20
364.114889
 30
0.0
 11
845.041934
 21
364.191766
 31
0.0
  0
LINE
  8
0
 10
845.041934
 20
364.191766
 30
0.0
 11
845.082259
 21
364.114889
 31
0.0
  0
LINE
  8
0
 10
845.041934
 20
364.191766
 30
0.0
 11
844.99406
 21
364.264669
 31
0.0
  0
LINE
  8
0
 10
844.99406
 20
364.264669
 30
0.0
 11
845.041934
 21
364.191766
 31
0.0
  0
LINE
  8
0
 10
844.99406
 20
364.264669
 30
0.0
 11
844.942214
 21
364.333599
 31
0.0
  0
LINE
  8
0
 10
844.942214
 20
364.333599
 30
0.0
 11
844.99406
 21
364.264669
 31
0.0
  0
LINE
  8
0
 10
844.942214
 20
364.333599
 30
0.0
 11
844.88262
 21
364.398954
 31
0.0
  0
LINE
  8
0
 10
844.88262
 20
364.398954
 30
0.0
 11
844.942214
 21
364.333599
 31
0.0
  0
LINE
  8
0
 10
844.88262
 20
364.398954
 30
0.0
 11
844.819252
 21
364.456561
 31
0.0
  0
LINE
  8
0
 10
844.819252
 20
364.456561
 30
0.0
 11
844.88262
 21
364.398954
 31
0.0
  0
LINE
  8
0
 10
844.819252
 20
364.456561
 30
0.0
 11
844.750321
 21
364.510195
 31
0.0
  0
LINE
  8
0
 10
844.750321
 20
364.510195
 30
0.0
 11
844.819252
 21
364.456561
 31
0.0
  0
LINE
  8
0
 10
844.750321
 20
364.510195
 30
0.0
 11
844.675432
 21
364.556281
 31
0.0
  0
LINE
  8
0
 10
844.675432
 20
364.556281
 30
0.0
 11
844.750321
 21
364.510195
 31
0.0
  0
LINE
  8
0
 10
844.675432
 20
364.556281
 30
0.0
 11
844.598556
 21
364.596606
 31
0.0
  0
LINE
  8
0
 10
844.598556
 20
364.596606
 30
0.0
 11
844.675432
 21
364.556281
 31
0.0
  0
LINE
  8
0
 10
844.598556
 20
364.596606
 30
0.0
 11
844.518104
 21
364.629184
 31
0.0
  0
LINE
  8
0
 10
844.518104
 20
364.629184
 30
0.0
 11
844.598556
 21
364.596606
 31
0.0
  0
LINE
  8
0
 10
844.518104
 20
364.629184
 30
0.0
 11
844.435467
 21
364.656002
 31
0.0
  0
LINE
  8
0
 10
844.435467
 20
364.656002
 30
0.0
 11
844.518104
 21
364.629184
 31
0.0
  0
LINE
  8
0
 10
844.435467
 20
364.656002
 30
0.0
 11
844.351042
 21
364.67527
 31
0.0
  0
LINE
  8
0
 10
844.351042
 20
364.67527
 30
0.0
 11
844.435467
 21
364.656002
 31
0.0
  0
LINE
  8
0
 10
843.184195
 20
363.778979
 30
0.0
 11
843.18042
 21
363.692766
 31
0.0
  0
LINE
  8
0
 10
843.195716
 20
363.86539
 30
0.0
 11
843.184195
 21
363.778979
 31
0.0
  0
LINE
  8
0
 10
843.212998
 20
363.951801
 30
0.0
 11
843.195716
 21
363.86539
 31
0.0
  0
LINE
  8
0
 10
843.240014
 20
364.034239
 30
0.0
 11
843.212998
 21
363.951801
 31
0.0
  0
LINE
  8
0
 10
843.272592
 20
364.114889
 30
0.0
 11
843.240014
 21
364.034239
 31
0.0
  0
LINE
  8
0
 10
843.312917
 20
364.191766
 30
0.0
 11
843.272592
 21
364.114889
 31
0.0
  0
LINE
  8
0
 10
843.360791
 20
364.264669
 30
0.0
 11
843.312917
 21
364.191766
 31
0.0
  0
LINE
  8
0
 10
843.412638
 20
364.333599
 30
0.0
 11
843.360791
 21
364.264669
 31
0.0
  0
LINE
  8
0
 10
843.472033
 20
364.398954
 30
0.0
 11
843.412638
 21
364.333599
 31
0.0
  0
LINE
  8
0
 10
843.535401
 20
364.456561
 30
0.0
 11
843.472033
 21
364.398954
 31
0.0
  0
LINE
  8
0
 10
843.60453
 20
364.510195
 30
0.0
 11
843.535401
 21
364.456561
 31
0.0
  0
LINE
  8
0
 10
843.67942
 20
364.556281
 30
0.0
 11
843.60453
 21
364.510195
 31
0.0
  0
LINE
  8
0
 10
843.756097
 20
364.596606
 30
0.0
 11
843.67942
 21
364.556281
 31
0.0
  0
LINE
  8
0
 10
843.836747
 20
364.629184
 30
0.0
 11
843.756097
 21
364.596606
 31
0.0
  0
LINE
  8
0
 10
843.919186
 20
364.656002
 30
0.0
 11
843.836747
 21
364.629184
 31
0.0
  0
LINE
  8
0
 10
844.003809
 20
364.67527
 30
0.0
 11
843.919186
 21
364.656002
 31
0.0
  0
LINE
  8
0
 10
844.090021
 20
364.686792
 30
0.0
 11
844.003809
 21
364.67527
 31
0.0
  0
LINE
  8
0
 10
844.176432
 20
364.690566
 30
0.0
 11
844.090021
 21
364.686792
 31
0.0
  0
LINE
  8
0
 10
844.264631
 20
364.686792
 30
0.0
 11
844.176432
 21
364.690566
 31
0.0
  0
LINE
  8
0
 10
844.351042
 20
364.67527
 30
0.0
 11
844.264631
 21
364.686792
 31
0.0
  0
LINE
  8
0
 10
844.264631
 20
364.686792
 30
0.0
 11
844.351042
 21
364.67527
 31
0.0
  0
LINE
  8
0
 10
844.176432
 20
364.690566
 30
0.0
 11
844.264631
 21
364.686792
 31
0.0
  0
LINE
  8
0
 10
844.090021
 20
364.686792
 30
0.0
 11
844.176432
 21
364.690566
 31
0.0
  0
LINE
  8
0
 10
844.003809
 20
364.67527
 30
0.0
 11
844.090021
 21
364.686792
 31
0.0
  0
LINE
  8
0
 10
843.919186
 20
364.656002
 30
0.0
 11
844.003809
 21
364.67527
 31
0.0
  0
LINE
  8
0
 10
843.836747
 20
364.629184
 30
0.0
 11
843.919186
 21
364.656002
 31
0.0
  0
LINE
  8
0
 10
843.756097
 20
364.596606
 30
0.0
 11
843.836747
 21
364.629184
 31
0.0
  0
LINE
  8
0
 10
843.67942
 20
364.556281
 30
0.0
 11
843.756097
 21
364.596606
 31
0.0
  0
LINE
  8
0
 10
843.184195
 20
363.778979
 30
0.0
 11
843.18042
 21
363.692766
 31
0.0
  0
LINE
  8
0
 10
843.195716
 20
363.86539
 30
0.0
 11
843.184195
 21
363.778979
 31
0.0
  0
LINE
  8
0
 10
843.212998
 20
363.951801
 30
0.0
 11
843.195716
 21
363.86539
 31
0.0
  0
LINE
  8
0
 10
843.240014
 20
364.034239
 30
0.0
 11
843.212998
 21
363.951801
 31
0.0
  0
LINE
  8
0
 10
843.272592
 20
364.114889
 30
0.0
 11
843.240014
 21
364.034239
 31
0.0
  0
LINE
  8
0
 10
843.312917
 20
364.191766
 30
0.0
 11
843.272592
 21
364.114889
 31
0.0
  0
LINE
  8
0
 10
843.360791
 20
364.264669
 30
0.0
 11
843.312917
 21
364.191766
 31
0.0
  0
LINE
  8
0
 10
843.412638
 20
364.333599
 30
0.0
 11
843.360791
 21
364.264669
 31
0.0
  0
LINE
  8
0
 10
843.472033
 20
364.398954
 30
0.0
 11
843.412638
 21
364.333599
 31
0.0
  0
LINE
  8
0
 10
843.535401
 20
364.456561
 30
0.0
 11
843.472033
 21
364.398954
 31
0.0
  0
LINE
  8
0
 10
843.60453
 20
364.510195
 30
0.0
 11
843.535401
 21
364.456561
 31
0.0
  0
LINE
  8
0
 10
843.67942
 20
364.556281
 30
0.0
 11
843.60453
 21
364.510195
 31
0.0
  0
LINE
  8
0
 10
844.675432
 20
365.688565
 30
0.0
 11
843.67942
 21
365.688565
 31
0.0
  0
LINE
  8
0
 10
843.67942
 20
365.688565
 30
0.0
 11
844.675432
 21
365.688565
 31
0.0
  0
LINE
  8
0
 10
842.681421
 20
366.686563
 30
0.0
 11
842.681421
 21
392.415617
 31
0.0
  0
LINE
  8
0
 10
842.681421
 20
366.686563
 30
0.0
 11
842.685394
 21
366.598166
 31
0.0
  0
LINE
  8
0
 10
842.685394
 20
366.598166
 30
0.0
 11
842.681421
 21
366.686563
 31
0.0
  0
LINE
  8
0
 10
842.685394
 20
366.598166
 30
0.0
 11
842.696916
 21
366.511755
 31
0.0
  0
LINE
  8
0
 10
842.696916
 20
366.511755
 30
0.0
 11
842.685394
 21
366.598166
 31
0.0
  0
LINE
  8
0
 10
842.696916
 20
366.511755
 30
0.0
 11
842.713999
 21
366.42733
 31
0.0
  0
LINE
  8
0
 10
842.713999
 20
366.42733
 30
0.0
 11
842.696916
 21
366.511755
 31
0.0
  0
LINE
  8
0
 10
842.713999
 20
366.42733
 30
0.0
 11
842.741015
 21
366.344892
 31
0.0
  0
LINE
  8
0
 10
842.741015
 20
366.344892
 30
0.0
 11
842.713999
 21
366.42733
 31
0.0
  0
LINE
  8
0
 10
842.741015
 20
366.344892
 30
0.0
 11
842.773593
 21
366.264241
 31
0.0
  0
LINE
  8
0
 10
842.773593
 20
366.264241
 30
0.0
 11
842.741015
 21
366.344892
 31
0.0
  0
LINE
  8
0
 10
842.773593
 20
366.264241
 30
0.0
 11
842.813918
 21
366.187564
 31
0.0
  0
LINE
  8
0
 10
842.813918
 20
366.187564
 30
0.0
 11
842.773593
 21
366.264241
 31
0.0
  0
LINE
  8
0
 10
842.813918
 20
366.187564
 30
0.0
 11
842.861792
 21
366.112674
 31
0.0
  0
LINE
  8
0
 10
842.861792
 20
366.112674
 30
0.0
 11
842.813918
 21
366.187564
 31
0.0
  0
LINE
  8
0
 10
842.861792
 20
366.112674
 30
0.0
 11
842.913639
 21
366.043545
 31
0.0
  0
LINE
  8
0
 10
842.913639
 20
366.043545
 30
0.0
 11
842.861792
 21
366.112674
 31
0.0
  0
LINE
  8
0
 10
842.913639
 20
366.043545
 30
0.0
 11
842.973232
 21
365.980177
 31
0.0
  0
LINE
  8
0
 10
842.973232
 20
365.980177
 30
0.0
 11
842.913639
 21
366.043545
 31
0.0
  0
LINE
  8
0
 10
842.973232
 20
365.980177
 30
0.0
 11
843.036601
 21
365.920782
 31
0.0
  0
LINE
  8
0
 10
843.036601
 20
365.920782
 30
0.0
 11
842.973232
 21
365.980177
 31
0.0
  0
LINE
  8
0
 10
843.036601
 20
365.920782
 30
0.0
 11
843.105531
 21
365.868935
 31
0.0
  0
LINE
  8
0
 10
843.105531
 20
365.868935
 30
0.0
 11
843.036601
 21
365.920782
 31
0.0
  0
LINE
  8
0
 10
843.105531
 20
365.868935
 30
0.0
 11
843.18042
 21
365.821062
 31
0.0
  0
LINE
  8
0
 10
843.18042
 20
365.821062
 30
0.0
 11
843.105531
 21
365.868935
 31
0.0
  0
LINE
  8
0
 10
843.18042
 20
365.821062
 30
0.0
 11
843.257098
 21
365.780737
 31
0.0
  0
LINE
  8
0
 10
843.257098
 20
365.780737
 30
0.0
 11
843.18042
 21
365.821062
 31
0.0
  0
LINE
  8
0
 10
843.257098
 20
365.780737
 30
0.0
 11
843.337748
 21
365.74796
 31
0.0
  0
LINE
  8
0
 10
843.337748
 20
365.74796
 30
0.0
 11
843.257098
 21
365.780737
 31
0.0
  0
LINE
  8
0
 10
843.337748
 20
365.74796
 30
0.0
 11
843.420385
 21
365.721143
 31
0.0
  0
LINE
  8
0
 10
843.420385
 20
365.721143
 30
0.0
 11
843.337748
 21
365.74796
 31
0.0
  0
LINE
  8
0
 10
843.420385
 20
365.721143
 30
0.0
 11
843.50481
 21
365.70386
 31
0.0
  0
LINE
  8
0
 10
843.50481
 20
365.70386
 30
0.0
 11
843.420385
 21
365.721143
 31
0.0
  0
LINE
  8
0
 10
843.50481
 20
365.70386
 30
0.0
 11
843.591022
 21
365.692339
 31
0.0
  0
LINE
  8
0
 10
843.591022
 20
365.692339
 30
0.0
 11
843.50481
 21
365.70386
 31
0.0
  0
LINE
  8
0
 10
843.591022
 20
365.692339
 30
0.0
 11
843.677433
 21
365.688565
 31
0.0
  0
LINE
  8
0
 10
843.67942
 20
365.688565
 30
0.0
 11
843.591022
 21
365.692339
 31
0.0
  0
LINE
  8
0
 10
844.675432
 20
365.688565
 30
0.0
 11
844.763631
 21
365.692339
 31
0.0
  0
LINE
  8
0
 10
844.677418
 20
365.688565
 30
0.0
 11
844.675432
 21
365.688565
 31
0.0
  0
LINE
  8
0
 10
844.763631
 20
365.692339
 30
0.0
 11
844.677418
 21
365.688565
 31
0.0
  0
LINE
  8
0
 10
844.763631
 20
365.692339
 30
0.0
 11
844.850042
 21
365.70386
 31
0.0
  0
LINE
  8
0
 10
844.850042
 20
365.70386
 30
0.0
 11
844.763631
 21
365.692339
 31
0.0
  0
LINE
  8
0
 10
844.850042
 20
365.70386
 30
0.0
 11
844.934466
 21
365.721143
 31
0.0
  0
LINE
  8
0
 10
844.934466
 20
365.721143
 30
0.0
 11
844.850042
 21
365.70386
 31
0.0
  0
LINE
  8
0
 10
844.934466
 20
365.721143
 30
0.0
 11
845.016905
 21
365.74796
 31
0.0
  0
LINE
  8
0
 10
845.016905
 20
365.74796
 30
0.0
 11
844.934466
 21
365.721143
 31
0.0
  0
LINE
  8
0
 10
845.016905
 20
365.74796
 30
0.0
 11
845.097555
 21
365.780737
 31
0.0
  0
LINE
  8
0
 10
845.097555
 20
365.780737
 30
0.0
 11
845.016905
 21
365.74796
 31
0.0
  0
LINE
  8
0
 10
845.097555
 20
365.780737
 30
0.0
 11
845.174431
 21
365.821062
 31
0.0
  0
LINE
  8
0
 10
845.174431
 20
365.821062
 30
0.0
 11
845.097555
 21
365.780737
 31
0.0
  0
LINE
  8
0
 10
845.174431
 20
365.821062
 30
0.0
 11
845.249122
 21
365.868935
 31
0.0
  0
LINE
  8
0
 10
845.249122
 20
365.868935
 30
0.0
 11
845.174431
 21
365.821062
 31
0.0
  0
LINE
  8
0
 10
845.249122
 20
365.868935
 30
0.0
 11
845.318251
 21
365.920782
 31
0.0
  0
LINE
  8
0
 10
845.318251
 20
365.920782
 30
0.0
 11
845.249122
 21
365.868935
 31
0.0
  0
LINE
  8
0
 10
845.318251
 20
365.920782
 30
0.0
 11
845.381619
 21
365.980177
 31
0.0
  0
LINE
  8
0
 10
845.381619
 20
365.980177
 30
0.0
 11
845.318251
 21
365.920782
 31
0.0
  0
LINE
  8
0
 10
845.381619
 20
365.980177
 30
0.0
 11
845.441213
 21
366.043545
 31
0.0
  0
LINE
  8
0
 10
845.441213
 20
366.043545
 30
0.0
 11
845.381619
 21
365.980177
 31
0.0
  0
LINE
  8
0
 10
845.441213
 20
366.043545
 30
0.0
 11
845.492861
 21
366.112674
 31
0.0
  0
LINE
  8
0
 10
845.492861
 20
366.112674
 30
0.0
 11
845.441213
 21
366.043545
 31
0.0
  0
LINE
  8
0
 10
845.492861
 20
366.112674
 30
0.0
 11
845.540933
 21
366.187564
 31
0.0
  0
LINE
  8
0
 10
845.540933
 20
366.187564
 30
0.0
 11
845.492861
 21
366.112674
 31
0.0
  0
LINE
  8
0
 10
845.540933
 20
366.187564
 30
0.0
 11
845.581258
 21
366.264241
 31
0.0
  0
LINE
  8
0
 10
845.581258
 20
366.264241
 30
0.0
 11
845.540933
 21
366.187564
 31
0.0
  0
LINE
  8
0
 10
845.581258
 20
366.264241
 30
0.0
 11
845.613836
 21
366.344892
 31
0.0
  0
LINE
  8
0
 10
845.613836
 20
366.344892
 30
0.0
 11
845.581258
 21
366.264241
 31
0.0
  0
LINE
  8
0
 10
845.613836
 20
366.344892
 30
0.0
 11
845.640654
 21
366.42733
 31
0.0
  0
LINE
  8
0
 10
845.640654
 20
366.42733
 30
0.0
 11
845.613836
 21
366.344892
 31
0.0
  0
LINE
  8
0
 10
845.669457
 20
366.598166
 30
0.0
 11
845.673232
 21
366.686563
 31
0.0
  0
LINE
  8
0
 10
845.657936
 20
366.511755
 30
0.0
 11
845.669457
 21
366.598166
 31
0.0
  0
LINE
  8
0
 10
845.640654
 20
366.42733
 30
0.0
 11
845.657936
 21
366.511755
 31
0.0
  0
LINE
  8
0
 10
845.657936
 20
366.511755
 30
0.0
 11
845.640654
 21
366.42733
 31
0.0
  0
LINE
  8
0
 10
845.669457
 20
366.598166
 30
0.0
 11
845.657936
 21
366.511755
 31
0.0
  0
LINE
  8
0
 10
845.673232
 20
366.684577
 30
0.0
 11
845.669457
 21
366.598166
 31
0.0
  0
LINE
  8
0
 10
845.673232
 20
366.686563
 30
0.0
 11
845.673232
 21
366.684577
 31
0.0
  0
LINE
  8
0
 10
837.790256
 20
352.596588
 30
0.0
 11
842.346206
 21
357.154326
 31
0.0
  0
LINE
  8
0
 10
842.346206
 20
357.154326
 30
0.0
 11
837.790256
 21
352.596588
 31
0.0
  0
LINE
  8
0
 10
845.260331
 20
395.125554
 30
0.0
 11
846.536945
 21
392.914617
 31
0.0
  0
LINE
  8
0
 10
843.107499
 20
395.148032
 30
0.0
 11
841.817906
 21
392.914617
 31
0.0
  0
LINE
  8
0
 10
929.69241
 20
400.682271
 30
0.0
 11
929.455553
 21
402.025554
 31
0.0
  0
LINE
  8
0
 10
909.125924
 20
405.125554
 30
0.0
 11
927.65029
 21
405.125554
 31
0.0
  0
LINE
  8
0
 10
926.929786
 20
403.425554
 30
0.0
 11
925.225924
 21
403.425554
 31
0.0
  0
LINE
  8
0
 10
924.925924
 20
397.825554
 30
0.0
 11
924.925924
 21
403.125554
 31
0.0
  0
LINE
  8
0
 10
908.718079
 20
398.14765
 30
0.0
 11
909.125924
 21
396.625554
 31
0.0
  0
LINE
  8
0
 10
909.125924
 20
396.625554
 30
0.0
 11
910.902203
 21
396.625554
 31
0.0
  0
LINE
  8
0
 10
910.902203
 20
396.625554
 30
0.0
 11
923.725924
 21
396.625554
 31
0.0
  0
LINE
  8
0
 10
910.902203
 20
399.025554
 30
0.0
 11
923.725924
 21
399.025554
 31
0.0
  0
LINE
  8
0
 10
908.188101
 20
400.125554
 30
0.0
 11
908.718079
 21
398.14765
 31
0.0
  0
LINE
  8
0
 10
906.84412
 20
397.055755
 30
0.0
 11
906.875229
 21
397.946604
 31
0.0
  0
LINE
  8
0
 10
906.875229
 20
397.946604
 30
0.0
 11
907.291527
 21
397.225554
 31
0.0
  0
LINE
  8
0
 10
907.464732
 20
397.125554
 30
0.0
 11
908.024641
 21
397.125554
 31
0.0
  0
LINE
  8
0
 10
906.84412
 20
397.055755
 30
0.0
 11
907.073542
 21
403.625554
 31
0.0
  0
LINE
  8
0
 10
908.188101
 20
400.125554
 30
0.0
 11
908.188101
 21
405.125554
 31
0.0
  0
LINE
  8
0
 10
907.073542
 20
403.625554
 30
0.0
 11
907.125924
 21
405.125554
 31
0.0
  0
LINE
  8
0
 10
908.188101
 20
405.125554
 30
0.0
 11
909.125924
 21
405.125554
 31
0.0
  0
LINE
  8
0
 10
904.125924
 20
405.125554
 30
0.0
 11
908.188101
 21
405.125554
 31
0.0
  0
LINE
  8
0
 10
886.678305
 20
403.625554
 30
0.0
 11
907.073542
 21
403.625554
 31
0.0
  0
LINE
  8
0
 10
907.125924
 20
405.125554
 30
0.0
 11
886.625924
 21
405.125554
 31
0.0
  0
LINE
  8
0
 10
888.906509
 20
395.125554
 30
0.0
 11
904.845338
 21
395.125554
 31
0.0
  0
LINE
  8
0
 10
820.214594
 20
400.251906
 30
0.0
 11
820.527336
 21
402.025554
 31
0.0
  0
LINE
  8
0
 10
818.828208
 20
403.886026
 30
0.0
 11
818.747014
 21
403.425554
 31
0.0
  0
LINE
  8
0
 10
820.30542
 20
405.125554
 30
0.0
 11
839.125924
 21
405.125554
 31
0.0
  0
LINE
  8
0
 10
823.025924
 20
403.425554
 30
0.0
 11
821.322061
 21
403.425554
 31
0.0
  0
LINE
  8
0
 10
823.325924
 20
403.125554
 30
0.0
 11
823.325924
 21
397.825554
 31
0.0
  0
LINE
  8
0
 10
824.525924
 20
396.625554
 30
0.0
 11
837.349644
 21
396.625554
 31
0.0
  0
LINE
  8
0
 10
824.525924
 20
399.025554
 30
0.0
 11
837.349644
 21
399.025554
 31
0.0
  0
LINE
  8
0
 10
837.349644
 20
396.625554
 30
0.0
 11
839.125924
 21
396.625554
 31
0.0
  0
LINE
  8
0
 10
839.125924
 20
396.625554
 30
0.0
 11
839.125924
 21
405.125554
 31
0.0
  0
LINE
  8
0
 10
839.125924
 20
396.625554
 30
0.0
 11
839.533768
 21
398.14765
 31
0.0
  0
LINE
  8
0
 10
839.125924
 20
405.125554
 30
0.0
 11
840.063746
 21
405.125554
 31
0.0
  0
LINE
  8
0
 10
840.063746
 20
405.125554
 30
0.0
 11
844.125924
 21
405.125554
 31
0.0
  0
LINE
  8
0
 10
840.063746
 20
405.125554
 30
0.0
 11
840.063746
 21
400.125554
 31
0.0
  0
LINE
  8
0
 10
841.178305
 20
403.625554
 30
0.0
 11
841.407727
 21
397.055755
 31
0.0
  0
LINE
  8
0
 10
841.178305
 20
403.625554
 30
0.0
 11
861.573542
 21
403.625554
 31
0.0
  0
LINE
  8
0
 10
841.125924
 20
405.125554
 30
0.0
 11
841.178305
 21
403.625554
 31
0.0
  0
LINE
  8
0
 10
861.625924
 20
405.125554
 30
0.0
 11
841.125924
 21
405.125554
 31
0.0
  0
LINE
  8
0
 10
839.533768
 20
398.14765
 30
0.0
 11
840.063746
 21
400.125554
 31
0.0
  0
LINE
  8
0
 10
841.376618
 20
397.946604
 30
0.0
 11
841.407727
 21
397.055755
 31
0.0
  0
LINE
  8
0
 10
840.96032
 20
397.225554
 30
0.0
 11
841.376618
 21
397.946604
 31
0.0
  0
LINE
  8
0
 10
840.227206
 20
397.125554
 30
0.0
 11
840.787115
 21
397.125554
 31
0.0
  0
LINE
  8
0
 10
843.406509
 20
395.125554
 30
0.0
 11
859.345338
 21
395.125554
 31
0.0
  0
LINE
  8
0
 10
862.800527
 20
400.125554
 30
0.0
 11
862.907727
 21
397.055755
 31
0.0
  0
LINE
  8
0
 10
861.45132
 20
400.125554
 30
0.0
 11
862.800527
 21
400.125554
 31
0.0
  0
LINE
  8
0
 10
861.34412
 20
397.055755
 30
0.0
 11
861.45132
 21
400.125554
 31
0.0
  0
LINE
  8
0
 10
864.906509
 20
395.125554
 30
0.0
 11
874.125924
 21
395.125554
 31
0.0
  0
LINE
  8
0
 10
862.678305
 20
403.625554
 30
0.0
 11
862.800527
 21
400.125554
 31
0.0
  0
LINE
  8
0
 10
861.45132
 20
400.125554
 30
0.0
 11
861.573542
 21
403.625554
 31
0.0
  0
LINE
  8
0
 10
885.625924
 20
405.125554
 30
0.0
 11
862.625924
 21
405.125554
 31
0.0
  0
LINE
  8
0
 10
862.625924
 20
405.125554
 30
0.0
 11
862.678305
 21
403.625554
 31
0.0
  0
LINE
  8
0
 10
861.625924
 20
405.125554
 30
0.0
 11
862.625924
 21
405.125554
 31
0.0
  0
LINE
  8
0
 10
861.573542
 20
403.625554
 30
0.0
 11
861.625924
 21
405.125554
 31
0.0
  0
LINE
  8
0
 10
862.678305
 20
403.625554
 30
0.0
 11
885.573542
 21
403.625554
 31
0.0
  0
LINE
  8
0
 10
885.34412
 20
397.055755
 30
0.0
 11
885.45132
 21
400.125554
 31
0.0
  0
LINE
  8
0
 10
885.45132
 20
400.125554
 30
0.0
 11
886.800527
 21
400.125554
 31
0.0
  0
LINE
  8
0
 10
874.125924
 20
395.125554
 30
0.0
 11
883.345338
 21
395.125554
 31
0.0
  0
LINE
  8
0
 10
886.800527
 20
400.125554
 30
0.0
 11
886.907727
 21
397.055755
 31
0.0
  0
LINE
  8
0
 10
885.45132
 20
400.125554
 30
0.0
 11
885.573542
 21
403.625554
 31
0.0
  0
LINE
  8
0
 10
886.678305
 20
403.625554
 30
0.0
 11
886.800527
 21
400.125554
 31
0.0
  0
LINE
  8
0
 10
885.625924
 20
405.125554
 30
0.0
 11
886.625924
 21
405.125554
 31
0.0
  0
LINE
  8
0
 10
885.573542
 20
403.625554
 30
0.0
 11
885.625924
 21
405.125554
 31
0.0
  0
LINE
  8
0
 10
886.625924
 20
405.125554
 30
0.0
 11
886.678305
 21
403.625554
 31
0.0
  0
LINE
  8
0
 10
909.125924
 20
405.125554
 30
0.0
 11
909.125924
 21
396.625554
 31
0.0
  0
LINE
  8
0
 10
927.428374
 20
402.025554
 30
0.0
 11
927.741116
 21
400.251906
 31
0.0
  0
LINE
  8
0
 10
929.208695
 20
403.425554
 30
0.0
 11
929.127502
 21
403.886026
 31
0.0
  0
LINE
  8
0
 10
818.500157
 20
402.025554
 30
0.0
 11
818.2633
 21
400.682271
 31
0.0
  0
ARC
  8
0
 10
928.725924
 20
400.425554
 30
0.0
 40
1.0
 50
14.875362
 51
190.0
  0
ARC
  8
0
 10
928.725924
 20
400.425554
 30
0.0
 40
1.0
 50
190.0
 51
14.875362
  0
ARC
  8
0
 10
923.725924
 20
397.825554
 30
0.0
 40
1.2
 50
270.0
 51
0.0
  0
ARC
  8
0
 10
923.725924
 20
397.825554
 30
0.0
 40
1.2
 50
0.0
 51
90.0
  0
ARC
  8
0
 10
910.902203
 20
397.825554
 30
0.0
 40
1.2
 50
90.0
 51
180.0
  0
ARC
  8
0
 10
904.125924
 20
400.125554
 30
0.0
 40
5.0
 50
324.314665
 51
336.697793
  0
ARC
  8
0
 10
819.229786
 20
400.425554
 30
0.0
 40
1.0
 50
350.0
 51
165.124638
  0
ARC
  8
0
 10
819.229786
 20
400.425554
 30
0.0
 40
1.0
 50
165.124638
 51
350.0
  0
ARC
  8
0
 10
824.525924
 20
397.825554
 30
0.0
 40
1.2
 50
90.0
 51
180.0
  0
ARC
  8
0
 10
824.525924
 20
397.825554
 30
0.0
 40
1.2
 50
180.0
 51
270.0
  0
ARC
  8
0
 10
837.349644
 20
397.825554
 30
0.0
 40
1.2
 50
0.0
 51
90.0
  0
ARC
  8
0
 10
844.125924
 20
400.125554
 30
0.0
 40
5.0
 50
203.302207
 51
215.685335
  0
ARC
  8
0
 10
927.65029
 20
403.625554
 30
0.0
 40
1.5
 50
10.0
 51
90.0
  0
ARC
  8
0
 10
925.225924
 20
403.125554
 30
0.0
 40
0.3
 50
90.0
 51
180.0
  0
ARC
  8
0
 10
910.902203
 20
397.825554
 30
0.0
 40
1.2
 50
180.0
 51
270.0
  0
ARC
  8
0
 10
907.464732
 20
397.325554
 30
0.0
 40
0.2
 50
210.0
 51
270.0
  0
ARC
  8
0
 10
908.024641
 20
397.325554
 30
0.0
 40
0.2
 50
270.0
 51
324.314665
  0
ARC
  8
0
 10
904.845338
 20
397.125554
 30
0.0
 40
2.0
 50
270.0
 51
358.0
  0
ARC
  8
0
 10
904.845338
 20
397.125554
 30
0.0
 40
2.0
 50
270.0
 51
358.0
  0
ARC
  8
0
 10
820.30542
 20
403.625554
 30
0.0
 40
1.5
 50
90.0
 51
170.0
  0
ARC
  8
0
 10
823.025924
 20
403.125554
 30
0.0
 40
0.3
 50
0.0
 51
90.0
  0
ARC
  8
0
 10
837.349644
 20
397.825554
 30
0.0
 40
1.2
 50
270.0
 51
0.0
  0
ARC
  8
0
 10
840.787115
 20
397.325554
 30
0.0
 40
0.2
 50
270.0
 51
330.0
  0
ARC
  8
0
 10
840.227206
 20
397.325554
 30
0.0
 40
0.2
 50
215.685335
 51
270.0
  0
ARC
  8
0
 10
843.406509
 20
397.125554
 30
0.0
 40
2.0
 50
182.0
 51
270.0
  0
ARC
  8
0
 10
843.406509
 20
397.125554
 30
0.0
 40
2.0
 50
182.0
 51
270.0
  0
ARC
  8
0
 10
864.906509
 20
397.125554
 30
0.0
 40
2.0
 50
182.0
 51
270.0
  0
ARC
  8
0
 10
859.345338
 20
397.125554
 30
0.0
 40
2.0
 50
270.0
 51
358.0
  0
ARC
  8
0
 10
883.345338
 20
397.125554
 30
0.0
 40
2.0
 50
270.0
 51
358.0
  0
ARC
  8
0
 10
888.906509
 20
397.125554
 30
0.0
 40
2.0
 50
182.0
 51
270.0
  0
ENDSEC
  0
EOF
