  0
SECTION
  2
HEADER
  9
$ACADVER
  1
AC1009
  9
$INSBASE
 10
0.0
 20
0.0
 30
0.0
  9
$EXTMIN
 10
786.911248
 20
288.976663
 30
0.0
  9
$EXTMAX
 10
956.911248
 20
387.389543
 30
0.0
  9
$LIMMIN
 10
855.039764
 20
266.864907
  9
$LIMMAX
 10
935.039764
 20
436.864907
  9
$ORTHOMODE
 70
     0
  9
$REGENMODE
 70
     1
  9
$FILLMODE
 70
     1
  9
$QTEXTMODE
 70
     0
  9
$MIRRTEXT
 70
     1
  9
$DRAGMODE
 70
     2
  9
$LTSCALE
 40
1.0
  9
$OSMODE
 70
     0
  9
$ATTMODE
 70
     1
  9
$TEXTSIZE
 40
3.5
  9
$TRACEWID
 40
0.5
  9
$TEXTSTYLE
  7
STANDARD
  9
$CLAYER
  8
0
  9
$CELTYPE
  6
BYLAYER
  9
$CECOLOR
 62
   256
  9
$DIMSCALE
 40
1.0
  9
$DIMASZ
 40
0.18
  9
$DIMEXO
 40
0.0625
  9
$DIMDLI
 40
0.38
  9
$DIMRND
 40
0.0
  9
$DIMDLE
 40
0.0
  9
$DIMEXE
 40
0.18
  9
$DIMTP
 40
0.0
  9
$DIMTM
 40
0.0
  9
$DIMTXT
 40
0.18
  9
$DIMCEN
 40
0.09
  9
$DIMTSZ
 40
0.0
  9
$DIMTOL
 70
     0
  9
$DIMLIM
 70
     0
  9
$DIMTIH
 70
     1
  9
$DIMTOH
 70
     1
  9
$DIMSE1
 70
     0
  9
$DIMSE2
 70
     0
  9
$DIMTAD
 70
     0
  9
$DIMZIN
 70
     0
  9
$DIMBLK
  1

  9
$DIMASO
 70
     1
  9
$DIMSHO
 70
     1
  9
$DIMPOST
  1

  9
$DIMAPOST
  1

  9
$DIMALT
 70
     0
  9
$DIMALTD
 70
     2
  9
$DIMALTF
 40
25.4
  9
$DIMLFAC
 40
1.0
  9
$DIMTOFL
 70
     0
  9
$DIMTVP
 40
0.0
  9
$DIMTIX
 70
     0
  9
$DIMSOXD
 70
     0
  9
$DIMSAH
 70
     0
  9
$DIMBLK1
  1

  9
$DIMBLK2
  1

  9
$DIMSTYLE
  2
*UNNAMED
  9
$DIMCLRD
 70
     0
  9
$DIMCLRE
 70
     0
  9
$DIMCLRT
 70
     0
  9
$DIMTFAC
 40
1.0
  9
$DIMGAP
 40
0.09
  9
$LUNITS
 70
     2
  9
$LUPREC
 70
     4
  9
$SKETCHINC
 40
0.1
  9
$FILLETRAD
 40
2.0
  9
$AUNITS
 70
     0
  9
$AUPREC
 70
     0
  9
$MENU
  1
ACAD
  9
$ELEVATION
 40
0.0
  9
$PELEVATION
 40
0.0
  9
$THICKNESS
 40
0.0
  9
$LIMCHECK
 70
     0
  9
$BLIPMODE
 70
     1
  9
$CHAMFERA
 40
0.0
  9
$CHAMFERB
 40
0.0
  9
$SKPOLY
 70
     0
  9
$TDCREATE
 40
2450773.644181944
  9
$TDUPDATE
 40
2450946.537216435
  9
$TDINDWG
 40
0.0045912037
  9
$TDUSRTIMER
 40
0.0045912037
  9
$USRTIMER
 70
     1
  9
$ANGBASE
 50
0.0
  9
$ANGDIR
 70
     0
  9
$PDMODE
 70
     0
  9
$PDSIZE
 40
0.0
  9
$PLINEWID
 40
0.0
  9
$COORDS
 70
     2
  9
$SPLFRAME
 70
     0
  9
$SPLINETYPE
 70
     6
  9
$SPLINESEGS
 70
     8
  9
$ATTDIA
 70
     0
  9
$ATTREQ
 70
     1
  9
$HANDLING
 70
     0
  9
$HANDSEED
  5
0
  9
$SURFTAB1
 70
     6
  9
$SURFTAB2
 70
     6
  9
$SURFTYPE
 70
     6
  9
$SURFU
 70
     6
  9
$SURFV
 70
     6
  9
$UCSNAME
  2

  9
$UCSORG
 10
0.0
 20
0.0
 30
0.0
  9
$UCSXDIR
 10
1.0
 20
0.0
 30
0.0
  9
$UCSYDIR
 10
0.0
 20
1.0
 30
0.0
  9
$PUCSNAME
  2

  9
$PUCSORG
 10
0.0
 20
0.0
 30
0.0
  9
$PUCSXDIR
 10
1.0
 20
0.0
 30
0.0
  9
$PUCSYDIR
 10
0.0
 20
1.0
 30
0.0
  9
$USERI1
 70
     0
  9
$USERI2
 70
     0
  9
$USERI3
 70
     0
  9
$USERI4
 70
     0
  9
$USERI5
 70
     0
  9
$USERR1
 40
0.0
  9
$USERR2
 40
0.0
  9
$USERR3
 40
0.0
  9
$USERR4
 40
0.0
  9
$USERR5
 40
0.0
  9
$WORLDVIEW
 70
     1
  9
$SHADEDGE
 70
     3
  9
$SHADEDIF
 70
    70
  9
$TILEMODE
 70
     1
  9
$MAXACTVP
 70
    16
  9
$PINSBASE
 10
0.0
 20
0.0
 30
0.0
  9
$PLIMCHECK
 70
     0
  9
$PEXTMIN
 10
1.000000E+20
 20
1.000000E+20
 30
1.000000E+20
  9
$PEXTMAX
 10
-1.000000E+20
 20
-1.000000E+20
 30
-1.000000E+20
  9
$PLIMMIN
 10
0.0
 20
0.0
  9
$PLIMMAX
 10
420.0
 20
297.0
  9
$UNITMODE
 70
     0
  9
$VISRETAIN
 70
     0
  9
$PLINEGEN
 70
     0
  9
$PSLTSCALE
 70
     1
  9
$TREEDEPTH
 70
  3020
  9
$DWGCODEPAGE
  3
iso8859-1
  0
ENDSEC
  0
SECTION
  2
TABLES
  0
TABLE
  2
VPORT
 70
     2
  0
VPORT
  2
*ACTIVE
 70
     0
 10
0.0
 20
0.0
 11
1.0
 21
1.0
 12
906.523959
 22
342.461062
 13
0.0
 23
0.0
 14
1.0
 24
1.0
 15
0.0
 25
0.0
 16
0.0
 26
0.0
 36
1.0
 17
0.0
 27
0.0
 37
0.0
 40
160.328688
 41
1.748359
 42
50.0
 43
0.0
 44
0.0
 50
0.0
 51
0.0
 71
     0
 72
   100
 73
     1
 74
     0
 75
     0
 76
     0
 77
     0
 78
     0
  0
ENDTAB
  0
TABLE
  2
LTYPE
 70
     1
  0
LTYPE
  2
CONTINUOUS
 70
    64
  3
Solid line
 72
    65
 73
     0
 40
0.0
  0
ENDTAB
  0
TABLE
  2
LAYER
 70
     1
  0
LAYER
  2
0
 70
    64
 62
     7
  6
CONTINUOUS
  0
ENDTAB
  0
TABLE
  2
STYLE
 70
     1
  0
STYLE
  2
STANDARD
 70
     0
 40
0.0
 41
1.0
 50
0.0
 71
     0
 42
3.5
  3
txt
  4

  0
ENDTAB
  0
TABLE
  2
VIEW
 70
     0
  0
ENDTAB
  0
TABLE
  2
UCS
 70
     0
  0
ENDTAB
  0
TABLE
  2
APPID
 70
     1
  0
APPID
  2
ACAD
 70
    64
  0
ENDTAB
  0
TABLE
  2
DIMSTYLE
 70
     0
  0
ENDTAB
  0
ENDSEC
  0
SECTION
  2
BLOCKS
  0
ENDSEC
  0
SECTION
  2
ENTITIES
  0
LINE
  8
0
 10
934.334021
 20
377.436099
 30
0.0
 11
935.084021
 21
377.003087
 31
0.0
  0
LINE
  8
0
 10
810.734021
 20
381.47533
 30
0.0
 11
810.734021
 21
380.87533
 31
0.0
  0
LINE
  8
0
 10
809.334021
 20
381.47533
 30
0.0
 11
809.334021
 21
380.87533
 31
0.0
  0
LINE
  8
0
 10
934.534021
 20
381.47533
 30
0.0
 11
934.534021
 21
380.87533
 31
0.0
  0
LINE
  8
0
 10
935.334021
 20
331.27533
 30
0.0
 11
935.334021
 21
372.992724
 31
0.0
  0
LINE
  8
0
 10
870.134021
 20
334.28538
 30
0.0
 11
869.482549
 21
333.633908
 31
0.0
  0
LINE
  8
0
 10
869.482549
 20
333.633908
 30
0.0
 11
869.987574
 21
333.128883
 31
0.0
  0
LINE
  8
0
 10
869.634021
 20
332.27533
 30
0.0
 11
867.634021
 21
332.27533
 31
0.0
  0
LINE
  8
0
 10
867.280467
 20
333.128883
 30
0.0
 11
869.17336
 21
335.021776
 31
0.0
  0
LINE
  8
0
 10
871.734021
 20
333.961116
 30
0.0
 11
871.734021
 21
330.17533
 31
0.0
  0
LINE
  8
0
 10
870.134021
 20
334.28538
 30
0.0
 11
870.134021
 21
330.27533
 31
0.0
  0
LINE
  8
0
 10
875.785492
 20
333.633908
 30
0.0
 11
875.134021
 21
334.28538
 31
0.0
  0
LINE
  8
0
 10
875.280467
 20
333.128883
 30
0.0
 11
875.785492
 21
333.633908
 31
0.0
  0
LINE
  8
0
 10
877.634021
 20
332.27533
 30
0.0
 11
875.634021
 21
332.27533
 31
0.0
  0
LINE
  8
0
 10
876.094681
 20
335.021776
 30
0.0
 11
877.987574
 21
333.128883
 31
0.0
  0
LINE
  8
0
 10
873.534021
 20
330.17533
 30
0.0
 11
873.534021
 21
333.961116
 31
0.0
  0
LINE
  8
0
 10
875.134021
 20
330.27533
 30
0.0
 11
875.134021
 21
334.28538
 31
0.0
  0
LINE
  8
0
 10
930.234021
 20
381.07533
 30
0.0
 11
930.234021
 21
378.87533
 31
0.0
  0
LINE
  8
0
 10
930.234021
 20
383.47533
 30
0.0
 11
930.234021
 21
384.47533
 31
0.0
  0
LINE
  8
0
 10
930.734021
 20
384.97533
 30
0.0
 11
932.434021
 21
384.97533
 31
0.0
  0
LINE
  8
0
 10
935.934021
 20
381.47533
 30
0.0
 11
935.934021
 21
380.87533
 31
0.0
  0
LINE
  8
0
 10
932.434021
 20
383.57533
 30
0.0
 11
932.134021
 21
383.57533
 31
0.0
  0
LINE
  8
0
 10
931.634021
 20
383.07533
 30
0.0
 11
931.634021
 21
379.516782
 31
0.0
  0
LINE
  8
0
 10
929.734021
 20
382.97533
 30
0.0
 11
927.716792
 21
382.97533
 31
0.0
  0
LINE
  8
0
 10
923.934021
 20
381.97533
 30
0.0
 11
923.934021
 21
377.97533
 31
0.0
  0
LINE
  8
0
 10
929.734021
 20
381.57533
 30
0.0
 11
927.96365
 21
381.57533
 31
0.0
  0
LINE
  8
0
 10
925.334021
 20
381.07533
 30
0.0
 11
925.334021
 21
378.87533
 31
0.0
  0
LINE
  8
0
 10
929.734021
 20
378.37533
 30
0.0
 11
925.834021
 21
378.37533
 31
0.0
  0
LINE
  8
0
 10
807.634021
 20
328.97533
 30
0.0
 11
807.634021
 21
374.320629
 31
0.0
  0
LINE
  8
0
 10
809.934021
 20
331.27533
 30
0.0
 11
809.934021
 21
372.992724
 31
0.0
  0
LINE
  8
0
 10
815.034021
 20
384.47533
 30
0.0
 11
815.034021
 21
383.47533
 31
0.0
  0
LINE
  8
0
 10
812.834021
 20
384.97533
 30
0.0
 11
814.534021
 21
384.97533
 31
0.0
  0
LINE
  8
0
 10
813.134021
 20
383.57533
 30
0.0
 11
812.834021
 21
383.57533
 31
0.0
  0
LINE
  8
0
 10
813.634021
 20
379.524001
 30
0.0
 11
813.634021
 21
383.07533
 31
0.0
  0
LINE
  8
0
 10
821.334021
 20
377.97533
 30
0.0
 11
821.334021
 21
381.97533
 31
0.0
  0
LINE
  8
0
 10
819.934021
 20
378.87533
 30
0.0
 11
819.934021
 21
381.07533
 31
0.0
  0
LINE
  8
0
 10
815.534021
 20
378.37533
 30
0.0
 11
819.434021
 21
378.37533
 31
0.0
  0
LINE
  8
0
 10
820.334021
 20
382.97533
 30
0.0
 11
815.534021
 21
382.97533
 31
0.0
  0
LINE
  8
0
 10
925.734021
 20
382.97533
 30
0.0
 11
924.934021
 21
382.97533
 31
0.0
  0
LINE
  8
0
 10
936.634021
 20
376.05268
 30
0.0
 11
932.134021
 21
378.650756
 31
0.0
  0
LINE
  8
0
 10
813.634021
 20
379.524001
 30
0.0
 11
813.634021
 21
379.516782
 31
0.0
  0
LINE
  8
0
 10
813.134021
 20
378.650756
 30
0.0
 11
808.634021
 21
376.05268
 31
0.0
  0
LINE
  8
0
 10
934.334021
 20
374.724774
 30
0.0
 11
930.435944
 21
376.97533
 31
0.0
  0
LINE
  8
0
 10
930.435944
 20
376.97533
 30
0.0
 11
924.934021
 21
376.97533
 31
0.0
  0
LINE
  8
0
 10
810.934021
 20
374.724774
 30
0.0
 11
814.832097
 21
376.97533
 31
0.0
  0
LINE
  8
0
 10
814.832097
 20
376.97533
 30
0.0
 11
820.334021
 21
376.97533
 31
0.0
  0
LINE
  8
0
 10
937.634021
 20
374.320629
 30
0.0
 11
937.634021
 21
328.97533
 31
0.0
  0
LINE
  8
0
 10
935.634021
 20
326.97533
 30
0.0
 11
809.634021
 21
326.97533
 31
0.0
  0
LINE
  8
0
 10
900.134021
 20
334.28538
 30
0.0
 11
899.482549
 21
333.633908
 31
0.0
  0
LINE
  8
0
 10
899.482549
 20
333.633908
 30
0.0
 11
899.987574
 21
333.128883
 31
0.0
  0
LINE
  8
0
 10
899.634021
 20
332.27533
 30
0.0
 11
897.634021
 21
332.27533
 31
0.0
  0
LINE
  8
0
 10
897.280467
 20
333.128883
 30
0.0
 11
899.17336
 21
335.021776
 31
0.0
  0
LINE
  8
0
 10
901.734021
 20
333.961116
 30
0.0
 11
901.734021
 21
330.17533
 31
0.0
  0
LINE
  8
0
 10
900.134021
 20
334.28538
 30
0.0
 11
900.134021
 21
330.27533
 31
0.0
  0
LINE
  8
0
 10
905.785492
 20
333.633908
 30
0.0
 11
905.134021
 21
334.28538
 31
0.0
  0
LINE
  8
0
 10
905.280467
 20
333.128883
 30
0.0
 11
905.785492
 21
333.633908
 31
0.0
  0
LINE
  8
0
 10
907.634021
 20
332.27533
 30
0.0
 11
905.634021
 21
332.27533
 31
0.0
  0
LINE
  8
0
 10
906.094681
 20
335.021776
 30
0.0
 11
907.987574
 21
333.128883
 31
0.0
  0
LINE
  8
0
 10
903.534021
 20
330.17533
 30
0.0
 11
903.534021
 21
333.961116
 31
0.0
  0
LINE
  8
0
 10
905.134021
 20
330.27533
 30
0.0
 11
905.134021
 21
334.28538
 31
0.0
  0
LINE
  8
0
 10
840.134021
 20
334.28538
 30
0.0
 11
839.482549
 21
333.633908
 31
0.0
  0
LINE
  8
0
 10
839.482549
 20
333.633908
 30
0.0
 11
839.987574
 21
333.128883
 31
0.0
  0
LINE
  8
0
 10
839.634021
 20
332.27533
 30
0.0
 11
837.634021
 21
332.27533
 31
0.0
  0
LINE
  8
0
 10
837.280467
 20
333.128883
 30
0.0
 11
839.17336
 21
335.021776
 31
0.0
  0
LINE
  8
0
 10
841.734021
 20
333.961116
 30
0.0
 11
841.734021
 21
330.17533
 31
0.0
  0
LINE
  8
0
 10
840.134021
 20
334.28538
 30
0.0
 11
840.134021
 21
330.27533
 31
0.0
  0
LINE
  8
0
 10
845.785492
 20
333.633908
 30
0.0
 11
845.134021
 21
334.28538
 31
0.0
  0
LINE
  8
0
 10
845.280467
 20
333.128883
 30
0.0
 11
845.785492
 21
333.633908
 31
0.0
  0
LINE
  8
0
 10
847.634021
 20
332.27533
 30
0.0
 11
845.634021
 21
332.27533
 31
0.0
  0
LINE
  8
0
 10
846.094681
 20
335.021776
 30
0.0
 11
847.987574
 21
333.128883
 31
0.0
  0
LINE
  8
0
 10
843.534021
 20
330.17533
 30
0.0
 11
843.534021
 21
333.961116
 31
0.0
  0
LINE
  8
0
 10
845.134021
 20
330.27533
 30
0.0
 11
845.134021
 21
334.28538
 31
0.0
  0
LINE
  8
0
 10
811.934021
 20
329.27533
 30
0.0
 11
839.134021
 21
329.27533
 31
0.0
  0
LINE
  8
0
 10
846.134021
 20
329.27533
 30
0.0
 11
869.134021
 21
329.27533
 31
0.0
  0
LINE
  8
0
 10
876.134021
 20
329.27533
 30
0.0
 11
899.134021
 21
329.27533
 31
0.0
  0
LINE
  8
0
 10
906.134021
 20
329.27533
 30
0.0
 11
933.334021
 21
329.27533
 31
0.0
  0
LINE
  8
0
 10
925.936471
 20
381.57533
 30
0.0
 11
925.834021
 21
381.57533
 31
0.0
  0
LINE
  8
0
 10
925.734021
 20
382.97533
 30
0.0
 11
927.716792
 21
382.97533
 31
0.0
  0
LINE
  8
0
 10
925.936471
 20
381.57533
 30
0.0
 11
927.96365
 21
381.57533
 31
0.0
  0
LINE
  8
0
 10
819.434021
 20
381.57533
 30
0.0
 11
815.534021
 21
381.57533
 31
0.0
  0
LINE
  8
0
 10
815.034021
 20
381.07533
 30
0.0
 11
815.034021
 21
378.87533
 31
0.0
  0
ARC
  8
0
 10
877.634021
 20
332.77533
 30
0.0
 40
0.5
 50
270.0
 51
0.0
  0
ARC
  8
0
 10
867.634021
 20
332.77533
 30
0.0
 40
0.5
 50
135.0
 51
180.0
  0
ARC
  8
0
 10
869.634021
 20
332.77533
 30
0.0
 40
0.5
 50
270.0
 51
45.0
  0
ARC
  8
0
 10
867.634021
 20
332.77533
 30
0.0
 40
0.5
 50
180.0
 51
270.0
  0
ARC
  8
0
 10
870.234021
 20
333.961116
 30
0.0
 40
1.5
 50
0.0
 51
135.0
  0
ARC
  8
0
 10
875.634021
 20
332.77533
 30
0.0
 40
0.5
 50
135.0
 51
270.0
  0
ARC
  8
0
 10
877.634021
 20
332.77533
 30
0.0
 40
0.5
 50
0.0
 51
45.0
  0
ARC
  8
0
 10
875.034021
 20
333.961116
 30
0.0
 40
1.5
 50
45.0
 51
180.0
  0
ARC
  8
0
 10
907.634021
 20
332.77533
 30
0.0
 40
0.5
 50
270.0
 51
0.0
  0
ARC
  8
0
 10
897.634021
 20
332.77533
 30
0.0
 40
0.5
 50
135.0
 51
180.0
  0
ARC
  8
0
 10
899.634021
 20
332.77533
 30
0.0
 40
0.5
 50
270.0
 51
45.0
  0
ARC
  8
0
 10
897.634021
 20
332.77533
 30
0.0
 40
0.5
 50
180.0
 51
270.0
  0
ARC
  8
0
 10
900.234021
 20
333.961116
 30
0.0
 40
1.5
 50
0.0
 51
135.0
  0
ARC
  8
0
 10
905.634021
 20
332.77533
 30
0.0
 40
0.5
 50
135.0
 51
270.0
  0
ARC
  8
0
 10
907.634021
 20
332.77533
 30
0.0
 40
0.5
 50
0.0
 51
45.0
  0
ARC
  8
0
 10
905.034021
 20
333.961116
 30
0.0
 40
1.5
 50
45.0
 51
180.0
  0
ARC
  8
0
 10
847.634021
 20
332.77533
 30
0.0
 40
0.5
 50
270.0
 51
0.0
  0
ARC
  8
0
 10
837.634021
 20
332.77533
 30
0.0
 40
0.5
 50
135.0
 51
180.0
  0
ARC
  8
0
 10
839.634021
 20
332.77533
 30
0.0
 40
0.5
 50
270.0
 51
45.0
  0
ARC
  8
0
 10
837.634021
 20
332.77533
 30
0.0
 40
0.5
 50
180.0
 51
270.0
  0
ARC
  8
0
 10
840.234021
 20
333.961116
 30
0.0
 40
1.5
 50
0.0
 51
135.0
  0
ARC
  8
0
 10
845.634021
 20
332.77533
 30
0.0
 40
0.5
 50
135.0
 51
270.0
  0
ARC
  8
0
 10
847.634021
 20
332.77533
 30
0.0
 40
0.5
 50
0.0
 51
45.0
  0
ARC
  8
0
 10
845.034021
 20
333.961116
 30
0.0
 40
1.5
 50
45.0
 51
180.0
  0
ARC
  8
0
 10
933.334021
 20
331.27533
 30
0.0
 40
2.0
 50
270.0
 51
0.0
  0
ARC
  8
0
 10
876.134021
 20
330.27533
 30
0.0
 40
1.0
 50
180.0
 51
270.0
  0
ARC
  8
0
 10
869.134021
 20
330.27533
 30
0.0
 40
1.0
 50
270.0
 51
0.0
  0
ARC
  8
0
 10
872.634021
 20
330.17533
 30
0.0
 40
0.9
 50
180.0
 51
0.0
  0
ARC
  8
0
 10
929.734021
 20
378.87533
 30
0.0
 40
0.5
 50
270.0
 51
0.0
  0
ARC
  8
0
 10
929.734021
 20
381.07533
 30
0.0
 40
0.5
 50
0.0
 51
90.0
  0
ARC
  8
0
 10
929.734021
 20
383.47533
 30
0.0
 40
0.5
 50
270.0
 51
0.0
  0
ARC
  8
0
 10
930.734021
 20
384.47533
 30
0.0
 40
0.5
 50
90.0
 51
180.0
  0
ARC
  8
0
 10
924.934021
 20
377.97533
 30
0.0
 40
1.0
 50
180.0
 51
270.0
  0
ARC
  8
0
 10
924.934021
 20
381.97533
 30
0.0
 40
1.0
 50
90.0
 51
180.0
  0
ARC
  8
0
 10
932.434021
 20
381.47533
 30
0.0
 40
3.5
 50
0.0
 51
90.0
  0
ARC
  8
0
 10
932.434021
 20
381.47533
 30
0.0
 40
2.1
 50
0.0
 51
90.0
  0
ARC
  8
0
 10
932.134021
 20
383.07533
 30
0.0
 40
0.5
 50
90.0
 51
180.0
  0
ARC
  8
0
 10
935.234021
 20
380.87533
 30
0.0
 40
0.7
 50
270.0
 51
0.0
  0
ARC
  8
0
 10
935.234021
 20
380.87533
 30
0.0
 40
0.7
 50
180.0
 51
270.0
  0
ARC
  8
0
 10
811.934021
 20
331.27533
 30
0.0
 40
2.0
 50
180.0
 51
270.0
  0
ARC
  8
0
 10
815.534021
 20
378.87533
 30
0.0
 40
0.5
 50
180.0
 51
270.0
  0
ARC
  8
0
 10
815.534021
 20
383.47533
 30
0.0
 40
0.5
 50
180.0
 51
270.0
  0
ARC
  8
0
 10
814.534021
 20
384.47533
 30
0.0
 40
0.5
 50
0.0
 51
90.0
  0
ARC
  8
0
 10
820.334021
 20
377.97533
 30
0.0
 40
1.0
 50
270.0
 51
0.0
  0
ARC
  8
0
 10
820.334021
 20
381.97533
 30
0.0
 40
1.0
 50
0.0
 51
90.0
  0
ARC
  8
0
 10
812.834021
 20
381.47533
 30
0.0
 40
3.5
 50
90.0
 51
180.0
  0
ARC
  8
0
 10
812.834021
 20
381.47533
 30
0.0
 40
2.1
 50
90.0
 51
180.0
  0
ARC
  8
0
 10
813.134021
 20
383.07533
 30
0.0
 40
0.5
 50
0.0
 51
90.0
  0
ARC
  8
0
 10
810.034021
 20
380.87533
 30
0.0
 40
0.7
 50
180.0
 51
270.0
  0
ARC
  8
0
 10
810.034021
 20
380.87533
 30
0.0
 40
0.7
 50
270.0
 51
0.0
  0
ARC
  8
0
 10
925.834021
 20
381.07533
 30
0.0
 40
0.5
 50
90.0
 51
180.0
  0
ARC
  8
0
 10
925.834021
 20
378.87533
 30
0.0
 40
0.5
 50
180.0
 51
270.0
  0
ARC
  8
0
 10
819.434021
 20
381.07533
 30
0.0
 40
0.5
 50
0.0
 51
90.0
  0
ARC
  8
0
 10
819.434021
 20
378.87533
 30
0.0
 40
0.5
 50
270.0
 51
0.0
  0
ARC
  8
0
 10
935.634021
 20
374.320629
 30
0.0
 40
2.0
 50
0.0
 51
60.0
  0
ARC
  8
0
 10
932.634021
 20
379.516782
 30
0.0
 40
1.0
 50
180.0
 51
240.0
  0
ARC
  8
0
 10
809.634021
 20
374.320629
 30
0.0
 40
2.0
 50
120.0
 51
180.0
  0
ARC
  8
0
 10
812.634021
 20
379.516782
 30
0.0
 40
1.0
 50
300.0
 51
0.0
  0
ARC
  8
0
 10
933.334021
 20
372.992724
 30
0.0
 40
2.0
 50
0.0
 51
60.0
  0
ARC
  8
0
 10
811.934021
 20
372.992724
 30
0.0
 40
2.0
 50
120.0
 51
180.0
  0
ARC
  8
0
 10
809.634021
 20
328.97533
 30
0.0
 40
2.0
 50
180.0
 51
270.0
  0
ARC
  8
0
 10
935.634021
 20
328.97533
 30
0.0
 40
2.0
 50
270.0
 51
0.0
  0
ARC
  8
0
 10
906.134021
 20
330.27533
 30
0.0
 40
1.0
 50
180.0
 51
270.0
  0
ARC
  8
0
 10
899.134021
 20
330.27533
 30
0.0
 40
1.0
 50
270.0
 51
0.0
  0
ARC
  8
0
 10
902.634021
 20
330.17533
 30
0.0
 40
0.9
 50
180.0
 51
0.0
  0
ARC
  8
0
 10
846.134021
 20
330.27533
 30
0.0
 40
1.0
 50
180.0
 51
270.0
  0
ARC
  8
0
 10
839.134021
 20
330.27533
 30
0.0
 40
1.0
 50
270.0
 51
0.0
  0
ARC
  8
0
 10
842.634021
 20
330.17533
 30
0.0
 40
0.9
 50
180.0
 51
0.0
  0
ARC
  8
0
 10
815.534021
 20
381.07533
 30
0.0
 40
0.5
 50
90.0
 51
180.0
  0
LINE
  8
0
 10
875.179327
 20
339.087658
 30
0.0
 11
875.179327
 21
371.965393
 31
0.0
  0
LINE
  8
0
 10
873.682528
 20
338.467882
 30
0.0
 11
873.682528
 21
343.242542
 31
0.0
  0
LINE
  8
0
 10
871.677101
 20
338.467882
 30
0.0
 11
871.688518
 21
343.242542
 31
0.0
  0
LINE
  8
0
 10
870.206954
 20
339.087658
 30
0.0
 11
870.191718
 21
371.965393
 31
0.0
  0
LINE
  8
0
 10
869.357504
 20
337.324077
 30
0.0
 11
865.592165
 21
333.558738
 31
0.0
  0
LINE
  8
0
 10
865.592165
 20
333.558738
 30
0.0
 11
869.357504
 21
337.324077
 31
0.0
  0
LINE
  8
0
 10
865.300553
 20
330.273328
 30
0.0
 11
865.300553
 21
332.852551
 31
0.0
  0
LINE
  8
0
 10
867.336676
 20
332.340242
 30
0.0
 11
868.200192
 21
331.476528
 31
0.0
  0
LINE
  8
0
 10
868.200192
 20
331.476528
 30
0.0
 11
867.336676
 21
332.340242
 31
0.0
  0
LINE
  8
0
 10
866.632277
 20
331.633856
 30
0.0
 11
867.494004
 21
330.772328
 31
0.0
  0
LINE
  8
0
 10
867.494004
 20
330.772328
 30
0.0
 11
866.632277
 21
331.633856
 31
0.0
  0
LINE
  8
0
 10
867.494004
 20
330.772328
 30
0.0
 11
866.995005
 21
330.273328
 31
0.0
  0
LINE
  8
0
 10
866.995005
 20
330.273328
 30
0.0
 11
867.494004
 21
330.772328
 31
0.0
  0
LINE
  8
0
 10
866.298353
 20
330.273328
 30
0.0
 11
866.995005
 21
330.273328
 31
0.0
  0
LINE
  8
0
 10
866.298353
 20
332.146363
 30
0.0
 11
866.298353
 21
330.273328
 31
0.0
  0
LINE
  8
0
 10
866.298353
 20
332.146363
 30
0.0
 11
870.854304
 21
336.704102
 31
0.0
  0
LINE
  8
0
 10
866.298353
 20
330.273328
 30
0.0
 11
866.298353
 21
332.146363
 31
0.0
  0
LINE
  8
0
 10
866.995005
 20
330.273328
 30
0.0
 11
866.298353
 21
330.273328
 31
0.0
  0
LINE
  8
0
 10
867.40958
 20
329.27533
 30
0.0
 11
866.298353
 21
329.27533
 31
0.0
  0
LINE
  8
0
 10
867.40958
 20
329.27533
 30
0.0
 11
868.200192
 21
330.065942
 31
0.0
  0
LINE
  8
0
 10
878.969497
 20
329.27533
 30
0.0
 11
877.858469
 21
329.27533
 31
0.0
  0
LINE
  8
0
 10
875.910544
 20
337.324077
 30
0.0
 11
879.675684
 21
333.558738
 31
0.0
  0
LINE
  8
0
 10
879.675684
 20
333.558738
 30
0.0
 11
875.910544
 21
337.324077
 31
0.0
  0
LINE
  8
0
 10
879.967495
 20
332.852551
 30
0.0
 11
879.967495
 21
330.273328
 31
0.0
  0
LINE
  8
0
 10
878.969497
 20
332.146363
 30
0.0
 11
874.413546
 21
336.704102
 31
0.0
  0
LINE
  8
0
 10
878.272845
 20
330.273328
 30
0.0
 11
877.774044
 21
330.772328
 31
0.0
  0
LINE
  8
0
 10
878.969497
 20
330.273328
 30
0.0
 11
878.272845
 21
330.273328
 31
0.0
  0
LINE
  8
0
 10
878.969497
 20
332.146363
 30
0.0
 11
878.969497
 21
330.273328
 31
0.0
  0
LINE
  8
0
 10
877.774044
 20
330.772328
 30
0.0
 11
878.635573
 21
331.633856
 31
0.0
  0
LINE
  8
0
 10
878.635573
 20
331.633856
 30
0.0
 11
878.675898
 21
331.679942
 31
0.0
  0
LINE
  8
0
 10
878.675898
 20
331.679942
 30
0.0
 11
878.635573
 21
331.633856
 31
0.0
  0
LINE
  8
0
 10
878.675898
 20
331.679942
 30
0.0
 11
878.710462
 21
331.729802
 31
0.0
  0
LINE
  8
0
 10
878.710462
 20
331.729802
 30
0.0
 11
878.675898
 21
331.679942
 31
0.0
  0
LINE
  8
0
 10
878.710462
 20
331.729802
 30
0.0
 11
878.739266
 21
331.781649
 31
0.0
  0
LINE
  8
0
 10
878.739266
 20
331.781649
 30
0.0
 11
878.710462
 21
331.729802
 31
0.0
  0
LINE
  8
0
 10
878.739266
 20
331.781649
 30
0.0
 11
878.760322
 21
331.839256
 31
0.0
  0
LINE
  8
0
 10
878.760322
 20
331.839256
 30
0.0
 11
878.739266
 21
331.781649
 31
0.0
  0
LINE
  8
0
 10
878.760322
 20
331.839256
 30
0.0
 11
878.77383
 21
331.896864
 31
0.0
  0
LINE
  8
0
 10
878.77383
 20
331.896864
 30
0.0
 11
878.760322
 21
331.839256
 31
0.0
  0
LINE
  8
0
 10
878.77383
 20
331.896864
 30
0.0
 11
878.781578
 21
331.956259
 31
0.0
  0
LINE
  8
0
 10
878.781578
 20
331.956259
 30
0.0
 11
878.77383
 21
331.896864
 31
0.0
  0
LINE
  8
0
 10
878.781578
 20
331.956259
 30
0.0
 11
878.781578
 21
332.017839
 31
0.0
  0
LINE
  8
0
 10
878.781578
 20
332.017839
 30
0.0
 11
878.781578
 21
331.956259
 31
0.0
  0
LINE
  8
0
 10
878.781578
 20
332.017839
 30
0.0
 11
878.77383
 21
332.077234
 31
0.0
  0
LINE
  8
0
 10
878.77383
 20
332.077234
 30
0.0
 11
878.781578
 21
332.017839
 31
0.0
  0
LINE
  8
0
 10
878.77383
 20
332.077234
 30
0.0
 11
878.760322
 21
332.134842
 31
0.0
  0
LINE
  8
0
 10
878.760322
 20
332.134842
 30
0.0
 11
878.77383
 21
332.077234
 31
0.0
  0
LINE
  8
0
 10
878.760322
 20
332.134842
 30
0.0
 11
878.739266
 21
332.192449
 31
0.0
  0
LINE
  8
0
 10
878.739266
 20
332.192449
 30
0.0
 11
878.760322
 21
332.134842
 31
0.0
  0
LINE
  8
0
 10
878.739266
 20
332.192449
 30
0.0
 11
878.710462
 21
332.246084
 31
0.0
  0
LINE
  8
0
 10
878.710462
 20
332.246084
 30
0.0
 11
878.739266
 21
332.192449
 31
0.0
  0
LINE
  8
0
 10
878.710462
 20
332.246084
 30
0.0
 11
878.675898
 21
332.294156
 31
0.0
  0
LINE
  8
0
 10
878.675898
 20
332.294156
 30
0.0
 11
878.710462
 21
332.246084
 31
0.0
  0
LINE
  8
0
 10
878.675898
 20
332.294156
 30
0.0
 11
878.635573
 21
332.340242
 31
0.0
  0
LINE
  8
0
 10
878.635573
 20
332.340242
 30
0.0
 11
878.675898
 21
332.294156
 31
0.0
  0
LINE
  8
0
 10
878.635573
 20
332.340242
 30
0.0
 11
878.591473
 21
332.380369
 31
0.0
  0
LINE
  8
0
 10
878.591473
 20
332.380369
 30
0.0
 11
878.635573
 21
332.340242
 31
0.0
  0
LINE
  8
0
 10
878.591473
 20
332.380369
 30
0.0
 11
878.541613
 21
332.414933
 31
0.0
  0
LINE
  8
0
 10
878.541613
 20
332.414933
 30
0.0
 11
878.591473
 21
332.380369
 31
0.0
  0
LINE
  8
0
 10
878.541613
 20
332.414933
 30
0.0
 11
878.48778
 21
332.441949
 31
0.0
  0
LINE
  8
0
 10
878.48778
 20
332.441949
 30
0.0
 11
878.541613
 21
332.414933
 31
0.0
  0
LINE
  8
0
 10
878.48778
 20
332.441949
 30
0.0
 11
878.432159
 21
332.463005
 31
0.0
  0
LINE
  8
0
 10
878.432159
 20
332.463005
 30
0.0
 11
878.48778
 21
332.441949
 31
0.0
  0
LINE
  8
0
 10
878.432159
 20
332.463005
 30
0.0
 11
878.372764
 21
332.478301
 31
0.0
  0
LINE
  8
0
 10
878.372764
 20
332.478301
 30
0.0
 11
878.432159
 21
332.463005
 31
0.0
  0
LINE
  8
0
 10
878.372764
 20
332.478301
 30
0.0
 11
878.31317
 21
332.486048
 31
0.0
  0
LINE
  8
0
 10
878.31317
 20
332.486048
 30
0.0
 11
878.372764
 21
332.478301
 31
0.0
  0
LINE
  8
0
 10
878.31317
 20
332.486048
 30
0.0
 11
878.253775
 21
332.486048
 31
0.0
  0
LINE
  8
0
 10
878.253775
 20
332.486048
 30
0.0
 11
878.31317
 21
332.486048
 31
0.0
  0
LINE
  8
0
 10
878.253775
 20
332.486048
 30
0.0
 11
878.194181
 21
332.478301
 31
0.0
  0
LINE
  8
0
 10
878.194181
 20
332.478301
 30
0.0
 11
878.253775
 21
332.486048
 31
0.0
  0
LINE
  8
0
 10
878.194181
 20
332.478301
 30
0.0
 11
878.134786
 21
332.463005
 31
0.0
  0
LINE
  8
0
 10
878.134786
 20
332.463005
 30
0.0
 11
878.194181
 21
332.478301
 31
0.0
  0
LINE
  8
0
 10
878.134786
 20
332.463005
 30
0.0
 11
878.079165
 21
332.441949
 31
0.0
  0
LINE
  8
0
 10
878.079165
 20
332.441949
 30
0.0
 11
878.134786
 21
332.463005
 31
0.0
  0
LINE
  8
0
 10
878.079165
 20
332.441949
 30
0.0
 11
878.025332
 21
332.414933
 31
0.0
  0
LINE
  8
0
 10
878.025332
 20
332.414933
 30
0.0
 11
878.079165
 21
332.441949
 31
0.0
  0
LINE
  8
0
 10
878.025332
 20
332.414933
 30
0.0
 11
877.975471
 21
332.380369
 31
0.0
  0
LINE
  8
0
 10
877.975471
 20
332.380369
 30
0.0
 11
878.025332
 21
332.414933
 31
0.0
  0
LINE
  8
0
 10
877.067658
 20
331.476528
 30
0.0
 11
877.931372
 21
332.340242
 31
0.0
  0
LINE
  8
0
 10
877.008263
 20
331.41316
 30
0.0
 11
877.067658
 21
331.476528
 31
0.0
  0
LINE
  8
0
 10
876.956416
 20
331.34423
 30
0.0
 11
877.008263
 21
331.41316
 31
0.0
  0
LINE
  8
0
 10
876.908344
 20
331.26934
 30
0.0
 11
876.956416
 21
331.34423
 31
0.0
  0
LINE
  8
0
 10
876.870005
 20
331.192464
 30
0.0
 11
876.908344
 21
331.26934
 31
0.0
  0
LINE
  8
0
 10
876.835441
 20
331.112013
 30
0.0
 11
876.870005
 21
331.192464
 31
0.0
  0
LINE
  8
0
 10
876.81061
 20
331.029376
 30
0.0
 11
876.835441
 21
331.112013
 31
0.0
  0
LINE
  8
0
 10
876.791341
 20
330.944951
 30
0.0
 11
876.81061
 21
331.029376
 31
0.0
  0
LINE
  8
0
 10
876.77982
 20
330.85854
 30
0.0
 11
876.791341
 21
330.944951
 31
0.0
  0
LINE
  8
0
 10
876.776046
 20
330.772328
 30
0.0
 11
876.77982
 21
330.85854
 31
0.0
  0
LINE
  8
0
 10
876.77982
 20
330.68393
 30
0.0
 11
876.776046
 21
330.772328
 31
0.0
  0
LINE
  8
0
 10
876.791341
 20
330.597519
 30
0.0
 11
876.77982
 21
330.68393
 31
0.0
  0
LINE
  8
0
 10
876.81061
 20
330.513094
 30
0.0
 11
876.791341
 21
330.597519
 31
0.0
  0
LINE
  8
0
 10
876.835441
 20
330.430656
 30
0.0
 11
876.81061
 21
330.513094
 31
0.0
  0
LINE
  8
0
 10
876.870005
 20
330.350006
 30
0.0
 11
876.835441
 21
330.430656
 31
0.0
  0
LINE
  8
0
 10
876.908344
 20
330.273328
 30
0.0
 11
876.870005
 21
330.350006
 31
0.0
  0
LINE
  8
0
 10
876.956416
 20
330.198439
 30
0.0
 11
876.908344
 21
330.273328
 31
0.0
  0
LINE
  8
0
 10
877.008263
 20
330.12931
 30
0.0
 11
876.956416
 21
330.198439
 31
0.0
  0
LINE
  8
0
 10
877.067658
 20
330.065942
 30
0.0
 11
877.008263
 21
330.12931
 31
0.0
  0
LINE
  8
0
 10
877.858469
 20
329.27533
 30
0.0
 11
877.067658
 21
330.065942
 31
0.0
  0
LINE
  8
0
 10
877.067658
 20
330.065942
 30
0.0
 11
877.858469
 21
329.27533
 31
0.0
  0
LINE
  8
0
 10
877.008263
 20
330.12931
 30
0.0
 11
877.067658
 21
330.065942
 31
0.0
  0
LINE
  8
0
 10
876.956416
 20
330.198439
 30
0.0
 11
877.008263
 21
330.12931
 31
0.0
  0
LINE
  8
0
 10
876.908344
 20
330.273328
 30
0.0
 11
876.956416
 21
330.198439
 31
0.0
  0
LINE
  8
0
 10
876.870005
 20
330.350006
 30
0.0
 11
876.908344
 21
330.273328
 31
0.0
  0
LINE
  8
0
 10
876.835441
 20
330.430656
 30
0.0
 11
876.870005
 21
330.350006
 31
0.0
  0
LINE
  8
0
 10
876.81061
 20
330.513094
 30
0.0
 11
876.835441
 21
330.430656
 31
0.0
  0
LINE
  8
0
 10
876.791341
 20
330.597519
 30
0.0
 11
876.81061
 21
330.513094
 31
0.0
  0
LINE
  8
0
 10
876.77982
 20
330.68393
 30
0.0
 11
876.791341
 21
330.597519
 31
0.0
  0
LINE
  8
0
 10
876.776046
 20
330.772328
 30
0.0
 11
876.77982
 21
330.68393
 31
0.0
  0
LINE
  8
0
 10
876.77982
 20
330.85854
 30
0.0
 11
876.776046
 21
330.772328
 31
0.0
  0
LINE
  8
0
 10
876.791341
 20
330.944951
 30
0.0
 11
876.77982
 21
330.85854
 31
0.0
  0
LINE
  8
0
 10
876.81061
 20
331.029376
 30
0.0
 11
876.791341
 21
330.944951
 31
0.0
  0
LINE
  8
0
 10
876.835441
 20
331.112013
 30
0.0
 11
876.81061
 21
331.029376
 31
0.0
  0
LINE
  8
0
 10
876.870005
 20
331.192464
 30
0.0
 11
876.835441
 21
331.112013
 31
0.0
  0
LINE
  8
0
 10
876.908344
 20
331.26934
 30
0.0
 11
876.870005
 21
331.192464
 31
0.0
  0
LINE
  8
0
 10
876.956416
 20
331.34423
 30
0.0
 11
876.908344
 21
331.26934
 31
0.0
  0
LINE
  8
0
 10
877.008263
 20
331.41316
 30
0.0
 11
876.956416
 21
331.34423
 31
0.0
  0
LINE
  8
0
 10
877.067658
 20
331.476528
 30
0.0
 11
877.008263
 21
331.41316
 31
0.0
  0
LINE
  8
0
 10
877.931372
 20
332.340242
 30
0.0
 11
877.067658
 21
331.476528
 31
0.0
  0
LINE
  8
0
 10
877.975471
 20
332.380369
 30
0.0
 11
877.931372
 21
332.340242
 31
0.0
  0
LINE
  8
0
 10
877.931372
 20
332.340242
 30
0.0
 11
877.975471
 21
332.380369
 31
0.0
  0
LINE
  8
0
 10
873.682528
 20
338.467882
 30
0.0
 11
873.686302
 21
338.337371
 31
0.0
  0
LINE
  8
0
 10
873.686302
 20
338.337371
 30
0.0
 11
873.682528
 21
338.467882
 31
0.0
  0
LINE
  8
0
 10
873.686302
 20
338.337371
 30
0.0
 11
873.695837
 21
338.206861
 31
0.0
  0
LINE
  8
0
 10
873.695837
 20
338.206861
 30
0.0
 11
873.686302
 21
338.337371
 31
0.0
  0
LINE
  8
0
 10
873.695837
 20
338.206861
 30
0.0
 11
873.71312
 21
338.078138
 31
0.0
  0
LINE
  8
0
 10
873.71312
 20
338.078138
 30
0.0
 11
873.695837
 21
338.206861
 31
0.0
  0
LINE
  8
0
 10
873.71312
 20
338.078138
 30
0.0
 11
873.738149
 21
337.949614
 31
0.0
  0
LINE
  8
0
 10
873.738149
 20
337.949614
 30
0.0
 11
873.71312
 21
338.078138
 31
0.0
  0
LINE
  8
0
 10
873.738149
 20
337.949614
 30
0.0
 11
873.768741
 21
337.822877
 31
0.0
  0
LINE
  8
0
 10
873.768741
 20
337.822877
 30
0.0
 11
873.738149
 21
337.949614
 31
0.0
  0
LINE
  8
0
 10
873.768741
 20
337.822877
 30
0.0
 11
873.805291
 21
337.69634
 31
0.0
  0
LINE
  8
0
 10
873.805291
 20
337.69634
 30
0.0
 11
873.768741
 21
337.822877
 31
0.0
  0
LINE
  8
0
 10
873.805291
 20
337.69634
 30
0.0
 11
873.849391
 21
337.573576
 31
0.0
  0
LINE
  8
0
 10
873.849391
 20
337.573576
 30
0.0
 11
873.805291
 21
337.69634
 31
0.0
  0
LINE
  8
0
 10
873.849391
 20
337.573576
 30
0.0
 11
873.899251
 21
337.452601
 31
0.0
  0
LINE
  8
0
 10
873.899251
 20
337.452601
 30
0.0
 11
873.849391
 21
337.573576
 31
0.0
  0
LINE
  8
0
 10
873.899251
 20
337.452601
 30
0.0
 11
873.954872
 21
337.335598
 31
0.0
  0
LINE
  8
0
 10
873.954872
 20
337.335598
 30
0.0
 11
873.899251
 21
337.452601
 31
0.0
  0
LINE
  8
0
 10
873.954872
 20
337.335598
 30
0.0
 11
874.016452
 21
337.220383
 31
0.0
  0
LINE
  8
0
 10
874.016452
 20
337.220383
 30
0.0
 11
873.954872
 21
337.335598
 31
0.0
  0
LINE
  8
0
 10
874.016452
 20
337.220383
 30
0.0
 11
874.085383
 21
337.109142
 31
0.0
  0
LINE
  8
0
 10
874.085383
 20
337.109142
 30
0.0
 11
874.016452
 21
337.220383
 31
0.0
  0
LINE
  8
0
 10
874.085383
 20
337.109142
 30
0.0
 11
874.160272
 21
337.001674
 31
0.0
  0
LINE
  8
0
 10
874.160272
 20
337.001674
 30
0.0
 11
874.085383
 21
337.109142
 31
0.0
  0
LINE
  8
0
 10
874.160272
 20
337.001674
 30
0.0
 11
874.238936
 21
336.897981
 31
0.0
  0
LINE
  8
0
 10
874.238936
 20
336.897981
 30
0.0
 11
874.160272
 21
337.001674
 31
0.0
  0
LINE
  8
0
 10
874.238936
 20
336.897981
 30
0.0
 11
874.323361
 21
336.79826
 31
0.0
  0
LINE
  8
0
 10
874.323361
 20
336.79826
 30
0.0
 11
874.238936
 21
336.897981
 31
0.0
  0
LINE
  8
0
 10
874.323361
 20
336.79826
 30
0.0
 11
874.413546
 21
336.704102
 31
0.0
  0
LINE
  8
0
 10
874.413546
 20
336.704102
 30
0.0
 11
874.323361
 21
336.79826
 31
0.0
  0
LINE
  8
0
 10
870.932224
 20
336.79826
 30
0.0
 11
870.854304
 21
336.704102
 31
0.0
  0
LINE
  8
0
 10
871.012841
 20
336.897981
 30
0.0
 11
870.932224
 21
336.79826
 31
0.0
  0
LINE
  8
0
 10
871.089918
 20
337.001674
 30
0.0
 11
871.012841
 21
336.897981
 31
0.0
  0
LINE
  8
0
 10
871.163168
 20
337.109142
 30
0.0
 11
871.089918
 21
337.001674
 31
0.0
  0
LINE
  8
0
 10
871.232453
 20
337.220383
 30
0.0
 11
871.163168
 21
337.109142
 31
0.0
  0
LINE
  8
0
 10
871.297724
 20
337.335598
 30
0.0
 11
871.232453
 21
337.220383
 31
0.0
  0
LINE
  8
0
 10
871.357712
 20
337.452601
 30
0.0
 11
871.297724
 21
337.335598
 31
0.0
  0
LINE
  8
0
 10
871.413481
 20
337.573576
 30
0.0
 11
871.357712
 21
337.452601
 31
0.0
  0
LINE
  8
0
 10
871.463939
 20
337.69634
 30
0.0
 11
871.413481
 21
337.573576
 31
0.0
  0
LINE
  8
0
 10
871.509808
 20
337.822877
 30
0.0
 11
871.463939
 21
337.69634
 31
0.0
  0
LINE
  8
0
 10
871.54978
 20
337.949614
 30
0.0
 11
871.509808
 21
337.822877
 31
0.0
  0
LINE
  8
0
 10
871.584454
 20
338.078138
 30
0.0
 11
871.54978
 21
337.949614
 31
0.0
  0
LINE
  8
0
 10
871.613463
 20
338.206861
 30
0.0
 11
871.584454
 21
338.078138
 31
0.0
  0
LINE
  8
0
 10
871.644506
 20
338.337371
 30
0.0
 11
871.613463
 21
338.206861
 31
0.0
  0
LINE
  8
0
 10
871.677101
 20
338.467882
 30
0.0
 11
871.644506
 21
338.337371
 31
0.0
  0
LINE
  8
0
 10
871.644506
 20
338.337371
 30
0.0
 11
871.677101
 21
338.467882
 31
0.0
  0
LINE
  8
0
 10
871.613463
 20
338.206861
 30
0.0
 11
871.644506
 21
338.337371
 31
0.0
  0
LINE
  8
0
 10
871.584454
 20
338.078138
 30
0.0
 11
871.613463
 21
338.206861
 31
0.0
  0
LINE
  8
0
 10
871.54978
 20
337.949614
 30
0.0
 11
871.584454
 21
338.078138
 31
0.0
  0
LINE
  8
0
 10
871.509808
 20
337.822877
 30
0.0
 11
871.54978
 21
337.949614
 31
0.0
  0
LINE
  8
0
 10
871.463939
 20
337.69634
 30
0.0
 11
871.509808
 21
337.822877
 31
0.0
  0
LINE
  8
0
 10
871.413481
 20
337.573576
 30
0.0
 11
871.463939
 21
337.69634
 31
0.0
  0
LINE
  8
0
 10
871.357712
 20
337.452601
 30
0.0
 11
871.413481
 21
337.573576
 31
0.0
  0
LINE
  8
0
 10
871.297724
 20
337.335598
 30
0.0
 11
871.357712
 21
337.452601
 31
0.0
  0
LINE
  8
0
 10
871.232453
 20
337.220383
 30
0.0
 11
871.297724
 21
337.335598
 31
0.0
  0
LINE
  8
0
 10
871.163168
 20
337.109142
 30
0.0
 11
871.232453
 21
337.220383
 31
0.0
  0
LINE
  8
0
 10
871.089918
 20
337.001674
 30
0.0
 11
871.163168
 21
337.109142
 31
0.0
  0
LINE
  8
0
 10
871.012841
 20
336.897981
 30
0.0
 11
871.089918
 21
337.001674
 31
0.0
  0
LINE
  8
0
 10
870.932224
 20
336.79826
 30
0.0
 11
871.012841
 21
336.897981
 31
0.0
  0
LINE
  8
0
 10
870.854304
 20
336.704102
 30
0.0
 11
870.932224
 21
336.79826
 31
0.0
  0
LINE
  8
0
 10
867.336676
 20
332.340242
 30
0.0
 11
867.292577
 21
332.380369
 31
0.0
  0
LINE
  8
0
 10
867.292577
 20
332.380369
 30
0.0
 11
867.336676
 21
332.340242
 31
0.0
  0
LINE
  8
0
 10
867.292577
 20
332.380369
 30
0.0
 11
867.242717
 21
332.414933
 31
0.0
  0
LINE
  8
0
 10
867.242717
 20
332.414933
 30
0.0
 11
867.292577
 21
332.380369
 31
0.0
  0
LINE
  8
0
 10
867.242717
 20
332.414933
 30
0.0
 11
867.188884
 21
332.441949
 31
0.0
  0
LINE
  8
0
 10
867.188884
 20
332.441949
 30
0.0
 11
867.242717
 21
332.414933
 31
0.0
  0
LINE
  8
0
 10
867.188884
 20
332.441949
 30
0.0
 11
867.133263
 21
332.463005
 31
0.0
  0
LINE
  8
0
 10
867.133263
 20
332.463005
 30
0.0
 11
867.188884
 21
332.441949
 31
0.0
  0
LINE
  8
0
 10
867.133263
 20
332.463005
 30
0.0
 11
867.073669
 21
332.478301
 31
0.0
  0
LINE
  8
0
 10
867.073669
 20
332.478301
 30
0.0
 11
867.133263
 21
332.463005
 31
0.0
  0
LINE
  8
0
 10
867.073669
 20
332.478301
 30
0.0
 11
867.014274
 21
332.486048
 31
0.0
  0
LINE
  8
0
 10
867.014274
 20
332.486048
 30
0.0
 11
867.073669
 21
332.478301
 31
0.0
  0
LINE
  8
0
 10
867.014274
 20
332.486048
 30
0.0
 11
866.95468
 21
332.486048
 31
0.0
  0
LINE
  8
0
 10
866.95468
 20
332.486048
 30
0.0
 11
867.014274
 21
332.486048
 31
0.0
  0
LINE
  8
0
 10
866.95468
 20
332.486048
 30
0.0
 11
866.895285
 21
332.478301
 31
0.0
  0
LINE
  8
0
 10
866.895285
 20
332.478301
 30
0.0
 11
866.95468
 21
332.486048
 31
0.0
  0
LINE
  8
0
 10
866.895285
 20
332.478301
 30
0.0
 11
866.835889
 21
332.463005
 31
0.0
  0
LINE
  8
0
 10
866.835889
 20
332.463005
 30
0.0
 11
866.895285
 21
332.478301
 31
0.0
  0
LINE
  8
0
 10
866.835889
 20
332.463005
 30
0.0
 11
866.78007
 21
332.441949
 31
0.0
  0
LINE
  8
0
 10
866.78007
 20
332.441949
 30
0.0
 11
866.835889
 21
332.463005
 31
0.0
  0
LINE
  8
0
 10
866.78007
 20
332.441949
 30
0.0
 11
866.726435
 21
332.414933
 31
0.0
  0
LINE
  8
0
 10
866.726435
 20
332.414933
 30
0.0
 11
866.78007
 21
332.441949
 31
0.0
  0
LINE
  8
0
 10
866.726435
 20
332.414933
 30
0.0
 11
866.676575
 21
332.380369
 31
0.0
  0
LINE
  8
0
 10
866.676575
 20
332.380369
 30
0.0
 11
866.726435
 21
332.414933
 31
0.0
  0
LINE
  8
0
 10
866.676575
 20
332.380369
 30
0.0
 11
866.632277
 21
332.340242
 31
0.0
  0
LINE
  8
0
 10
866.632277
 20
332.340242
 30
0.0
 11
866.676575
 21
332.380369
 31
0.0
  0
LINE
  8
0
 10
866.59215
 20
332.294156
 30
0.0
 11
866.632277
 21
332.340242
 31
0.0
  0
LINE
  8
0
 10
866.557586
 20
332.246084
 30
0.0
 11
866.59215
 21
332.294156
 31
0.0
  0
LINE
  8
0
 10
866.528782
 20
332.192449
 30
0.0
 11
866.557586
 21
332.246084
 31
0.0
  0
LINE
  8
0
 10
866.507726
 20
332.134842
 30
0.0
 11
866.528782
 21
332.192449
 31
0.0
  0
LINE
  8
0
 10
866.494218
 20
332.077234
 30
0.0
 11
866.507726
 21
332.134842
 31
0.0
  0
LINE
  8
0
 10
866.486471
 20
332.017839
 30
0.0
 11
866.494218
 21
332.077234
 31
0.0
  0
LINE
  8
0
 10
866.486471
 20
331.956259
 30
0.0
 11
866.486471
 21
332.017839
 31
0.0
  0
LINE
  8
0
 10
866.494218
 20
331.896864
 30
0.0
 11
866.486471
 21
331.956259
 31
0.0
  0
LINE
  8
0
 10
866.507726
 20
331.839256
 30
0.0
 11
866.494218
 21
331.896864
 31
0.0
  0
LINE
  8
0
 10
866.528782
 20
331.781649
 30
0.0
 11
866.507726
 21
331.839256
 31
0.0
  0
LINE
  8
0
 10
866.557586
 20
331.729802
 30
0.0
 11
866.528782
 21
331.781649
 31
0.0
  0
LINE
  8
0
 10
866.59215
 20
331.679942
 30
0.0
 11
866.557586
 21
331.729802
 31
0.0
  0
LINE
  8
0
 10
866.632277
 20
331.633856
 30
0.0
 11
866.59215
 21
331.679942
 31
0.0
  0
LINE
  8
0
 10
866.59215
 20
331.679942
 30
0.0
 11
866.632277
 21
331.633856
 31
0.0
  0
LINE
  8
0
 10
866.557586
 20
331.729802
 30
0.0
 11
866.59215
 21
331.679942
 31
0.0
  0
LINE
  8
0
 10
866.528782
 20
331.781649
 30
0.0
 11
866.557586
 21
331.729802
 31
0.0
  0
LINE
  8
0
 10
866.507726
 20
331.839256
 30
0.0
 11
866.528782
 21
331.781649
 31
0.0
  0
LINE
  8
0
 10
866.494218
 20
331.896864
 30
0.0
 11
866.507726
 21
331.839256
 31
0.0
  0
LINE
  8
0
 10
866.486471
 20
331.956259
 30
0.0
 11
866.494218
 21
331.896864
 31
0.0
  0
LINE
  8
0
 10
866.486471
 20
332.017839
 30
0.0
 11
866.486471
 21
331.956259
 31
0.0
  0
LINE
  8
0
 10
866.494218
 20
332.077234
 30
0.0
 11
866.486471
 21
332.017839
 31
0.0
  0
LINE
  8
0
 10
866.507726
 20
332.134842
 30
0.0
 11
866.494218
 21
332.077234
 31
0.0
  0
LINE
  8
0
 10
866.528782
 20
332.192449
 30
0.0
 11
866.507726
 21
332.134842
 31
0.0
  0
LINE
  8
0
 10
866.557586
 20
332.246084
 30
0.0
 11
866.528782
 21
332.192449
 31
0.0
  0
LINE
  8
0
 10
866.59215
 20
332.294156
 30
0.0
 11
866.557586
 21
332.246084
 31
0.0
  0
LINE
  8
0
 10
866.632277
 20
332.340242
 30
0.0
 11
866.59215
 21
332.294156
 31
0.0
  0
LINE
  8
0
 10
865.592165
 20
333.558738
 30
0.0
 11
865.53277
 21
333.493582
 31
0.0
  0
LINE
  8
0
 10
865.53277
 20
333.493582
 30
0.0
 11
865.592165
 21
333.558738
 31
0.0
  0
LINE
  8
0
 10
865.53277
 20
333.493582
 30
0.0
 11
865.480924
 21
333.424453
 31
0.0
  0
LINE
  8
0
 10
865.480924
 20
333.424453
 30
0.0
 11
865.53277
 21
333.493582
 31
0.0
  0
LINE
  8
0
 10
865.480924
 20
333.424453
 30
0.0
 11
865.432851
 21
333.35155
 31
0.0
  0
LINE
  8
0
 10
865.432851
 20
333.35155
 30
0.0
 11
865.480924
 21
333.424453
 31
0.0
  0
LINE
  8
0
 10
865.432851
 20
333.35155
 30
0.0
 11
865.392725
 21
333.274674
 31
0.0
  0
LINE
  8
0
 10
865.392725
 20
333.274674
 30
0.0
 11
865.432851
 21
333.35155
 31
0.0
  0
LINE
  8
0
 10
865.392725
 20
333.274674
 30
0.0
 11
865.359948
 21
333.194222
 31
0.0
  0
LINE
  8
0
 10
865.359948
 20
333.194222
 30
0.0
 11
865.392725
 21
333.274674
 31
0.0
  0
LINE
  8
0
 10
865.359948
 20
333.194222
 30
0.0
 11
865.333131
 21
333.109797
 31
0.0
  0
LINE
  8
0
 10
865.333131
 20
333.109797
 30
0.0
 11
865.359948
 21
333.194222
 31
0.0
  0
LINE
  8
0
 10
865.333131
 20
333.109797
 30
0.0
 11
865.315849
 21
333.025174
 31
0.0
  0
LINE
  8
0
 10
865.315849
 20
333.025174
 30
0.0
 11
865.333131
 21
333.109797
 31
0.0
  0
LINE
  8
0
 10
865.315849
 20
333.025174
 30
0.0
 11
865.304327
 21
332.938962
 31
0.0
  0
LINE
  8
0
 10
865.304327
 20
332.938962
 30
0.0
 11
865.315849
 21
333.025174
 31
0.0
  0
LINE
  8
0
 10
865.304327
 20
332.938962
 30
0.0
 11
865.300553
 21
332.852551
 31
0.0
  0
LINE
  8
0
 10
865.300553
 20
332.852551
 30
0.0
 11
865.304327
 21
332.938962
 31
0.0
  0
LINE
  8
0
 10
865.300553
 20
330.273328
 30
0.0
 11
865.304327
 21
330.184931
 31
0.0
  0
LINE
  8
0
 10
865.304327
 20
330.184931
 30
0.0
 11
865.300553
 21
330.273328
 31
0.0
  0
LINE
  8
0
 10
865.304327
 20
330.184931
 30
0.0
 11
865.315849
 21
330.098718
 31
0.0
  0
LINE
  8
0
 10
865.315849
 20
330.098718
 30
0.0
 11
865.304327
 21
330.184931
 31
0.0
  0
LINE
  8
0
 10
865.315849
 20
330.098718
 30
0.0
 11
865.333131
 21
330.014294
 31
0.0
  0
LINE
  8
0
 10
865.333131
 20
330.014294
 30
0.0
 11
865.315849
 21
330.098718
 31
0.0
  0
LINE
  8
0
 10
865.333131
 20
330.014294
 30
0.0
 11
865.359948
 21
329.931657
 31
0.0
  0
LINE
  8
0
 10
865.359948
 20
329.931657
 30
0.0
 11
865.333131
 21
330.014294
 31
0.0
  0
LINE
  8
0
 10
865.359948
 20
329.931657
 30
0.0
 11
865.392725
 21
329.851006
 31
0.0
  0
LINE
  8
0
 10
865.392725
 20
329.851006
 30
0.0
 11
865.359948
 21
329.931657
 31
0.0
  0
LINE
  8
0
 10
865.392725
 20
329.851006
 30
0.0
 11
865.432851
 21
329.774329
 31
0.0
  0
LINE
  8
0
 10
865.432851
 20
329.774329
 30
0.0
 11
865.392725
 21
329.851006
 31
0.0
  0
LINE
  8
0
 10
865.432851
 20
329.774329
 30
0.0
 11
865.480924
 21
329.699439
 31
0.0
  0
LINE
  8
0
 10
865.480924
 20
329.699439
 30
0.0
 11
865.432851
 21
329.774329
 31
0.0
  0
LINE
  8
0
 10
865.480924
 20
329.699439
 30
0.0
 11
865.53277
 21
329.63031
 31
0.0
  0
LINE
  8
0
 10
865.53277
 20
329.63031
 30
0.0
 11
865.480924
 21
329.699439
 31
0.0
  0
LINE
  8
0
 10
865.53277
 20
329.63031
 30
0.0
 11
865.592165
 21
329.567141
 31
0.0
  0
LINE
  8
0
 10
865.592165
 20
329.567141
 30
0.0
 11
865.53277
 21
329.63031
 31
0.0
  0
LINE
  8
0
 10
865.592165
 20
329.567141
 30
0.0
 11
865.655534
 21
329.507547
 31
0.0
  0
LINE
  8
0
 10
865.655534
 20
329.507547
 30
0.0
 11
865.592165
 21
329.567141
 31
0.0
  0
LINE
  8
0
 10
865.655534
 20
329.507547
 30
0.0
 11
865.724663
 21
329.4557
 31
0.0
  0
LINE
  8
0
 10
865.724663
 20
329.4557
 30
0.0
 11
865.655534
 21
329.507547
 31
0.0
  0
LINE
  8
0
 10
865.724663
 20
329.4557
 30
0.0
 11
865.799552
 21
329.407827
 31
0.0
  0
LINE
  8
0
 10
865.799552
 20
329.407827
 30
0.0
 11
865.724663
 21
329.4557
 31
0.0
  0
LINE
  8
0
 10
865.799552
 20
329.407827
 30
0.0
 11
865.87623
 21
329.367502
 31
0.0
  0
LINE
  8
0
 10
865.87623
 20
329.367502
 30
0.0
 11
865.799552
 21
329.407827
 31
0.0
  0
LINE
  8
0
 10
865.87623
 20
329.367502
 30
0.0
 11
865.95688
 21
329.334924
 31
0.0
  0
LINE
  8
0
 10
865.95688
 20
329.334924
 30
0.0
 11
865.87623
 21
329.367502
 31
0.0
  0
LINE
  8
0
 10
865.95688
 20
329.334924
 30
0.0
 11
866.039318
 21
329.307908
 31
0.0
  0
LINE
  8
0
 10
866.039318
 20
329.307908
 30
0.0
 11
865.95688
 21
329.334924
 31
0.0
  0
LINE
  8
0
 10
866.039318
 20
329.307908
 30
0.0
 11
866.123743
 21
329.290625
 31
0.0
  0
LINE
  8
0
 10
866.123743
 20
329.290625
 30
0.0
 11
866.039318
 21
329.307908
 31
0.0
  0
LINE
  8
0
 10
866.123743
 20
329.290625
 30
0.0
 11
866.210154
 21
329.279104
 31
0.0
  0
LINE
  8
0
 10
866.210154
 20
329.279104
 30
0.0
 11
866.123743
 21
329.290625
 31
0.0
  0
LINE
  8
0
 10
866.210154
 20
329.279104
 30
0.0
 11
866.298353
 21
329.27533
 31
0.0
  0
LINE
  8
0
 10
866.298353
 20
329.27533
 30
0.0
 11
866.210154
 21
329.279104
 31
0.0
  0
LINE
  8
0
 10
868.200192
 20
330.065942
 30
0.0
 11
868.259785
 21
330.12931
 31
0.0
  0
LINE
  8
0
 10
868.259785
 20
330.12931
 30
0.0
 11
868.200192
 21
330.065942
 31
0.0
  0
LINE
  8
0
 10
868.259785
 20
330.12931
 30
0.0
 11
868.311632
 21
330.198439
 31
0.0
  0
LINE
  8
0
 10
868.311632
 20
330.198439
 30
0.0
 11
868.259785
 21
330.12931
 31
0.0
  0
LINE
  8
0
 10
868.311632
 20
330.198439
 30
0.0
 11
868.359506
 21
330.273328
 31
0.0
  0
LINE
  8
0
 10
868.359506
 20
330.273328
 30
0.0
 11
868.311632
 21
330.198439
 31
0.0
  0
LINE
  8
0
 10
868.359506
 20
330.273328
 30
0.0
 11
868.397845
 21
330.350006
 31
0.0
  0
LINE
  8
0
 10
868.397845
 20
330.350006
 30
0.0
 11
868.359506
 21
330.273328
 31
0.0
  0
LINE
  8
0
 10
868.397845
 20
330.350006
 30
0.0
 11
868.432409
 21
330.430656
 31
0.0
  0
LINE
  8
0
 10
868.432409
 20
330.430656
 30
0.0
 11
868.397845
 21
330.350006
 31
0.0
  0
LINE
  8
0
 10
868.432409
 20
330.430656
 30
0.0
 11
868.457438
 21
330.513094
 31
0.0
  0
LINE
  8
0
 10
868.457438
 20
330.513094
 30
0.0
 11
868.432409
 21
330.430656
 31
0.0
  0
LINE
  8
0
 10
868.457438
 20
330.513094
 30
0.0
 11
868.476508
 21
330.597519
 31
0.0
  0
LINE
  8
0
 10
868.476508
 20
330.597519
 30
0.0
 11
868.457438
 21
330.513094
 31
0.0
  0
LINE
  8
0
 10
868.476508
 20
330.597519
 30
0.0
 11
868.48803
 21
330.68393
 31
0.0
  0
LINE
  8
0
 10
868.48803
 20
330.68393
 30
0.0
 11
868.476508
 21
330.597519
 31
0.0
  0
LINE
  8
0
 10
868.48803
 20
330.68393
 30
0.0
 11
868.492003
 21
330.772328
 31
0.0
  0
LINE
  8
0
 10
868.492003
 20
330.772328
 30
0.0
 11
868.48803
 21
330.68393
 31
0.0
  0
LINE
  8
0
 10
868.492003
 20
330.772328
 30
0.0
 11
868.48803
 21
330.85854
 31
0.0
  0
LINE
  8
0
 10
868.48803
 20
330.85854
 30
0.0
 11
868.492003
 21
330.772328
 31
0.0
  0
LINE
  8
0
 10
868.48803
 20
330.85854
 30
0.0
 11
868.476508
 21
330.944951
 31
0.0
  0
LINE
  8
0
 10
868.476508
 20
330.944951
 30
0.0
 11
868.48803
 21
330.85854
 31
0.0
  0
LINE
  8
0
 10
868.476508
 20
330.944951
 30
0.0
 11
868.457438
 21
331.029376
 31
0.0
  0
LINE
  8
0
 10
868.457438
 20
331.029376
 30
0.0
 11
868.476508
 21
330.944951
 31
0.0
  0
LINE
  8
0
 10
868.457438
 20
331.029376
 30
0.0
 11
868.432409
 21
331.112013
 31
0.0
  0
LINE
  8
0
 10
868.432409
 20
331.112013
 30
0.0
 11
868.457438
 21
331.029376
 31
0.0
  0
LINE
  8
0
 10
868.432409
 20
331.112013
 30
0.0
 11
868.397845
 21
331.192464
 31
0.0
  0
LINE
  8
0
 10
868.397845
 20
331.192464
 30
0.0
 11
868.432409
 21
331.112013
 31
0.0
  0
LINE
  8
0
 10
868.397845
 20
331.192464
 30
0.0
 11
868.359506
 21
331.26934
 31
0.0
  0
LINE
  8
0
 10
868.359506
 20
331.26934
 30
0.0
 11
868.397845
 21
331.192464
 31
0.0
  0
LINE
  8
0
 10
868.359506
 20
331.26934
 30
0.0
 11
868.311632
 21
331.34423
 31
0.0
  0
LINE
  8
0
 10
868.311632
 20
331.34423
 30
0.0
 11
868.359506
 21
331.26934
 31
0.0
  0
LINE
  8
0
 10
868.311632
 20
331.34423
 30
0.0
 11
868.259785
 21
331.41316
 31
0.0
  0
LINE
  8
0
 10
868.259785
 20
331.41316
 30
0.0
 11
868.311632
 21
331.34423
 31
0.0
  0
LINE
  8
0
 10
868.259785
 20
331.41316
 30
0.0
 11
868.200192
 21
331.476528
 31
0.0
  0
LINE
  8
0
 10
868.200192
 20
331.476528
 30
0.0
 11
868.259785
 21
331.41316
 31
0.0
  0
LINE
  8
0
 10
870.285678
 20
372.385728
 30
0.0
 11
870.326003
 21
372.464392
 31
0.0
  0
LINE
  8
0
 10
870.251114
 20
372.305078
 30
0.0
 11
870.285678
 21
372.385728
 31
0.0
  0
LINE
  8
0
 10
870.226283
 20
372.22264
 30
0.0
 11
870.251114
 21
372.305078
 31
0.0
  0
LINE
  8
0
 10
870.207014
 20
372.138215
 30
0.0
 11
870.226283
 21
372.22264
 31
0.0
  0
LINE
  8
0
 10
870.195493
 20
372.051804
 30
0.0
 11
870.207014
 21
372.138215
 31
0.0
  0
LINE
  8
0
 10
870.191718
 20
371.965393
 30
0.0
 11
870.195493
 21
372.051804
 31
0.0
  0
LINE
  8
0
 10
870.195493
 20
372.051804
 30
0.0
 11
870.191718
 21
371.965393
 31
0.0
  0
LINE
  8
0
 10
870.207014
 20
372.138215
 30
0.0
 11
870.195493
 21
372.051804
 31
0.0
  0
LINE
  8
0
 10
870.226283
 20
372.22264
 30
0.0
 11
870.207014
 21
372.138215
 31
0.0
  0
LINE
  8
0
 10
870.251114
 20
372.305078
 30
0.0
 11
870.226283
 21
372.22264
 31
0.0
  0
LINE
  8
0
 10
870.285678
 20
372.385728
 30
0.0
 11
870.251114
 21
372.305078
 31
0.0
  0
LINE
  8
0
 10
870.326003
 20
372.464392
 30
0.0
 11
870.285678
 21
372.385728
 31
0.0
  0
LINE
  8
0
 10
875.175553
 20
372.051804
 30
0.0
 11
875.179327
 21
371.965393
 31
0.0
  0
LINE
  8
0
 10
875.164032
 20
372.138215
 30
0.0
 11
875.175553
 21
372.051804
 31
0.0
  0
LINE
  8
0
 10
875.144763
 20
372.22264
 30
0.0
 11
875.164032
 21
372.138215
 31
0.0
  0
LINE
  8
0
 10
875.119932
 20
372.305078
 30
0.0
 11
875.144763
 21
372.22264
 31
0.0
  0
LINE
  8
0
 10
875.085368
 20
372.385728
 30
0.0
 11
875.119932
 21
372.305078
 31
0.0
  0
LINE
  8
0
 10
875.045042
 20
372.464392
 30
0.0
 11
875.085368
 21
372.385728
 31
0.0
  0
LINE
  8
0
 10
875.085368
 20
372.385728
 30
0.0
 11
875.045042
 21
372.464392
 31
0.0
  0
LINE
  8
0
 10
875.119932
 20
372.305078
 30
0.0
 11
875.085368
 21
372.385728
 31
0.0
  0
LINE
  8
0
 10
875.144763
 20
372.22264
 30
0.0
 11
875.119932
 21
372.305078
 31
0.0
  0
LINE
  8
0
 10
875.164032
 20
372.138215
 30
0.0
 11
875.144763
 21
372.22264
 31
0.0
  0
LINE
  8
0
 10
875.175553
 20
372.051804
 30
0.0
 11
875.164032
 21
372.138215
 31
0.0
  0
LINE
  8
0
 10
875.179327
 20
371.965393
 30
0.0
 11
875.175553
 21
372.051804
 31
0.0
  0
LINE
  8
0
 10
875.179327
 20
339.087658
 30
0.0
 11
875.183102
 21
338.957147
 31
0.0
  0
LINE
  8
0
 10
875.183102
 20
338.957147
 30
0.0
 11
875.179327
 21
339.087658
 31
0.0
  0
LINE
  8
0
 10
875.183102
 20
338.957147
 30
0.0
 11
875.192835
 21
338.826637
 31
0.0
  0
LINE
  8
0
 10
875.192835
 20
338.826637
 30
0.0
 11
875.183102
 21
338.957147
 31
0.0
  0
LINE
  8
0
 10
875.192835
 20
338.826637
 30
0.0
 11
875.210117
 21
338.698113
 31
0.0
  0
LINE
  8
0
 10
875.210117
 20
338.698113
 30
0.0
 11
875.192835
 21
338.826637
 31
0.0
  0
LINE
  8
0
 10
875.210117
 20
338.698113
 30
0.0
 11
875.23316
 21
338.569588
 31
0.0
  0
LINE
  8
0
 10
875.23316
 20
338.569588
 30
0.0
 11
875.210117
 21
338.698113
 31
0.0
  0
LINE
  8
0
 10
875.23316
 20
338.569588
 30
0.0
 11
875.263752
 21
338.442852
 31
0.0
  0
LINE
  8
0
 10
875.263752
 20
338.442852
 30
0.0
 11
875.23316
 21
338.569588
 31
0.0
  0
LINE
  8
0
 10
875.263752
 20
338.442852
 30
0.0
 11
875.302091
 21
338.316116
 31
0.0
  0
LINE
  8
0
 10
875.302091
 20
338.316116
 30
0.0
 11
875.263752
 21
338.442852
 31
0.0
  0
LINE
  8
0
 10
875.302091
 20
338.316116
 30
0.0
 11
875.344402
 21
338.193353
 31
0.0
  0
LINE
  8
0
 10
875.344402
 20
338.193353
 30
0.0
 11
875.302091
 21
338.316116
 31
0.0
  0
LINE
  8
0
 10
875.344402
 20
338.193353
 30
0.0
 11
875.394263
 21
338.072377
 31
0.0
  0
LINE
  8
0
 10
875.394263
 20
338.072377
 30
0.0
 11
875.344402
 21
338.193353
 31
0.0
  0
LINE
  8
0
 10
875.394263
 20
338.072377
 30
0.0
 11
875.45187
 21
337.955374
 31
0.0
  0
LINE
  8
0
 10
875.45187
 20
337.955374
 30
0.0
 11
875.394263
 21
338.072377
 31
0.0
  0
LINE
  8
0
 10
875.45187
 20
337.955374
 30
0.0
 11
875.513252
 21
337.84016
 31
0.0
  0
LINE
  8
0
 10
875.513252
 20
337.84016
 30
0.0
 11
875.45187
 21
337.955374
 31
0.0
  0
LINE
  8
0
 10
875.513252
 20
337.84016
 30
0.0
 11
875.58238
 21
337.728918
 31
0.0
  0
LINE
  8
0
 10
875.58238
 20
337.728918
 30
0.0
 11
875.513252
 21
337.84016
 31
0.0
  0
LINE
  8
0
 10
875.58238
 20
337.728918
 30
0.0
 11
875.655284
 21
337.62145
 31
0.0
  0
LINE
  8
0
 10
875.655284
 20
337.62145
 30
0.0
 11
875.58238
 21
337.728918
 31
0.0
  0
LINE
  8
0
 10
875.655284
 20
337.62145
 30
0.0
 11
875.735934
 21
337.517757
 31
0.0
  0
LINE
  8
0
 10
875.735934
 20
337.517757
 30
0.0
 11
875.655284
 21
337.62145
 31
0.0
  0
LINE
  8
0
 10
875.735934
 20
337.517757
 30
0.0
 11
875.820359
 21
337.418036
 31
0.0
  0
LINE
  8
0
 10
875.820359
 20
337.418036
 30
0.0
 11
875.735934
 21
337.517757
 31
0.0
  0
LINE
  8
0
 10
875.820359
 20
337.418036
 30
0.0
 11
875.910544
 21
337.324077
 31
0.0
  0
LINE
  8
0
 10
875.910544
 20
337.324077
 30
0.0
 11
875.820359
 21
337.418036
 31
0.0
  0
LINE
  8
0
 10
879.735278
 20
333.493582
 30
0.0
 11
879.675684
 21
333.558738
 31
0.0
  0
LINE
  8
0
 10
879.787125
 20
333.424453
 30
0.0
 11
879.735278
 21
333.493582
 31
0.0
  0
LINE
  8
0
 10
879.834998
 20
333.35155
 30
0.0
 11
879.787125
 21
333.424453
 31
0.0
  0
LINE
  8
0
 10
879.875324
 20
333.274674
 30
0.0
 11
879.834998
 21
333.35155
 31
0.0
  0
LINE
  8
0
 10
879.907902
 20
333.194222
 30
0.0
 11
879.875324
 21
333.274674
 31
0.0
  0
LINE
  8
0
 10
879.934918
 20
333.109797
 30
0.0
 11
879.907902
 21
333.194222
 31
0.0
  0
LINE
  8
0
 10
879.9522
 20
333.025174
 30
0.0
 11
879.934918
 21
333.109797
 31
0.0
  0
LINE
  8
0
 10
879.963721
 20
332.938962
 30
0.0
 11
879.9522
 21
333.025174
 31
0.0
  0
LINE
  8
0
 10
879.963721
 20
332.938962
 30
0.0
 11
879.967495
 21
332.852551
 31
0.0
  0
LINE
  8
0
 10
879.735278
 20
333.493582
 30
0.0
 11
879.675684
 21
333.558738
 31
0.0
  0
LINE
  8
0
 10
879.787125
 20
333.424453
 30
0.0
 11
879.735278
 21
333.493582
 31
0.0
  0
LINE
  8
0
 10
879.834998
 20
333.35155
 30
0.0
 11
879.787125
 21
333.424453
 31
0.0
  0
LINE
  8
0
 10
879.875324
 20
333.274674
 30
0.0
 11
879.834998
 21
333.35155
 31
0.0
  0
LINE
  8
0
 10
879.907902
 20
333.194222
 30
0.0
 11
879.875324
 21
333.274674
 31
0.0
  0
LINE
  8
0
 10
879.934918
 20
333.109797
 30
0.0
 11
879.907902
 21
333.194222
 31
0.0
  0
LINE
  8
0
 10
879.9522
 20
333.025174
 30
0.0
 11
879.934918
 21
333.109797
 31
0.0
  0
LINE
  8
0
 10
879.963721
 20
332.938962
 30
0.0
 11
879.9522
 21
333.025174
 31
0.0
  0
LINE
  8
0
 10
879.967495
 20
332.852551
 30
0.0
 11
879.963721
 21
332.938962
 31
0.0
  0
LINE
  8
0
 10
879.963721
 20
330.184931
 30
0.0
 11
879.967495
 21
330.273328
 31
0.0
  0
LINE
  8
0
 10
879.9522
 20
330.098718
 30
0.0
 11
879.963721
 21
330.184931
 31
0.0
  0
LINE
  8
0
 10
879.934918
 20
330.014294
 30
0.0
 11
879.9522
 21
330.098718
 31
0.0
  0
LINE
  8
0
 10
879.907902
 20
329.931657
 30
0.0
 11
879.934918
 21
330.014294
 31
0.0
  0
LINE
  8
0
 10
879.875324
 20
329.851006
 30
0.0
 11
879.907902
 21
329.931657
 31
0.0
  0
LINE
  8
0
 10
879.834998
 20
329.774329
 30
0.0
 11
879.875324
 21
329.851006
 31
0.0
  0
LINE
  8
0
 10
879.787125
 20
329.699439
 30
0.0
 11
879.834998
 21
329.774329
 31
0.0
  0
LINE
  8
0
 10
879.735278
 20
329.63031
 30
0.0
 11
879.787125
 21
329.699439
 31
0.0
  0
LINE
  8
0
 10
879.675684
 20
329.567141
 30
0.0
 11
879.735278
 21
329.63031
 31
0.0
  0
LINE
  8
0
 10
879.612515
 20
329.507547
 30
0.0
 11
879.675684
 21
329.567141
 31
0.0
  0
LINE
  8
0
 10
879.543386
 20
329.4557
 30
0.0
 11
879.612515
 21
329.507547
 31
0.0
  0
LINE
  8
0
 10
879.468496
 20
329.407827
 30
0.0
 11
879.543386
 21
329.4557
 31
0.0
  0
LINE
  8
0
 10
879.391819
 20
329.367502
 30
0.0
 11
879.468496
 21
329.407827
 31
0.0
  0
LINE
  8
0
 10
879.311168
 20
329.334924
 30
0.0
 11
879.391819
 21
329.367502
 31
0.0
  0
LINE
  8
0
 10
879.228532
 20
329.307908
 30
0.0
 11
879.311168
 21
329.334924
 31
0.0
  0
LINE
  8
0
 10
879.144107
 20
329.290625
 30
0.0
 11
879.228532
 21
329.307908
 31
0.0
  0
LINE
  8
0
 10
879.057895
 20
329.279104
 30
0.0
 11
879.144107
 21
329.290625
 31
0.0
  0
LINE
  8
0
 10
879.057895
 20
329.279104
 30
0.0
 11
878.969497
 21
329.27533
 31
0.0
  0
LINE
  8
0
 10
879.963721
 20
330.184931
 30
0.0
 11
879.967495
 21
330.273328
 31
0.0
  0
LINE
  8
0
 10
879.9522
 20
330.098718
 30
0.0
 11
879.963721
 21
330.184931
 31
0.0
  0
LINE
  8
0
 10
879.934918
 20
330.014294
 30
0.0
 11
879.9522
 21
330.098718
 31
0.0
  0
LINE
  8
0
 10
879.907902
 20
329.931657
 30
0.0
 11
879.934918
 21
330.014294
 31
0.0
  0
LINE
  8
0
 10
879.875324
 20
329.851006
 30
0.0
 11
879.907902
 21
329.931657
 31
0.0
  0
LINE
  8
0
 10
879.834998
 20
329.774329
 30
0.0
 11
879.875324
 21
329.851006
 31
0.0
  0
LINE
  8
0
 10
879.787125
 20
329.699439
 30
0.0
 11
879.834998
 21
329.774329
 31
0.0
  0
LINE
  8
0
 10
879.735278
 20
329.63031
 30
0.0
 11
879.787125
 21
329.699439
 31
0.0
  0
LINE
  8
0
 10
879.675684
 20
329.567141
 30
0.0
 11
879.735278
 21
329.63031
 31
0.0
  0
LINE
  8
0
 10
879.612515
 20
329.507547
 30
0.0
 11
879.675684
 21
329.567141
 31
0.0
  0
LINE
  8
0
 10
879.543386
 20
329.4557
 30
0.0
 11
879.612515
 21
329.507547
 31
0.0
  0
LINE
  8
0
 10
879.468496
 20
329.407827
 30
0.0
 11
879.543386
 21
329.4557
 31
0.0
  0
LINE
  8
0
 10
879.391819
 20
329.367502
 30
0.0
 11
879.468496
 21
329.407827
 31
0.0
  0
LINE
  8
0
 10
879.311168
 20
329.334924
 30
0.0
 11
879.391819
 21
329.367502
 31
0.0
  0
LINE
  8
0
 10
879.228532
 20
329.307908
 30
0.0
 11
879.311168
 21
329.334924
 31
0.0
  0
LINE
  8
0
 10
879.144107
 20
329.290625
 30
0.0
 11
879.228532
 21
329.307908
 31
0.0
  0
LINE
  8
0
 10
879.057895
 20
329.279104
 30
0.0
 11
878.969497
 21
329.27533
 31
0.0
  0
LINE
  8
0
 10
879.144107
 20
329.290625
 30
0.0
 11
879.057895
 21
329.279104
 31
0.0
  0
LINE
  8
0
 10
869.357504
 20
337.324077
 30
0.0
 11
869.44769
 21
337.418036
 31
0.0
  0
LINE
  8
0
 10
869.44769
 20
337.418036
 30
0.0
 11
869.357504
 21
337.324077
 31
0.0
  0
LINE
  8
0
 10
869.44769
 20
337.418036
 30
0.0
 11
869.532114
 21
337.517757
 31
0.0
  0
LINE
  8
0
 10
869.532114
 20
337.517757
 30
0.0
 11
869.44769
 21
337.418036
 31
0.0
  0
LINE
  8
0
 10
869.532114
 20
337.517757
 30
0.0
 11
869.612765
 21
337.62145
 31
0.0
  0
LINE
  8
0
 10
869.612765
 20
337.62145
 30
0.0
 11
869.532114
 21
337.517757
 31
0.0
  0
LINE
  8
0
 10
869.612765
 20
337.62145
 30
0.0
 11
869.685668
 21
337.728918
 31
0.0
  0
LINE
  8
0
 10
869.685668
 20
337.728918
 30
0.0
 11
869.612765
 21
337.62145
 31
0.0
  0
LINE
  8
0
 10
869.685668
 20
337.728918
 30
0.0
 11
869.754797
 21
337.84016
 31
0.0
  0
LINE
  8
0
 10
869.754797
 20
337.84016
 30
0.0
 11
869.685668
 21
337.728918
 31
0.0
  0
LINE
  8
0
 10
869.754797
 20
337.84016
 30
0.0
 11
869.84283
 21
337.955374
 31
0.0
  0
LINE
  8
0
 10
869.84283
 20
337.955374
 30
0.0
 11
869.754797
 21
337.84016
 31
0.0
  0
LINE
  8
0
 10
869.84283
 20
337.955374
 30
0.0
 11
869.900438
 21
338.072377
 31
0.0
  0
LINE
  8
0
 10
869.900438
 20
338.072377
 30
0.0
 11
869.84283
 21
337.955374
 31
0.0
  0
LINE
  8
0
 10
869.900438
 20
338.072377
 30
0.0
 11
869.950298
 21
338.193353
 31
0.0
  0
LINE
  8
0
 10
869.950298
 20
338.193353
 30
0.0
 11
869.900438
 21
338.072377
 31
0.0
  0
LINE
  8
0
 10
869.950298
 20
338.193353
 30
0.0
 11
870.019063
 21
338.316116
 31
0.0
  0
LINE
  8
0
 10
870.019063
 20
338.316116
 30
0.0
 11
869.950298
 21
338.193353
 31
0.0
  0
LINE
  8
0
 10
870.019063
 20
338.316116
 30
0.0
 11
870.084252
 21
338.442852
 31
0.0
  0
LINE
  8
0
 10
870.084252
 20
338.442852
 30
0.0
 11
870.019063
 21
338.316116
 31
0.0
  0
LINE
  8
0
 10
870.139509
 20
338.569588
 30
0.0
 11
870.084252
 21
338.442852
 31
0.0
  0
LINE
  8
0
 10
870.19119
 20
338.698113
 30
0.0
 11
870.139509
 21
338.569588
 31
0.0
  0
LINE
  8
0
 10
870.208473
 20
338.826637
 30
0.0
 11
870.19119
 21
338.698113
 31
0.0
  0
LINE
  8
0
 10
870.202981
 20
338.957147
 30
0.0
 11
870.208473
 21
338.826637
 31
0.0
  0
LINE
  8
0
 10
870.206954
 20
339.087658
 30
0.0
 11
870.202981
 21
338.957147
 31
0.0
  0
LINE
  8
0
 10
870.202981
 20
338.957147
 30
0.0
 11
870.206954
 21
339.087658
 31
0.0
  0
LINE
  8
0
 10
870.208473
 20
338.826637
 30
0.0
 11
870.202981
 21
338.957147
 31
0.0
  0
LINE
  8
0
 10
870.19119
 20
338.698113
 30
0.0
 11
870.208473
 21
338.826637
 31
0.0
  0
LINE
  8
0
 10
870.139509
 20
338.569588
 30
0.0
 11
870.19119
 21
338.698113
 31
0.0
  0
LINE
  8
0
 10
870.084252
 20
338.442852
 30
0.0
 11
870.139509
 21
338.569588
 31
0.0
  0
LINE
  8
0
 10
872.68453
 20
374.556137
 30
0.0
 11
871.189518
 21
371.965393
 31
0.0
  0
LINE
  8
0
 10
874.181329
 20
371.965393
 30
0.0
 11
872.68453
 21
374.556137
 31
0.0
  0
LINE
  8
0
 10
874.181329
 20
346.236339
 30
0.0
 11
874.181329
 21
371.965393
 31
0.0
  0
LINE
  8
0
 10
873.682528
 20
343.242542
 30
0.0
 11
873.678555
 21
343.328754
 31
0.0
  0
LINE
  8
0
 10
873.678555
 20
343.328754
 30
0.0
 11
873.682528
 21
343.242542
 31
0.0
  0
LINE
  8
0
 10
873.678555
 20
343.328754
 30
0.0
 11
873.667034
 21
343.415165
 31
0.0
  0
LINE
  8
0
 10
873.667034
 20
343.415165
 30
0.0
 11
873.678555
 21
343.328754
 31
0.0
  0
LINE
  8
0
 10
873.667034
 20
343.415165
 30
0.0
 11
873.649752
 21
343.501577
 31
0.0
  0
LINE
  8
0
 10
873.649752
 20
343.501577
 30
0.0
 11
873.667034
 21
343.415165
 31
0.0
  0
LINE
  8
0
 10
873.649752
 20
343.501577
 30
0.0
 11
873.622934
 21
343.584015
 31
0.0
  0
LINE
  8
0
 10
873.622934
 20
343.584015
 30
0.0
 11
873.649752
 21
343.501577
 31
0.0
  0
LINE
  8
0
 10
873.622934
 20
343.584015
 30
0.0
 11
873.590356
 21
343.664665
 31
0.0
  0
LINE
  8
0
 10
873.590356
 20
343.664665
 30
0.0
 11
873.622934
 21
343.584015
 31
0.0
  0
LINE
  8
0
 10
873.590356
 20
343.664665
 30
0.0
 11
873.550031
 21
343.741541
 31
0.0
  0
LINE
  8
0
 10
873.550031
 20
343.741541
 30
0.0
 11
873.590356
 21
343.664665
 31
0.0
  0
LINE
  8
0
 10
873.550031
 20
343.741541
 30
0.0
 11
873.502157
 21
343.814444
 31
0.0
  0
LINE
  8
0
 10
873.502157
 20
343.814444
 30
0.0
 11
873.550031
 21
343.741541
 31
0.0
  0
LINE
  8
0
 10
873.502157
 20
343.814444
 30
0.0
 11
873.450311
 21
343.883375
 31
0.0
  0
LINE
  8
0
 10
873.450311
 20
343.883375
 30
0.0
 11
873.502157
 21
343.814444
 31
0.0
  0
LINE
  8
0
 10
873.450311
 20
343.883375
 30
0.0
 11
873.390717
 21
343.948729
 31
0.0
  0
LINE
  8
0
 10
873.390717
 20
343.948729
 30
0.0
 11
873.450311
 21
343.883375
 31
0.0
  0
LINE
  8
0
 10
873.390717
 20
343.948729
 30
0.0
 11
873.327349
 21
344.006337
 31
0.0
  0
LINE
  8
0
 10
873.327349
 20
344.006337
 30
0.0
 11
873.390717
 21
343.948729
 31
0.0
  0
LINE
  8
0
 10
873.327349
 20
344.006337
 30
0.0
 11
873.258418
 21
344.059971
 31
0.0
  0
LINE
  8
0
 10
873.258418
 20
344.059971
 30
0.0
 11
873.327349
 21
344.006337
 31
0.0
  0
LINE
  8
0
 10
873.258418
 20
344.059971
 30
0.0
 11
873.183529
 21
344.106057
 31
0.0
  0
LINE
  8
0
 10
873.183529
 20
344.106057
 30
0.0
 11
873.258418
 21
344.059971
 31
0.0
  0
LINE
  8
0
 10
873.183529
 20
344.106057
 30
0.0
 11
873.106653
 21
344.146382
 31
0.0
  0
LINE
  8
0
 10
873.106653
 20
344.146382
 30
0.0
 11
873.183529
 21
344.106057
 31
0.0
  0
LINE
  8
0
 10
873.106653
 20
344.146382
 30
0.0
 11
873.026201
 21
344.17896
 31
0.0
  0
LINE
  8
0
 10
873.026201
 20
344.17896
 30
0.0
 11
873.106653
 21
344.146382
 31
0.0
  0
LINE
  8
0
 10
873.026201
 20
344.17896
 30
0.0
 11
872.943564
 21
344.205777
 31
0.0
  0
LINE
  8
0
 10
872.943564
 20
344.205777
 30
0.0
 11
873.026201
 21
344.17896
 31
0.0
  0
LINE
  8
0
 10
872.943564
 20
344.205777
 30
0.0
 11
872.85914
 21
344.225046
 31
0.0
  0
LINE
  8
0
 10
872.85914
 20
344.225046
 30
0.0
 11
872.943564
 21
344.205777
 31
0.0
  0
LINE
  8
0
 10
871.692292
 20
343.328754
 30
0.0
 11
871.688518
 21
343.242542
 31
0.0
  0
LINE
  8
0
 10
871.703813
 20
343.415165
 30
0.0
 11
871.692292
 21
343.328754
 31
0.0
  0
LINE
  8
0
 10
871.721095
 20
343.501577
 30
0.0
 11
871.703813
 21
343.415165
 31
0.0
  0
LINE
  8
0
 10
871.748111
 20
343.584015
 30
0.0
 11
871.721095
 21
343.501577
 31
0.0
  0
LINE
  8
0
 10
871.780689
 20
343.664665
 30
0.0
 11
871.748111
 21
343.584015
 31
0.0
  0
LINE
  8
0
 10
871.821015
 20
343.741541
 30
0.0
 11
871.780689
 21
343.664665
 31
0.0
  0
LINE
  8
0
 10
871.868888
 20
343.814444
 30
0.0
 11
871.821015
 21
343.741541
 31
0.0
  0
LINE
  8
0
 10
871.920735
 20
343.883375
 30
0.0
 11
871.868888
 21
343.814444
 31
0.0
  0
LINE
  8
0
 10
871.98013
 20
343.948729
 30
0.0
 11
871.920735
 21
343.883375
 31
0.0
  0
LINE
  8
0
 10
872.043498
 20
344.006337
 30
0.0
 11
871.98013
 21
343.948729
 31
0.0
  0
LINE
  8
0
 10
872.112627
 20
344.059971
 30
0.0
 11
872.043498
 21
344.006337
 31
0.0
  0
LINE
  8
0
 10
872.187517
 20
344.106057
 30
0.0
 11
872.112627
 21
344.059971
 31
0.0
  0
LINE
  8
0
 10
872.264194
 20
344.146382
 30
0.0
 11
872.187517
 21
344.106057
 31
0.0
  0
LINE
  8
0
 10
872.344845
 20
344.17896
 30
0.0
 11
872.264194
 21
344.146382
 31
0.0
  0
LINE
  8
0
 10
872.427283
 20
344.205777
 30
0.0
 11
872.344845
 21
344.17896
 31
0.0
  0
LINE
  8
0
 10
872.511906
 20
344.225046
 30
0.0
 11
872.427283
 21
344.205777
 31
0.0
  0
LINE
  8
0
 10
872.598118
 20
344.236567
 30
0.0
 11
872.511906
 21
344.225046
 31
0.0
  0
LINE
  8
0
 10
872.68453
 20
344.240342
 30
0.0
 11
872.598118
 21
344.236567
 31
0.0
  0
LINE
  8
0
 10
872.772729
 20
344.236567
 30
0.0
 11
872.68453
 21
344.240342
 31
0.0
  0
LINE
  8
0
 10
872.85914
 20
344.225046
 30
0.0
 11
872.772729
 21
344.236567
 31
0.0
  0
LINE
  8
0
 10
872.772729
 20
344.236567
 30
0.0
 11
872.85914
 21
344.225046
 31
0.0
  0
LINE
  8
0
 10
872.68453
 20
344.240342
 30
0.0
 11
872.772729
 21
344.236567
 31
0.0
  0
LINE
  8
0
 10
872.598118
 20
344.236567
 30
0.0
 11
872.68453
 21
344.240342
 31
0.0
  0
LINE
  8
0
 10
872.511906
 20
344.225046
 30
0.0
 11
872.598118
 21
344.236567
 31
0.0
  0
LINE
  8
0
 10
872.427283
 20
344.205777
 30
0.0
 11
872.511906
 21
344.225046
 31
0.0
  0
LINE
  8
0
 10
872.344845
 20
344.17896
 30
0.0
 11
872.427283
 21
344.205777
 31
0.0
  0
LINE
  8
0
 10
872.264194
 20
344.146382
 30
0.0
 11
872.344845
 21
344.17896
 31
0.0
  0
LINE
  8
0
 10
872.187517
 20
344.106057
 30
0.0
 11
872.264194
 21
344.146382
 31
0.0
  0
LINE
  8
0
 10
871.692292
 20
343.328754
 30
0.0
 11
871.688518
 21
343.242542
 31
0.0
  0
LINE
  8
0
 10
871.703813
 20
343.415165
 30
0.0
 11
871.692292
 21
343.328754
 31
0.0
  0
LINE
  8
0
 10
871.721095
 20
343.501577
 30
0.0
 11
871.703813
 21
343.415165
 31
0.0
  0
LINE
  8
0
 10
871.748111
 20
343.584015
 30
0.0
 11
871.721095
 21
343.501577
 31
0.0
  0
LINE
  8
0
 10
871.780689
 20
343.664665
 30
0.0
 11
871.748111
 21
343.584015
 31
0.0
  0
LINE
  8
0
 10
871.821015
 20
343.741541
 30
0.0
 11
871.780689
 21
343.664665
 31
0.0
  0
LINE
  8
0
 10
871.868888
 20
343.814444
 30
0.0
 11
871.821015
 21
343.741541
 31
0.0
  0
LINE
  8
0
 10
871.920735
 20
343.883375
 30
0.0
 11
871.868888
 21
343.814444
 31
0.0
  0
LINE
  8
0
 10
871.98013
 20
343.948729
 30
0.0
 11
871.920735
 21
343.883375
 31
0.0
  0
LINE
  8
0
 10
872.043498
 20
344.006337
 30
0.0
 11
871.98013
 21
343.948729
 31
0.0
  0
LINE
  8
0
 10
872.112627
 20
344.059971
 30
0.0
 11
872.043498
 21
344.006337
 31
0.0
  0
LINE
  8
0
 10
872.187517
 20
344.106057
 30
0.0
 11
872.112627
 21
344.059971
 31
0.0
  0
LINE
  8
0
 10
873.183529
 20
345.23834
 30
0.0
 11
872.187517
 21
345.23834
 31
0.0
  0
LINE
  8
0
 10
872.187517
 20
345.23834
 30
0.0
 11
873.183529
 21
345.23834
 31
0.0
  0
LINE
  8
0
 10
871.189518
 20
346.236339
 30
0.0
 11
871.189518
 21
371.965393
 31
0.0
  0
LINE
  8
0
 10
871.189518
 20
346.236339
 30
0.0
 11
871.193491
 21
346.147941
 31
0.0
  0
LINE
  8
0
 10
871.193491
 20
346.147941
 30
0.0
 11
871.189518
 21
346.236339
 31
0.0
  0
LINE
  8
0
 10
871.193491
 20
346.147941
 30
0.0
 11
871.205013
 21
346.06153
 31
0.0
  0
LINE
  8
0
 10
871.205013
 20
346.06153
 30
0.0
 11
871.193491
 21
346.147941
 31
0.0
  0
LINE
  8
0
 10
871.205013
 20
346.06153
 30
0.0
 11
871.222096
 21
345.977106
 31
0.0
  0
LINE
  8
0
 10
871.222096
 20
345.977106
 30
0.0
 11
871.205013
 21
346.06153
 31
0.0
  0
LINE
  8
0
 10
871.222096
 20
345.977106
 30
0.0
 11
871.249112
 21
345.894667
 31
0.0
  0
LINE
  8
0
 10
871.249112
 20
345.894667
 30
0.0
 11
871.222096
 21
345.977106
 31
0.0
  0
LINE
  8
0
 10
871.249112
 20
345.894667
 30
0.0
 11
871.28169
 21
345.814017
 31
0.0
  0
LINE
  8
0
 10
871.28169
 20
345.814017
 30
0.0
 11
871.249112
 21
345.894667
 31
0.0
  0
LINE
  8
0
 10
871.28169
 20
345.814017
 30
0.0
 11
871.322015
 21
345.73734
 31
0.0
  0
LINE
  8
0
 10
871.322015
 20
345.73734
 30
0.0
 11
871.28169
 21
345.814017
 31
0.0
  0
LINE
  8
0
 10
871.322015
 20
345.73734
 30
0.0
 11
871.369889
 21
345.66245
 31
0.0
  0
LINE
  8
0
 10
871.369889
 20
345.66245
 30
0.0
 11
871.322015
 21
345.73734
 31
0.0
  0
LINE
  8
0
 10
871.369889
 20
345.66245
 30
0.0
 11
871.421736
 21
345.593321
 31
0.0
  0
LINE
  8
0
 10
871.421736
 20
345.593321
 30
0.0
 11
871.369889
 21
345.66245
 31
0.0
  0
LINE
  8
0
 10
871.421736
 20
345.593321
 30
0.0
 11
871.48133
 21
345.529953
 31
0.0
  0
LINE
  8
0
 10
871.48133
 20
345.529953
 30
0.0
 11
871.421736
 21
345.593321
 31
0.0
  0
LINE
  8
0
 10
871.48133
 20
345.529953
 30
0.0
 11
871.544698
 21
345.470558
 31
0.0
  0
LINE
  8
0
 10
871.544698
 20
345.470558
 30
0.0
 11
871.48133
 21
345.529953
 31
0.0
  0
LINE
  8
0
 10
871.544698
 20
345.470558
 30
0.0
 11
871.613628
 21
345.418711
 31
0.0
  0
LINE
  8
0
 10
871.613628
 20
345.418711
 30
0.0
 11
871.544698
 21
345.470558
 31
0.0
  0
LINE
  8
0
 10
871.613628
 20
345.418711
 30
0.0
 11
871.688518
 21
345.370837
 31
0.0
  0
LINE
  8
0
 10
871.688518
 20
345.370837
 30
0.0
 11
871.613628
 21
345.418711
 31
0.0
  0
LINE
  8
0
 10
871.688518
 20
345.370837
 30
0.0
 11
871.765195
 21
345.330512
 31
0.0
  0
LINE
  8
0
 10
871.765195
 20
345.330512
 30
0.0
 11
871.688518
 21
345.370837
 31
0.0
  0
LINE
  8
0
 10
871.765195
 20
345.330512
 30
0.0
 11
871.845845
 21
345.297736
 31
0.0
  0
LINE
  8
0
 10
871.845845
 20
345.297736
 30
0.0
 11
871.765195
 21
345.330512
 31
0.0
  0
LINE
  8
0
 10
871.845845
 20
345.297736
 30
0.0
 11
871.928482
 21
345.270918
 31
0.0
  0
LINE
  8
0
 10
871.928482
 20
345.270918
 30
0.0
 11
871.845845
 21
345.297736
 31
0.0
  0
LINE
  8
0
 10
871.928482
 20
345.270918
 30
0.0
 11
872.012907
 21
345.253636
 31
0.0
  0
LINE
  8
0
 10
872.012907
 20
345.253636
 30
0.0
 11
871.928482
 21
345.270918
 31
0.0
  0
LINE
  8
0
 10
872.012907
 20
345.253636
 30
0.0
 11
872.099119
 21
345.242115
 31
0.0
  0
LINE
  8
0
 10
872.099119
 20
345.242115
 30
0.0
 11
872.012907
 21
345.253636
 31
0.0
  0
LINE
  8
0
 10
872.099119
 20
345.242115
 30
0.0
 11
872.18553
 21
345.23834
 31
0.0
  0
LINE
  8
0
 10
872.187517
 20
345.23834
 30
0.0
 11
872.099119
 21
345.242115
 31
0.0
  0
LINE
  8
0
 10
873.183529
 20
345.23834
 30
0.0
 11
873.271728
 21
345.242115
 31
0.0
  0
LINE
  8
0
 10
873.185515
 20
345.23834
 30
0.0
 11
873.183529
 21
345.23834
 31
0.0
  0
LINE
  8
0
 10
873.271728
 20
345.242115
 30
0.0
 11
873.185515
 21
345.23834
 31
0.0
  0
LINE
  8
0
 10
873.271728
 20
345.242115
 30
0.0
 11
873.358139
 21
345.253636
 31
0.0
  0
LINE
  8
0
 10
873.358139
 20
345.253636
 30
0.0
 11
873.271728
 21
345.242115
 31
0.0
  0
LINE
  8
0
 10
873.358139
 20
345.253636
 30
0.0
 11
873.442564
 21
345.270918
 31
0.0
  0
LINE
  8
0
 10
873.442564
 20
345.270918
 30
0.0
 11
873.358139
 21
345.253636
 31
0.0
  0
LINE
  8
0
 10
873.442564
 20
345.270918
 30
0.0
 11
873.525002
 21
345.297736
 31
0.0
  0
LINE
  8
0
 10
873.525002
 20
345.297736
 30
0.0
 11
873.442564
 21
345.270918
 31
0.0
  0
LINE
  8
0
 10
873.525002
 20
345.297736
 30
0.0
 11
873.605652
 21
345.330512
 31
0.0
  0
LINE
  8
0
 10
873.605652
 20
345.330512
 30
0.0
 11
873.525002
 21
345.297736
 31
0.0
  0
LINE
  8
0
 10
873.605652
 20
345.330512
 30
0.0
 11
873.682528
 21
345.370837
 31
0.0
  0
LINE
  8
0
 10
873.682528
 20
345.370837
 30
0.0
 11
873.605652
 21
345.330512
 31
0.0
  0
LINE
  8
0
 10
873.682528
 20
345.370837
 30
0.0
 11
873.757219
 21
345.418711
 31
0.0
  0
LINE
  8
0
 10
873.757219
 20
345.418711
 30
0.0
 11
873.682528
 21
345.370837
 31
0.0
  0
LINE
  8
0
 10
873.757219
 20
345.418711
 30
0.0
 11
873.826348
 21
345.470558
 31
0.0
  0
LINE
  8
0
 10
873.826348
 20
345.470558
 30
0.0
 11
873.757219
 21
345.418711
 31
0.0
  0
LINE
  8
0
 10
873.826348
 20
345.470558
 30
0.0
 11
873.889716
 21
345.529953
 31
0.0
  0
LINE
  8
0
 10
873.889716
 20
345.529953
 30
0.0
 11
873.826348
 21
345.470558
 31
0.0
  0
LINE
  8
0
 10
873.889716
 20
345.529953
 30
0.0
 11
873.94931
 21
345.593321
 31
0.0
  0
LINE
  8
0
 10
873.94931
 20
345.593321
 30
0.0
 11
873.889716
 21
345.529953
 31
0.0
  0
LINE
  8
0
 10
873.94931
 20
345.593321
 30
0.0
 11
874.000958
 21
345.66245
 31
0.0
  0
LINE
  8
0
 10
874.000958
 20
345.66245
 30
0.0
 11
873.94931
 21
345.593321
 31
0.0
  0
LINE
  8
0
 10
874.000958
 20
345.66245
 30
0.0
 11
874.04903
 21
345.73734
 31
0.0
  0
LINE
  8
0
 10
874.04903
 20
345.73734
 30
0.0
 11
874.000958
 21
345.66245
 31
0.0
  0
LINE
  8
0
 10
874.04903
 20
345.73734
 30
0.0
 11
874.089356
 21
345.814017
 31
0.0
  0
LINE
  8
0
 10
874.089356
 20
345.814017
 30
0.0
 11
874.04903
 21
345.73734
 31
0.0
  0
LINE
  8
0
 10
874.089356
 20
345.814017
 30
0.0
 11
874.121934
 21
345.894667
 31
0.0
  0
LINE
  8
0
 10
874.121934
 20
345.894667
 30
0.0
 11
874.089356
 21
345.814017
 31
0.0
  0
LINE
  8
0
 10
874.121934
 20
345.894667
 30
0.0
 11
874.148751
 21
345.977106
 31
0.0
  0
LINE
  8
0
 10
874.148751
 20
345.977106
 30
0.0
 11
874.121934
 21
345.894667
 31
0.0
  0
LINE
  8
0
 10
874.177554
 20
346.147941
 30
0.0
 11
874.181329
 21
346.236339
 31
0.0
  0
LINE
  8
0
 10
874.166033
 20
346.06153
 30
0.0
 11
874.177554
 21
346.147941
 31
0.0
  0
LINE
  8
0
 10
874.148751
 20
345.977106
 30
0.0
 11
874.166033
 21
346.06153
 31
0.0
  0
LINE
  8
0
 10
874.166033
 20
346.06153
 30
0.0
 11
874.148751
 21
345.977106
 31
0.0
  0
LINE
  8
0
 10
874.177554
 20
346.147941
 30
0.0
 11
874.166033
 21
346.06153
 31
0.0
  0
LINE
  8
0
 10
874.181329
 20
346.234352
 30
0.0
 11
874.177554
 21
346.147941
 31
0.0
  0
LINE
  8
0
 10
874.181329
 20
346.236339
 30
0.0
 11
874.181329
 21
346.234352
 31
0.0
  0
LINE
  8
0
 10
866.298353
 20
332.146363
 30
0.0
 11
870.854304
 21
336.704102
 31
0.0
  0
LINE
  8
0
 10
870.854304
 20
336.704102
 30
0.0
 11
866.298353
 21
332.146363
 31
0.0
  0
LINE
  8
0
 10
873.768429
 20
374.67533
 30
0.0
 11
875.045042
 21
372.464392
 31
0.0
  0
LINE
  8
0
 10
871.615596
 20
374.697808
 30
0.0
 11
870.326003
 21
372.464392
 31
0.0
  0
LINE
  8
0
 10
935.634021
 20
326.97533
 30
0.0
 11
935.63502
 21
308.976663
 31
0.0
  0
LINE
  8
0
 10
809.634021
 20
326.97533
 30
0.0
 11
809.634021
 21
308.97533
 31
0.0
  0
LINE
  8
0
 10
935.63502
 20
308.976663
 30
0.0
 11
808.911248
 21
308.976663
 31
0.0
  0
LINE
  8
0
 10
808.911248
 20
308.976663
 30
0.0
 11
786.911248
 21
308.976663
 31
0.0
  0
LINE
  8
0
 10
934.911248
 20
308.976663
 30
0.0
 11
956.911248
 21
308.976663
 31
0.0
  0
LINE
  8
0
 10
935.934021
 20
380.450459
 30
0.0
 11
936.634021
 21
379.238023
 31
0.0
  0
LINE
  8
0
 10
936.634021
 20
379.238023
 30
0.0
 11
936.634021
 21
378.47533
 31
0.0
  0
LINE
  8
0
 10
935.584021
 20
377.869112
 30
0.0
 11
935.434021
 21
377.955714
 31
0.0
  0
LINE
  8
0
 10
935.434021
 20
378.302125
 30
0.0
 11
936.306264
 21
378.805714
 31
0.0
  0
LINE
  8
0
 10
935.806264
 20
379.67174
 30
0.0
 11
934.334021
 21
378.82174
 31
0.0
  0
LINE
  8
0
 10
937.634021
 20
378.47533
 30
0.0
 11
937.634021
 21
384.97533
 31
0.0
  0
LINE
  8
0
 10
935.634021
 20
386.97533
 30
0.0
 11
872.634021
 21
386.97533
 31
0.0
  0
LINE
  8
0
 10
872.634021
 20
385.27533
 30
0.0
 11
934.434021
 21
385.27533
 31
0.0
  0
LINE
  8
0
 10
935.934021
 20
383.77533
 30
0.0
 11
935.934021
 21
380.450459
 31
0.0
  0
LINE
  8
0
 10
808.634021
 20
379.238023
 30
0.0
 11
809.334021
 21
380.450459
 31
0.0
  0
LINE
  8
0
 10
808.634021
 20
378.47533
 30
0.0
 11
808.634021
 21
379.238023
 31
0.0
  0
LINE
  8
0
 10
809.834021
 20
377.955714
 30
0.0
 11
809.684021
 21
377.869112
 31
0.0
  0
LINE
  8
0
 10
808.961777
 20
378.805714
 30
0.0
 11
809.834021
 21
378.302125
 31
0.0
  0
LINE
  8
0
 10
810.934021
 20
378.82174
 30
0.0
 11
809.461777
 21
379.67174
 31
0.0
  0
LINE
  8
0
 10
810.184021
 20
377.003087
 30
0.0
 11
810.934021
 21
377.436099
 31
0.0
  0
LINE
  8
0
 10
807.634021
 20
384.97533
 30
0.0
 11
807.634021
 21
378.47533
 31
0.0
  0
LINE
  8
0
 10
872.634021
 20
386.97533
 30
0.0
 11
809.634021
 21
386.97533
 31
0.0
  0
LINE
  8
0
 10
810.834021
 20
385.27533
 30
0.0
 11
872.634021
 21
385.27533
 31
0.0
  0
LINE
  8
0
 10
809.334021
 20
380.450459
 30
0.0
 11
809.334021
 21
383.77533
 31
0.0
  0
ARC
  8
0
 10
935.934021
 20
378.47533
 30
0.0
 40
0.7
 50
240.0
 51
0.0
  0
ARC
  8
0
 10
935.534021
 20
378.12892
 30
0.0
 40
0.2
 50
120.0
 51
240.0
  0
ARC
  8
0
 10
936.056264
 20
379.238727
 30
0.0
 40
0.5
 50
300.0
 51
120.0
  0
ARC
  8
0
 10
934.734021
 20
378.12892
 30
0.0
 40
0.8
 50
120.0
 51
240.0
  0
ARC
  8
0
 10
935.934021
 20
378.47533
 30
0.0
 40
1.7
 50
240.0
 51
0.0
  0
ARC
  8
0
 10
809.334021
 20
378.47533
 30
0.0
 40
0.7
 50
180.0
 51
300.0
  0
ARC
  8
0
 10
809.734021
 20
378.12892
 30
0.0
 40
0.2
 50
300.0
 51
60.0
  0
ARC
  8
0
 10
809.211777
 20
379.238727
 30
0.0
 40
0.5
 50
60.0
 51
240.0
  0
ARC
  8
0
 10
810.534021
 20
378.12892
 30
0.0
 40
0.8
 50
300.0
 51
60.0
  0
ARC
  8
0
 10
809.334021
 20
378.47533
 30
0.0
 40
1.7
 50
180.0
 51
300.0
  0
ARC
  8
0
 10
935.634021
 20
384.97533
 30
0.0
 40
2.0
 50
0.0
 51
90.0
  0
ARC
  8
0
 10
934.434021
 20
383.77533
 30
0.0
 40
1.5
 50
0.0
 51
90.0
  0
ARC
  8
0
 10
809.634021
 20
384.97533
 30
0.0
 40
2.0
 50
90.0
 51
180.0
  0
ARC
  8
0
 10
810.834021
 20
383.77533
 30
0.0
 40
1.5
 50
90.0
 51
180.0
  0
LINE
  8
0
 10
928.200507
 20
380.232047
 30
0.0
 11
927.96365
 21
381.57533
 31
0.0
  0
LINE
  8
0
 10
907.634021
 20
384.67533
 30
0.0
 11
926.158387
 21
384.67533
 31
0.0
  0
LINE
  8
0
 10
925.437883
 20
382.97533
 30
0.0
 11
923.734021
 21
382.97533
 31
0.0
  0
LINE
  8
0
 10
923.434021
 20
377.37533
 30
0.0
 11
923.434021
 21
382.67533
 31
0.0
  0
LINE
  8
0
 10
907.226176
 20
377.697425
 30
0.0
 11
907.634021
 21
376.17533
 31
0.0
  0
LINE
  8
0
 10
907.634021
 20
376.17533
 30
0.0
 11
909.4103
 21
376.17533
 31
0.0
  0
LINE
  8
0
 10
909.4103
 20
376.17533
 30
0.0
 11
922.234021
 21
376.17533
 31
0.0
  0
LINE
  8
0
 10
909.4103
 20
378.57533
 30
0.0
 11
922.234021
 21
378.57533
 31
0.0
  0
LINE
  8
0
 10
906.696198
 20
379.67533
 30
0.0
 11
907.226176
 21
377.697425
 31
0.0
  0
LINE
  8
0
 10
905.352217
 20
376.605531
 30
0.0
 11
905.383326
 21
377.496379
 31
0.0
  0
LINE
  8
0
 10
905.383326
 20
377.496379
 30
0.0
 11
905.799624
 21
376.77533
 31
0.0
  0
LINE
  8
0
 10
905.972829
 20
376.67533
 30
0.0
 11
906.532738
 21
376.67533
 31
0.0
  0
LINE
  8
0
 10
905.352217
 20
376.605531
 30
0.0
 11
905.581639
 21
383.17533
 31
0.0
  0
LINE
  8
0
 10
906.696198
 20
379.67533
 30
0.0
 11
906.696198
 21
384.67533
 31
0.0
  0
LINE
  8
0
 10
905.581639
 20
383.17533
 30
0.0
 11
905.634021
 21
384.67533
 31
0.0
  0
LINE
  8
0
 10
906.696198
 20
384.67533
 30
0.0
 11
907.634021
 21
384.67533
 31
0.0
  0
LINE
  8
0
 10
902.634021
 20
384.67533
 30
0.0
 11
906.696198
 21
384.67533
 31
0.0
  0
LINE
  8
0
 10
885.186402
 20
383.17533
 30
0.0
 11
905.581639
 21
383.17533
 31
0.0
  0
LINE
  8
0
 10
905.634021
 20
384.67533
 30
0.0
 11
885.134021
 21
384.67533
 31
0.0
  0
LINE
  8
0
 10
887.414606
 20
374.67533
 30
0.0
 11
903.353435
 21
374.67533
 31
0.0
  0
LINE
  8
0
 10
818.722691
 20
379.801682
 30
0.0
 11
819.035433
 21
381.57533
 31
0.0
  0
LINE
  8
0
 10
817.336305
 20
383.435802
 30
0.0
 11
817.255111
 21
382.97533
 31
0.0
  0
LINE
  8
0
 10
818.813517
 20
384.67533
 30
0.0
 11
837.634021
 21
384.67533
 31
0.0
  0
LINE
  8
0
 10
821.534021
 20
382.97533
 30
0.0
 11
819.830158
 21
382.97533
 31
0.0
  0
LINE
  8
0
 10
821.834021
 20
382.67533
 30
0.0
 11
821.834021
 21
377.37533
 31
0.0
  0
LINE
  8
0
 10
823.034021
 20
376.17533
 30
0.0
 11
835.857741
 21
376.17533
 31
0.0
  0
LINE
  8
0
 10
823.034021
 20
378.57533
 30
0.0
 11
835.857741
 21
378.57533
 31
0.0
  0
LINE
  8
0
 10
835.857741
 20
376.17533
 30
0.0
 11
837.634021
 21
376.17533
 31
0.0
  0
LINE
  8
0
 10
837.634021
 20
376.17533
 30
0.0
 11
837.634021
 21
384.67533
 31
0.0
  0
LINE
  8
0
 10
837.634021
 20
376.17533
 30
0.0
 11
838.041865
 21
377.697425
 31
0.0
  0
LINE
  8
0
 10
837.634021
 20
384.67533
 30
0.0
 11
838.571843
 21
384.67533
 31
0.0
  0
LINE
  8
0
 10
838.571843
 20
384.67533
 30
0.0
 11
842.634021
 21
384.67533
 31
0.0
  0
LINE
  8
0
 10
838.571843
 20
384.67533
 30
0.0
 11
838.571843
 21
379.67533
 31
0.0
  0
LINE
  8
0
 10
839.686402
 20
383.17533
 30
0.0
 11
839.915824
 21
376.605531
 31
0.0
  0
LINE
  8
0
 10
839.686402
 20
383.17533
 30
0.0
 11
860.081639
 21
383.17533
 31
0.0
  0
LINE
  8
0
 10
839.634021
 20
384.67533
 30
0.0
 11
839.686402
 21
383.17533
 31
0.0
  0
LINE
  8
0
 10
860.134021
 20
384.67533
 30
0.0
 11
839.634021
 21
384.67533
 31
0.0
  0
LINE
  8
0
 10
838.041865
 20
377.697425
 30
0.0
 11
838.571843
 21
379.67533
 31
0.0
  0
LINE
  8
0
 10
839.884715
 20
377.496379
 30
0.0
 11
839.915824
 21
376.605531
 31
0.0
  0
LINE
  8
0
 10
839.468417
 20
376.77533
 30
0.0
 11
839.884715
 21
377.496379
 31
0.0
  0
LINE
  8
0
 10
838.735303
 20
376.67533
 30
0.0
 11
839.295212
 21
376.67533
 31
0.0
  0
LINE
  8
0
 10
841.914606
 20
374.67533
 30
0.0
 11
857.853435
 21
374.67533
 31
0.0
  0
LINE
  8
0
 10
861.308624
 20
379.67533
 30
0.0
 11
861.415824
 21
376.605531
 31
0.0
  0
LINE
  8
0
 10
859.959417
 20
379.67533
 30
0.0
 11
861.308624
 21
379.67533
 31
0.0
  0
LINE
  8
0
 10
859.852217
 20
376.605531
 30
0.0
 11
859.959417
 21
379.67533
 31
0.0
  0
LINE
  8
0
 10
863.414606
 20
374.67533
 30
0.0
 11
872.634021
 21
374.67533
 31
0.0
  0
LINE
  8
0
 10
861.186402
 20
383.17533
 30
0.0
 11
861.308624
 21
379.67533
 31
0.0
  0
LINE
  8
0
 10
859.959417
 20
379.67533
 30
0.0
 11
860.081639
 21
383.17533
 31
0.0
  0
LINE
  8
0
 10
884.134021
 20
384.67533
 30
0.0
 11
861.134021
 21
384.67533
 31
0.0
  0
LINE
  8
0
 10
861.134021
 20
384.67533
 30
0.0
 11
861.186402
 21
383.17533
 31
0.0
  0
LINE
  8
0
 10
860.134021
 20
384.67533
 30
0.0
 11
861.134021
 21
384.67533
 31
0.0
  0
LINE
  8
0
 10
860.081639
 20
383.17533
 30
0.0
 11
860.134021
 21
384.67533
 31
0.0
  0
LINE
  8
0
 10
861.186402
 20
383.17533
 30
0.0
 11
884.081639
 21
383.17533
 31
0.0
  0
LINE
  8
0
 10
883.852217
 20
376.605531
 30
0.0
 11
883.959417
 21
379.67533
 31
0.0
  0
LINE
  8
0
 10
883.959417
 20
379.67533
 30
0.0
 11
885.308624
 21
379.67533
 31
0.0
  0
LINE
  8
0
 10
872.634021
 20
374.67533
 30
0.0
 11
881.853435
 21
374.67533
 31
0.0
  0
LINE
  8
0
 10
885.308624
 20
379.67533
 30
0.0
 11
885.415824
 21
376.605531
 31
0.0
  0
LINE
  8
0
 10
883.959417
 20
379.67533
 30
0.0
 11
884.081639
 21
383.17533
 31
0.0
  0
LINE
  8
0
 10
885.186402
 20
383.17533
 30
0.0
 11
885.308624
 21
379.67533
 31
0.0
  0
LINE
  8
0
 10
884.134021
 20
384.67533
 30
0.0
 11
885.134021
 21
384.67533
 31
0.0
  0
LINE
  8
0
 10
884.081639
 20
383.17533
 30
0.0
 11
884.134021
 21
384.67533
 31
0.0
  0
LINE
  8
0
 10
885.134021
 20
384.67533
 30
0.0
 11
885.186402
 21
383.17533
 31
0.0
  0
LINE
  8
0
 10
907.634021
 20
384.67533
 30
0.0
 11
907.634021
 21
376.17533
 31
0.0
  0
LINE
  8
0
 10
925.936471
 20
381.57533
 30
0.0
 11
926.249213
 21
379.801682
 31
0.0
  0
LINE
  8
0
 10
927.716792
 20
382.97533
 30
0.0
 11
927.635599
 21
383.435802
 31
0.0
  0
LINE
  8
0
 10
817.008254
 20
381.57533
 30
0.0
 11
816.771397
 21
380.232047
 31
0.0
  0
ARC
  8
0
 10
927.234021
 20
379.97533
 30
0.0
 40
1.0
 50
14.875362
 51
190.0
  0
ARC
  8
0
 10
927.234021
 20
379.97533
 30
0.0
 40
1.0
 50
190.0
 51
14.875362
  0
ARC
  8
0
 10
922.234021
 20
377.37533
 30
0.0
 40
1.2
 50
270.0
 51
0.0
  0
ARC
  8
0
 10
922.234021
 20
377.37533
 30
0.0
 40
1.2
 50
0.0
 51
90.0
  0
ARC
  8
0
 10
909.4103
 20
377.37533
 30
0.0
 40
1.2
 50
90.0
 51
180.0
  0
ARC
  8
0
 10
902.634021
 20
379.67533
 30
0.0
 40
5.0
 50
324.314665
 51
336.697793
  0
ARC
  8
0
 10
817.737883
 20
379.97533
 30
0.0
 40
1.0
 50
350.0
 51
165.124638
  0
ARC
  8
0
 10
817.737883
 20
379.97533
 30
0.0
 40
1.0
 50
165.124638
 51
350.0
  0
ARC
  8
0
 10
823.034021
 20
377.37533
 30
0.0
 40
1.2
 50
90.0
 51
180.0
  0
ARC
  8
0
 10
823.034021
 20
377.37533
 30
0.0
 40
1.2
 50
180.0
 51
270.0
  0
ARC
  8
0
 10
835.857741
 20
377.37533
 30
0.0
 40
1.2
 50
0.0
 51
90.0
  0
ARC
  8
0
 10
842.634021
 20
379.67533
 30
0.0
 40
5.0
 50
203.302207
 51
215.685335
  0
ARC
  8
0
 10
926.158387
 20
383.17533
 30
0.0
 40
1.5
 50
10.0
 51
90.0
  0
ARC
  8
0
 10
923.734021
 20
382.67533
 30
0.0
 40
0.3
 50
90.0
 51
180.0
  0
ARC
  8
0
 10
909.4103
 20
377.37533
 30
0.0
 40
1.2
 50
180.0
 51
270.0
  0
ARC
  8
0
 10
905.972829
 20
376.87533
 30
0.0
 40
0.2
 50
210.0
 51
270.0
  0
ARC
  8
0
 10
906.532738
 20
376.87533
 30
0.0
 40
0.2
 50
270.0
 51
324.314665
  0
ARC
  8
0
 10
903.353435
 20
376.67533
 30
0.0
 40
2.0
 50
270.0
 51
358.0
  0
ARC
  8
0
 10
903.353435
 20
376.67533
 30
0.0
 40
2.0
 50
270.0
 51
358.0
  0
ARC
  8
0
 10
818.813517
 20
383.17533
 30
0.0
 40
1.5
 50
90.0
 51
170.0
  0
ARC
  8
0
 10
821.534021
 20
382.67533
 30
0.0
 40
0.3
 50
0.0
 51
90.0
  0
ARC
  8
0
 10
835.857741
 20
377.37533
 30
0.0
 40
1.2
 50
270.0
 51
0.0
  0
ARC
  8
0
 10
839.295212
 20
376.87533
 30
0.0
 40
0.2
 50
270.0
 51
330.0
  0
ARC
  8
0
 10
838.735303
 20
376.87533
 30
0.0
 40
0.2
 50
215.685335
 51
270.0
  0
ARC
  8
0
 10
841.914606
 20
376.67533
 30
0.0
 40
2.0
 50
182.0
 51
270.0
  0
ARC
  8
0
 10
841.914606
 20
376.67533
 30
0.0
 40
2.0
 50
182.0
 51
270.0
  0
ARC
  8
0
 10
863.414606
 20
376.67533
 30
0.0
 40
2.0
 50
182.0
 51
270.0
  0
ARC
  8
0
 10
857.853435
 20
376.67533
 30
0.0
 40
2.0
 50
270.0
 51
358.0
  0
ARC
  8
0
 10
881.853435
 20
376.67533
 30
0.0
 40
2.0
 50
270.0
 51
358.0
  0
ARC
  8
0
 10
887.414606
 20
376.67533
 30
0.0
 40
2.0
 50
182.0
 51
270.0
  0
LINE
  8
0
 10
793.000461
 20
288.976663
 30
0.0
 11
786.911248
 21
295.065876
 31
0.0
  0
LINE
  8
0
 10
800.071529
 20
288.976663
 30
0.0
 11
786.911248
 21
302.136943
 31
0.0
  0
LINE
  8
0
 10
807.142596
 20
288.976663
 30
0.0
 11
787.142596
 21
308.976663
 31
0.0
  0
LINE
  8
0
 10
814.213664
 20
288.976663
 30
0.0
 11
794.213664
 21
308.976663
 31
0.0
  0
LINE
  8
0
 10
821.284732
 20
288.976663
 30
0.0
 11
801.284732
 21
308.976663
 31
0.0
  0
LINE
  8
0
 10
828.3558
 20
288.976663
 30
0.0
 11
808.3558
 21
308.976663
 31
0.0
  0
LINE
  8
0
 10
835.426868
 20
288.976663
 30
0.0
 11
815.426868
 21
308.976663
 31
0.0
  0
LINE
  8
0
 10
842.497935
 20
288.976663
 30
0.0
 11
822.497935
 21
308.976663
 31
0.0
  0
LINE
  8
0
 10
849.569003
 20
288.976663
 30
0.0
 11
829.569003
 21
308.976663
 31
0.0
  0
LINE
  8
0
 10
856.640071
 20
288.976663
 30
0.0
 11
836.640071
 21
308.976663
 31
0.0
  0
LINE
  8
0
 10
863.711139
 20
288.976663
 30
0.0
 11
843.711139
 21
308.976663
 31
0.0
  0
LINE
  8
0
 10
870.782207
 20
288.976663
 30
0.0
 11
850.782207
 21
308.976663
 31
0.0
  0
LINE
  8
0
 10
877.853275
 20
288.976663
 30
0.0
 11
857.853275
 21
308.976663
 31
0.0
  0
LINE
  8
0
 10
884.924342
 20
288.976663
 30
0.0
 11
864.924342
 21
308.976663
 31
0.0
  0
LINE
  8
0
 10
891.99541
 20
288.976663
 30
0.0
 11
871.99541
 21
308.976663
 31
0.0
  0
LINE
  8
0
 10
899.066478
 20
288.976663
 30
0.0
 11
879.066478
 21
308.976663
 31
0.0
  0
LINE
  8
0
 10
906.137546
 20
288.976663
 30
0.0
 11
886.137546
 21
308.976663
 31
0.0
  0
LINE
  8
0
 10
913.208614
 20
288.976663
 30
0.0
 11
893.208614
 21
308.976663
 31
0.0
  0
LINE
  8
0
 10
920.279681
 20
288.976663
 30
0.0
 11
900.279681
 21
308.976663
 31
0.0
  0
LINE
  8
0
 10
927.350749
 20
288.976663
 30
0.0
 11
907.350749
 21
308.976663
 31
0.0
  0
LINE
  8
0
 10
934.421817
 20
288.976663
 30
0.0
 11
914.421817
 21
308.976663
 31
0.0
  0
LINE
  8
0
 10
941.492885
 20
288.976663
 30
0.0
 11
921.492885
 21
308.976663
 31
0.0
  0
LINE
  8
0
 10
948.563953
 20
288.976663
 30
0.0
 11
928.563953
 21
308.976663
 31
0.0
  0
LINE
  8
0
 10
955.63502
 20
288.976663
 30
0.0
 11
935.63502
 21
308.976663
 31
0.0
  0
LINE
  8
0
 10
956.911248
 20
294.771503
 30
0.0
 11
942.706088
 21
308.976663
 31
0.0
  0
LINE
  8
0
 10
956.911248
 20
301.842571
 30
0.0
 11
949.777156
 21
308.976663
 31
0.0
  0
LINE
  8
0
 10
956.911248
 20
308.913639
 30
0.0
 11
956.848224
 21
308.976663
 31
0.0
  0
ENDSEC
  0
EOF
