  0
SECTION
  2
HEADER
  9
$ACADVER
  1
AC1009
  9
$INSBASE
 10
0.0
 20
0.0
 30
0.0
  9
$EXTMIN
 10
504.362582
 20
245.508217
 30
0.0
  9
$EXTMAX
 10
966.362582
 20
970.509134
 30
0.0
  9
$LIMMIN
 10
855.039764
 20
266.864907
  9
$LIMMAX
 10
935.039764
 20
436.864907
  9
$ORTHOMODE
 70
     0
  9
$REGENMODE
 70
     1
  9
$FILLMODE
 70
     1
  9
$QTEXTMODE
 70
     0
  9
$MIRRTEXT
 70
     1
  9
$DRAGMODE
 70
     2
  9
$LTSCALE
 40
1.0
  9
$OSMODE
 70
     0
  9
$ATTMODE
 70
     1
  9
$TEXTSIZE
 40
3.5
  9
$TRACEWID
 40
0.5
  9
$TEXTSTYLE
  7
STANDARD
  9
$CLAYER
  8
0
  9
$CELTYPE
  6
BYLAYER
  9
$CECOLOR
 62
   256
  9
$DIMSCALE
 40
1.0
  9
$DIMASZ
 40
0.18
  9
$DIMEXO
 40
0.0625
  9
$DIMDLI
 40
0.38
  9
$DIMRND
 40
0.0
  9
$DIMDLE
 40
0.0
  9
$DIMEXE
 40
0.18
  9
$DIMTP
 40
0.0
  9
$DIMTM
 40
0.0
  9
$DIMTXT
 40
0.18
  9
$DIMCEN
 40
0.09
  9
$DIMTSZ
 40
0.0
  9
$DIMTOL
 70
     0
  9
$DIMLIM
 70
     0
  9
$DIMTIH
 70
     1
  9
$DIMTOH
 70
     1
  9
$DIMSE1
 70
     0
  9
$DIMSE2
 70
     0
  9
$DIMTAD
 70
     0
  9
$DIMZIN
 70
     0
  9
$DIMBLK
  1

  9
$DIMASO
 70
     1
  9
$DIMSHO
 70
     1
  9
$DIMPOST
  1

  9
$DIMAPOST
  1

  9
$DIMALT
 70
     0
  9
$DIMALTD
 70
     2
  9
$DIMALTF
 40
25.4
  9
$DIMLFAC
 40
1.0
  9
$DIMTOFL
 70
     0
  9
$DIMTVP
 40
0.0
  9
$DIMTIX
 70
     0
  9
$DIMSOXD
 70
     0
  9
$DIMSAH
 70
     0
  9
$DIMBLK1
  1

  9
$DIMBLK2
  1

  9
$DIMSTYLE
  2
*UNNAMED
  9
$DIMCLRD
 70
     0
  9
$DIMCLRE
 70
     0
  9
$DIMCLRT
 70
     0
  9
$DIMTFAC
 40
1.0
  9
$DIMGAP
 40
0.09
  9
$LUNITS
 70
     2
  9
$LUPREC
 70
     4
  9
$SKETCHINC
 40
0.1
  9
$FILLETRAD
 40
2.0
  9
$AUNITS
 70
     0
  9
$AUPREC
 70
     0
  9
$MENU
  1
ACAD
  9
$ELEVATION
 40
0.0
  9
$PELEVATION
 40
0.0
  9
$THICKNESS
 40
0.0
  9
$LIMCHECK
 70
     0
  9
$BLIPMODE
 70
     1
  9
$CHAMFERA
 40
0.0
  9
$CHAMFERB
 40
0.0
  9
$SKPOLY
 70
     0
  9
$TDCREATE
 40
2450746.544737500
  9
$TDUPDATE
 40
2450946.537967130
  9
$TDINDWG
 40
0.0065204861
  9
$TDUSRTIMER
 40
0.0065204861
  9
$USRTIMER
 70
     1
  9
$ANGBASE
 50
0.0
  9
$ANGDIR
 70
     0
  9
$PDMODE
 70
     0
  9
$PDSIZE
 40
0.0
  9
$PLINEWID
 40
0.0
  9
$COORDS
 70
     2
  9
$SPLFRAME
 70
     0
  9
$SPLINETYPE
 70
     6
  9
$SPLINESEGS
 70
     8
  9
$ATTDIA
 70
     0
  9
$ATTREQ
 70
     1
  9
$HANDLING
 70
     0
  9
$HANDSEED
  5
0
  9
$SURFTAB1
 70
     6
  9
$SURFTAB2
 70
     6
  9
$SURFTYPE
 70
     6
  9
$SURFU
 70
     6
  9
$SURFV
 70
     6
  9
$UCSNAME
  2

  9
$UCSORG
 10
0.0
 20
0.0
 30
0.0
  9
$UCSXDIR
 10
1.0
 20
0.0
 30
0.0
  9
$UCSYDIR
 10
0.0
 20
1.0
 30
0.0
  9
$PUCSNAME
  2

  9
$PUCSORG
 10
0.0
 20
0.0
 30
0.0
  9
$PUCSXDIR
 10
1.0
 20
0.0
 30
0.0
  9
$PUCSYDIR
 10
0.0
 20
1.0
 30
0.0
  9
$USERI1
 70
     0
  9
$USERI2
 70
     0
  9
$USERI3
 70
     0
  9
$USERI4
 70
     0
  9
$USERI5
 70
     0
  9
$USERR1
 40
0.0
  9
$USERR2
 40
0.0
  9
$USERR3
 40
0.0
  9
$USERR4
 40
0.0
  9
$USERR5
 40
0.0
  9
$WORLDVIEW
 70
     1
  9
$SHADEDGE
 70
     3
  9
$SHADEDIF
 70
    70
  9
$TILEMODE
 70
     1
  9
$MAXACTVP
 70
    16
  9
$PINSBASE
 10
0.0
 20
0.0
 30
0.0
  9
$PLIMCHECK
 70
     0
  9
$PEXTMIN
 10
1.000000E+20
 20
1.000000E+20
 30
1.000000E+20
  9
$PEXTMAX
 10
-1.000000E+20
 20
-1.000000E+20
 30
-1.000000E+20
  9
$PLIMMIN
 10
0.0
 20
0.0
  9
$PLIMMAX
 10
420.0
 20
297.0
  9
$UNITMODE
 70
     0
  9
$VISRETAIN
 70
     0
  9
$PLINEGEN
 70
     0
  9
$PSLTSCALE
 70
     1
  9
$TREEDEPTH
 70
  3020
  9
$DWGCODEPAGE
  3
iso8859-1
  0
ENDSEC
  0
SECTION
  2
TABLES
  0
TABLE
  2
VPORT
 70
     2
  0
VPORT
  2
*ACTIVE
 70
     0
 10
0.0
 20
0.0
 11
1.0
 21
1.0
 12
923.607776
 22
360.191869
 13
0.0
 23
0.0
 14
1.0
 24
1.0
 15
0.0
 25
0.0
 16
0.0
 26
0.0
 36
1.0
 17
0.0
 27
0.0
 37
0.0
 40
197.844529
 41
1.748359
 42
50.0
 43
0.0
 44
0.0
 50
0.0
 51
0.0
 71
     0
 72
   100
 73
     1
 74
     0
 75
     0
 76
     0
 77
     0
 78
     0
  0
ENDTAB
  0
TABLE
  2
LTYPE
 70
     1
  0
LTYPE
  2
CONTINUOUS
 70
    64
  3
Solid line
 72
    65
 73
     0
 40
0.0
  0
ENDTAB
  0
TABLE
  2
LAYER
 70
     1
  0
LAYER
  2
0
 70
    64
 62
     7
  6
CONTINUOUS
  0
ENDTAB
  0
TABLE
  2
STYLE
 70
     1
  0
STYLE
  2
STANDARD
 70
     0
 40
0.0
 41
1.0
 50
0.0
 71
     0
 42
3.5
  3
txt
  4

  0
ENDTAB
  0
TABLE
  2
VIEW
 70
     0
  0
ENDTAB
  0
TABLE
  2
UCS
 70
     0
  0
ENDTAB
  0
TABLE
  2
APPID
 70
     1
  0
APPID
  2
ACAD
 70
    64
  0
ENDTAB
  0
TABLE
  2
DIMSTYLE
 70
     0
  0
ENDTAB
  0
ENDSEC
  0
SECTION
  2
BLOCKS
  0
ENDSEC
  0
SECTION
  2
ENTITIES
  0
LINE
  8
0
 10
933.911134
 20
407.003985
 30
0.0
 11
934.661134
 21
406.570972
 31
0.0
  0
LINE
  8
0
 10
810.311134
 20
411.043215
 30
0.0
 11
810.311134
 21
410.443215
 31
0.0
  0
LINE
  8
0
 10
808.911134
 20
411.043215
 30
0.0
 11
808.911134
 21
410.443215
 31
0.0
  0
LINE
  8
0
 10
934.111134
 20
411.043215
 30
0.0
 11
934.111134
 21
410.443215
 31
0.0
  0
LINE
  8
0
 10
934.911134
 20
360.843215
 30
0.0
 11
934.911134
 21
402.560609
 31
0.0
  0
LINE
  8
0
 10
869.711134
 20
363.853266
 30
0.0
 11
869.059662
 21
363.201794
 31
0.0
  0
LINE
  8
0
 10
869.059662
 20
363.201794
 30
0.0
 11
869.564687
 21
362.696768
 31
0.0
  0
LINE
  8
0
 10
869.211134
 20
361.843215
 30
0.0
 11
867.211134
 21
361.843215
 31
0.0
  0
LINE
  8
0
 10
866.85758
 20
362.696768
 30
0.0
 11
868.750474
 21
364.589662
 31
0.0
  0
LINE
  8
0
 10
871.311134
 20
363.529001
 30
0.0
 11
871.311134
 21
359.743215
 31
0.0
  0
LINE
  8
0
 10
869.711134
 20
363.853266
 30
0.0
 11
869.711134
 21
359.843215
 31
0.0
  0
LINE
  8
0
 10
875.362606
 20
363.201794
 30
0.0
 11
874.711134
 21
363.853266
 31
0.0
  0
LINE
  8
0
 10
874.85758
 20
362.696768
 30
0.0
 11
875.362606
 21
363.201794
 31
0.0
  0
LINE
  8
0
 10
877.211134
 20
361.843215
 30
0.0
 11
875.211134
 21
361.843215
 31
0.0
  0
LINE
  8
0
 10
875.671794
 20
364.589662
 30
0.0
 11
877.564687
 21
362.696768
 31
0.0
  0
LINE
  8
0
 10
873.111134
 20
359.743215
 30
0.0
 11
873.111134
 21
363.529001
 31
0.0
  0
LINE
  8
0
 10
874.711134
 20
359.843215
 30
0.0
 11
874.711134
 21
363.853266
 31
0.0
  0
LINE
  8
0
 10
929.811134
 20
410.643215
 30
0.0
 11
929.811134
 21
408.443215
 31
0.0
  0
LINE
  8
0
 10
929.811134
 20
413.043215
 30
0.0
 11
929.811134
 21
414.043215
 31
0.0
  0
LINE
  8
0
 10
930.311134
 20
414.543215
 30
0.0
 11
932.011134
 21
414.543215
 31
0.0
  0
LINE
  8
0
 10
935.511134
 20
411.043215
 30
0.0
 11
935.511134
 21
410.443215
 31
0.0
  0
LINE
  8
0
 10
932.011134
 20
413.143215
 30
0.0
 11
931.711134
 21
413.143215
 31
0.0
  0
LINE
  8
0
 10
931.211134
 20
412.643215
 30
0.0
 11
931.211134
 21
409.084667
 31
0.0
  0
LINE
  8
0
 10
929.311134
 20
412.543215
 30
0.0
 11
927.293906
 21
412.543215
 31
0.0
  0
LINE
  8
0
 10
923.511134
 20
411.543215
 30
0.0
 11
923.511134
 21
407.543215
 31
0.0
  0
LINE
  8
0
 10
929.311134
 20
411.143215
 30
0.0
 11
927.540763
 21
411.143215
 31
0.0
  0
LINE
  8
0
 10
924.911134
 20
410.643215
 30
0.0
 11
924.911134
 21
408.443215
 31
0.0
  0
LINE
  8
0
 10
929.311134
 20
407.943215
 30
0.0
 11
925.411134
 21
407.943215
 31
0.0
  0
LINE
  8
0
 10
807.211134
 20
358.543215
 30
0.0
 11
807.211134
 21
403.888515
 31
0.0
  0
LINE
  8
0
 10
809.511134
 20
360.843215
 30
0.0
 11
809.511134
 21
402.560609
 31
0.0
  0
LINE
  8
0
 10
814.611134
 20
414.043215
 30
0.0
 11
814.611134
 21
413.043215
 31
0.0
  0
LINE
  8
0
 10
812.411134
 20
414.543215
 30
0.0
 11
814.111134
 21
414.543215
 31
0.0
  0
LINE
  8
0
 10
812.711134
 20
413.143215
 30
0.0
 11
812.411134
 21
413.143215
 31
0.0
  0
LINE
  8
0
 10
813.211134
 20
409.091886
 30
0.0
 11
813.211134
 21
412.643215
 31
0.0
  0
LINE
  8
0
 10
820.911134
 20
407.543215
 30
0.0
 11
820.911134
 21
411.543215
 31
0.0
  0
LINE
  8
0
 10
819.511134
 20
408.443215
 30
0.0
 11
819.511134
 21
410.643215
 31
0.0
  0
LINE
  8
0
 10
815.111134
 20
407.943215
 30
0.0
 11
819.011134
 21
407.943215
 31
0.0
  0
LINE
  8
0
 10
819.911134
 20
412.543215
 30
0.0
 11
815.111134
 21
412.543215
 31
0.0
  0
LINE
  8
0
 10
925.311134
 20
412.543215
 30
0.0
 11
924.511134
 21
412.543215
 31
0.0
  0
LINE
  8
0
 10
936.211134
 20
405.620565
 30
0.0
 11
931.711134
 21
408.218642
 31
0.0
  0
LINE
  8
0
 10
813.211134
 20
409.091886
 30
0.0
 11
813.211134
 21
409.084667
 31
0.0
  0
LINE
  8
0
 10
812.711134
 20
408.218642
 30
0.0
 11
808.211134
 21
405.620565
 31
0.0
  0
LINE
  8
0
 10
933.911134
 20
404.29266
 30
0.0
 11
930.013058
 21
406.543215
 31
0.0
  0
LINE
  8
0
 10
930.013058
 20
406.543215
 30
0.0
 11
924.511134
 21
406.543215
 31
0.0
  0
LINE
  8
0
 10
810.511134
 20
404.29266
 30
0.0
 11
814.40921
 21
406.543215
 31
0.0
  0
LINE
  8
0
 10
814.40921
 20
406.543215
 30
0.0
 11
819.911134
 21
406.543215
 31
0.0
  0
LINE
  8
0
 10
937.211134
 20
403.888515
 30
0.0
 11
937.211134
 21
358.543215
 31
0.0
  0
LINE
  8
0
 10
935.211134
 20
356.543215
 30
0.0
 11
809.211134
 21
356.543215
 31
0.0
  0
LINE
  8
0
 10
899.711134
 20
363.853266
 30
0.0
 11
899.059662
 21
363.201794
 31
0.0
  0
LINE
  8
0
 10
899.059662
 20
363.201794
 30
0.0
 11
899.564687
 21
362.696768
 31
0.0
  0
LINE
  8
0
 10
899.211134
 20
361.843215
 30
0.0
 11
897.211134
 21
361.843215
 31
0.0
  0
LINE
  8
0
 10
896.85758
 20
362.696768
 30
0.0
 11
898.750474
 21
364.589662
 31
0.0
  0
LINE
  8
0
 10
901.311134
 20
363.529001
 30
0.0
 11
901.311134
 21
359.743215
 31
0.0
  0
LINE
  8
0
 10
899.711134
 20
363.853266
 30
0.0
 11
899.711134
 21
359.843215
 31
0.0
  0
LINE
  8
0
 10
905.362606
 20
363.201794
 30
0.0
 11
904.711134
 21
363.853266
 31
0.0
  0
LINE
  8
0
 10
904.85758
 20
362.696768
 30
0.0
 11
905.362606
 21
363.201794
 31
0.0
  0
LINE
  8
0
 10
907.211134
 20
361.843215
 30
0.0
 11
905.211134
 21
361.843215
 31
0.0
  0
LINE
  8
0
 10
905.671794
 20
364.589662
 30
0.0
 11
907.564687
 21
362.696768
 31
0.0
  0
LINE
  8
0
 10
903.111134
 20
359.743215
 30
0.0
 11
903.111134
 21
363.529001
 31
0.0
  0
LINE
  8
0
 10
904.711134
 20
359.843215
 30
0.0
 11
904.711134
 21
363.853266
 31
0.0
  0
LINE
  8
0
 10
839.711134
 20
363.853266
 30
0.0
 11
839.059662
 21
363.201794
 31
0.0
  0
LINE
  8
0
 10
839.059662
 20
363.201794
 30
0.0
 11
839.564687
 21
362.696768
 31
0.0
  0
LINE
  8
0
 10
839.211134
 20
361.843215
 30
0.0
 11
837.211134
 21
361.843215
 31
0.0
  0
LINE
  8
0
 10
836.85758
 20
362.696768
 30
0.0
 11
838.750474
 21
364.589662
 31
0.0
  0
LINE
  8
0
 10
841.311134
 20
363.529001
 30
0.0
 11
841.311134
 21
359.743215
 31
0.0
  0
LINE
  8
0
 10
839.711134
 20
363.853266
 30
0.0
 11
839.711134
 21
359.843215
 31
0.0
  0
LINE
  8
0
 10
845.362606
 20
363.201794
 30
0.0
 11
844.711134
 21
363.853266
 31
0.0
  0
LINE
  8
0
 10
844.85758
 20
362.696768
 30
0.0
 11
845.362606
 21
363.201794
 31
0.0
  0
LINE
  8
0
 10
847.211134
 20
361.843215
 30
0.0
 11
845.211134
 21
361.843215
 31
0.0
  0
LINE
  8
0
 10
845.671794
 20
364.589662
 30
0.0
 11
847.564687
 21
362.696768
 31
0.0
  0
LINE
  8
0
 10
843.111134
 20
359.743215
 30
0.0
 11
843.111134
 21
363.529001
 31
0.0
  0
LINE
  8
0
 10
844.711134
 20
359.843215
 30
0.0
 11
844.711134
 21
363.853266
 31
0.0
  0
LINE
  8
0
 10
811.511134
 20
358.843215
 30
0.0
 11
838.711134
 21
358.843215
 31
0.0
  0
LINE
  8
0
 10
845.711134
 20
358.843215
 30
0.0
 11
868.711134
 21
358.843215
 31
0.0
  0
LINE
  8
0
 10
875.711134
 20
358.843215
 30
0.0
 11
898.711134
 21
358.843215
 31
0.0
  0
LINE
  8
0
 10
905.711134
 20
358.843215
 30
0.0
 11
932.911134
 21
358.843215
 31
0.0
  0
LINE
  8
0
 10
925.513584
 20
411.143215
 30
0.0
 11
925.411134
 21
411.143215
 31
0.0
  0
LINE
  8
0
 10
925.311134
 20
412.543215
 30
0.0
 11
927.293906
 21
412.543215
 31
0.0
  0
LINE
  8
0
 10
925.513584
 20
411.143215
 30
0.0
 11
927.540763
 21
411.143215
 31
0.0
  0
LINE
  8
0
 10
819.011134
 20
411.143215
 30
0.0
 11
815.111134
 21
411.143215
 31
0.0
  0
LINE
  8
0
 10
814.611134
 20
410.643215
 30
0.0
 11
814.611134
 21
408.443215
 31
0.0
  0
ARC
  8
0
 10
877.211134
 20
362.343215
 30
0.0
 40
0.5
 50
270.0
 51
0.0
  0
ARC
  8
0
 10
867.211134
 20
362.343215
 30
0.0
 40
0.5
 50
135.0
 51
180.0
  0
ARC
  8
0
 10
869.211134
 20
362.343215
 30
0.0
 40
0.5
 50
270.0
 51
45.0
  0
ARC
  8
0
 10
867.211134
 20
362.343215
 30
0.0
 40
0.5
 50
180.0
 51
270.0
  0
ARC
  8
0
 10
869.811134
 20
363.529001
 30
0.0
 40
1.5
 50
0.0
 51
135.0
  0
ARC
  8
0
 10
875.211134
 20
362.343215
 30
0.0
 40
0.5
 50
135.0
 51
270.0
  0
ARC
  8
0
 10
877.211134
 20
362.343215
 30
0.0
 40
0.5
 50
0.0
 51
45.0
  0
ARC
  8
0
 10
874.611134
 20
363.529001
 30
0.0
 40
1.5
 50
45.0
 51
180.0
  0
ARC
  8
0
 10
907.211134
 20
362.343215
 30
0.0
 40
0.5
 50
270.0
 51
0.0
  0
ARC
  8
0
 10
897.211134
 20
362.343215
 30
0.0
 40
0.5
 50
135.0
 51
180.0
  0
ARC
  8
0
 10
899.211134
 20
362.343215
 30
0.0
 40
0.5
 50
270.0
 51
45.0
  0
ARC
  8
0
 10
897.211134
 20
362.343215
 30
0.0
 40
0.5
 50
180.0
 51
270.0
  0
ARC
  8
0
 10
899.811134
 20
363.529001
 30
0.0
 40
1.5
 50
0.0
 51
135.0
  0
ARC
  8
0
 10
905.211134
 20
362.343215
 30
0.0
 40
0.5
 50
135.0
 51
270.0
  0
ARC
  8
0
 10
907.211134
 20
362.343215
 30
0.0
 40
0.5
 50
0.0
 51
45.0
  0
ARC
  8
0
 10
904.611134
 20
363.529001
 30
0.0
 40
1.5
 50
45.0
 51
180.0
  0
ARC
  8
0
 10
847.211134
 20
362.343215
 30
0.0
 40
0.5
 50
270.0
 51
0.0
  0
ARC
  8
0
 10
837.211134
 20
362.343215
 30
0.0
 40
0.5
 50
135.0
 51
180.0
  0
ARC
  8
0
 10
839.211134
 20
362.343215
 30
0.0
 40
0.5
 50
270.0
 51
45.0
  0
ARC
  8
0
 10
837.211134
 20
362.343215
 30
0.0
 40
0.5
 50
180.0
 51
270.0
  0
ARC
  8
0
 10
839.811134
 20
363.529001
 30
0.0
 40
1.5
 50
0.0
 51
135.0
  0
ARC
  8
0
 10
845.211134
 20
362.343215
 30
0.0
 40
0.5
 50
135.0
 51
270.0
  0
ARC
  8
0
 10
847.211134
 20
362.343215
 30
0.0
 40
0.5
 50
0.0
 51
45.0
  0
ARC
  8
0
 10
844.611134
 20
363.529001
 30
0.0
 40
1.5
 50
45.0
 51
180.0
  0
ARC
  8
0
 10
932.911134
 20
360.843215
 30
0.0
 40
2.0
 50
270.0
 51
0.0
  0
ARC
  8
0
 10
875.711134
 20
359.843215
 30
0.0
 40
1.0
 50
180.0
 51
270.0
  0
ARC
  8
0
 10
868.711134
 20
359.843215
 30
0.0
 40
1.0
 50
270.0
 51
0.0
  0
ARC
  8
0
 10
872.211134
 20
359.743215
 30
0.0
 40
0.9
 50
180.0
 51
0.0
  0
ARC
  8
0
 10
929.311134
 20
408.443215
 30
0.0
 40
0.5
 50
270.0
 51
0.0
  0
ARC
  8
0
 10
929.311134
 20
410.643215
 30
0.0
 40
0.5
 50
0.0
 51
90.0
  0
ARC
  8
0
 10
929.311134
 20
413.043215
 30
0.0
 40
0.5
 50
270.0
 51
0.0
  0
ARC
  8
0
 10
930.311134
 20
414.043215
 30
0.0
 40
0.5
 50
90.0
 51
180.0
  0
ARC
  8
0
 10
924.511134
 20
407.543215
 30
0.0
 40
1.0
 50
180.0
 51
270.0
  0
ARC
  8
0
 10
924.511134
 20
411.543215
 30
0.0
 40
1.0
 50
90.0
 51
180.0
  0
ARC
  8
0
 10
932.011134
 20
411.043215
 30
0.0
 40
3.5
 50
0.0
 51
90.0
  0
ARC
  8
0
 10
932.011134
 20
411.043215
 30
0.0
 40
2.1
 50
0.0
 51
90.0
  0
ARC
  8
0
 10
931.711134
 20
412.643215
 30
0.0
 40
0.5
 50
90.0
 51
180.0
  0
ARC
  8
0
 10
934.811134
 20
410.443215
 30
0.0
 40
0.7
 50
270.0
 51
0.0
  0
ARC
  8
0
 10
934.811134
 20
410.443215
 30
0.0
 40
0.7
 50
180.0
 51
270.0
  0
ARC
  8
0
 10
811.511134
 20
360.843215
 30
0.0
 40
2.0
 50
180.0
 51
270.0
  0
ARC
  8
0
 10
815.111134
 20
408.443215
 30
0.0
 40
0.5
 50
180.0
 51
270.0
  0
ARC
  8
0
 10
815.111134
 20
413.043215
 30
0.0
 40
0.5
 50
180.0
 51
270.0
  0
ARC
  8
0
 10
814.111134
 20
414.043215
 30
0.0
 40
0.5
 50
0.0
 51
90.0
  0
ARC
  8
0
 10
819.911134
 20
407.543215
 30
0.0
 40
1.0
 50
270.0
 51
0.0
  0
ARC
  8
0
 10
819.911134
 20
411.543215
 30
0.0
 40
1.0
 50
0.0
 51
90.0
  0
ARC
  8
0
 10
812.411134
 20
411.043215
 30
0.0
 40
3.5
 50
90.0
 51
180.0
  0
ARC
  8
0
 10
812.411134
 20
411.043215
 30
0.0
 40
2.1
 50
90.0
 51
180.0
  0
ARC
  8
0
 10
812.711134
 20
412.643215
 30
0.0
 40
0.5
 50
0.0
 51
90.0
  0
ARC
  8
0
 10
809.611134
 20
410.443215
 30
0.0
 40
0.7
 50
180.0
 51
270.0
  0
ARC
  8
0
 10
809.611134
 20
410.443215
 30
0.0
 40
0.7
 50
270.0
 51
0.0
  0
ARC
  8
0
 10
925.411134
 20
410.643215
 30
0.0
 40
0.5
 50
90.0
 51
180.0
  0
ARC
  8
0
 10
925.411134
 20
408.443215
 30
0.0
 40
0.5
 50
180.0
 51
270.0
  0
ARC
  8
0
 10
819.011134
 20
410.643215
 30
0.0
 40
0.5
 50
0.0
 51
90.0
  0
ARC
  8
0
 10
819.011134
 20
408.443215
 30
0.0
 40
0.5
 50
270.0
 51
0.0
  0
ARC
  8
0
 10
935.211134
 20
403.888515
 30
0.0
 40
2.0
 50
0.0
 51
60.0
  0
ARC
  8
0
 10
932.211134
 20
409.084667
 30
0.0
 40
1.0
 50
180.0
 51
240.0
  0
ARC
  8
0
 10
809.211134
 20
403.888515
 30
0.0
 40
2.0
 50
120.0
 51
180.0
  0
ARC
  8
0
 10
812.211134
 20
409.084667
 30
0.0
 40
1.0
 50
300.0
 51
0.0
  0
ARC
  8
0
 10
932.911134
 20
402.560609
 30
0.0
 40
2.0
 50
0.0
 51
60.0
  0
ARC
  8
0
 10
811.511134
 20
402.560609
 30
0.0
 40
2.0
 50
120.0
 51
180.0
  0
ARC
  8
0
 10
809.211134
 20
358.543215
 30
0.0
 40
2.0
 50
180.0
 51
270.0
  0
ARC
  8
0
 10
935.211134
 20
358.543215
 30
0.0
 40
2.0
 50
270.0
 51
0.0
  0
ARC
  8
0
 10
905.711134
 20
359.843215
 30
0.0
 40
1.0
 50
180.0
 51
270.0
  0
ARC
  8
0
 10
898.711134
 20
359.843215
 30
0.0
 40
1.0
 50
270.0
 51
0.0
  0
ARC
  8
0
 10
902.211134
 20
359.743215
 30
0.0
 40
0.9
 50
180.0
 51
0.0
  0
ARC
  8
0
 10
845.711134
 20
359.843215
 30
0.0
 40
1.0
 50
180.0
 51
270.0
  0
ARC
  8
0
 10
838.711134
 20
359.843215
 30
0.0
 40
1.0
 50
270.0
 51
0.0
  0
ARC
  8
0
 10
842.211134
 20
359.743215
 30
0.0
 40
0.9
 50
180.0
 51
0.0
  0
ARC
  8
0
 10
815.111134
 20
410.643215
 30
0.0
 40
0.5
 50
90.0
 51
180.0
  0
LINE
  8
0
 10
935.219884
 20
356.538798
 30
0.0
 11
935.220884
 21
338.540132
 31
0.0
  0
LINE
  8
0
 10
808.655685
 20
356.411771
 30
0.0
 11
808.655685
 21
338.411771
 31
0.0
  0
LINE
  8
0
 10
935.934906
 20
338.411771
 30
0.0
 11
809.211134
 21
338.411771
 31
0.0
  0
LINE
  8
0
 10
809.211134
 20
338.411771
 30
0.0
 11
787.211134
 21
338.411771
 31
0.0
  0
LINE
  8
0
 10
935.211134
 20
338.411771
 30
0.0
 11
957.211134
 21
338.411771
 31
0.0
  0
LINE
  8
0
 10
935.511134
 20
410.018344
 30
0.0
 11
936.211134
 21
408.805908
 31
0.0
  0
LINE
  8
0
 10
936.211134
 20
408.805908
 30
0.0
 11
936.211134
 21
408.043215
 31
0.0
  0
LINE
  8
0
 10
935.161134
 20
407.436997
 30
0.0
 11
935.011134
 21
407.5236
 31
0.0
  0
LINE
  8
0
 10
935.011134
 20
407.87001
 30
0.0
 11
935.883377
 21
408.3736
 31
0.0
  0
LINE
  8
0
 10
935.383377
 20
409.239625
 30
0.0
 11
933.911134
 21
408.389625
 31
0.0
  0
LINE
  8
0
 10
937.211134
 20
408.043215
 30
0.0
 11
937.211134
 21
414.543215
 31
0.0
  0
LINE
  8
0
 10
935.211134
 20
416.543215
 30
0.0
 11
872.211134
 21
416.543215
 31
0.0
  0
LINE
  8
0
 10
872.211134
 20
414.843215
 30
0.0
 11
934.011134
 21
414.843215
 31
0.0
  0
LINE
  8
0
 10
935.511134
 20
413.343215
 30
0.0
 11
935.511134
 21
410.018344
 31
0.0
  0
LINE
  8
0
 10
808.211134
 20
408.805908
 30
0.0
 11
808.911134
 21
410.018344
 31
0.0
  0
LINE
  8
0
 10
808.211134
 20
408.043215
 30
0.0
 11
808.211134
 21
408.805908
 31
0.0
  0
LINE
  8
0
 10
809.411134
 20
407.5236
 30
0.0
 11
809.261134
 21
407.436997
 31
0.0
  0
LINE
  8
0
 10
808.538891
 20
408.3736
 30
0.0
 11
809.411134
 21
407.87001
 31
0.0
  0
LINE
  8
0
 10
810.511134
 20
408.389625
 30
0.0
 11
809.038891
 21
409.239625
 31
0.0
  0
LINE
  8
0
 10
809.761134
 20
406.570972
 30
0.0
 11
810.511134
 21
407.003985
 31
0.0
  0
LINE
  8
0
 10
807.211134
 20
414.543215
 30
0.0
 11
807.211134
 21
408.043215
 31
0.0
  0
LINE
  8
0
 10
872.211134
 20
416.543215
 30
0.0
 11
809.211134
 21
416.543215
 31
0.0
  0
LINE
  8
0
 10
810.411134
 20
414.843215
 30
0.0
 11
872.211134
 21
414.843215
 31
0.0
  0
LINE
  8
0
 10
808.911134
 20
410.018344
 30
0.0
 11
808.911134
 21
413.343215
 31
0.0
  0
ARC
  8
0
 10
935.511134
 20
408.043215
 30
0.0
 40
0.7
 50
240.0
 51
0.0
  0
ARC
  8
0
 10
935.111134
 20
407.696805
 30
0.0
 40
0.2
 50
120.0
 51
240.0
  0
ARC
  8
0
 10
935.633377
 20
408.806613
 30
0.0
 40
0.5
 50
300.0
 51
120.0
  0
ARC
  8
0
 10
934.311134
 20
407.696805
 30
0.0
 40
0.8
 50
120.0
 51
240.0
  0
ARC
  8
0
 10
935.511134
 20
408.043215
 30
0.0
 40
1.7
 50
240.0
 51
0.0
  0
ARC
  8
0
 10
808.911134
 20
408.043215
 30
0.0
 40
0.7
 50
180.0
 51
300.0
  0
ARC
  8
0
 10
809.311134
 20
407.696805
 30
0.0
 40
0.2
 50
300.0
 51
60.0
  0
ARC
  8
0
 10
808.788891
 20
408.806613
 30
0.0
 40
0.5
 50
60.0
 51
240.0
  0
ARC
  8
0
 10
810.111134
 20
407.696805
 30
0.0
 40
0.8
 50
300.0
 51
60.0
  0
ARC
  8
0
 10
808.911134
 20
408.043215
 30
0.0
 40
1.7
 50
180.0
 51
300.0
  0
ARC
  8
0
 10
935.211134
 20
414.543215
 30
0.0
 40
2.0
 50
0.0
 51
90.0
  0
ARC
  8
0
 10
934.011134
 20
413.343215
 30
0.0
 40
1.5
 50
0.0
 51
90.0
  0
ARC
  8
0
 10
809.211134
 20
414.543215
 30
0.0
 40
2.0
 50
90.0
 51
180.0
  0
ARC
  8
0
 10
810.411134
 20
413.343215
 30
0.0
 40
1.5
 50
90.0
 51
180.0
  0
LINE
  8
0
 10
927.77762
 20
409.799932
 30
0.0
 11
927.540763
 21
411.143215
 31
0.0
  0
LINE
  8
0
 10
907.211134
 20
414.243215
 30
0.0
 11
925.7355
 21
414.243215
 31
0.0
  0
LINE
  8
0
 10
925.014996
 20
412.543215
 30
0.0
 11
923.311134
 21
412.543215
 31
0.0
  0
LINE
  8
0
 10
923.011134
 20
406.943215
 30
0.0
 11
923.011134
 21
412.243215
 31
0.0
  0
LINE
  8
0
 10
906.80329
 20
407.265311
 30
0.0
 11
907.211134
 21
405.743215
 31
0.0
  0
LINE
  8
0
 10
907.211134
 20
405.743215
 30
0.0
 11
908.987413
 21
405.743215
 31
0.0
  0
LINE
  8
0
 10
908.987413
 20
405.743215
 30
0.0
 11
921.811134
 21
405.743215
 31
0.0
  0
LINE
  8
0
 10
908.987413
 20
408.143215
 30
0.0
 11
921.811134
 21
408.143215
 31
0.0
  0
LINE
  8
0
 10
906.273312
 20
409.243215
 30
0.0
 11
906.80329
 21
407.265311
 31
0.0
  0
LINE
  8
0
 10
904.92933
 20
406.173416
 30
0.0
 11
904.960439
 21
407.064265
 31
0.0
  0
LINE
  8
0
 10
904.960439
 20
407.064265
 30
0.0
 11
905.376738
 21
406.343215
 31
0.0
  0
LINE
  8
0
 10
905.549943
 20
406.243215
 30
0.0
 11
906.109852
 21
406.243215
 31
0.0
  0
LINE
  8
0
 10
904.92933
 20
406.173416
 30
0.0
 11
905.158753
 21
412.743215
 31
0.0
  0
LINE
  8
0
 10
906.273312
 20
409.243215
 30
0.0
 11
906.273312
 21
414.243215
 31
0.0
  0
LINE
  8
0
 10
905.158753
 20
412.743215
 30
0.0
 11
905.211134
 21
414.243215
 31
0.0
  0
LINE
  8
0
 10
906.273312
 20
414.243215
 30
0.0
 11
907.211134
 21
414.243215
 31
0.0
  0
LINE
  8
0
 10
902.211134
 20
414.243215
 30
0.0
 11
906.273312
 21
414.243215
 31
0.0
  0
LINE
  8
0
 10
884.763515
 20
412.743215
 30
0.0
 11
905.158753
 21
412.743215
 31
0.0
  0
LINE
  8
0
 10
905.211134
 20
414.243215
 30
0.0
 11
884.711134
 21
414.243215
 31
0.0
  0
LINE
  8
0
 10
886.991719
 20
404.243215
 30
0.0
 11
902.930549
 21
404.243215
 31
0.0
  0
LINE
  8
0
 10
818.299804
 20
409.369567
 30
0.0
 11
818.612546
 21
411.143215
 31
0.0
  0
LINE
  8
0
 10
816.913418
 20
413.003687
 30
0.0
 11
816.832225
 21
412.543215
 31
0.0
  0
LINE
  8
0
 10
818.39063
 20
414.243215
 30
0.0
 11
837.211134
 21
414.243215
 31
0.0
  0
LINE
  8
0
 10
821.111134
 20
412.543215
 30
0.0
 11
819.407271
 21
412.543215
 31
0.0
  0
LINE
  8
0
 10
821.411134
 20
412.243215
 30
0.0
 11
821.411134
 21
406.943215
 31
0.0
  0
LINE
  8
0
 10
822.611134
 20
405.743215
 30
0.0
 11
835.434854
 21
405.743215
 31
0.0
  0
LINE
  8
0
 10
822.611134
 20
408.143215
 30
0.0
 11
835.434854
 21
408.143215
 31
0.0
  0
LINE
  8
0
 10
835.434854
 20
405.743215
 30
0.0
 11
837.211134
 21
405.743215
 31
0.0
  0
LINE
  8
0
 10
837.211134
 20
405.743215
 30
0.0
 11
837.211134
 21
414.243215
 31
0.0
  0
LINE
  8
0
 10
837.211134
 20
405.743215
 30
0.0
 11
837.618978
 21
407.265311
 31
0.0
  0
LINE
  8
0
 10
837.211134
 20
414.243215
 30
0.0
 11
838.148956
 21
414.243215
 31
0.0
  0
LINE
  8
0
 10
838.148956
 20
414.243215
 30
0.0
 11
842.211134
 21
414.243215
 31
0.0
  0
LINE
  8
0
 10
838.148956
 20
414.243215
 30
0.0
 11
838.148956
 21
409.243215
 31
0.0
  0
LINE
  8
0
 10
839.263515
 20
412.743215
 30
0.0
 11
839.492937
 21
406.173416
 31
0.0
  0
LINE
  8
0
 10
839.263515
 20
412.743215
 30
0.0
 11
859.658753
 21
412.743215
 31
0.0
  0
LINE
  8
0
 10
839.211134
 20
414.243215
 30
0.0
 11
839.263515
 21
412.743215
 31
0.0
  0
LINE
  8
0
 10
859.711134
 20
414.243215
 30
0.0
 11
839.211134
 21
414.243215
 31
0.0
  0
LINE
  8
0
 10
837.618978
 20
407.265311
 30
0.0
 11
838.148956
 21
409.243215
 31
0.0
  0
LINE
  8
0
 10
839.461828
 20
407.064265
 30
0.0
 11
839.492937
 21
406.173416
 31
0.0
  0
LINE
  8
0
 10
839.04553
 20
406.343215
 30
0.0
 11
839.461828
 21
407.064265
 31
0.0
  0
LINE
  8
0
 10
838.312416
 20
406.243215
 30
0.0
 11
838.872325
 21
406.243215
 31
0.0
  0
LINE
  8
0
 10
841.491719
 20
404.243215
 30
0.0
 11
857.430549
 21
404.243215
 31
0.0
  0
LINE
  8
0
 10
860.885738
 20
409.243215
 30
0.0
 11
860.992937
 21
406.173416
 31
0.0
  0
LINE
  8
0
 10
859.53653
 20
409.243215
 30
0.0
 11
860.885738
 21
409.243215
 31
0.0
  0
LINE
  8
0
 10
859.42933
 20
406.173416
 30
0.0
 11
859.53653
 21
409.243215
 31
0.0
  0
LINE
  8
0
 10
862.991719
 20
404.243215
 30
0.0
 11
872.211134
 21
404.243215
 31
0.0
  0
LINE
  8
0
 10
860.763515
 20
412.743215
 30
0.0
 11
860.885738
 21
409.243215
 31
0.0
  0
LINE
  8
0
 10
859.53653
 20
409.243215
 30
0.0
 11
859.658753
 21
412.743215
 31
0.0
  0
LINE
  8
0
 10
883.711134
 20
414.243215
 30
0.0
 11
860.711134
 21
414.243215
 31
0.0
  0
LINE
  8
0
 10
860.711134
 20
414.243215
 30
0.0
 11
860.763515
 21
412.743215
 31
0.0
  0
LINE
  8
0
 10
859.711134
 20
414.243215
 30
0.0
 11
860.711134
 21
414.243215
 31
0.0
  0
LINE
  8
0
 10
859.658753
 20
412.743215
 30
0.0
 11
859.711134
 21
414.243215
 31
0.0
  0
LINE
  8
0
 10
860.763515
 20
412.743215
 30
0.0
 11
883.658753
 21
412.743215
 31
0.0
  0
LINE
  8
0
 10
883.42933
 20
406.173416
 30
0.0
 11
883.53653
 21
409.243215
 31
0.0
  0
LINE
  8
0
 10
883.53653
 20
409.243215
 30
0.0
 11
884.885738
 21
409.243215
 31
0.0
  0
LINE
  8
0
 10
872.211134
 20
404.243215
 30
0.0
 11
881.430549
 21
404.243215
 31
0.0
  0
LINE
  8
0
 10
884.885738
 20
409.243215
 30
0.0
 11
884.992937
 21
406.173416
 31
0.0
  0
LINE
  8
0
 10
883.53653
 20
409.243215
 30
0.0
 11
883.658753
 21
412.743215
 31
0.0
  0
LINE
  8
0
 10
884.763515
 20
412.743215
 30
0.0
 11
884.885738
 21
409.243215
 31
0.0
  0
LINE
  8
0
 10
883.711134
 20
414.243215
 30
0.0
 11
884.711134
 21
414.243215
 31
0.0
  0
LINE
  8
0
 10
883.658753
 20
412.743215
 30
0.0
 11
883.711134
 21
414.243215
 31
0.0
  0
LINE
  8
0
 10
884.711134
 20
414.243215
 30
0.0
 11
884.763515
 21
412.743215
 31
0.0
  0
LINE
  8
0
 10
907.211134
 20
414.243215
 30
0.0
 11
907.211134
 21
405.743215
 31
0.0
  0
LINE
  8
0
 10
925.513584
 20
411.143215
 30
0.0
 11
925.826326
 21
409.369567
 31
0.0
  0
LINE
  8
0
 10
927.293906
 20
412.543215
 30
0.0
 11
927.212712
 21
413.003687
 31
0.0
  0
LINE
  8
0
 10
816.585367
 20
411.143215
 30
0.0
 11
816.34851
 21
409.799932
 31
0.0
  0
ARC
  8
0
 10
926.811134
 20
409.543215
 30
0.0
 40
1.0
 50
14.875362
 51
190.0
  0
ARC
  8
0
 10
926.811134
 20
409.543215
 30
0.0
 40
1.0
 50
190.0
 51
14.875362
  0
ARC
  8
0
 10
921.811134
 20
406.943215
 30
0.0
 40
1.2
 50
270.0
 51
0.0
  0
ARC
  8
0
 10
921.811134
 20
406.943215
 30
0.0
 40
1.2
 50
0.0
 51
90.0
  0
ARC
  8
0
 10
908.987413
 20
406.943215
 30
0.0
 40
1.2
 50
90.0
 51
180.0
  0
ARC
  8
0
 10
902.211134
 20
409.243215
 30
0.0
 40
5.0
 50
324.314665
 51
336.697793
  0
ARC
  8
0
 10
817.314996
 20
409.543215
 30
0.0
 40
1.0
 50
350.0
 51
165.124638
  0
ARC
  8
0
 10
817.314996
 20
409.543215
 30
0.0
 40
1.0
 50
165.124638
 51
350.0
  0
ARC
  8
0
 10
822.611134
 20
406.943215
 30
0.0
 40
1.2
 50
90.0
 51
180.0
  0
ARC
  8
0
 10
822.611134
 20
406.943215
 30
0.0
 40
1.2
 50
180.0
 51
270.0
  0
ARC
  8
0
 10
835.434854
 20
406.943215
 30
0.0
 40
1.2
 50
0.0
 51
90.0
  0
ARC
  8
0
 10
842.211134
 20
409.243215
 30
0.0
 40
5.0
 50
203.302207
 51
215.685335
  0
ARC
  8
0
 10
925.7355
 20
412.743215
 30
0.0
 40
1.5
 50
10.0
 51
90.0
  0
ARC
  8
0
 10
923.311134
 20
412.243215
 30
0.0
 40
0.3
 50
90.0
 51
180.0
  0
ARC
  8
0
 10
908.987413
 20
406.943215
 30
0.0
 40
1.2
 50
180.0
 51
270.0
  0
ARC
  8
0
 10
905.549943
 20
406.443215
 30
0.0
 40
0.2
 50
210.0
 51
270.0
  0
ARC
  8
0
 10
906.109852
 20
406.443215
 30
0.0
 40
0.2
 50
270.0
 51
324.314665
  0
ARC
  8
0
 10
902.930549
 20
406.243215
 30
0.0
 40
2.0
 50
270.0
 51
358.0
  0
ARC
  8
0
 10
902.930549
 20
406.243215
 30
0.0
 40
2.0
 50
270.0
 51
358.0
  0
ARC
  8
0
 10
818.39063
 20
412.743215
 30
0.0
 40
1.5
 50
90.0
 51
170.0
  0
ARC
  8
0
 10
821.111134
 20
412.243215
 30
0.0
 40
0.3
 50
0.0
 51
90.0
  0
ARC
  8
0
 10
835.434854
 20
406.943215
 30
0.0
 40
1.2
 50
270.0
 51
0.0
  0
ARC
  8
0
 10
838.872325
 20
406.443215
 30
0.0
 40
0.2
 50
270.0
 51
330.0
  0
ARC
  8
0
 10
838.312416
 20
406.443215
 30
0.0
 40
0.2
 50
215.685335
 51
270.0
  0
ARC
  8
0
 10
841.491719
 20
406.243215
 30
0.0
 40
2.0
 50
182.0
 51
270.0
  0
ARC
  8
0
 10
841.491719
 20
406.243215
 30
0.0
 40
2.0
 50
182.0
 51
270.0
  0
ARC
  8
0
 10
862.991719
 20
406.243215
 30
0.0
 40
2.0
 50
182.0
 51
270.0
  0
ARC
  8
0
 10
857.430549
 20
406.243215
 30
0.0
 40
2.0
 50
270.0
 51
358.0
  0
ARC
  8
0
 10
881.430549
 20
406.243215
 30
0.0
 40
2.0
 50
270.0
 51
358.0
  0
ARC
  8
0
 10
886.991719
 20
406.243215
 30
0.0
 40
2.0
 50
182.0
 51
270.0
  0
LINE
  8
0
 10
793.300346
 20
318.411771
 30
0.0
 11
787.211134
 21
324.500983
 31
0.0
  0
LINE
  8
0
 10
800.371414
 20
318.411771
 30
0.0
 11
787.211134
 21
331.572051
 31
0.0
  0
LINE
  8
0
 10
807.442482
 20
318.411771
 30
0.0
 11
787.442482
 21
338.411771
 31
0.0
  0
LINE
  8
0
 10
814.51355
 20
318.411771
 30
0.0
 11
794.51355
 21
338.411771
 31
0.0
  0
LINE
  8
0
 10
821.584618
 20
318.411771
 30
0.0
 11
801.584618
 21
338.411771
 31
0.0
  0
LINE
  8
0
 10
828.655685
 20
318.411771
 30
0.0
 11
808.655685
 21
338.411771
 31
0.0
  0
LINE
  8
0
 10
835.726753
 20
318.411771
 30
0.0
 11
815.726753
 21
338.411771
 31
0.0
  0
LINE
  8
0
 10
842.797821
 20
318.411771
 30
0.0
 11
822.797821
 21
338.411771
 31
0.0
  0
LINE
  8
0
 10
849.868889
 20
318.411771
 30
0.0
 11
829.868889
 21
338.411771
 31
0.0
  0
LINE
  8
0
 10
856.939957
 20
318.411771
 30
0.0
 11
836.939957
 21
338.411771
 31
0.0
  0
LINE
  8
0
 10
864.011024
 20
318.411771
 30
0.0
 11
844.011024
 21
338.411771
 31
0.0
  0
LINE
  8
0
 10
871.082092
 20
318.411771
 30
0.0
 11
851.082092
 21
338.411771
 31
0.0
  0
LINE
  8
0
 10
878.15316
 20
318.411771
 30
0.0
 11
858.15316
 21
338.411771
 31
0.0
  0
LINE
  8
0
 10
885.224228
 20
318.411771
 30
0.0
 11
865.224228
 21
338.411771
 31
0.0
  0
LINE
  8
0
 10
892.295296
 20
318.411771
 30
0.0
 11
872.295296
 21
338.411771
 31
0.0
  0
LINE
  8
0
 10
899.366364
 20
318.411771
 30
0.0
 11
879.366364
 21
338.411771
 31
0.0
  0
LINE
  8
0
 10
906.437431
 20
318.411771
 30
0.0
 11
886.437431
 21
338.411771
 31
0.0
  0
LINE
  8
0
 10
913.508499
 20
318.411771
 30
0.0
 11
893.508499
 21
338.411771
 31
0.0
  0
LINE
  8
0
 10
920.579567
 20
318.411771
 30
0.0
 11
900.579567
 21
338.411771
 31
0.0
  0
LINE
  8
0
 10
927.650635
 20
318.411771
 30
0.0
 11
907.650635
 21
338.411771
 31
0.0
  0
LINE
  8
0
 10
934.721703
 20
318.411771
 30
0.0
 11
914.721703
 21
338.411771
 31
0.0
  0
LINE
  8
0
 10
941.79277
 20
318.411771
 30
0.0
 11
921.79277
 21
338.411771
 31
0.0
  0
LINE
  8
0
 10
948.863838
 20
318.411771
 30
0.0
 11
928.863838
 21
338.411771
 31
0.0
  0
LINE
  8
0
 10
955.934906
 20
318.411771
 30
0.0
 11
935.934906
 21
338.411771
 31
0.0
  0
LINE
  8
0
 10
957.211134
 20
324.206611
 30
0.0
 11
943.005974
 21
338.411771
 31
0.0
  0
LINE
  8
0
 10
957.211134
 20
331.277679
 30
0.0
 11
950.077042
 21
338.411771
 31
0.0
  0
LINE
  8
0
 10
957.211134
 20
338.348747
 30
0.0
 11
957.148109
 21
338.411771
 31
0.0
  0
ENDSEC
  0
EOF
