  0
SECTION
  2
HEADER
  9
$ACADVER
  1
AC1009
  9
$INSBASE
 10
0.0
 20
0.0
 30
0.0
  9
$EXTMIN
 10
790.039764
 20
291.450693
 30
0.0
  9
$EXTMAX
 10
960.039764
 20
371.864907
 30
0.0
  9
$LIMMIN
 10
790.039764
 20
291.864907
  9
$LIMMAX
 10
960.039764
 20
371.864907
  9
$ORTHOMODE
 70
     0
  9
$REGENMODE
 70
     1
  9
$FILLMODE
 70
     1
  9
$QTEXTMODE
 70
     0
  9
$MIRRTEXT
 70
     1
  9
$DRAGMODE
 70
     2
  9
$LTSCALE
 40
1.0
  9
$OSMODE
 70
     0
  9
$ATTMODE
 70
     1
  9
$TEXTSIZE
 40
3.5
  9
$TRACEWID
 40
0.5
  9
$TEXTSTYLE
  7
STANDARD
  9
$CLAYER
  8
0
  9
$CELTYPE
  6
BYLAYER
  9
$CECOLOR
 62
   256
  9
$DIMSCALE
 40
1.0
  9
$DIMASZ
 40
0.18
  9
$DIMEXO
 40
0.0625
  9
$DIMDLI
 40
0.38
  9
$DIMRND
 40
0.0
  9
$DIMDLE
 40
0.0
  9
$DIMEXE
 40
0.18
  9
$DIMTP
 40
0.0
  9
$DIMTM
 40
0.0
  9
$DIMTXT
 40
0.18
  9
$DIMCEN
 40
0.09
  9
$DIMTSZ
 40
0.0
  9
$DIMTOL
 70
     0
  9
$DIMLIM
 70
     0
  9
$DIMTIH
 70
     1
  9
$DIMTOH
 70
     1
  9
$DIMSE1
 70
     0
  9
$DIMSE2
 70
     0
  9
$DIMTAD
 70
     0
  9
$DIMZIN
 70
     0
  9
$DIMBLK
  1

  9
$DIMASO
 70
     1
  9
$DIMSHO
 70
     1
  9
$DIMPOST
  1

  9
$DIMAPOST
  1

  9
$DIMALT
 70
     0
  9
$DIMALTD
 70
     2
  9
$DIMALTF
 40
25.4
  9
$DIMLFAC
 40
1.0
  9
$DIMTOFL
 70
     0
  9
$DIMTVP
 40
0.0
  9
$DIMTIX
 70
     0
  9
$DIMSOXD
 70
     0
  9
$DIMSAH
 70
     0
  9
$DIMBLK1
  1

  9
$DIMBLK2
  1

  9
$DIMSTYLE
  2
*UNNAMED
  9
$DIMCLRD
 70
     0
  9
$DIMCLRE
 70
     0
  9
$DIMCLRT
 70
     0
  9
$DIMTFAC
 40
1.0
  9
$DIMGAP
 40
0.09
  9
$LUNITS
 70
     2
  9
$LUPREC
 70
     4
  9
$SKETCHINC
 40
0.1
  9
$FILLETRAD
 40
2.0
  9
$AUNITS
 70
     0
  9
$AUPREC
 70
     0
  9
$MENU
  1
ACAD
  9
$ELEVATION
 40
0.0
  9
$PELEVATION
 40
0.0
  9
$THICKNESS
 40
0.0
  9
$LIMCHECK
 70
     0
  9
$BLIPMODE
 70
     1
  9
$CHAMFERA
 40
0.0
  9
$CHAMFERB
 40
0.0
  9
$SKPOLY
 70
     0
  9
$TDCREATE
 40
2450952.691937847
  9
$TDUPDATE
 40
2450952.692824653
  9
$TDINDWG
 40
0.0006910880
  9
$TDUSRTIMER
 40
0.0006910880
  9
$USRTIMER
 70
     1
  9
$ANGBASE
 50
0.0
  9
$ANGDIR
 70
     0
  9
$PDMODE
 70
     0
  9
$PDSIZE
 40
0.0
  9
$PLINEWID
 40
0.0
  9
$COORDS
 70
     2
  9
$SPLFRAME
 70
     0
  9
$SPLINETYPE
 70
     6
  9
$SPLINESEGS
 70
     8
  9
$ATTDIA
 70
     0
  9
$ATTREQ
 70
     1
  9
$HANDLING
 70
     0
  9
$HANDSEED
  5
0
  9
$SURFTAB1
 70
     6
  9
$SURFTAB2
 70
     6
  9
$SURFTYPE
 70
     6
  9
$SURFU
 70
     6
  9
$SURFV
 70
     6
  9
$UCSNAME
  2

  9
$UCSORG
 10
0.0
 20
0.0
 30
0.0
  9
$UCSXDIR
 10
1.0
 20
0.0
 30
0.0
  9
$UCSYDIR
 10
0.0
 20
1.0
 30
0.0
  9
$PUCSNAME
  2

  9
$PUCSORG
 10
0.0
 20
0.0
 30
0.0
  9
$PUCSXDIR
 10
1.0
 20
0.0
 30
0.0
  9
$PUCSYDIR
 10
0.0
 20
1.0
 30
0.0
  9
$USERI1
 70
     0
  9
$USERI2
 70
     0
  9
$USERI3
 70
     0
  9
$USERI4
 70
     0
  9
$USERI5
 70
     0
  9
$USERR1
 40
0.0
  9
$USERR2
 40
0.0
  9
$USERR3
 40
0.0
  9
$USERR4
 40
0.0
  9
$USERR5
 40
0.0
  9
$WORLDVIEW
 70
     1
  9
$SHADEDGE
 70
     3
  9
$SHADEDIF
 70
    70
  9
$TILEMODE
 70
     1
  9
$MAXACTVP
 70
    16
  9
$PINSBASE
 10
0.0
 20
0.0
 30
0.0
  9
$PLIMCHECK
 70
     0
  9
$PEXTMIN
 10
1.000000E+20
 20
1.000000E+20
 30
1.000000E+20
  9
$PEXTMAX
 10
-1.000000E+20
 20
-1.000000E+20
 30
-1.000000E+20
  9
$PLIMMIN
 10
0.0
 20
0.0
  9
$PLIMMAX
 10
420.0
 20
297.0
  9
$UNITMODE
 70
     0
  9
$VISRETAIN
 70
     0
  9
$PLINEGEN
 70
     0
  9
$PSLTSCALE
 70
     1
  9
$TREEDEPTH
 70
  3020
  9
$DWGCODEPAGE
  3
iso8859-1
  0
ENDSEC
  0
SECTION
  2
TABLES
  0
TABLE
  2
VPORT
 70
     2
  0
VPORT
  2
*ACTIVE
 70
     0
 10
0.0
 20
0.0
 11
1.0
 21
1.0
 12
889.254006
 22
329.003152
 13
0.0
 23
0.0
 14
1.0
 24
1.0
 15
0.0
 25
0.0
 16
0.0
 26
0.0
 36
1.0
 17
0.0
 27
0.0
 37
0.0
 40
162.280263
 41
1.748359
 42
50.0
 43
0.0
 44
0.0
 50
0.0
 51
0.0
 71
     0
 72
   100
 73
     1
 74
     0
 75
     0
 76
     0
 77
     0
 78
     0
  0
ENDTAB
  0
TABLE
  2
LTYPE
 70
     1
  0
LTYPE
  2
CONTINUOUS
 70
    64
  3
Solid line
 72
    65
 73
     0
 40
0.0
  0
ENDTAB
  0
TABLE
  2
LAYER
 70
     2
  0
LAYER
  2
0
 70
    64
 62
     7
  6
CONTINUOUS
  0
ENDTAB
  0
TABLE
  2
STYLE
 70
     1
  0
STYLE
  2
STANDARD
 70
     0
 40
0.0
 41
1.0
 50
0.0
 71
     0
 42
3.5
  3
txt
  4

  0
ENDTAB
  0
TABLE
  2
VIEW
 70
     0
  0
ENDTAB
  0
TABLE
  2
UCS
 70
     0
  0
ENDTAB
  0
TABLE
  2
APPID
 70
     1
  0
APPID
  2
ACAD
 70
    64
  0
ENDTAB
  0
TABLE
  2
DIMSTYLE
 70
     0
  0
ENDTAB
  0
ENDSEC
  0
SECTION
  2
BLOCKS
  0
ENDSEC
  0
SECTION
  2
ENTITIES
  0
LINE
  8
0
 10
932.639764
 20
297.764907
 30
0.0
 11
932.639764
 21
299.964907
 31
0.0
  0
LINE
  8
0
 10
928.239764
 20
297.264907
 30
0.0
 11
932.139764
 21
297.264907
 31
0.0
  0
LINE
  8
0
 10
821.737313
 20
297.264907
 30
0.0
 11
819.710134
 21
297.264907
 31
0.0
  0
LINE
  8
0
 10
821.939764
 20
295.864907
 30
0.0
 11
819.956992
 21
295.864907
 31
0.0
  0
LINE
  8
0
 10
821.737313
 20
297.264907
 30
0.0
 11
821.839764
 21
297.264907
 31
0.0
  0
LINE
  8
0
 10
841.539764
 20
349.564907
 30
0.0
 11
814.339764
 21
349.564907
 31
0.0
  0
LINE
  8
0
 10
871.539764
 20
349.564907
 30
0.0
 11
848.539764
 21
349.564907
 31
0.0
  0
LINE
  8
0
 10
901.539764
 20
349.564907
 30
0.0
 11
878.539764
 21
349.564907
 31
0.0
  0
LINE
  8
0
 10
935.739764
 20
349.564907
 30
0.0
 11
908.539764
 21
349.564907
 31
0.0
  0
LINE
  8
0
 10
902.539764
 20
348.564907
 30
0.0
 11
902.539764
 21
344.554857
 31
0.0
  0
LINE
  8
0
 10
904.139764
 20
348.664907
 30
0.0
 11
904.139764
 21
344.879121
 31
0.0
  0
LINE
  8
0
 10
901.579103
 20
343.818461
 30
0.0
 11
899.68621
 21
345.711354
 31
0.0
  0
LINE
  8
0
 10
900.039764
 20
346.564907
 30
0.0
 11
902.039764
 21
346.564907
 31
0.0
  0
LINE
  8
0
 10
902.393317
 20
345.711354
 30
0.0
 11
901.888292
 21
345.206329
 31
0.0
  0
LINE
  8
0
 10
901.888292
 20
345.206329
 30
0.0
 11
902.539764
 21
344.554857
 31
0.0
  0
LINE
  8
0
 10
907.539764
 20
344.554857
 30
0.0
 11
907.539764
 21
348.564907
 31
0.0
  0
LINE
  8
0
 10
905.939764
 20
344.879121
 30
0.0
 11
905.939764
 21
348.664907
 31
0.0
  0
LINE
  8
0
 10
910.393317
 20
345.711354
 30
0.0
 11
908.500424
 21
343.818461
 31
0.0
  0
LINE
  8
0
 10
908.039764
 20
346.564907
 30
0.0
 11
910.039764
 21
346.564907
 31
0.0
  0
LINE
  8
0
 10
908.191236
 20
345.206329
 30
0.0
 11
907.68621
 21
345.711354
 31
0.0
  0
LINE
  8
0
 10
907.539764
 20
344.554857
 30
0.0
 11
908.191236
 21
345.206329
 31
0.0
  0
LINE
  8
0
 10
842.539764
 20
348.564907
 30
0.0
 11
842.539764
 21
344.554857
 31
0.0
  0
LINE
  8
0
 10
844.139764
 20
348.664907
 30
0.0
 11
844.139764
 21
344.879121
 31
0.0
  0
LINE
  8
0
 10
841.579103
 20
343.818461
 30
0.0
 11
839.68621
 21
345.711354
 31
0.0
  0
LINE
  8
0
 10
840.039764
 20
346.564907
 30
0.0
 11
842.039764
 21
346.564907
 31
0.0
  0
LINE
  8
0
 10
842.393317
 20
345.711354
 30
0.0
 11
841.888292
 21
345.206329
 31
0.0
  0
LINE
  8
0
 10
841.888292
 20
345.206329
 30
0.0
 11
842.539764
 21
344.554857
 31
0.0
  0
LINE
  8
0
 10
847.539764
 20
344.554857
 30
0.0
 11
847.539764
 21
348.564907
 31
0.0
  0
LINE
  8
0
 10
845.939764
 20
344.879121
 30
0.0
 11
845.939764
 21
348.664907
 31
0.0
  0
LINE
  8
0
 10
850.393317
 20
345.711354
 30
0.0
 11
848.500424
 21
343.818461
 31
0.0
  0
LINE
  8
0
 10
848.039764
 20
346.564907
 30
0.0
 11
850.039764
 21
346.564907
 31
0.0
  0
LINE
  8
0
 10
848.191236
 20
345.206329
 30
0.0
 11
847.68621
 21
345.711354
 31
0.0
  0
LINE
  8
0
 10
847.539764
 20
344.554857
 30
0.0
 11
848.191236
 21
345.206329
 31
0.0
  0
LINE
  8
0
 10
812.039764
 20
351.864907
 30
0.0
 11
938.039764
 21
351.864907
 31
0.0
  0
LINE
  8
0
 10
810.039764
 20
304.519608
 30
0.0
 11
810.039764
 21
349.864907
 31
0.0
  0
LINE
  8
0
 10
932.841687
 20
301.864907
 30
0.0
 11
927.339764
 21
301.864907
 31
0.0
  0
LINE
  8
0
 10
936.739764
 20
304.115463
 30
0.0
 11
932.841687
 21
301.864907
 31
0.0
  0
LINE
  8
0
 10
817.23784
 20
301.864907
 30
0.0
 11
822.739764
 21
301.864907
 31
0.0
  0
LINE
  8
0
 10
813.339764
 20
304.115463
 30
0.0
 11
817.23784
 21
301.864907
 31
0.0
  0
LINE
  8
0
 10
934.539764
 20
300.189481
 30
0.0
 11
939.039764
 21
302.787557
 31
0.0
  0
LINE
  8
0
 10
934.039764
 20
299.316237
 30
0.0
 11
934.039764
 21
299.323456
 31
0.0
  0
LINE
  8
0
 10
811.039764
 20
302.787557
 30
0.0
 11
815.539764
 21
300.189481
 31
0.0
  0
LINE
  8
0
 10
821.939764
 20
295.864907
 30
0.0
 11
822.739764
 21
295.864907
 31
0.0
  0
LINE
  8
0
 10
927.339764
 20
295.864907
 30
0.0
 11
932.139764
 21
295.864907
 31
0.0
  0
LINE
  8
0
 10
932.139764
 20
300.464907
 30
0.0
 11
928.239764
 21
300.464907
 31
0.0
  0
LINE
  8
0
 10
927.739764
 20
299.964907
 30
0.0
 11
927.739764
 21
297.764907
 31
0.0
  0
LINE
  8
0
 10
926.339764
 20
300.864907
 30
0.0
 11
926.339764
 21
296.864907
 31
0.0
  0
LINE
  8
0
 10
934.039764
 20
299.316237
 30
0.0
 11
934.039764
 21
295.764907
 31
0.0
  0
LINE
  8
0
 10
934.539764
 20
295.264907
 30
0.0
 11
934.839764
 21
295.264907
 31
0.0
  0
LINE
  8
0
 10
934.839764
 20
293.864907
 30
0.0
 11
933.139764
 21
293.864907
 31
0.0
  0
LINE
  8
0
 10
932.639764
 20
294.364907
 30
0.0
 11
932.639764
 21
295.364907
 31
0.0
  0
LINE
  8
0
 10
937.739764
 20
347.564907
 30
0.0
 11
937.739764
 21
305.847514
 31
0.0
  0
LINE
  8
0
 10
940.039764
 20
349.864907
 30
0.0
 11
940.039764
 21
304.519608
 31
0.0
  0
LINE
  8
0
 10
817.939764
 20
300.464907
 30
0.0
 11
821.839764
 21
300.464907
 31
0.0
  0
LINE
  8
0
 10
822.339764
 20
297.764907
 30
0.0
 11
822.339764
 21
299.964907
 31
0.0
  0
LINE
  8
0
 10
817.939764
 20
297.264907
 30
0.0
 11
819.710134
 21
297.264907
 31
0.0
  0
LINE
  8
0
 10
823.739764
 20
296.864907
 30
0.0
 11
823.739764
 21
300.864907
 31
0.0
  0
LINE
  8
0
 10
817.939764
 20
295.864907
 30
0.0
 11
819.956992
 21
295.864907
 31
0.0
  0
LINE
  8
0
 10
816.039764
 20
295.764907
 30
0.0
 11
816.039764
 21
299.323456
 31
0.0
  0
LINE
  8
0
 10
815.239764
 20
295.264907
 30
0.0
 11
815.539764
 21
295.264907
 31
0.0
  0
LINE
  8
0
 10
811.739764
 20
297.364907
 30
0.0
 11
811.739764
 21
297.964907
 31
0.0
  0
LINE
  8
0
 10
816.939764
 20
293.864907
 30
0.0
 11
815.239764
 21
293.864907
 31
0.0
  0
LINE
  8
0
 10
817.439764
 20
295.364907
 30
0.0
 11
817.439764
 21
294.364907
 31
0.0
  0
LINE
  8
0
 10
817.439764
 20
297.764907
 30
0.0
 11
817.439764
 21
299.964907
 31
0.0
  0
LINE
  8
0
 10
872.539764
 20
348.564907
 30
0.0
 11
872.539764
 21
344.554857
 31
0.0
  0
LINE
  8
0
 10
874.139764
 20
348.664907
 30
0.0
 11
874.139764
 21
344.879121
 31
0.0
  0
LINE
  8
0
 10
871.579103
 20
343.818461
 30
0.0
 11
869.68621
 21
345.711354
 31
0.0
  0
LINE
  8
0
 10
870.039764
 20
346.564907
 30
0.0
 11
872.039764
 21
346.564907
 31
0.0
  0
LINE
  8
0
 10
872.393317
 20
345.711354
 30
0.0
 11
871.888292
 21
345.206329
 31
0.0
  0
LINE
  8
0
 10
871.888292
 20
345.206329
 30
0.0
 11
872.539764
 21
344.554857
 31
0.0
  0
LINE
  8
0
 10
877.539764
 20
344.554857
 30
0.0
 11
877.539764
 21
348.564907
 31
0.0
  0
LINE
  8
0
 10
875.939764
 20
344.879121
 30
0.0
 11
875.939764
 21
348.664907
 31
0.0
  0
LINE
  8
0
 10
880.393317
 20
345.711354
 30
0.0
 11
878.500424
 21
343.818461
 31
0.0
  0
LINE
  8
0
 10
878.039764
 20
346.564907
 30
0.0
 11
880.039764
 21
346.564907
 31
0.0
  0
LINE
  8
0
 10
878.191236
 20
345.206329
 30
0.0
 11
877.68621
 21
345.711354
 31
0.0
  0
LINE
  8
0
 10
877.539764
 20
344.554857
 30
0.0
 11
878.191236
 21
345.206329
 31
0.0
  0
LINE
  8
0
 10
812.339764
 20
347.564907
 30
0.0
 11
812.339764
 21
305.847514
 31
0.0
  0
LINE
  8
0
 10
813.139764
 20
297.364907
 30
0.0
 11
813.139764
 21
297.964907
 31
0.0
  0
LINE
  8
0
 10
938.339764
 20
297.364907
 30
0.0
 11
938.339764
 21
297.964907
 31
0.0
  0
LINE
  8
0
 10
936.939764
 20
297.364907
 30
0.0
 11
936.939764
 21
297.964907
 31
0.0
  0
LINE
  8
0
 10
813.339764
 20
301.404138
 30
0.0
 11
812.589764
 21
301.837151
 31
0.0
  0
ARC
  8
0
 10
902.639764
 20
344.879121
 30
0.0
 40
1.5
 50
225.0
 51
0.0
  0
ARC
  8
0
 10
900.039764
 20
346.064907
 30
0.0
 40
0.5
 50
180.0
 51
225.0
  0
ARC
  8
0
 10
902.039764
 20
346.064907
 30
0.0
 40
0.5
 50
315.0
 51
90.0
  0
ARC
  8
0
 10
907.439764
 20
344.879121
 30
0.0
 40
1.5
 50
180.0
 51
315.0
  0
ARC
  8
0
 10
910.039764
 20
346.064907
 30
0.0
 40
0.5
 50
0.0
 51
90.0
  0
ARC
  8
0
 10
908.039764
 20
346.064907
 30
0.0
 40
0.5
 50
90.0
 51
225.0
  0
ARC
  8
0
 10
910.039764
 20
346.064907
 30
0.0
 40
0.5
 50
315.0
 51
0.0
  0
ARC
  8
0
 10
900.039764
 20
346.064907
 30
0.0
 40
0.5
 50
90.0
 51
180.0
  0
ARC
  8
0
 10
842.639764
 20
344.879121
 30
0.0
 40
1.5
 50
225.0
 51
0.0
  0
ARC
  8
0
 10
840.039764
 20
346.064907
 30
0.0
 40
0.5
 50
180.0
 51
225.0
  0
ARC
  8
0
 10
842.039764
 20
346.064907
 30
0.0
 40
0.5
 50
315.0
 51
90.0
  0
ARC
  8
0
 10
847.439764
 20
344.879121
 30
0.0
 40
1.5
 50
180.0
 51
315.0
  0
ARC
  8
0
 10
850.039764
 20
346.064907
 30
0.0
 40
0.5
 50
0.0
 51
90.0
  0
ARC
  8
0
 10
848.039764
 20
346.064907
 30
0.0
 40
0.5
 50
90.0
 51
225.0
  0
ARC
  8
0
 10
850.039764
 20
346.064907
 30
0.0
 40
0.5
 50
315.0
 51
0.0
  0
ARC
  8
0
 10
840.039764
 20
346.064907
 30
0.0
 40
0.5
 50
90.0
 51
180.0
  0
ARC
  8
0
 10
872.639764
 20
344.879121
 30
0.0
 40
1.5
 50
225.0
 51
0.0
  0
ARC
  8
0
 10
870.039764
 20
346.064907
 30
0.0
 40
0.5
 50
180.0
 51
225.0
  0
ARC
  8
0
 10
872.039764
 20
346.064907
 30
0.0
 40
0.5
 50
315.0
 51
90.0
  0
ARC
  8
0
 10
877.439764
 20
344.879121
 30
0.0
 40
1.5
 50
180.0
 51
315.0
  0
ARC
  8
0
 10
880.039764
 20
346.064907
 30
0.0
 40
0.5
 50
0.0
 51
90.0
  0
ARC
  8
0
 10
878.039764
 20
346.064907
 30
0.0
 40
0.5
 50
90.0
 51
225.0
  0
ARC
  8
0
 10
880.039764
 20
346.064907
 30
0.0
 40
0.5
 50
315.0
 51
0.0
  0
ARC
  8
0
 10
870.039764
 20
346.064907
 30
0.0
 40
0.5
 50
90.0
 51
180.0
  0
ARC
  8
0
 10
932.139764
 20
297.764907
 30
0.0
 40
0.5
 50
270.0
 51
0.0
  0
ARC
  8
0
 10
905.039764
 20
348.664907
 30
0.0
 40
0.9
 50
0.0
 51
180.0
  0
ARC
  8
0
 10
908.539764
 20
348.564907
 30
0.0
 40
1.0
 50
90.0
 51
180.0
  0
ARC
  8
0
 10
901.539764
 20
348.564907
 30
0.0
 40
1.0
 50
0.0
 51
90.0
  0
ARC
  8
0
 10
845.039764
 20
348.664907
 30
0.0
 40
0.9
 50
0.0
 51
180.0
  0
ARC
  8
0
 10
848.539764
 20
348.564907
 30
0.0
 40
1.0
 50
90.0
 51
180.0
  0
ARC
  8
0
 10
841.539764
 20
348.564907
 30
0.0
 40
1.0
 50
0.0
 51
90.0
  0
ARC
  8
0
 10
812.039764
 20
349.864907
 30
0.0
 40
2.0
 50
90.0
 51
180.0
  0
ARC
  8
0
 10
938.039764
 20
349.864907
 30
0.0
 40
2.0
 50
0.0
 51
90.0
  0
ARC
  8
0
 10
935.739764
 20
305.847514
 30
0.0
 40
2.0
 50
300.0
 51
0.0
  0
ARC
  8
0
 10
814.339764
 20
305.847514
 30
0.0
 40
2.0
 50
180.0
 51
240.0
  0
ARC
  8
0
 10
935.039764
 20
299.323456
 30
0.0
 40
1.0
 50
120.0
 51
180.0
  0
ARC
  8
0
 10
938.039764
 20
304.519608
 30
0.0
 40
2.0
 50
300.0
 51
0.0
  0
ARC
  8
0
 10
815.039764
 20
299.323456
 30
0.0
 40
1.0
 50
0.0
 51
60.0
  0
ARC
  8
0
 10
812.039764
 20
304.519608
 30
0.0
 40
2.0
 50
180.0
 51
240.0
  0
ARC
  8
0
 10
928.239764
 20
299.964907
 30
0.0
 40
0.5
 50
90.0
 51
180.0
  0
ARC
  8
0
 10
928.239764
 20
297.764907
 30
0.0
 40
0.5
 50
180.0
 51
270.0
  0
ARC
  8
0
 10
821.839764
 20
299.964907
 30
0.0
 40
0.5
 50
0.0
 51
90.0
  0
ARC
  8
0
 10
821.839764
 20
297.764907
 30
0.0
 40
0.5
 50
270.0
 51
0.0
  0
ARC
  8
0
 10
937.639764
 20
297.964907
 30
0.0
 40
0.7
 50
90.0
 51
180.0
  0
ARC
  8
0
 10
937.639764
 20
297.964907
 30
0.0
 40
0.7
 50
0.0
 51
90.0
  0
ARC
  8
0
 10
934.539764
 20
295.764907
 30
0.0
 40
0.5
 50
180.0
 51
270.0
  0
ARC
  8
0
 10
934.839764
 20
297.364907
 30
0.0
 40
2.1
 50
270.0
 51
0.0
  0
ARC
  8
0
 10
934.839764
 20
297.364907
 30
0.0
 40
3.5
 50
270.0
 51
0.0
  0
ARC
  8
0
 10
927.339764
 20
296.864907
 30
0.0
 40
1.0
 50
180.0
 51
270.0
  0
ARC
  8
0
 10
927.339764
 20
300.864907
 30
0.0
 40
1.0
 50
90.0
 51
180.0
  0
ARC
  8
0
 10
933.139764
 20
294.364907
 30
0.0
 40
0.5
 50
180.0
 51
270.0
  0
ARC
  8
0
 10
932.139764
 20
295.364907
 30
0.0
 40
0.5
 50
0.0
 51
90.0
  0
ARC
  8
0
 10
932.139764
 20
299.964907
 30
0.0
 40
0.5
 50
0.0
 51
90.0
  0
ARC
  8
0
 10
935.739764
 20
347.564907
 30
0.0
 40
2.0
 50
0.0
 51
90.0
  0
ARC
  8
0
 10
812.439764
 20
297.964907
 30
0.0
 40
0.7
 50
0.0
 51
90.0
  0
ARC
  8
0
 10
812.439764
 20
297.964907
 30
0.0
 40
0.7
 50
90.0
 51
180.0
  0
ARC
  8
0
 10
815.539764
 20
295.764907
 30
0.0
 40
0.5
 50
270.0
 51
0.0
  0
ARC
  8
0
 10
815.239764
 20
297.364907
 30
0.0
 40
2.1
 50
180.0
 51
270.0
  0
ARC
  8
0
 10
815.239764
 20
297.364907
 30
0.0
 40
3.5
 50
180.0
 51
270.0
  0
ARC
  8
0
 10
822.739764
 20
296.864907
 30
0.0
 40
1.0
 50
270.0
 51
0.0
  0
ARC
  8
0
 10
822.739764
 20
300.864907
 30
0.0
 40
1.0
 50
0.0
 51
90.0
  0
ARC
  8
0
 10
816.939764
 20
294.364907
 30
0.0
 40
0.5
 50
270.0
 51
0.0
  0
ARC
  8
0
 10
817.939764
 20
295.364907
 30
0.0
 40
0.5
 50
90.0
 51
180.0
  0
ARC
  8
0
 10
817.939764
 20
297.764907
 30
0.0
 40
0.5
 50
180.0
 51
270.0
  0
ARC
  8
0
 10
817.939764
 20
299.964907
 30
0.0
 40
0.5
 50
90.0
 51
180.0
  0
ARC
  8
0
 10
875.039764
 20
348.664907
 30
0.0
 40
0.9
 50
0.0
 51
180.0
  0
ARC
  8
0
 10
878.539764
 20
348.564907
 30
0.0
 40
1.0
 50
90.0
 51
180.0
  0
ARC
  8
0
 10
871.539764
 20
348.564907
 30
0.0
 40
1.0
 50
0.0
 51
90.0
  0
ARC
  8
0
 10
814.339764
 20
347.564907
 30
0.0
 40
2.0
 50
90.0
 51
180.0
  0
LINE
  8
0
 10
938.339764
 20
298.389779
 30
0.0
 11
938.339764
 21
295.064907
 31
0.0
  0
LINE
  8
0
 10
936.839764
 20
293.564907
 30
0.0
 11
875.039764
 21
293.564907
 31
0.0
  0
LINE
  8
0
 10
875.039764
 20
291.864907
 30
0.0
 11
938.039764
 21
291.864907
 31
0.0
  0
LINE
  8
0
 10
940.039764
 20
293.864907
 30
0.0
 11
940.039764
 21
300.364907
 31
0.0
  0
LINE
  8
0
 10
937.489764
 20
301.837151
 30
0.0
 11
936.739764
 21
301.404138
 31
0.0
  0
LINE
  8
0
 10
936.739764
 20
300.018497
 30
0.0
 11
938.212007
 21
299.168497
 31
0.0
  0
LINE
  8
0
 10
938.712007
 20
300.034523
 30
0.0
 11
937.839764
 21
300.538113
 31
0.0
  0
LINE
  8
0
 10
937.839764
 20
300.884523
 30
0.0
 11
937.989764
 21
300.971125
 31
0.0
  0
LINE
  8
0
 10
939.039764
 20
300.364907
 30
0.0
 11
939.039764
 21
299.602214
 31
0.0
  0
LINE
  8
0
 10
939.039764
 20
299.602214
 30
0.0
 11
938.339764
 21
298.389779
 31
0.0
  0
LINE
  8
0
 10
811.739764
 20
295.064907
 30
0.0
 11
811.739764
 21
298.389779
 31
0.0
  0
LINE
  8
0
 10
875.039764
 20
293.564907
 30
0.0
 11
813.239764
 21
293.564907
 31
0.0
  0
LINE
  8
0
 10
812.039764
 20
291.864907
 30
0.0
 11
875.039764
 21
291.864907
 31
0.0
  0
LINE
  8
0
 10
810.039764
 20
300.364907
 30
0.0
 11
810.039764
 21
293.864907
 31
0.0
  0
LINE
  8
0
 10
811.86752
 20
299.168497
 30
0.0
 11
813.339764
 21
300.018497
 31
0.0
  0
LINE
  8
0
 10
812.239764
 20
300.538113
 30
0.0
 11
811.36752
 21
300.034523
 31
0.0
  0
LINE
  8
0
 10
812.089764
 20
300.971125
 30
0.0
 11
812.239764
 21
300.884523
 31
0.0
  0
LINE
  8
0
 10
811.039764
 20
299.602214
 30
0.0
 11
811.039764
 21
300.364907
 31
0.0
  0
LINE
  8
0
 10
811.739764
 20
298.389779
 30
0.0
 11
811.039764
 21
299.602214
 31
0.0
  0
ARC
  8
0
 10
938.339764
 20
300.364907
 30
0.0
 40
1.7
 50
0.0
 51
120.0
  0
ARC
  8
0
 10
937.139764
 20
300.711318
 30
0.0
 40
0.8
 50
120.0
 51
240.0
  0
ARC
  8
0
 10
938.462007
 20
299.60151
 30
0.0
 40
0.5
 50
240.0
 51
60.0
  0
ARC
  8
0
 10
937.939764
 20
300.711318
 30
0.0
 40
0.2
 50
120.0
 51
240.0
  0
ARC
  8
0
 10
938.339764
 20
300.364907
 30
0.0
 40
0.7
 50
0.0
 51
120.0
  0
ARC
  8
0
 10
811.739764
 20
300.364907
 30
0.0
 40
1.7
 50
60.0
 51
180.0
  0
ARC
  8
0
 10
812.939764
 20
300.711318
 30
0.0
 40
0.8
 50
300.0
 51
60.0
  0
ARC
  8
0
 10
811.61752
 20
299.60151
 30
0.0
 40
0.5
 50
120.0
 51
300.0
  0
ARC
  8
0
 10
812.139764
 20
300.711318
 30
0.0
 40
0.2
 50
300.0
 51
60.0
  0
ARC
  8
0
 10
811.739764
 20
300.364907
 30
0.0
 40
0.7
 50
60.0
 51
180.0
  0
ARC
  8
0
 10
936.839764
 20
295.064907
 30
0.0
 40
1.5
 50
270.0
 51
0.0
  0
ARC
  8
0
 10
938.039764
 20
293.864907
 30
0.0
 40
2.0
 50
270.0
 51
0.0
  0
ARC
  8
0
 10
813.239764
 20
295.064907
 30
0.0
 40
1.5
 50
180.0
 51
270.0
  0
ARC
  8
0
 10
812.039764
 20
293.864907
 30
0.0
 40
2.0
 50
180.0
 51
270.0
  0
LINE
  8
0
 10
930.665531
 20
297.264907
 30
0.0
 11
930.902388
 21
298.60819
 31
0.0
  0
LINE
  8
0
 10
819.956992
 20
295.864907
 30
0.0
 11
820.038186
 21
295.404435
 31
0.0
  0
LINE
  8
0
 10
821.737313
 20
297.264907
 30
0.0
 11
821.424571
 21
299.038556
 31
0.0
  0
LINE
  8
0
 10
840.039764
 20
294.164907
 30
0.0
 11
840.039764
 21
302.664907
 31
0.0
  0
LINE
  8
0
 10
862.539764
 20
294.164907
 30
0.0
 11
862.487382
 21
295.664907
 31
0.0
  0
LINE
  8
0
 10
863.592145
 20
295.664907
 30
0.0
 11
863.539764
 21
294.164907
 31
0.0
  0
LINE
  8
0
 10
863.539764
 20
294.164907
 30
0.0
 11
862.539764
 21
294.164907
 31
0.0
  0
LINE
  8
0
 10
862.487382
 20
295.664907
 30
0.0
 11
862.36516
 21
299.164907
 31
0.0
  0
LINE
  8
0
 10
863.714367
 20
299.164907
 30
0.0
 11
863.592145
 21
295.664907
 31
0.0
  0
LINE
  8
0
 10
862.36516
 20
299.164907
 30
0.0
 11
862.25796
 21
302.234706
 31
0.0
  0
LINE
  8
0
 10
875.039764
 20
304.164907
 30
0.0
 11
865.820349
 21
304.164907
 31
0.0
  0
LINE
  8
0
 10
863.714367
 20
299.164907
 30
0.0
 11
862.36516
 21
299.164907
 31
0.0
  0
LINE
  8
0
 10
863.821567
 20
302.234706
 30
0.0
 11
863.714367
 21
299.164907
 31
0.0
  0
LINE
  8
0
 10
886.487382
 20
295.664907
 30
0.0
 11
863.592145
 21
295.664907
 31
0.0
  0
LINE
  8
0
 10
887.592145
 20
295.664907
 30
0.0
 11
887.539764
 21
294.164907
 31
0.0
  0
LINE
  8
0
 10
887.539764
 20
294.164907
 30
0.0
 11
886.539764
 21
294.164907
 31
0.0
  0
LINE
  8
0
 10
886.539764
 20
294.164907
 30
0.0
 11
886.487382
 21
295.664907
 31
0.0
  0
LINE
  8
0
 10
863.539764
 20
294.164907
 30
0.0
 11
886.539764
 21
294.164907
 31
0.0
  0
LINE
  8
0
 10
887.714367
 20
299.164907
 30
0.0
 11
887.592145
 21
295.664907
 31
0.0
  0
LINE
  8
0
 10
886.487382
 20
295.664907
 30
0.0
 11
886.36516
 21
299.164907
 31
0.0
  0
LINE
  8
0
 10
884.259178
 20
304.164907
 30
0.0
 11
875.039764
 21
304.164907
 31
0.0
  0
LINE
  8
0
 10
887.821567
 20
302.234706
 30
0.0
 11
887.714367
 21
299.164907
 31
0.0
  0
LINE
  8
0
 10
887.714367
 20
299.164907
 30
0.0
 11
886.36516
 21
299.164907
 31
0.0
  0
LINE
  8
0
 10
886.36516
 20
299.164907
 30
0.0
 11
886.25796
 21
302.234706
 31
0.0
  0
LINE
  8
0
 10
905.759178
 20
304.164907
 30
0.0
 11
889.820349
 21
304.164907
 31
0.0
  0
LINE
  8
0
 10
908.938481
 20
302.164907
 30
0.0
 11
908.378572
 21
302.164907
 31
0.0
  0
LINE
  8
0
 10
908.205367
 20
302.064907
 30
0.0
 11
907.789069
 21
301.343858
 31
0.0
  0
LINE
  8
0
 10
907.789069
 20
301.343858
 30
0.0
 11
907.75796
 21
302.234706
 31
0.0
  0
LINE
  8
0
 10
909.631919
 20
301.142812
 30
0.0
 11
909.101941
 21
299.164907
 31
0.0
  0
LINE
  8
0
 10
887.539764
 20
294.164907
 30
0.0
 11
908.039764
 21
294.164907
 31
0.0
  0
LINE
  8
0
 10
908.039764
 20
294.164907
 30
0.0
 11
907.987382
 21
295.664907
 31
0.0
  0
LINE
  8
0
 10
907.987382
 20
295.664907
 30
0.0
 11
887.592145
 21
295.664907
 31
0.0
  0
LINE
  8
0
 10
907.987382
 20
295.664907
 30
0.0
 11
907.75796
 21
302.234706
 31
0.0
  0
LINE
  8
0
 10
909.101941
 20
294.164907
 30
0.0
 11
909.101941
 21
299.164907
 31
0.0
  0
LINE
  8
0
 10
909.101941
 20
294.164907
 30
0.0
 11
905.039764
 21
294.164907
 31
0.0
  0
LINE
  8
0
 10
910.039764
 20
294.164907
 30
0.0
 11
909.101941
 21
294.164907
 31
0.0
  0
LINE
  8
0
 10
910.039764
 20
302.664907
 30
0.0
 11
909.631919
 21
301.142812
 31
0.0
  0
LINE
  8
0
 10
910.039764
 20
302.664907
 30
0.0
 11
910.039764
 21
294.164907
 31
0.0
  0
LINE
  8
0
 10
911.816043
 20
302.664907
 30
0.0
 11
910.039764
 21
302.664907
 31
0.0
  0
LINE
  8
0
 10
924.639764
 20
300.264907
 30
0.0
 11
911.816043
 21
300.264907
 31
0.0
  0
LINE
  8
0
 10
924.639764
 20
302.664907
 30
0.0
 11
911.816043
 21
302.664907
 31
0.0
  0
LINE
  8
0
 10
925.839764
 20
296.164907
 30
0.0
 11
925.839764
 21
301.464907
 31
0.0
  0
LINE
  8
0
 10
926.139764
 20
295.864907
 30
0.0
 11
927.843626
 21
295.864907
 31
0.0
  0
LINE
  8
0
 10
928.860268
 20
294.164907
 30
0.0
 11
910.039764
 21
294.164907
 31
0.0
  0
LINE
  8
0
 10
930.337479
 20
295.404435
 30
0.0
 11
930.418673
 21
295.864907
 31
0.0
  0
LINE
  8
0
 10
928.951093
 20
299.038556
 30
0.0
 11
928.638351
 21
297.264907
 31
0.0
  0
LINE
  8
0
 10
860.259178
 20
304.164907
 30
0.0
 11
844.320349
 21
304.164907
 31
0.0
  0
LINE
  8
0
 10
842.039764
 20
294.164907
 30
0.0
 11
862.539764
 21
294.164907
 31
0.0
  0
LINE
  8
0
 10
862.487382
 20
295.664907
 30
0.0
 11
842.092145
 21
295.664907
 31
0.0
  0
LINE
  8
0
 10
845.039764
 20
294.164907
 30
0.0
 11
840.977586
 21
294.164907
 31
0.0
  0
LINE
  8
0
 10
840.977586
 20
294.164907
 30
0.0
 11
840.039764
 21
294.164907
 31
0.0
  0
LINE
  8
0
 10
842.092145
 20
295.664907
 30
0.0
 11
842.039764
 21
294.164907
 31
0.0
  0
LINE
  8
0
 10
840.977586
 20
299.164907
 30
0.0
 11
840.977586
 21
294.164907
 31
0.0
  0
LINE
  8
0
 10
842.321567
 20
302.234706
 30
0.0
 11
842.092145
 21
295.664907
 31
0.0
  0
LINE
  8
0
 10
841.700955
 20
302.164907
 30
0.0
 11
841.141046
 21
302.164907
 31
0.0
  0
LINE
  8
0
 10
842.290458
 20
301.343858
 30
0.0
 11
841.87416
 21
302.064907
 31
0.0
  0
LINE
  8
0
 10
842.321567
 20
302.234706
 30
0.0
 11
842.290458
 21
301.343858
 31
0.0
  0
LINE
  8
0
 10
840.977586
 20
299.164907
 30
0.0
 11
840.447608
 21
301.142812
 31
0.0
  0
LINE
  8
0
 10
838.263484
 20
300.264907
 30
0.0
 11
825.439764
 21
300.264907
 31
0.0
  0
LINE
  8
0
 10
838.263484
 20
302.664907
 30
0.0
 11
825.439764
 21
302.664907
 31
0.0
  0
LINE
  8
0
 10
840.039764
 20
302.664907
 30
0.0
 11
838.263484
 21
302.664907
 31
0.0
  0
LINE
  8
0
 10
840.447608
 20
301.142812
 30
0.0
 11
840.039764
 21
302.664907
 31
0.0
  0
LINE
  8
0
 10
824.239764
 20
301.464907
 30
0.0
 11
824.239764
 21
296.164907
 31
0.0
  0
LINE
  8
0
 10
822.235901
 20
295.864907
 30
0.0
 11
823.939764
 21
295.864907
 31
0.0
  0
LINE
  8
0
 10
840.039764
 20
294.164907
 30
0.0
 11
821.515397
 21
294.164907
 31
0.0
  0
LINE
  8
0
 10
819.473277
 20
298.60819
 30
0.0
 11
819.710134
 21
297.264907
 31
0.0
  0
ARC
  8
0
 10
905.039764
 20
299.164907
 30
0.0
 40
5.0
 50
23.302207
 51
35.685335
  0
ARC
  8
0
 10
911.816043
 20
301.464907
 30
0.0
 40
1.2
 50
180.0
 51
270.0
  0
ARC
  8
0
 10
924.639764
 20
301.464907
 30
0.0
 40
1.2
 50
0.0
 51
90.0
  0
ARC
  8
0
 10
924.639764
 20
301.464907
 30
0.0
 40
1.2
 50
270.0
 51
0.0
  0
ARC
  8
0
 10
929.935901
 20
298.864907
 30
0.0
 40
1.0
 50
345.124638
 51
170.0
  0
ARC
  8
0
 10
929.935901
 20
298.864907
 30
0.0
 40
1.0
 50
170.0
 51
345.124638
  0
ARC
  8
0
 10
845.039764
 20
299.164907
 30
0.0
 40
5.0
 50
144.314665
 51
156.697793
  0
ARC
  8
0
 10
838.263484
 20
301.464907
 30
0.0
 40
1.2
 50
270.0
 51
0.0
  0
ARC
  8
0
 10
825.439764
 20
301.464907
 30
0.0
 40
1.2
 50
180.0
 51
270.0
  0
ARC
  8
0
 10
825.439764
 20
301.464907
 30
0.0
 40
1.2
 50
90.0
 51
180.0
  0
ARC
  8
0
 10
820.439764
 20
298.864907
 30
0.0
 40
1.0
 50
10.0
 51
194.875362
  0
ARC
  8
0
 10
820.439764
 20
298.864907
 30
0.0
 40
1.0
 50
194.875362
 51
10.0
  0
ARC
  8
0
 10
860.259178
 20
302.164907
 30
0.0
 40
2.0
 50
2.0
 51
90.0
  0
ARC
  8
0
 10
865.820349
 20
302.164907
 30
0.0
 40
2.0
 50
90.0
 51
178.0
  0
ARC
  8
0
 10
889.820349
 20
302.164907
 30
0.0
 40
2.0
 50
90.0
 51
178.0
  0
ARC
  8
0
 10
884.259178
 20
302.164907
 30
0.0
 40
2.0
 50
2.0
 51
90.0
  0
ARC
  8
0
 10
905.759178
 20
302.164907
 30
0.0
 40
2.0
 50
2.0
 51
90.0
  0
ARC
  8
0
 10
905.759178
 20
302.164907
 30
0.0
 40
2.0
 50
2.0
 51
90.0
  0
ARC
  8
0
 10
908.938481
 20
301.964907
 30
0.0
 40
0.2
 50
35.685335
 51
90.0
  0
ARC
  8
0
 10
908.378572
 20
301.964907
 30
0.0
 40
0.2
 50
90.0
 51
150.0
  0
ARC
  8
0
 10
911.816043
 20
301.464907
 30
0.0
 40
1.2
 50
90.0
 51
180.0
  0
ARC
  8
0
 10
926.139764
 20
296.164907
 30
0.0
 40
0.3
 50
180.0
 51
270.0
  0
ARC
  8
0
 10
928.860268
 20
295.664907
 30
0.0
 40
1.5
 50
270.0
 51
350.0
  0
ARC
  8
0
 10
844.320349
 20
302.164907
 30
0.0
 40
2.0
 50
90.0
 51
178.0
  0
ARC
  8
0
 10
844.320349
 20
302.164907
 30
0.0
 40
2.0
 50
90.0
 51
178.0
  0
ARC
  8
0
 10
841.141046
 20
301.964907
 30
0.0
 40
0.2
 50
90.0
 51
144.314665
  0
ARC
  8
0
 10
841.700955
 20
301.964907
 30
0.0
 40
0.2
 50
30.0
 51
90.0
  0
ARC
  8
0
 10
838.263484
 20
301.464907
 30
0.0
 40
1.2
 50
0.0
 51
90.0
  0
ARC
  8
0
 10
823.939764
 20
296.164907
 30
0.0
 40
0.3
 50
270.0
 51
0.0
  0
ARC
  8
0
 10
821.515397
 20
295.664907
 30
0.0
 40
1.5
 50
190.0
 51
270.0
  0
LINE
  8
0
 10
876.071167
 20
304.164907
 30
0.0
 11
877.347781
 21
306.375845
 31
0.0
  0
LINE
  8
0
 10
873.927816
 20
304.126009
 30
0.0
 11
872.628742
 21
306.375845
 31
0.0
  0
LINE
  8
0
 10
876.819481
 20
342.136135
 30
0.0
 11
881.375432
 21
346.693874
 31
0.0
  0
LINE
  8
0
 10
881.375432
 20
346.693874
 30
0.0
 11
876.819481
 21
342.136135
 31
0.0
  0
LINE
  8
0
 10
873.492456
 20
332.603898
 30
0.0
 11
873.492456
 21
332.605885
 31
0.0
  0
LINE
  8
0
 10
873.492456
 20
332.605885
 30
0.0
 11
873.49623
 21
332.692296
 31
0.0
  0
LINE
  8
0
 10
873.49623
 20
332.692296
 30
0.0
 11
873.507751
 21
332.778707
 31
0.0
  0
LINE
  8
0
 10
873.507751
 20
332.778707
 30
0.0
 11
873.525033
 21
332.863132
 31
0.0
  0
LINE
  8
0
 10
873.525033
 20
332.863132
 30
0.0
 11
873.507751
 21
332.778707
 31
0.0
  0
LINE
  8
0
 10
873.507751
 20
332.778707
 30
0.0
 11
873.49623
 21
332.692296
 31
0.0
  0
LINE
  8
0
 10
873.49623
 20
332.692296
 30
0.0
 11
873.492456
 21
332.603898
 31
0.0
  0
LINE
  8
0
 10
873.525033
 20
332.863132
 30
0.0
 11
873.551851
 21
332.94557
 31
0.0
  0
LINE
  8
0
 10
873.551851
 20
332.94557
 30
0.0
 11
873.525033
 21
332.863132
 31
0.0
  0
LINE
  8
0
 10
873.551851
 20
332.94557
 30
0.0
 11
873.584429
 21
333.02622
 31
0.0
  0
LINE
  8
0
 10
873.584429
 20
333.02622
 30
0.0
 11
873.551851
 21
332.94557
 31
0.0
  0
LINE
  8
0
 10
873.584429
 20
333.02622
 30
0.0
 11
873.624754
 21
333.102898
 31
0.0
  0
LINE
  8
0
 10
873.624754
 20
333.102898
 30
0.0
 11
873.584429
 21
333.02622
 31
0.0
  0
LINE
  8
0
 10
873.624754
 20
333.102898
 30
0.0
 11
873.672826
 21
333.177787
 31
0.0
  0
LINE
  8
0
 10
873.672826
 20
333.177787
 30
0.0
 11
873.624754
 21
333.102898
 31
0.0
  0
LINE
  8
0
 10
873.672826
 20
333.177787
 30
0.0
 11
873.724474
 21
333.246916
 31
0.0
  0
LINE
  8
0
 10
873.724474
 20
333.246916
 30
0.0
 11
873.672826
 21
333.177787
 31
0.0
  0
LINE
  8
0
 10
873.724474
 20
333.246916
 30
0.0
 11
873.784068
 21
333.310284
 31
0.0
  0
LINE
  8
0
 10
873.784068
 20
333.310284
 30
0.0
 11
873.724474
 21
333.246916
 31
0.0
  0
LINE
  8
0
 10
873.784068
 20
333.310284
 30
0.0
 11
873.847436
 21
333.369679
 31
0.0
  0
LINE
  8
0
 10
873.847436
 20
333.369679
 30
0.0
 11
873.784068
 21
333.310284
 31
0.0
  0
LINE
  8
0
 10
873.847436
 20
333.369679
 30
0.0
 11
873.916565
 21
333.421526
 31
0.0
  0
LINE
  8
0
 10
873.916565
 20
333.421526
 30
0.0
 11
873.847436
 21
333.369679
 31
0.0
  0
LINE
  8
0
 10
873.916565
 20
333.421526
 30
0.0
 11
873.991256
 21
333.4694
 31
0.0
  0
LINE
  8
0
 10
873.991256
 20
333.4694
 30
0.0
 11
873.916565
 21
333.421526
 31
0.0
  0
LINE
  8
0
 10
873.991256
 20
333.4694
 30
0.0
 11
874.068132
 21
333.509725
 31
0.0
  0
LINE
  8
0
 10
874.068132
 20
333.509725
 30
0.0
 11
873.991256
 21
333.4694
 31
0.0
  0
LINE
  8
0
 10
874.068132
 20
333.509725
 30
0.0
 11
874.148783
 21
333.542502
 31
0.0
  0
LINE
  8
0
 10
874.148783
 20
333.542502
 30
0.0
 11
874.068132
 21
333.509725
 31
0.0
  0
LINE
  8
0
 10
874.148783
 20
333.542502
 30
0.0
 11
874.231221
 21
333.569319
 31
0.0
  0
LINE
  8
0
 10
874.231221
 20
333.569319
 30
0.0
 11
874.148783
 21
333.542502
 31
0.0
  0
LINE
  8
0
 10
874.231221
 20
333.569319
 30
0.0
 11
874.315645
 21
333.586601
 31
0.0
  0
LINE
  8
0
 10
874.315645
 20
333.586601
 30
0.0
 11
874.231221
 21
333.569319
 31
0.0
  0
LINE
  8
0
 10
874.315645
 20
333.586601
 30
0.0
 11
874.402056
 21
333.598123
 31
0.0
  0
LINE
  8
0
 10
874.402056
 20
333.598123
 30
0.0
 11
874.315645
 21
333.586601
 31
0.0
  0
LINE
  8
0
 10
874.402056
 20
333.598123
 30
0.0
 11
874.488269
 21
333.601897
 31
0.0
  0
LINE
  8
0
 10
874.488269
 20
333.601897
 30
0.0
 11
874.490255
 21
333.601897
 31
0.0
  0
LINE
  8
0
 10
874.490255
 20
333.601897
 30
0.0
 11
874.402056
 21
333.598123
 31
0.0
  0
LINE
  8
0
 10
875.486267
 20
333.601897
 30
0.0
 11
875.574665
 21
333.598123
 31
0.0
  0
LINE
  8
0
 10
875.574665
 20
333.598123
 30
0.0
 11
875.488254
 21
333.601897
 31
0.0
  0
LINE
  8
0
 10
875.574665
 20
333.598123
 30
0.0
 11
875.660878
 21
333.586601
 31
0.0
  0
LINE
  8
0
 10
875.660878
 20
333.586601
 30
0.0
 11
875.574665
 21
333.598123
 31
0.0
  0
LINE
  8
0
 10
875.660878
 20
333.586601
 30
0.0
 11
875.745302
 21
333.569319
 31
0.0
  0
LINE
  8
0
 10
875.745302
 20
333.569319
 30
0.0
 11
875.660878
 21
333.586601
 31
0.0
  0
LINE
  8
0
 10
875.745302
 20
333.569319
 30
0.0
 11
875.827939
 21
333.542502
 31
0.0
  0
LINE
  8
0
 10
875.827939
 20
333.542502
 30
0.0
 11
875.745302
 21
333.569319
 31
0.0
  0
LINE
  8
0
 10
875.827939
 20
333.542502
 30
0.0
 11
875.908589
 21
333.509725
 31
0.0
  0
LINE
  8
0
 10
875.908589
 20
333.509725
 30
0.0
 11
875.827939
 21
333.542502
 31
0.0
  0
LINE
  8
0
 10
875.908589
 20
333.509725
 30
0.0
 11
875.985267
 21
333.4694
 31
0.0
  0
LINE
  8
0
 10
875.985267
 20
333.4694
 30
0.0
 11
875.908589
 21
333.509725
 31
0.0
  0
LINE
  8
0
 10
875.985267
 20
333.4694
 30
0.0
 11
876.060156
 21
333.421526
 31
0.0
  0
LINE
  8
0
 10
876.060156
 20
333.421526
 30
0.0
 11
875.985267
 21
333.4694
 31
0.0
  0
LINE
  8
0
 10
876.060156
 20
333.421526
 30
0.0
 11
876.129087
 21
333.369679
 31
0.0
  0
LINE
  8
0
 10
876.129087
 20
333.369679
 30
0.0
 11
876.060156
 21
333.421526
 31
0.0
  0
LINE
  8
0
 10
876.129087
 20
333.369679
 30
0.0
 11
876.192455
 21
333.310284
 31
0.0
  0
LINE
  8
0
 10
876.192455
 20
333.310284
 30
0.0
 11
876.129087
 21
333.369679
 31
0.0
  0
LINE
  8
0
 10
876.192455
 20
333.310284
 30
0.0
 11
876.252049
 21
333.246916
 31
0.0
  0
LINE
  8
0
 10
876.252049
 20
333.246916
 30
0.0
 11
876.192455
 21
333.310284
 31
0.0
  0
LINE
  8
0
 10
876.252049
 20
333.246916
 30
0.0
 11
876.303895
 21
333.177787
 31
0.0
  0
LINE
  8
0
 10
876.303895
 20
333.177787
 30
0.0
 11
876.252049
 21
333.246916
 31
0.0
  0
LINE
  8
0
 10
876.303895
 20
333.177787
 30
0.0
 11
876.351769
 21
333.102898
 31
0.0
  0
LINE
  8
0
 10
876.351769
 20
333.102898
 30
0.0
 11
876.303895
 21
333.177787
 31
0.0
  0
LINE
  8
0
 10
876.351769
 20
333.102898
 30
0.0
 11
876.392094
 21
333.02622
 31
0.0
  0
LINE
  8
0
 10
876.392094
 20
333.02622
 30
0.0
 11
876.351769
 21
333.102898
 31
0.0
  0
LINE
  8
0
 10
876.392094
 20
333.02622
 30
0.0
 11
876.424672
 21
332.94557
 31
0.0
  0
LINE
  8
0
 10
876.424672
 20
332.94557
 30
0.0
 11
876.392094
 21
333.02622
 31
0.0
  0
LINE
  8
0
 10
876.424672
 20
332.94557
 30
0.0
 11
876.451688
 21
332.863132
 31
0.0
  0
LINE
  8
0
 10
876.451688
 20
332.863132
 30
0.0
 11
876.424672
 21
332.94557
 31
0.0
  0
LINE
  8
0
 10
876.451688
 20
332.863132
 30
0.0
 11
876.468772
 21
332.778707
 31
0.0
  0
LINE
  8
0
 10
876.468772
 20
332.778707
 30
0.0
 11
876.451688
 21
332.863132
 31
0.0
  0
LINE
  8
0
 10
876.468772
 20
332.778707
 30
0.0
 11
876.480293
 21
332.692296
 31
0.0
  0
LINE
  8
0
 10
876.480293
 20
332.692296
 30
0.0
 11
876.468772
 21
332.778707
 31
0.0
  0
LINE
  8
0
 10
876.480293
 20
332.692296
 30
0.0
 11
876.484266
 21
332.603898
 31
0.0
  0
LINE
  8
0
 10
876.484266
 20
332.603898
 30
0.0
 11
876.480293
 21
332.692296
 31
0.0
  0
LINE
  8
0
 10
876.484266
 20
332.603898
 30
0.0
 11
876.484266
 21
306.874844
 31
0.0
  0
LINE
  8
0
 10
876.484266
 20
306.874844
 30
0.0
 11
876.484266
 21
332.603898
 31
0.0
  0
LINE
  8
0
 10
875.486267
 20
333.601897
 30
0.0
 11
874.490255
 21
333.601897
 31
0.0
  0
LINE
  8
0
 10
874.490255
 20
333.601897
 30
0.0
 11
875.486267
 21
333.601897
 31
0.0
  0
LINE
  8
0
 10
875.486267
 20
334.73418
 30
0.0
 11
875.561157
 21
334.780266
 31
0.0
  0
LINE
  8
0
 10
875.561157
 20
334.780266
 30
0.0
 11
875.630286
 21
334.833901
 31
0.0
  0
LINE
  8
0
 10
875.630286
 20
334.833901
 30
0.0
 11
875.693654
 21
334.891508
 31
0.0
  0
LINE
  8
0
 10
875.693654
 20
334.891508
 30
0.0
 11
875.753049
 21
334.956863
 31
0.0
  0
LINE
  8
0
 10
875.753049
 20
334.956863
 30
0.0
 11
875.804896
 21
335.025793
 31
0.0
  0
LINE
  8
0
 10
875.804896
 20
335.025793
 30
0.0
 11
875.85277
 21
335.098696
 31
0.0
  0
LINE
  8
0
 10
875.85277
 20
335.098696
 30
0.0
 11
875.893095
 21
335.175572
 31
0.0
  0
LINE
  8
0
 10
875.893095
 20
335.175572
 30
0.0
 11
875.925673
 21
335.256223
 31
0.0
  0
LINE
  8
0
 10
875.925673
 20
335.256223
 30
0.0
 11
875.952689
 21
335.338661
 31
0.0
  0
LINE
  8
0
 10
875.952689
 20
335.338661
 30
0.0
 11
875.969971
 21
335.425072
 31
0.0
  0
LINE
  8
0
 10
875.969971
 20
335.425072
 30
0.0
 11
875.981492
 21
335.511483
 31
0.0
  0
LINE
  8
0
 10
875.981492
 20
335.511483
 30
0.0
 11
875.985267
 21
335.597695
 31
0.0
  0
LINE
  8
0
 10
875.486267
 20
334.73418
 30
0.0
 11
875.40959
 21
334.693855
 31
0.0
  0
LINE
  8
0
 10
875.40959
 20
334.693855
 30
0.0
 11
875.32894
 21
334.661277
 31
0.0
  0
LINE
  8
0
 10
875.32894
 20
334.661277
 30
0.0
 11
875.246502
 21
334.63446
 31
0.0
  0
LINE
  8
0
 10
875.246502
 20
334.63446
 30
0.0
 11
875.161878
 21
334.615191
 31
0.0
  0
LINE
  8
0
 10
875.161878
 20
334.615191
 30
0.0
 11
875.075666
 21
334.60367
 31
0.0
  0
LINE
  8
0
 10
875.075666
 20
334.60367
 30
0.0
 11
874.989255
 21
334.599895
 31
0.0
  0
LINE
  8
0
 10
874.989255
 20
334.599895
 30
0.0
 11
874.901056
 21
334.60367
 31
0.0
  0
LINE
  8
0
 10
874.901056
 20
334.60367
 30
0.0
 11
874.814645
 21
334.615191
 31
0.0
  0
LINE
  8
0
 10
874.814645
 20
334.615191
 30
0.0
 11
874.901056
 21
334.60367
 31
0.0
  0
LINE
  8
0
 10
874.901056
 20
334.60367
 30
0.0
 11
874.989255
 21
334.599895
 31
0.0
  0
LINE
  8
0
 10
874.989255
 20
334.599895
 30
0.0
 11
875.075666
 21
334.60367
 31
0.0
  0
LINE
  8
0
 10
875.075666
 20
334.60367
 30
0.0
 11
875.161878
 21
334.615191
 31
0.0
  0
LINE
  8
0
 10
875.161878
 20
334.615191
 30
0.0
 11
875.246502
 21
334.63446
 31
0.0
  0
LINE
  8
0
 10
875.246502
 20
334.63446
 30
0.0
 11
875.32894
 21
334.661277
 31
0.0
  0
LINE
  8
0
 10
875.32894
 20
334.661277
 30
0.0
 11
875.40959
 21
334.693855
 31
0.0
  0
LINE
  8
0
 10
875.40959
 20
334.693855
 30
0.0
 11
875.486267
 21
334.73418
 31
0.0
  0
LINE
  8
0
 10
875.486267
 20
334.73418
 30
0.0
 11
875.561157
 21
334.780266
 31
0.0
  0
LINE
  8
0
 10
875.561157
 20
334.780266
 30
0.0
 11
875.630286
 21
334.833901
 31
0.0
  0
LINE
  8
0
 10
875.630286
 20
334.833901
 30
0.0
 11
875.693654
 21
334.891508
 31
0.0
  0
LINE
  8
0
 10
875.693654
 20
334.891508
 30
0.0
 11
875.753049
 21
334.956863
 31
0.0
  0
LINE
  8
0
 10
875.753049
 20
334.956863
 30
0.0
 11
875.804896
 21
335.025793
 31
0.0
  0
LINE
  8
0
 10
875.804896
 20
335.025793
 30
0.0
 11
875.85277
 21
335.098696
 31
0.0
  0
LINE
  8
0
 10
875.85277
 20
335.098696
 30
0.0
 11
875.893095
 21
335.175572
 31
0.0
  0
LINE
  8
0
 10
875.893095
 20
335.175572
 30
0.0
 11
875.925673
 21
335.256223
 31
0.0
  0
LINE
  8
0
 10
875.925673
 20
335.256223
 30
0.0
 11
875.952689
 21
335.338661
 31
0.0
  0
LINE
  8
0
 10
875.952689
 20
335.338661
 30
0.0
 11
875.969971
 21
335.425072
 31
0.0
  0
LINE
  8
0
 10
875.969971
 20
335.425072
 30
0.0
 11
875.981492
 21
335.511483
 31
0.0
  0
LINE
  8
0
 10
875.981492
 20
335.511483
 30
0.0
 11
875.985267
 21
335.597695
 31
0.0
  0
LINE
  8
0
 10
874.814645
 20
334.615191
 30
0.0
 11
874.73022
 21
334.63446
 31
0.0
  0
LINE
  8
0
 10
874.73022
 20
334.63446
 30
0.0
 11
874.814645
 21
334.615191
 31
0.0
  0
LINE
  8
0
 10
874.73022
 20
334.63446
 30
0.0
 11
874.647583
 21
334.661277
 31
0.0
  0
LINE
  8
0
 10
874.647583
 20
334.661277
 30
0.0
 11
874.73022
 21
334.63446
 31
0.0
  0
LINE
  8
0
 10
874.647583
 20
334.661277
 30
0.0
 11
874.567131
 21
334.693855
 31
0.0
  0
LINE
  8
0
 10
874.567131
 20
334.693855
 30
0.0
 11
874.647583
 21
334.661277
 31
0.0
  0
LINE
  8
0
 10
874.567131
 20
334.693855
 30
0.0
 11
874.490255
 21
334.73418
 31
0.0
  0
LINE
  8
0
 10
874.490255
 20
334.73418
 30
0.0
 11
874.567131
 21
334.693855
 31
0.0
  0
LINE
  8
0
 10
874.490255
 20
334.73418
 30
0.0
 11
874.415366
 21
334.780266
 31
0.0
  0
LINE
  8
0
 10
874.415366
 20
334.780266
 30
0.0
 11
874.490255
 21
334.73418
 31
0.0
  0
LINE
  8
0
 10
874.415366
 20
334.780266
 30
0.0
 11
874.346436
 21
334.833901
 31
0.0
  0
LINE
  8
0
 10
874.346436
 20
334.833901
 30
0.0
 11
874.415366
 21
334.780266
 31
0.0
  0
LINE
  8
0
 10
874.346436
 20
334.833901
 30
0.0
 11
874.283067
 21
334.891508
 31
0.0
  0
LINE
  8
0
 10
874.283067
 20
334.891508
 30
0.0
 11
874.346436
 21
334.833901
 31
0.0
  0
LINE
  8
0
 10
874.283067
 20
334.891508
 30
0.0
 11
874.223474
 21
334.956863
 31
0.0
  0
LINE
  8
0
 10
874.223474
 20
334.956863
 30
0.0
 11
874.283067
 21
334.891508
 31
0.0
  0
LINE
  8
0
 10
874.223474
 20
334.956863
 30
0.0
 11
874.171627
 21
335.025793
 31
0.0
  0
LINE
  8
0
 10
874.171627
 20
335.025793
 30
0.0
 11
874.223474
 21
334.956863
 31
0.0
  0
LINE
  8
0
 10
874.171627
 20
335.025793
 30
0.0
 11
874.123753
 21
335.098696
 31
0.0
  0
LINE
  8
0
 10
874.123753
 20
335.098696
 30
0.0
 11
874.171627
 21
335.025793
 31
0.0
  0
LINE
  8
0
 10
874.123753
 20
335.098696
 30
0.0
 11
874.083428
 21
335.175572
 31
0.0
  0
LINE
  8
0
 10
874.083428
 20
335.175572
 30
0.0
 11
874.123753
 21
335.098696
 31
0.0
  0
LINE
  8
0
 10
874.083428
 20
335.175572
 30
0.0
 11
874.05085
 21
335.256223
 31
0.0
  0
LINE
  8
0
 10
874.05085
 20
335.256223
 30
0.0
 11
874.083428
 21
335.175572
 31
0.0
  0
LINE
  8
0
 10
874.05085
 20
335.256223
 30
0.0
 11
874.024033
 21
335.338661
 31
0.0
  0
LINE
  8
0
 10
874.024033
 20
335.338661
 30
0.0
 11
874.05085
 21
335.256223
 31
0.0
  0
LINE
  8
0
 10
874.024033
 20
335.338661
 30
0.0
 11
874.006751
 21
335.425072
 31
0.0
  0
LINE
  8
0
 10
874.006751
 20
335.425072
 30
0.0
 11
874.024033
 21
335.338661
 31
0.0
  0
LINE
  8
0
 10
874.006751
 20
335.425072
 30
0.0
 11
873.995229
 21
335.511483
 31
0.0
  0
LINE
  8
0
 10
873.995229
 20
335.511483
 30
0.0
 11
874.006751
 21
335.425072
 31
0.0
  0
LINE
  8
0
 10
873.995229
 20
335.511483
 30
0.0
 11
873.991256
 21
335.597695
 31
0.0
  0
LINE
  8
0
 10
873.991256
 20
335.597695
 30
0.0
 11
873.995229
 21
335.511483
 31
0.0
  0
LINE
  8
0
 10
873.492456
 20
332.603898
 30
0.0
 11
873.492456
 21
306.874844
 31
0.0
  0
LINE
  8
0
 10
873.492456
 20
306.874844
 30
0.0
 11
874.989255
 21
304.2841
 31
0.0
  0
LINE
  8
0
 10
874.989255
 20
304.2841
 30
0.0
 11
876.484266
 21
306.874844
 31
0.0
  0
LINE
  8
0
 10
876.484266
 20
306.874844
 30
0.0
 11
874.989255
 21
304.2841
 31
0.0
  0
LINE
  8
0
 10
874.989255
 20
304.2841
 30
0.0
 11
873.492456
 21
306.874844
 31
0.0
  0
LINE
  8
0
 10
873.492456
 20
306.874844
 30
0.0
 11
873.492456
 21
332.603898
 31
0.0
  0
LINE
  8
0
 10
877.589532
 20
340.397385
 30
0.0
 11
877.534275
 21
340.270649
 31
0.0
  0
LINE
  8
0
 10
877.534275
 20
340.270649
 30
0.0
 11
877.482594
 21
340.142125
 31
0.0
  0
LINE
  8
0
 10
877.482594
 20
340.142125
 30
0.0
 11
877.465312
 21
340.013601
 31
0.0
  0
LINE
  8
0
 10
877.465312
 20
340.013601
 30
0.0
 11
877.470803
 21
339.88309
 31
0.0
  0
LINE
  8
0
 10
877.470803
 20
339.88309
 30
0.0
 11
877.46683
 21
339.752579
 31
0.0
  0
LINE
  8
0
 10
877.46683
 20
339.752579
 30
0.0
 11
877.470803
 21
339.88309
 31
0.0
  0
LINE
  8
0
 10
877.470803
 20
339.88309
 30
0.0
 11
877.465312
 21
340.013601
 31
0.0
  0
LINE
  8
0
 10
877.465312
 20
340.013601
 30
0.0
 11
877.482594
 21
340.142125
 31
0.0
  0
LINE
  8
0
 10
877.482594
 20
340.142125
 30
0.0
 11
877.534275
 21
340.270649
 31
0.0
  0
LINE
  8
0
 10
877.534275
 20
340.270649
 30
0.0
 11
877.589532
 21
340.397385
 31
0.0
  0
LINE
  8
0
 10
877.589532
 20
340.397385
 30
0.0
 11
877.654721
 21
340.524121
 31
0.0
  0
LINE
  8
0
 10
877.654721
 20
340.524121
 30
0.0
 11
877.589532
 21
340.397385
 31
0.0
  0
LINE
  8
0
 10
877.654721
 20
340.524121
 30
0.0
 11
877.723486
 21
340.646885
 31
0.0
  0
LINE
  8
0
 10
877.723486
 20
340.646885
 30
0.0
 11
877.654721
 21
340.524121
 31
0.0
  0
LINE
  8
0
 10
877.723486
 20
340.646885
 30
0.0
 11
877.773347
 21
340.76786
 31
0.0
  0
LINE
  8
0
 10
877.773347
 20
340.76786
 30
0.0
 11
877.723486
 21
340.646885
 31
0.0
  0
LINE
  8
0
 10
877.773347
 20
340.76786
 30
0.0
 11
877.830954
 21
340.884863
 31
0.0
  0
LINE
  8
0
 10
877.830954
 20
340.884863
 30
0.0
 11
877.773347
 21
340.76786
 31
0.0
  0
LINE
  8
0
 10
877.830954
 20
340.884863
 30
0.0
 11
877.918988
 21
341.000078
 31
0.0
  0
LINE
  8
0
 10
877.918988
 20
341.000078
 30
0.0
 11
877.830954
 21
340.884863
 31
0.0
  0
LINE
  8
0
 10
877.918988
 20
341.000078
 30
0.0
 11
877.988116
 21
341.111319
 31
0.0
  0
LINE
  8
0
 10
877.988116
 20
341.111319
 30
0.0
 11
877.918988
 21
341.000078
 31
0.0
  0
LINE
  8
0
 10
877.988116
 20
341.111319
 30
0.0
 11
878.06102
 21
341.218787
 31
0.0
  0
LINE
  8
0
 10
878.06102
 20
341.218787
 30
0.0
 11
877.988116
 21
341.111319
 31
0.0
  0
LINE
  8
0
 10
878.06102
 20
341.218787
 30
0.0
 11
878.14167
 21
341.32248
 31
0.0
  0
LINE
  8
0
 10
878.14167
 20
341.32248
 30
0.0
 11
878.06102
 21
341.218787
 31
0.0
  0
LINE
  8
0
 10
878.14167
 20
341.32248
 30
0.0
 11
878.226095
 21
341.422201
 31
0.0
  0
LINE
  8
0
 10
878.226095
 20
341.422201
 30
0.0
 11
878.14167
 21
341.32248
 31
0.0
  0
LINE
  8
0
 10
878.226095
 20
341.422201
 30
0.0
 11
878.31628
 21
341.51616
 31
0.0
  0
LINE
  8
0
 10
878.31628
 20
341.51616
 30
0.0
 11
878.226095
 21
341.422201
 31
0.0
  0
LINE
  8
0
 10
868.529677
 20
349.549612
 30
0.0
 11
868.61589
 21
349.561133
 31
0.0
  0
LINE
  8
0
 10
868.61589
 20
349.561133
 30
0.0
 11
868.704287
 21
349.564907
 31
0.0
  0
LINE
  8
0
 10
868.529677
 20
349.549612
 30
0.0
 11
868.445253
 21
349.53233
 31
0.0
  0
LINE
  8
0
 10
868.445253
 20
349.53233
 30
0.0
 11
868.362616
 21
349.505314
 31
0.0
  0
LINE
  8
0
 10
868.362616
 20
349.505314
 30
0.0
 11
868.281965
 21
349.472736
 31
0.0
  0
LINE
  8
0
 10
868.281965
 20
349.472736
 30
0.0
 11
868.205288
 21
349.43241
 31
0.0
  0
LINE
  8
0
 10
868.205288
 20
349.43241
 30
0.0
 11
868.130398
 21
349.384537
 31
0.0
  0
LINE
  8
0
 10
868.130398
 20
349.384537
 30
0.0
 11
868.06127
 21
349.33269
 31
0.0
  0
LINE
  8
0
 10
868.06127
 20
349.33269
 30
0.0
 11
867.9981
 21
349.273096
 31
0.0
  0
LINE
  8
0
 10
867.9981
 20
349.273096
 30
0.0
 11
867.938506
 21
349.209927
 31
0.0
  0
LINE
  8
0
 10
867.938506
 20
349.209927
 30
0.0
 11
867.88666
 21
349.140798
 31
0.0
  0
LINE
  8
0
 10
867.88666
 20
349.140798
 30
0.0
 11
867.838786
 21
349.065908
 31
0.0
  0
LINE
  8
0
 10
867.838786
 20
349.065908
 30
0.0
 11
867.798461
 21
348.989231
 31
0.0
  0
LINE
  8
0
 10
867.798461
 20
348.989231
 30
0.0
 11
867.765883
 21
348.90858
 31
0.0
  0
LINE
  8
0
 10
867.765883
 20
348.90858
 30
0.0
 11
867.738867
 21
348.825944
 31
0.0
  0
LINE
  8
0
 10
867.738867
 20
348.825944
 30
0.0
 11
867.721585
 21
348.741519
 31
0.0
  0
LINE
  8
0
 10
867.721585
 20
348.741519
 30
0.0
 11
867.710063
 21
348.655307
 31
0.0
  0
LINE
  8
0
 10
867.710063
 20
348.655307
 30
0.0
 11
867.706289
 21
348.566909
 31
0.0
  0
LINE
  8
0
 10
868.61589
 20
349.561133
 30
0.0
 11
868.704287
 21
349.564907
 31
0.0
  0
LINE
  8
0
 10
868.61589
 20
349.561133
 30
0.0
 11
868.529677
 21
349.549612
 31
0.0
  0
LINE
  8
0
 10
868.529677
 20
349.549612
 30
0.0
 11
868.445253
 21
349.53233
 31
0.0
  0
LINE
  8
0
 10
868.445253
 20
349.53233
 30
0.0
 11
868.362616
 21
349.505314
 31
0.0
  0
LINE
  8
0
 10
868.362616
 20
349.505314
 30
0.0
 11
868.281965
 21
349.472736
 31
0.0
  0
LINE
  8
0
 10
868.281965
 20
349.472736
 30
0.0
 11
868.205288
 21
349.43241
 31
0.0
  0
LINE
  8
0
 10
868.205288
 20
349.43241
 30
0.0
 11
868.130398
 21
349.384537
 31
0.0
  0
LINE
  8
0
 10
868.130398
 20
349.384537
 30
0.0
 11
868.06127
 21
349.33269
 31
0.0
  0
LINE
  8
0
 10
868.06127
 20
349.33269
 30
0.0
 11
867.9981
 21
349.273096
 31
0.0
  0
LINE
  8
0
 10
867.9981
 20
349.273096
 30
0.0
 11
867.938506
 21
349.209927
 31
0.0
  0
LINE
  8
0
 10
867.938506
 20
349.209927
 30
0.0
 11
867.88666
 21
349.140798
 31
0.0
  0
LINE
  8
0
 10
867.88666
 20
349.140798
 30
0.0
 11
867.838786
 21
349.065908
 31
0.0
  0
LINE
  8
0
 10
867.838786
 20
349.065908
 30
0.0
 11
867.798461
 21
348.989231
 31
0.0
  0
LINE
  8
0
 10
867.798461
 20
348.989231
 30
0.0
 11
867.765883
 21
348.90858
 31
0.0
  0
LINE
  8
0
 10
867.765883
 20
348.90858
 30
0.0
 11
867.738867
 21
348.825944
 31
0.0
  0
LINE
  8
0
 10
867.738867
 20
348.825944
 30
0.0
 11
867.721585
 21
348.741519
 31
0.0
  0
LINE
  8
0
 10
867.721585
 20
348.741519
 30
0.0
 11
867.710063
 21
348.655307
 31
0.0
  0
LINE
  8
0
 10
867.710063
 20
348.655307
 30
0.0
 11
867.706289
 21
348.566909
 31
0.0
  0
LINE
  8
0
 10
867.706289
 20
345.987687
 30
0.0
 11
867.710063
 21
345.901275
 31
0.0
  0
LINE
  8
0
 10
867.710063
 20
345.901275
 30
0.0
 11
867.721585
 21
345.815063
 31
0.0
  0
LINE
  8
0
 10
867.721585
 20
345.815063
 30
0.0
 11
867.738867
 21
345.73044
 31
0.0
  0
LINE
  8
0
 10
867.738867
 20
345.73044
 30
0.0
 11
867.765883
 21
345.646015
 31
0.0
  0
LINE
  8
0
 10
867.765883
 20
345.646015
 30
0.0
 11
867.798461
 21
345.565563
 31
0.0
  0
LINE
  8
0
 10
867.798461
 20
345.565563
 30
0.0
 11
867.838786
 21
345.488687
 31
0.0
  0
LINE
  8
0
 10
867.838786
 20
345.488687
 30
0.0
 11
867.88666
 21
345.415784
 31
0.0
  0
LINE
  8
0
 10
867.88666
 20
345.415784
 30
0.0
 11
867.938506
 21
345.346655
 31
0.0
  0
LINE
  8
0
 10
867.938506
 20
345.346655
 30
0.0
 11
867.9981
 21
345.281499
 31
0.0
  0
LINE
  8
0
 10
867.710063
 20
345.901275
 30
0.0
 11
867.706289
 21
345.987687
 31
0.0
  0
LINE
  8
0
 10
867.710063
 20
345.901275
 30
0.0
 11
867.721585
 21
345.815063
 31
0.0
  0
LINE
  8
0
 10
867.721585
 20
345.815063
 30
0.0
 11
867.738867
 21
345.73044
 31
0.0
  0
LINE
  8
0
 10
867.738867
 20
345.73044
 30
0.0
 11
867.765883
 21
345.646015
 31
0.0
  0
LINE
  8
0
 10
867.765883
 20
345.646015
 30
0.0
 11
867.798461
 21
345.565563
 31
0.0
  0
LINE
  8
0
 10
867.798461
 20
345.565563
 30
0.0
 11
867.838786
 21
345.488687
 31
0.0
  0
LINE
  8
0
 10
867.838786
 20
345.488687
 30
0.0
 11
867.88666
 21
345.415784
 31
0.0
  0
LINE
  8
0
 10
867.88666
 20
345.415784
 30
0.0
 11
867.938506
 21
345.346655
 31
0.0
  0
LINE
  8
0
 10
867.938506
 20
345.346655
 30
0.0
 11
867.9981
 21
345.281499
 31
0.0
  0
LINE
  8
0
 10
871.76324
 20
341.51616
 30
0.0
 11
871.853426
 21
341.422201
 31
0.0
  0
LINE
  8
0
 10
871.853426
 20
341.422201
 30
0.0
 11
871.76324
 21
341.51616
 31
0.0
  0
LINE
  8
0
 10
871.853426
 20
341.422201
 30
0.0
 11
871.93785
 21
341.32248
 31
0.0
  0
LINE
  8
0
 10
871.93785
 20
341.32248
 30
0.0
 11
871.853426
 21
341.422201
 31
0.0
  0
LINE
  8
0
 10
871.93785
 20
341.32248
 30
0.0
 11
872.018501
 21
341.218787
 31
0.0
  0
LINE
  8
0
 10
872.018501
 20
341.218787
 30
0.0
 11
871.93785
 21
341.32248
 31
0.0
  0
LINE
  8
0
 10
872.018501
 20
341.218787
 30
0.0
 11
872.091404
 21
341.111319
 31
0.0
  0
LINE
  8
0
 10
872.091404
 20
341.111319
 30
0.0
 11
872.018501
 21
341.218787
 31
0.0
  0
LINE
  8
0
 10
872.091404
 20
341.111319
 30
0.0
 11
872.160533
 21
341.000078
 31
0.0
  0
LINE
  8
0
 10
872.160533
 20
341.000078
 30
0.0
 11
872.091404
 21
341.111319
 31
0.0
  0
LINE
  8
0
 10
872.160533
 20
341.000078
 30
0.0
 11
872.221914
 21
340.884863
 31
0.0
  0
LINE
  8
0
 10
872.221914
 20
340.884863
 30
0.0
 11
872.160533
 21
341.000078
 31
0.0
  0
LINE
  8
0
 10
872.221914
 20
340.884863
 30
0.0
 11
872.279522
 21
340.76786
 31
0.0
  0
LINE
  8
0
 10
872.279522
 20
340.76786
 30
0.0
 11
872.221914
 21
340.884863
 31
0.0
  0
LINE
  8
0
 10
872.279522
 20
340.76786
 30
0.0
 11
872.329382
 21
340.646885
 31
0.0
  0
LINE
  8
0
 10
872.329382
 20
340.646885
 30
0.0
 11
872.279522
 21
340.76786
 31
0.0
  0
LINE
  8
0
 10
872.329382
 20
340.646885
 30
0.0
 11
872.371694
 21
340.524121
 31
0.0
  0
LINE
  8
0
 10
872.371694
 20
340.524121
 30
0.0
 11
872.329382
 21
340.646885
 31
0.0
  0
LINE
  8
0
 10
872.371694
 20
340.524121
 30
0.0
 11
872.410032
 21
340.397385
 31
0.0
  0
LINE
  8
0
 10
872.410032
 20
340.397385
 30
0.0
 11
872.371694
 21
340.524121
 31
0.0
  0
LINE
  8
0
 10
872.410032
 20
340.397385
 30
0.0
 11
872.440624
 21
340.270649
 31
0.0
  0
LINE
  8
0
 10
872.440624
 20
340.270649
 30
0.0
 11
872.410032
 21
340.397385
 31
0.0
  0
LINE
  8
0
 10
872.440624
 20
340.270649
 30
0.0
 11
872.463667
 21
340.142125
 31
0.0
  0
LINE
  8
0
 10
872.463667
 20
340.142125
 30
0.0
 11
872.440624
 21
340.270649
 31
0.0
  0
LINE
  8
0
 10
872.463667
 20
340.142125
 30
0.0
 11
872.480949
 21
340.013601
 31
0.0
  0
LINE
  8
0
 10
872.480949
 20
340.013601
 30
0.0
 11
872.463667
 21
340.142125
 31
0.0
  0
LINE
  8
0
 10
872.480949
 20
340.013601
 30
0.0
 11
872.490683
 21
339.88309
 31
0.0
  0
LINE
  8
0
 10
872.490683
 20
339.88309
 30
0.0
 11
872.480949
 21
340.013601
 31
0.0
  0
LINE
  8
0
 10
872.490683
 20
339.88309
 30
0.0
 11
872.494457
 21
339.752579
 31
0.0
  0
LINE
  8
0
 10
872.494457
 20
339.752579
 30
0.0
 11
872.490683
 21
339.88309
 31
0.0
  0
LINE
  8
0
 10
872.494457
 20
306.874844
 30
0.0
 11
872.498231
 21
306.788433
 31
0.0
  0
LINE
  8
0
 10
872.498231
 20
306.788433
 30
0.0
 11
872.509753
 21
306.702022
 31
0.0
  0
LINE
  8
0
 10
872.509753
 20
306.702022
 30
0.0
 11
872.529021
 21
306.617597
 31
0.0
  0
LINE
  8
0
 10
872.529021
 20
306.617597
 30
0.0
 11
872.553852
 21
306.535159
 31
0.0
  0
LINE
  8
0
 10
872.553852
 20
306.535159
 30
0.0
 11
872.588417
 21
306.454509
 31
0.0
  0
LINE
  8
0
 10
872.588417
 20
306.454509
 30
0.0
 11
872.628742
 21
306.375845
 31
0.0
  0
LINE
  8
0
 10
872.628742
 20
306.375845
 30
0.0
 11
872.588417
 21
306.454509
 31
0.0
  0
LINE
  8
0
 10
872.588417
 20
306.454509
 30
0.0
 11
872.553852
 21
306.535159
 31
0.0
  0
LINE
  8
0
 10
872.553852
 20
306.535159
 30
0.0
 11
872.529021
 21
306.617597
 31
0.0
  0
LINE
  8
0
 10
872.529021
 20
306.617597
 30
0.0
 11
872.509753
 21
306.702022
 31
0.0
  0
LINE
  8
0
 10
872.509753
 20
306.702022
 30
0.0
 11
872.498231
 21
306.788433
 31
0.0
  0
LINE
  8
0
 10
872.498231
 20
306.788433
 30
0.0
 11
872.494457
 21
306.874844
 31
0.0
  0
LINE
  8
0
 10
877.347781
 20
306.375845
 30
0.0
 11
877.388106
 21
306.454509
 31
0.0
  0
LINE
  8
0
 10
877.388106
 20
306.454509
 30
0.0
 11
877.422671
 21
306.535159
 31
0.0
  0
LINE
  8
0
 10
877.422671
 20
306.535159
 30
0.0
 11
877.447501
 21
306.617597
 31
0.0
  0
LINE
  8
0
 10
877.447501
 20
306.617597
 30
0.0
 11
877.46677
 21
306.702022
 31
0.0
  0
LINE
  8
0
 10
877.46677
 20
306.702022
 30
0.0
 11
877.478292
 21
306.788433
 31
0.0
  0
LINE
  8
0
 10
877.478292
 20
306.788433
 30
0.0
 11
877.482066
 21
306.874844
 31
0.0
  0
LINE
  8
0
 10
877.482066
 20
306.874844
 30
0.0
 11
877.478292
 21
306.788433
 31
0.0
  0
LINE
  8
0
 10
877.478292
 20
306.788433
 30
0.0
 11
877.46677
 21
306.702022
 31
0.0
  0
LINE
  8
0
 10
877.46677
 20
306.702022
 30
0.0
 11
877.447501
 21
306.617597
 31
0.0
  0
LINE
  8
0
 10
877.447501
 20
306.617597
 30
0.0
 11
877.422671
 21
306.535159
 31
0.0
  0
LINE
  8
0
 10
877.422671
 20
306.535159
 30
0.0
 11
877.388106
 21
306.454509
 31
0.0
  0
LINE
  8
0
 10
877.388106
 20
306.454509
 30
0.0
 11
877.347781
 21
306.375845
 31
0.0
  0
LINE
  8
0
 10
879.473593
 20
347.363709
 30
0.0
 11
879.413999
 21
347.427077
 31
0.0
  0
LINE
  8
0
 10
879.413999
 20
347.427077
 30
0.0
 11
879.473593
 21
347.363709
 31
0.0
  0
LINE
  8
0
 10
879.413999
 20
347.427077
 30
0.0
 11
879.362152
 21
347.496007
 31
0.0
  0
LINE
  8
0
 10
879.362152
 20
347.496007
 30
0.0
 11
879.413999
 21
347.427077
 31
0.0
  0
LINE
  8
0
 10
879.362152
 20
347.496007
 30
0.0
 11
879.314278
 21
347.570897
 31
0.0
  0
LINE
  8
0
 10
879.314278
 20
347.570897
 30
0.0
 11
879.362152
 21
347.496007
 31
0.0
  0
LINE
  8
0
 10
879.314278
 20
347.570897
 30
0.0
 11
879.27594
 21
347.647773
 31
0.0
  0
LINE
  8
0
 10
879.27594
 20
347.647773
 30
0.0
 11
879.314278
 21
347.570897
 31
0.0
  0
LINE
  8
0
 10
879.27594
 20
347.647773
 30
0.0
 11
879.241375
 21
347.728225
 31
0.0
  0
LINE
  8
0
 10
879.241375
 20
347.728225
 30
0.0
 11
879.27594
 21
347.647773
 31
0.0
  0
LINE
  8
0
 10
879.241375
 20
347.728225
 30
0.0
 11
879.216346
 21
347.810861
 31
0.0
  0
LINE
  8
0
 10
879.216346
 20
347.810861
 30
0.0
 11
879.241375
 21
347.728225
 31
0.0
  0
LINE
  8
0
 10
879.216346
 20
347.810861
 30
0.0
 11
879.197276
 21
347.895286
 31
0.0
  0
LINE
  8
0
 10
879.197276
 20
347.895286
 30
0.0
 11
879.216346
 21
347.810861
 31
0.0
  0
LINE
  8
0
 10
879.197276
 20
347.895286
 30
0.0
 11
879.185754
 21
347.981697
 31
0.0
  0
LINE
  8
0
 10
879.185754
 20
347.981697
 30
0.0
 11
879.197276
 21
347.895286
 31
0.0
  0
LINE
  8
0
 10
879.185754
 20
347.981697
 30
0.0
 11
879.181781
 21
348.06791
 31
0.0
  0
LINE
  8
0
 10
879.181781
 20
348.06791
 30
0.0
 11
879.185754
 21
347.981697
 31
0.0
  0
LINE
  8
0
 10
879.181781
 20
348.06791
 30
0.0
 11
879.185754
 21
348.156307
 31
0.0
  0
LINE
  8
0
 10
879.185754
 20
348.156307
 30
0.0
 11
879.181781
 21
348.06791
 31
0.0
  0
LINE
  8
0
 10
879.185754
 20
348.156307
 30
0.0
 11
879.197276
 21
348.242718
 31
0.0
  0
LINE
  8
0
 10
879.197276
 20
348.242718
 30
0.0
 11
879.185754
 21
348.156307
 31
0.0
  0
LINE
  8
0
 10
879.197276
 20
348.242718
 30
0.0
 11
879.216346
 21
348.327143
 31
0.0
  0
LINE
  8
0
 10
879.216346
 20
348.327143
 30
0.0
 11
879.197276
 21
348.242718
 31
0.0
  0
LINE
  8
0
 10
879.216346
 20
348.327143
 30
0.0
 11
879.241375
 21
348.409581
 31
0.0
  0
LINE
  8
0
 10
879.241375
 20
348.409581
 30
0.0
 11
879.216346
 21
348.327143
 31
0.0
  0
LINE
  8
0
 10
879.241375
 20
348.409581
 30
0.0
 11
879.27594
 21
348.490232
 31
0.0
  0
LINE
  8
0
 10
879.27594
 20
348.490232
 30
0.0
 11
879.241375
 21
348.409581
 31
0.0
  0
LINE
  8
0
 10
879.27594
 20
348.490232
 30
0.0
 11
879.314278
 21
348.566909
 31
0.0
  0
LINE
  8
0
 10
879.314278
 20
348.566909
 30
0.0
 11
879.27594
 21
348.490232
 31
0.0
  0
LINE
  8
0
 10
879.314278
 20
348.566909
 30
0.0
 11
879.362152
 21
348.641799
 31
0.0
  0
LINE
  8
0
 10
879.362152
 20
348.641799
 30
0.0
 11
879.314278
 21
348.566909
 31
0.0
  0
LINE
  8
0
 10
879.362152
 20
348.641799
 30
0.0
 11
879.413999
 21
348.710927
 31
0.0
  0
LINE
  8
0
 10
879.413999
 20
348.710927
 30
0.0
 11
879.362152
 21
348.641799
 31
0.0
  0
LINE
  8
0
 10
879.413999
 20
348.710927
 30
0.0
 11
879.473593
 21
348.774296
 31
0.0
  0
LINE
  8
0
 10
879.473593
 20
348.774296
 30
0.0
 11
879.413999
 21
348.710927
 31
0.0
  0
LINE
  8
0
 10
881.375432
 20
349.564907
 30
0.0
 11
881.46363
 21
349.561133
 31
0.0
  0
LINE
  8
0
 10
881.46363
 20
349.561133
 30
0.0
 11
881.375432
 21
349.564907
 31
0.0
  0
LINE
  8
0
 10
881.46363
 20
349.561133
 30
0.0
 11
881.550042
 21
349.549612
 31
0.0
  0
LINE
  8
0
 10
881.550042
 20
349.549612
 30
0.0
 11
881.46363
 21
349.561133
 31
0.0
  0
LINE
  8
0
 10
881.550042
 20
349.549612
 30
0.0
 11
881.634466
 21
349.53233
 31
0.0
  0
LINE
  8
0
 10
881.634466
 20
349.53233
 30
0.0
 11
881.550042
 21
349.549612
 31
0.0
  0
LINE
  8
0
 10
881.634466
 20
349.53233
 30
0.0
 11
881.716904
 21
349.505314
 31
0.0
  0
LINE
  8
0
 10
881.716904
 20
349.505314
 30
0.0
 11
881.634466
 21
349.53233
 31
0.0
  0
LINE
  8
0
 10
881.716904
 20
349.505314
 30
0.0
 11
881.797555
 21
349.472736
 31
0.0
  0
LINE
  8
0
 10
881.797555
 20
349.472736
 30
0.0
 11
881.716904
 21
349.505314
 31
0.0
  0
LINE
  8
0
 10
881.797555
 20
349.472736
 30
0.0
 11
881.874232
 21
349.43241
 31
0.0
  0
LINE
  8
0
 10
881.874232
 20
349.43241
 30
0.0
 11
881.797555
 21
349.472736
 31
0.0
  0
LINE
  8
0
 10
881.874232
 20
349.43241
 30
0.0
 11
881.949122
 21
349.384537
 31
0.0
  0
LINE
  8
0
 10
881.949122
 20
349.384537
 30
0.0
 11
881.874232
 21
349.43241
 31
0.0
  0
LINE
  8
0
 10
881.949122
 20
349.384537
 30
0.0
 11
882.018251
 21
349.33269
 31
0.0
  0
LINE
  8
0
 10
882.018251
 20
349.33269
 30
0.0
 11
881.949122
 21
349.384537
 31
0.0
  0
LINE
  8
0
 10
882.018251
 20
349.33269
 30
0.0
 11
882.081619
 21
349.273096
 31
0.0
  0
LINE
  8
0
 10
882.081619
 20
349.273096
 30
0.0
 11
882.018251
 21
349.33269
 31
0.0
  0
LINE
  8
0
 10
882.081619
 20
349.273096
 30
0.0
 11
882.141014
 21
349.209927
 31
0.0
  0
LINE
  8
0
 10
882.141014
 20
349.209927
 30
0.0
 11
882.081619
 21
349.273096
 31
0.0
  0
LINE
  8
0
 10
882.141014
 20
349.209927
 30
0.0
 11
882.192861
 21
349.140798
 31
0.0
  0
LINE
  8
0
 10
882.192861
 20
349.140798
 30
0.0
 11
882.141014
 21
349.209927
 31
0.0
  0
LINE
  8
0
 10
882.192861
 20
349.140798
 30
0.0
 11
882.240933
 21
349.065908
 31
0.0
  0
LINE
  8
0
 10
882.240933
 20
349.065908
 30
0.0
 11
882.192861
 21
349.140798
 31
0.0
  0
LINE
  8
0
 10
882.240933
 20
349.065908
 30
0.0
 11
882.28106
 21
348.989231
 31
0.0
  0
LINE
  8
0
 10
882.28106
 20
348.989231
 30
0.0
 11
882.240933
 21
349.065908
 31
0.0
  0
LINE
  8
0
 10
882.28106
 20
348.989231
 30
0.0
 11
882.313836
 21
348.90858
 31
0.0
  0
LINE
  8
0
 10
882.313836
 20
348.90858
 30
0.0
 11
882.28106
 21
348.989231
 31
0.0
  0
LINE
  8
0
 10
882.313836
 20
348.90858
 30
0.0
 11
882.340653
 21
348.825944
 31
0.0
  0
LINE
  8
0
 10
882.340653
 20
348.825944
 30
0.0
 11
882.313836
 21
348.90858
 31
0.0
  0
LINE
  8
0
 10
882.340653
 20
348.825944
 30
0.0
 11
882.357936
 21
348.741519
 31
0.0
  0
LINE
  8
0
 10
882.357936
 20
348.741519
 30
0.0
 11
882.340653
 21
348.825944
 31
0.0
  0
LINE
  8
0
 10
882.357936
 20
348.741519
 30
0.0
 11
882.369457
 21
348.655307
 31
0.0
  0
LINE
  8
0
 10
882.369457
 20
348.655307
 30
0.0
 11
882.357936
 21
348.741519
 31
0.0
  0
LINE
  8
0
 10
882.369457
 20
348.655307
 30
0.0
 11
882.373231
 21
348.566909
 31
0.0
  0
LINE
  8
0
 10
882.373231
 20
348.566909
 30
0.0
 11
882.369457
 21
348.655307
 31
0.0
  0
LINE
  8
0
 10
882.373231
 20
345.987687
 30
0.0
 11
882.369457
 21
345.901275
 31
0.0
  0
LINE
  8
0
 10
882.369457
 20
345.901275
 30
0.0
 11
882.373231
 21
345.987687
 31
0.0
  0
LINE
  8
0
 10
882.369457
 20
345.901275
 30
0.0
 11
882.357936
 21
345.815063
 31
0.0
  0
LINE
  8
0
 10
882.357936
 20
345.815063
 30
0.0
 11
882.369457
 21
345.901275
 31
0.0
  0
LINE
  8
0
 10
882.357936
 20
345.815063
 30
0.0
 11
882.340653
 21
345.73044
 31
0.0
  0
LINE
  8
0
 10
882.340653
 20
345.73044
 30
0.0
 11
882.357936
 21
345.815063
 31
0.0
  0
LINE
  8
0
 10
882.340653
 20
345.73044
 30
0.0
 11
882.313836
 21
345.646015
 31
0.0
  0
LINE
  8
0
 10
882.313836
 20
345.646015
 30
0.0
 11
882.340653
 21
345.73044
 31
0.0
  0
LINE
  8
0
 10
882.313836
 20
345.646015
 30
0.0
 11
882.28106
 21
345.565563
 31
0.0
  0
LINE
  8
0
 10
882.28106
 20
345.565563
 30
0.0
 11
882.313836
 21
345.646015
 31
0.0
  0
LINE
  8
0
 10
882.28106
 20
345.565563
 30
0.0
 11
882.240933
 21
345.488687
 31
0.0
  0
LINE
  8
0
 10
882.240933
 20
345.488687
 30
0.0
 11
882.28106
 21
345.565563
 31
0.0
  0
LINE
  8
0
 10
882.240933
 20
345.488687
 30
0.0
 11
882.192861
 21
345.415784
 31
0.0
  0
LINE
  8
0
 10
882.192861
 20
345.415784
 30
0.0
 11
882.240933
 21
345.488687
 31
0.0
  0
LINE
  8
0
 10
882.192861
 20
345.415784
 30
0.0
 11
882.141014
 21
345.346655
 31
0.0
  0
LINE
  8
0
 10
882.141014
 20
345.346655
 30
0.0
 11
882.192861
 21
345.415784
 31
0.0
  0
LINE
  8
0
 10
882.141014
 20
345.346655
 30
0.0
 11
882.081619
 21
345.281499
 31
0.0
  0
LINE
  8
0
 10
882.081619
 20
345.281499
 30
0.0
 11
882.141014
 21
345.346655
 31
0.0
  0
LINE
  8
0
 10
881.041507
 20
346.499995
 30
0.0
 11
881.081634
 21
346.546081
 31
0.0
  0
LINE
  8
0
 10
881.081634
 20
346.546081
 30
0.0
 11
881.116198
 21
346.594153
 31
0.0
  0
LINE
  8
0
 10
881.116198
 20
346.594153
 30
0.0
 11
881.145002
 21
346.647788
 31
0.0
  0
LINE
  8
0
 10
881.145002
 20
346.647788
 30
0.0
 11
881.166058
 21
346.705395
 31
0.0
  0
LINE
  8
0
 10
881.166058
 20
346.705395
 30
0.0
 11
881.179566
 21
346.763003
 31
0.0
  0
LINE
  8
0
 10
881.179566
 20
346.763003
 30
0.0
 11
881.187314
 21
346.822398
 31
0.0
  0
LINE
  8
0
 10
881.187314
 20
346.822398
 30
0.0
 11
881.187314
 21
346.883978
 31
0.0
  0
LINE
  8
0
 10
881.187314
 20
346.883978
 30
0.0
 11
881.179566
 21
346.943373
 31
0.0
  0
LINE
  8
0
 10
881.179566
 20
346.943373
 30
0.0
 11
881.166058
 21
347.000981
 31
0.0
  0
LINE
  8
0
 10
881.166058
 20
347.000981
 30
0.0
 11
881.145002
 21
347.058588
 31
0.0
  0
LINE
  8
0
 10
881.145002
 20
347.058588
 30
0.0
 11
881.116198
 21
347.110435
 31
0.0
  0
LINE
  8
0
 10
881.116198
 20
347.110435
 30
0.0
 11
881.081634
 21
347.160295
 31
0.0
  0
LINE
  8
0
 10
881.081634
 20
347.160295
 30
0.0
 11
881.041507
 21
347.206381
 31
0.0
  0
LINE
  8
0
 10
881.041507
 20
347.206381
 30
0.0
 11
881.081634
 21
347.160295
 31
0.0
  0
LINE
  8
0
 10
881.081634
 20
347.160295
 30
0.0
 11
881.116198
 21
347.110435
 31
0.0
  0
LINE
  8
0
 10
881.116198
 20
347.110435
 30
0.0
 11
881.145002
 21
347.058588
 31
0.0
  0
LINE
  8
0
 10
881.145002
 20
347.058588
 30
0.0
 11
881.166058
 21
347.000981
 31
0.0
  0
LINE
  8
0
 10
881.166058
 20
347.000981
 30
0.0
 11
881.179566
 21
346.943373
 31
0.0
  0
LINE
  8
0
 10
881.179566
 20
346.943373
 30
0.0
 11
881.187314
 21
346.883978
 31
0.0
  0
LINE
  8
0
 10
881.187314
 20
346.883978
 30
0.0
 11
881.187314
 21
346.822398
 31
0.0
  0
LINE
  8
0
 10
881.187314
 20
346.822398
 30
0.0
 11
881.179566
 21
346.763003
 31
0.0
  0
LINE
  8
0
 10
881.179566
 20
346.763003
 30
0.0
 11
881.166058
 21
346.705395
 31
0.0
  0
LINE
  8
0
 10
881.166058
 20
346.705395
 30
0.0
 11
881.145002
 21
346.647788
 31
0.0
  0
LINE
  8
0
 10
881.145002
 20
346.647788
 30
0.0
 11
881.116198
 21
346.594153
 31
0.0
  0
LINE
  8
0
 10
881.116198
 20
346.594153
 30
0.0
 11
881.081634
 21
346.546081
 31
0.0
  0
LINE
  8
0
 10
881.081634
 20
346.546081
 30
0.0
 11
881.041507
 21
346.499995
 31
0.0
  0
LINE
  8
0
 10
881.041507
 20
346.499995
 30
0.0
 11
880.997209
 21
346.459869
 31
0.0
  0
LINE
  8
0
 10
880.997209
 20
346.459869
 30
0.0
 11
881.041507
 21
346.499995
 31
0.0
  0
LINE
  8
0
 10
880.997209
 20
346.459869
 30
0.0
 11
880.947349
 21
346.425304
 31
0.0
  0
LINE
  8
0
 10
880.947349
 20
346.425304
 30
0.0
 11
880.997209
 21
346.459869
 31
0.0
  0
LINE
  8
0
 10
880.947349
 20
346.425304
 30
0.0
 11
880.893714
 21
346.398288
 31
0.0
  0
LINE
  8
0
 10
880.893714
 20
346.398288
 30
0.0
 11
880.947349
 21
346.425304
 31
0.0
  0
LINE
  8
0
 10
880.893714
 20
346.398288
 30
0.0
 11
880.837895
 21
346.377232
 31
0.0
  0
LINE
  8
0
 10
880.837895
 20
346.377232
 30
0.0
 11
880.893714
 21
346.398288
 31
0.0
  0
LINE
  8
0
 10
880.837895
 20
346.377232
 30
0.0
 11
880.7785
 21
346.361936
 31
0.0
  0
LINE
  8
0
 10
880.7785
 20
346.361936
 30
0.0
 11
880.837895
 21
346.377232
 31
0.0
  0
LINE
  8
0
 10
880.7785
 20
346.361936
 30
0.0
 11
880.719104
 21
346.354189
 31
0.0
  0
LINE
  8
0
 10
880.719104
 20
346.354189
 30
0.0
 11
880.7785
 21
346.361936
 31
0.0
  0
LINE
  8
0
 10
880.719104
 20
346.354189
 30
0.0
 11
880.659511
 21
346.354189
 31
0.0
  0
LINE
  8
0
 10
880.659511
 20
346.354189
 30
0.0
 11
880.719104
 21
346.354189
 31
0.0
  0
LINE
  8
0
 10
880.659511
 20
346.354189
 30
0.0
 11
880.600115
 21
346.361936
 31
0.0
  0
LINE
  8
0
 10
880.600115
 20
346.361936
 30
0.0
 11
880.659511
 21
346.354189
 31
0.0
  0
LINE
  8
0
 10
880.600115
 20
346.361936
 30
0.0
 11
880.540522
 21
346.377232
 31
0.0
  0
LINE
  8
0
 10
880.540522
 20
346.377232
 30
0.0
 11
880.600115
 21
346.361936
 31
0.0
  0
LINE
  8
0
 10
880.540522
 20
346.377232
 30
0.0
 11
880.484901
 21
346.398288
 31
0.0
  0
LINE
  8
0
 10
880.484901
 20
346.398288
 30
0.0
 11
880.540522
 21
346.377232
 31
0.0
  0
LINE
  8
0
 10
880.484901
 20
346.398288
 30
0.0
 11
880.431067
 21
346.425304
 31
0.0
  0
LINE
  8
0
 10
880.431067
 20
346.425304
 30
0.0
 11
880.484901
 21
346.398288
 31
0.0
  0
LINE
  8
0
 10
880.431067
 20
346.425304
 30
0.0
 11
880.381207
 21
346.459869
 31
0.0
  0
LINE
  8
0
 10
880.381207
 20
346.459869
 30
0.0
 11
880.431067
 21
346.425304
 31
0.0
  0
LINE
  8
0
 10
880.381207
 20
346.459869
 30
0.0
 11
880.337108
 21
346.499995
 31
0.0
  0
LINE
  8
0
 10
880.337108
 20
346.499995
 30
0.0
 11
880.381207
 21
346.459869
 31
0.0
  0
LINE
  8
0
 10
876.819481
 20
342.136135
 30
0.0
 11
876.74156
 21
342.041977
 31
0.0
  0
LINE
  8
0
 10
876.74156
 20
342.041977
 30
0.0
 11
876.660943
 21
341.942257
 31
0.0
  0
LINE
  8
0
 10
876.660943
 20
341.942257
 30
0.0
 11
876.583866
 21
341.838563
 31
0.0
  0
LINE
  8
0
 10
876.583866
 20
341.838563
 30
0.0
 11
876.510616
 21
341.731096
 31
0.0
  0
LINE
  8
0
 10
876.510616
 20
341.731096
 30
0.0
 11
876.441331
 21
341.619854
 31
0.0
  0
LINE
  8
0
 10
876.441331
 20
341.619854
 30
0.0
 11
876.376061
 21
341.504639
 31
0.0
  0
LINE
  8
0
 10
876.376061
 20
341.504639
 30
0.0
 11
876.316073
 21
341.387636
 31
0.0
  0
LINE
  8
0
 10
876.316073
 20
341.387636
 30
0.0
 11
876.260303
 21
341.266661
 31
0.0
  0
LINE
  8
0
 10
876.260303
 20
341.266661
 30
0.0
 11
876.209845
 21
341.143897
 31
0.0
  0
LINE
  8
0
 10
876.209845
 20
341.143897
 30
0.0
 11
876.163976
 21
341.01736
 31
0.0
  0
LINE
  8
0
 10
876.163976
 20
341.01736
 30
0.0
 11
876.124005
 21
340.890624
 31
0.0
  0
LINE
  8
0
 10
876.124005
 20
340.890624
 30
0.0
 11
876.089331
 21
340.762099
 31
0.0
  0
LINE
  8
0
 10
876.089331
 20
340.762099
 30
0.0
 11
876.060322
 21
340.633377
 31
0.0
  0
LINE
  8
0
 10
876.060322
 20
340.633377
 30
0.0
 11
876.029279
 21
340.502866
 31
0.0
  0
LINE
  8
0
 10
876.029279
 20
340.502866
 30
0.0
 11
875.996683
 21
340.372356
 31
0.0
  0
LINE
  8
0
 10
875.996683
 20
340.372356
 30
0.0
 11
876.029279
 21
340.502866
 31
0.0
  0
LINE
  8
0
 10
876.029279
 20
340.502866
 30
0.0
 11
876.060322
 21
340.633377
 31
0.0
  0
LINE
  8
0
 10
876.060322
 20
340.633377
 30
0.0
 11
876.089331
 21
340.762099
 31
0.0
  0
LINE
  8
0
 10
876.089331
 20
340.762099
 30
0.0
 11
876.124005
 21
340.890624
 31
0.0
  0
LINE
  8
0
 10
876.124005
 20
340.890624
 30
0.0
 11
876.163976
 21
341.01736
 31
0.0
  0
LINE
  8
0
 10
876.163976
 20
341.01736
 30
0.0
 11
876.209845
 21
341.143897
 31
0.0
  0
LINE
  8
0
 10
876.209845
 20
341.143897
 30
0.0
 11
876.260303
 21
341.266661
 31
0.0
  0
LINE
  8
0
 10
876.260303
 20
341.266661
 30
0.0
 11
876.316073
 21
341.387636
 31
0.0
  0
LINE
  8
0
 10
876.316073
 20
341.387636
 30
0.0
 11
876.376061
 21
341.504639
 31
0.0
  0
LINE
  8
0
 10
876.376061
 20
341.504639
 30
0.0
 11
876.441331
 21
341.619854
 31
0.0
  0
LINE
  8
0
 10
876.441331
 20
341.619854
 30
0.0
 11
876.510616
 21
341.731096
 31
0.0
  0
LINE
  8
0
 10
876.510616
 20
341.731096
 30
0.0
 11
876.583866
 21
341.838563
 31
0.0
  0
LINE
  8
0
 10
876.583866
 20
341.838563
 30
0.0
 11
876.660943
 21
341.942257
 31
0.0
  0
LINE
  8
0
 10
876.660943
 20
341.942257
 30
0.0
 11
876.74156
 21
342.041977
 31
0.0
  0
LINE
  8
0
 10
876.74156
 20
342.041977
 30
0.0
 11
876.819481
 21
342.136135
 31
0.0
  0
LINE
  8
0
 10
873.260238
 20
342.136135
 30
0.0
 11
873.350423
 21
342.041977
 31
0.0
  0
LINE
  8
0
 10
873.350423
 20
342.041977
 30
0.0
 11
873.260238
 21
342.136135
 31
0.0
  0
LINE
  8
0
 10
873.350423
 20
342.041977
 30
0.0
 11
873.434848
 21
341.942257
 31
0.0
  0
LINE
  8
0
 10
873.434848
 20
341.942257
 30
0.0
 11
873.350423
 21
342.041977
 31
0.0
  0
LINE
  8
0
 10
873.434848
 20
341.942257
 30
0.0
 11
873.513512
 21
341.838563
 31
0.0
  0
LINE
  8
0
 10
873.513512
 20
341.838563
 30
0.0
 11
873.434848
 21
341.942257
 31
0.0
  0
LINE
  8
0
 10
873.513512
 20
341.838563
 30
0.0
 11
873.588402
 21
341.731096
 31
0.0
  0
LINE
  8
0
 10
873.588402
 20
341.731096
 30
0.0
 11
873.513512
 21
341.838563
 31
0.0
  0
LINE
  8
0
 10
873.588402
 20
341.731096
 30
0.0
 11
873.657332
 21
341.619854
 31
0.0
  0
LINE
  8
0
 10
873.657332
 20
341.619854
 30
0.0
 11
873.588402
 21
341.731096
 31
0.0
  0
LINE
  8
0
 10
873.657332
 20
341.619854
 30
0.0
 11
873.718912
 21
341.504639
 31
0.0
  0
LINE
  8
0
 10
873.718912
 20
341.504639
 30
0.0
 11
873.657332
 21
341.619854
 31
0.0
  0
LINE
  8
0
 10
873.718912
 20
341.504639
 30
0.0
 11
873.774533
 21
341.387636
 31
0.0
  0
LINE
  8
0
 10
873.774533
 20
341.387636
 30
0.0
 11
873.718912
 21
341.504639
 31
0.0
  0
LINE
  8
0
 10
873.774533
 20
341.387636
 30
0.0
 11
873.824393
 21
341.266661
 31
0.0
  0
LINE
  8
0
 10
873.824393
 20
341.266661
 30
0.0
 11
873.774533
 21
341.387636
 31
0.0
  0
LINE
  8
0
 10
873.824393
 20
341.266661
 30
0.0
 11
873.868493
 21
341.143897
 31
0.0
  0
LINE
  8
0
 10
873.868493
 20
341.143897
 30
0.0
 11
873.824393
 21
341.266661
 31
0.0
  0
LINE
  8
0
 10
873.868493
 20
341.143897
 30
0.0
 11
873.905044
 21
341.01736
 31
0.0
  0
LINE
  8
0
 10
873.905044
 20
341.01736
 30
0.0
 11
873.868493
 21
341.143897
 31
0.0
  0
LINE
  8
0
 10
873.905044
 20
341.01736
 30
0.0
 11
873.935635
 21
340.890624
 31
0.0
  0
LINE
  8
0
 10
873.935635
 20
340.890624
 30
0.0
 11
873.905044
 21
341.01736
 31
0.0
  0
LINE
  8
0
 10
873.935635
 20
340.890624
 30
0.0
 11
873.960665
 21
340.762099
 31
0.0
  0
LINE
  8
0
 10
873.960665
 20
340.762099
 30
0.0
 11
873.935635
 21
340.890624
 31
0.0
  0
LINE
  8
0
 10
873.960665
 20
340.762099
 30
0.0
 11
873.977947
 21
340.633377
 31
0.0
  0
LINE
  8
0
 10
873.977947
 20
340.633377
 30
0.0
 11
873.960665
 21
340.762099
 31
0.0
  0
LINE
  8
0
 10
873.977947
 20
340.633377
 30
0.0
 11
873.987482
 21
340.502866
 31
0.0
  0
LINE
  8
0
 10
873.987482
 20
340.502866
 30
0.0
 11
873.977947
 21
340.633377
 31
0.0
  0
LINE
  8
0
 10
873.987482
 20
340.502866
 30
0.0
 11
873.991256
 21
340.372356
 31
0.0
  0
LINE
  8
0
 10
873.991256
 20
340.372356
 30
0.0
 11
873.987482
 21
340.502866
 31
0.0
  0
LINE
  8
0
 10
869.742412
 20
346.499995
 30
0.0
 11
869.698313
 21
346.459869
 31
0.0
  0
LINE
  8
0
 10
869.698313
 20
346.459869
 30
0.0
 11
869.742412
 21
346.499995
 31
0.0
  0
LINE
  8
0
 10
869.742412
 20
346.499995
 30
0.0
 11
870.606126
 21
347.363709
 31
0.0
  0
LINE
  8
0
 10
870.606126
 20
347.363709
 30
0.0
 11
870.665521
 21
347.427077
 31
0.0
  0
LINE
  8
0
 10
870.665521
 20
347.427077
 30
0.0
 11
870.717368
 21
347.496007
 31
0.0
  0
LINE
  8
0
 10
870.717368
 20
347.496007
 30
0.0
 11
870.76544
 21
347.570897
 31
0.0
  0
LINE
  8
0
 10
870.76544
 20
347.570897
 30
0.0
 11
870.803779
 21
347.647773
 31
0.0
  0
LINE
  8
0
 10
870.803779
 20
347.647773
 30
0.0
 11
870.838344
 21
347.728225
 31
0.0
  0
LINE
  8
0
 10
870.838344
 20
347.728225
 30
0.0
 11
870.863174
 21
347.810861
 31
0.0
  0
LINE
  8
0
 10
870.863174
 20
347.810861
 30
0.0
 11
870.882443
 21
347.895286
 31
0.0
  0
LINE
  8
0
 10
870.882443
 20
347.895286
 30
0.0
 11
870.893964
 21
347.981697
 31
0.0
  0
LINE
  8
0
 10
870.893964
 20
347.981697
 30
0.0
 11
870.897739
 21
348.06791
 31
0.0
  0
LINE
  8
0
 10
870.897739
 20
348.06791
 30
0.0
 11
870.893964
 21
348.156307
 31
0.0
  0
LINE
  8
0
 10
870.893964
 20
348.156307
 30
0.0
 11
870.882443
 21
348.242718
 31
0.0
  0
LINE
  8
0
 10
870.882443
 20
348.242718
 30
0.0
 11
870.863174
 21
348.327143
 31
0.0
  0
LINE
  8
0
 10
870.863174
 20
348.327143
 30
0.0
 11
870.838344
 21
348.409581
 31
0.0
  0
LINE
  8
0
 10
870.838344
 20
348.409581
 30
0.0
 11
870.803779
 21
348.490232
 31
0.0
  0
LINE
  8
0
 10
870.803779
 20
348.490232
 30
0.0
 11
870.76544
 21
348.566909
 31
0.0
  0
LINE
  8
0
 10
870.76544
 20
348.566909
 30
0.0
 11
870.717368
 21
348.641799
 31
0.0
  0
LINE
  8
0
 10
870.717368
 20
348.641799
 30
0.0
 11
870.665521
 21
348.710927
 31
0.0
  0
LINE
  8
0
 10
870.665521
 20
348.710927
 30
0.0
 11
870.606126
 21
348.774296
 31
0.0
  0
LINE
  8
0
 10
870.606126
 20
348.774296
 30
0.0
 11
869.815316
 21
349.564907
 31
0.0
  0
LINE
  8
0
 10
869.815316
 20
349.564907
 30
0.0
 11
870.606126
 21
348.774296
 31
0.0
  0
LINE
  8
0
 10
870.606126
 20
348.774296
 30
0.0
 11
870.665521
 21
348.710927
 31
0.0
  0
LINE
  8
0
 10
870.665521
 20
348.710927
 30
0.0
 11
870.717368
 21
348.641799
 31
0.0
  0
LINE
  8
0
 10
870.717368
 20
348.641799
 30
0.0
 11
870.76544
 21
348.566909
 31
0.0
  0
LINE
  8
0
 10
870.76544
 20
348.566909
 30
0.0
 11
870.803779
 21
348.490232
 31
0.0
  0
LINE
  8
0
 10
870.803779
 20
348.490232
 30
0.0
 11
870.838344
 21
348.409581
 31
0.0
  0
LINE
  8
0
 10
870.838344
 20
348.409581
 30
0.0
 11
870.863174
 21
348.327143
 31
0.0
  0
LINE
  8
0
 10
870.863174
 20
348.327143
 30
0.0
 11
870.882443
 21
348.242718
 31
0.0
  0
LINE
  8
0
 10
870.882443
 20
348.242718
 30
0.0
 11
870.893964
 21
348.156307
 31
0.0
  0
LINE
  8
0
 10
870.893964
 20
348.156307
 30
0.0
 11
870.897739
 21
348.06791
 31
0.0
  0
LINE
  8
0
 10
870.897739
 20
348.06791
 30
0.0
 11
870.893964
 21
347.981697
 31
0.0
  0
LINE
  8
0
 10
870.893964
 20
347.981697
 30
0.0
 11
870.882443
 21
347.895286
 31
0.0
  0
LINE
  8
0
 10
870.882443
 20
347.895286
 30
0.0
 11
870.863174
 21
347.810861
 31
0.0
  0
LINE
  8
0
 10
870.863174
 20
347.810861
 30
0.0
 11
870.838344
 21
347.728225
 31
0.0
  0
LINE
  8
0
 10
870.838344
 20
347.728225
 30
0.0
 11
870.803779
 21
347.647773
 31
0.0
  0
LINE
  8
0
 10
870.803779
 20
347.647773
 30
0.0
 11
870.76544
 21
347.570897
 31
0.0
  0
LINE
  8
0
 10
870.76544
 20
347.570897
 30
0.0
 11
870.717368
 21
347.496007
 31
0.0
  0
LINE
  8
0
 10
870.717368
 20
347.496007
 30
0.0
 11
870.665521
 21
347.427077
 31
0.0
  0
LINE
  8
0
 10
870.665521
 20
347.427077
 30
0.0
 11
870.606126
 21
347.363709
 31
0.0
  0
LINE
  8
0
 10
870.606126
 20
347.363709
 30
0.0
 11
869.742412
 21
346.499995
 31
0.0
  0
LINE
  8
0
 10
869.698313
 20
346.459869
 30
0.0
 11
869.648453
 21
346.425304
 31
0.0
  0
LINE
  8
0
 10
869.648453
 20
346.425304
 30
0.0
 11
869.698313
 21
346.459869
 31
0.0
  0
LINE
  8
0
 10
869.648453
 20
346.425304
 30
0.0
 11
869.59462
 21
346.398288
 31
0.0
  0
LINE
  8
0
 10
869.59462
 20
346.398288
 30
0.0
 11
869.648453
 21
346.425304
 31
0.0
  0
LINE
  8
0
 10
869.59462
 20
346.398288
 30
0.0
 11
869.538999
 21
346.377232
 31
0.0
  0
LINE
  8
0
 10
869.538999
 20
346.377232
 30
0.0
 11
869.59462
 21
346.398288
 31
0.0
  0
LINE
  8
0
 10
869.538999
 20
346.377232
 30
0.0
 11
869.479603
 21
346.361936
 31
0.0
  0
LINE
  8
0
 10
869.479603
 20
346.361936
 30
0.0
 11
869.538999
 21
346.377232
 31
0.0
  0
LINE
  8
0
 10
869.479603
 20
346.361936
 30
0.0
 11
869.42001
 21
346.354189
 31
0.0
  0
LINE
  8
0
 10
869.42001
 20
346.354189
 30
0.0
 11
869.479603
 21
346.361936
 31
0.0
  0
LINE
  8
0
 10
869.42001
 20
346.354189
 30
0.0
 11
869.360614
 21
346.354189
 31
0.0
  0
LINE
  8
0
 10
869.360614
 20
346.354189
 30
0.0
 11
869.42001
 21
346.354189
 31
0.0
  0
LINE
  8
0
 10
869.360614
 20
346.354189
 30
0.0
 11
869.301021
 21
346.361936
 31
0.0
  0
LINE
  8
0
 10
869.301021
 20
346.361936
 30
0.0
 11
869.360614
 21
346.354189
 31
0.0
  0
LINE
  8
0
 10
869.301021
 20
346.361936
 30
0.0
 11
869.241625
 21
346.377232
 31
0.0
  0
LINE
  8
0
 10
869.241625
 20
346.377232
 30
0.0
 11
869.301021
 21
346.361936
 31
0.0
  0
LINE
  8
0
 10
869.241625
 20
346.377232
 30
0.0
 11
869.186004
 21
346.398288
 31
0.0
  0
LINE
  8
0
 10
869.186004
 20
346.398288
 30
0.0
 11
869.241625
 21
346.377232
 31
0.0
  0
LINE
  8
0
 10
869.186004
 20
346.398288
 30
0.0
 11
869.132171
 21
346.425304
 31
0.0
  0
LINE
  8
0
 10
869.132171
 20
346.425304
 30
0.0
 11
869.186004
 21
346.398288
 31
0.0
  0
LINE
  8
0
 10
869.132171
 20
346.425304
 30
0.0
 11
869.082311
 21
346.459869
 31
0.0
  0
LINE
  8
0
 10
869.082311
 20
346.459869
 30
0.0
 11
869.132171
 21
346.425304
 31
0.0
  0
LINE
  8
0
 10
869.082311
 20
346.459869
 30
0.0
 11
869.038212
 21
346.499995
 31
0.0
  0
LINE
  8
0
 10
869.038212
 20
346.499995
 30
0.0
 11
869.082311
 21
346.459869
 31
0.0
  0
LINE
  8
0
 10
869.038212
 20
346.499995
 30
0.0
 11
868.997886
 21
346.546081
 31
0.0
  0
LINE
  8
0
 10
868.997886
 20
346.546081
 30
0.0
 11
869.038212
 21
346.499995
 31
0.0
  0
LINE
  8
0
 10
868.997886
 20
346.546081
 30
0.0
 11
868.963322
 21
346.594153
 31
0.0
  0
LINE
  8
0
 10
868.963322
 20
346.594153
 30
0.0
 11
868.997886
 21
346.546081
 31
0.0
  0
LINE
  8
0
 10
868.963322
 20
346.594153
 30
0.0
 11
868.934518
 21
346.647788
 31
0.0
  0
LINE
  8
0
 10
868.934518
 20
346.647788
 30
0.0
 11
868.963322
 21
346.594153
 31
0.0
  0
LINE
  8
0
 10
868.934518
 20
346.647788
 30
0.0
 11
868.913462
 21
346.705395
 31
0.0
  0
LINE
  8
0
 10
868.913462
 20
346.705395
 30
0.0
 11
868.934518
 21
346.647788
 31
0.0
  0
LINE
  8
0
 10
868.913462
 20
346.705395
 30
0.0
 11
868.899954
 21
346.763003
 31
0.0
  0
LINE
  8
0
 10
868.899954
 20
346.763003
 30
0.0
 11
868.913462
 21
346.705395
 31
0.0
  0
LINE
  8
0
 10
868.899954
 20
346.763003
 30
0.0
 11
868.892207
 21
346.822398
 31
0.0
  0
LINE
  8
0
 10
868.892207
 20
346.822398
 30
0.0
 11
868.899954
 21
346.763003
 31
0.0
  0
LINE
  8
0
 10
868.892207
 20
346.822398
 30
0.0
 11
868.892207
 21
346.883978
 31
0.0
  0
LINE
  8
0
 10
868.892207
 20
346.883978
 30
0.0
 11
868.892207
 21
346.822398
 31
0.0
  0
LINE
  8
0
 10
868.892207
 20
346.883978
 30
0.0
 11
868.899954
 21
346.943373
 31
0.0
  0
LINE
  8
0
 10
868.899954
 20
346.943373
 30
0.0
 11
868.892207
 21
346.883978
 31
0.0
  0
LINE
  8
0
 10
868.899954
 20
346.943373
 30
0.0
 11
868.913462
 21
347.000981
 31
0.0
  0
LINE
  8
0
 10
868.913462
 20
347.000981
 30
0.0
 11
868.899954
 21
346.943373
 31
0.0
  0
LINE
  8
0
 10
868.913462
 20
347.000981
 30
0.0
 11
868.934518
 21
347.058588
 31
0.0
  0
LINE
  8
0
 10
868.934518
 20
347.058588
 30
0.0
 11
868.913462
 21
347.000981
 31
0.0
  0
LINE
  8
0
 10
868.934518
 20
347.058588
 30
0.0
 11
868.963322
 21
347.110435
 31
0.0
  0
LINE
  8
0
 10
868.963322
 20
347.110435
 30
0.0
 11
868.934518
 21
347.058588
 31
0.0
  0
LINE
  8
0
 10
868.963322
 20
347.110435
 30
0.0
 11
868.997886
 21
347.160295
 31
0.0
  0
LINE
  8
0
 10
868.997886
 20
347.160295
 30
0.0
 11
868.963322
 21
347.110435
 31
0.0
  0
LINE
  8
0
 10
868.997886
 20
347.160295
 30
0.0
 11
869.038212
 21
347.206381
 31
0.0
  0
LINE
  8
0
 10
869.038212
 20
347.206381
 30
0.0
 11
868.997886
 21
347.160295
 31
0.0
  0
LINE
  8
0
 10
869.038212
 20
347.206381
 30
0.0
 11
869.89974
 21
348.06791
 31
0.0
  0
LINE
  8
0
 10
869.89974
 20
348.06791
 30
0.0
 11
869.038212
 21
347.206381
 31
0.0
  0
LINE
  8
0
 10
868.704287
 20
346.693874
 30
0.0
 11
868.704287
 21
348.566909
 31
0.0
  0
LINE
  8
0
 10
868.704287
 20
348.566909
 30
0.0
 11
869.40094
 21
348.566909
 31
0.0
  0
LINE
  8
0
 10
869.40094
 20
348.566909
 30
0.0
 11
869.89974
 21
348.06791
 31
0.0
  0
LINE
  8
0
 10
869.89974
 20
348.06791
 30
0.0
 11
869.40094
 21
348.566909
 31
0.0
  0
LINE
  8
0
 10
869.40094
 20
348.566909
 30
0.0
 11
868.704287
 21
348.566909
 31
0.0
  0
LINE
  8
0
 10
868.704287
 20
348.566909
 30
0.0
 11
868.704287
 21
346.693874
 31
0.0
  0
LINE
  8
0
 10
868.704287
 20
346.693874
 30
0.0
 11
873.260238
 21
342.136135
 31
0.0
  0
LINE
  8
0
 10
873.260238
 20
342.136135
 30
0.0
 11
868.704287
 21
346.693874
 31
0.0
  0
LINE
  8
0
 10
867.706289
 20
345.987687
 30
0.0
 11
867.706289
 21
348.566909
 31
0.0
  0
LINE
  8
0
 10
867.706289
 20
348.566909
 30
0.0
 11
867.706289
 21
345.987687
 31
0.0
  0
LINE
  8
0
 10
867.9981
 20
345.281499
 30
0.0
 11
871.76324
 21
341.51616
 31
0.0
  0
LINE
  8
0
 10
871.76324
 20
341.51616
 30
0.0
 11
867.9981
 21
345.281499
 31
0.0
  0
LINE
  8
0
 10
868.704287
 20
349.564907
 30
0.0
 11
869.815316
 21
349.564907
 31
0.0
  0
LINE
  8
0
 10
869.815316
 20
349.564907
 30
0.0
 11
868.704287
 21
349.564907
 31
0.0
  0
LINE
  8
0
 10
880.264205
 20
349.564907
 30
0.0
 11
879.473593
 21
348.774296
 31
0.0
  0
LINE
  8
0
 10
879.473593
 20
348.774296
 30
0.0
 11
880.264205
 21
349.564907
 31
0.0
  0
LINE
  8
0
 10
880.264205
 20
349.564907
 30
0.0
 11
881.375432
 21
349.564907
 31
0.0
  0
LINE
  8
0
 10
881.375432
 20
349.564907
 30
0.0
 11
880.264205
 21
349.564907
 31
0.0
  0
LINE
  8
0
 10
880.678779
 20
348.566909
 30
0.0
 11
881.375432
 21
348.566909
 31
0.0
  0
LINE
  8
0
 10
881.375432
 20
348.566909
 30
0.0
 11
881.375432
 21
346.693874
 31
0.0
  0
LINE
  8
0
 10
881.375432
 20
346.693874
 30
0.0
 11
876.819481
 21
342.136135
 31
0.0
  0
LINE
  8
0
 10
881.375432
 20
346.693874
 30
0.0
 11
881.375432
 21
348.566909
 31
0.0
  0
LINE
  8
0
 10
881.375432
 20
348.566909
 30
0.0
 11
880.678779
 21
348.566909
 31
0.0
  0
LINE
  8
0
 10
880.678779
 20
348.566909
 30
0.0
 11
880.17978
 21
348.06791
 31
0.0
  0
LINE
  8
0
 10
880.17978
 20
348.06791
 30
0.0
 11
880.678779
 21
348.566909
 31
0.0
  0
LINE
  8
0
 10
880.17978
 20
348.06791
 30
0.0
 11
881.041507
 21
347.206381
 31
0.0
  0
LINE
  8
0
 10
881.041507
 20
347.206381
 30
0.0
 11
880.17978
 21
348.06791
 31
0.0
  0
LINE
  8
0
 10
879.473593
 20
347.363709
 30
0.0
 11
880.337108
 21
346.499995
 31
0.0
  0
LINE
  8
0
 10
880.337108
 20
346.499995
 30
0.0
 11
879.473593
 21
347.363709
 31
0.0
  0
LINE
  8
0
 10
882.373231
 20
348.566909
 30
0.0
 11
882.373231
 21
345.987687
 31
0.0
  0
LINE
  8
0
 10
882.373231
 20
345.987687
 30
0.0
 11
882.373231
 21
348.566909
 31
0.0
  0
LINE
  8
0
 10
882.081619
 20
345.281499
 30
0.0
 11
878.31628
 21
341.51616
 31
0.0
  0
LINE
  8
0
 10
878.31628
 20
341.51616
 30
0.0
 11
882.081619
 21
345.281499
 31
0.0
  0
LINE
  8
0
 10
877.46683
 20
339.752579
 30
0.0
 11
877.482066
 21
306.874844
 31
0.0
  0
LINE
  8
0
 10
877.482066
 20
306.874844
 30
0.0
 11
877.46683
 21
339.752579
 31
0.0
  0
LINE
  8
0
 10
875.996683
 20
340.372356
 30
0.0
 11
875.985267
 21
335.597695
 31
0.0
  0
LINE
  8
0
 10
875.985267
 20
335.597695
 30
0.0
 11
875.996683
 21
340.372356
 31
0.0
  0
LINE
  8
0
 10
873.991256
 20
340.372356
 30
0.0
 11
873.991256
 21
335.597695
 31
0.0
  0
LINE
  8
0
 10
873.991256
 20
335.597695
 30
0.0
 11
873.991256
 21
340.372356
 31
0.0
  0
LINE
  8
0
 10
872.494457
 20
339.752579
 30
0.0
 11
872.494457
 21
306.874844
 31
0.0
  0
LINE
  8
0
 10
872.494457
 20
306.874844
 30
0.0
 11
872.494457
 21
339.752579
 31
0.0
  0
LINE
  8
0
 10
874.146796
 20
303.746762
 30
0.0
 11
874.146685
 21
303.746955
 31
0.0
  0
LINE
  8
0
 10
874.146685
 20
303.746955
 30
0.0
 11
874.146796
 21
303.746762
 31
0.0
  0
LINE
  8
0
 10
812.039764
 20
351.864907
 30
0.0
 11
790.039764
 21
351.864907
 31
0.0
  0
LINE
  8
0
 10
938.039764
 20
351.864907
 30
0.0
 11
960.039764
 21
351.864907
 31
0.0
  0
LINE
  8
0
 10
790.039764
 20
365.775695
 30
0.0
 11
796.128976
 21
371.864907
 31
0.0
  0
LINE
  8
0
 10
790.039764
 20
358.704627
 30
0.0
 11
803.200044
 21
371.864907
 31
0.0
  0
LINE
  8
0
 10
790.271112
 20
351.864907
 30
0.0
 11
810.271112
 21
371.864907
 31
0.0
  0
LINE
  8
0
 10
797.34218
 20
351.864907
 30
0.0
 11
817.34218
 21
371.864907
 31
0.0
  0
LINE
  8
0
 10
804.413247
 20
351.864907
 30
0.0
 11
824.413247
 21
371.864907
 31
0.0
  0
LINE
  8
0
 10
811.484315
 20
351.864907
 30
0.0
 11
831.484315
 21
371.864907
 31
0.0
  0
LINE
  8
0
 10
818.555383
 20
351.864907
 30
0.0
 11
838.555383
 21
371.864907
 31
0.0
  0
LINE
  8
0
 10
825.626451
 20
351.864907
 30
0.0
 11
845.626451
 21
371.864907
 31
0.0
  0
LINE
  8
0
 10
832.697519
 20
351.864907
 30
0.0
 11
852.697519
 21
371.864907
 31
0.0
  0
LINE
  8
0
 10
839.768587
 20
351.864907
 30
0.0
 11
859.768587
 21
371.864907
 31
0.0
  0
LINE
  8
0
 10
846.839654
 20
351.864907
 30
0.0
 11
866.839654
 21
371.864907
 31
0.0
  0
LINE
  8
0
 10
853.910722
 20
351.864907
 30
0.0
 11
873.910722
 21
371.864907
 31
0.0
  0
LINE
  8
0
 10
860.98179
 20
351.864907
 30
0.0
 11
880.98179
 21
371.864907
 31
0.0
  0
LINE
  8
0
 10
868.052858
 20
351.864907
 30
0.0
 11
888.052858
 21
371.864907
 31
0.0
  0
LINE
  8
0
 10
875.123926
 20
351.864907
 30
0.0
 11
895.123926
 21
371.864907
 31
0.0
  0
LINE
  8
0
 10
882.194993
 20
351.864907
 30
0.0
 11
902.194993
 21
371.864907
 31
0.0
  0
LINE
  8
0
 10
889.266061
 20
351.864907
 30
0.0
 11
909.266061
 21
371.864907
 31
0.0
  0
LINE
  8
0
 10
896.337129
 20
351.864907
 30
0.0
 11
916.337129
 21
371.864907
 31
0.0
  0
LINE
  8
0
 10
903.408197
 20
351.864907
 30
0.0
 11
923.408197
 21
371.864907
 31
0.0
  0
LINE
  8
0
 10
910.479265
 20
351.864907
 30
0.0
 11
930.479265
 21
371.864907
 31
0.0
  0
LINE
  8
0
 10
917.550332
 20
351.864907
 30
0.0
 11
937.550332
 21
371.864907
 31
0.0
  0
LINE
  8
0
 10
924.6214
 20
351.864907
 30
0.0
 11
944.6214
 21
371.864907
 31
0.0
  0
LINE
  8
0
 10
931.692468
 20
351.864907
 30
0.0
 11
951.692468
 21
371.864907
 31
0.0
  0
LINE
  8
0
 10
938.763536
 20
351.864907
 30
0.0
 11
958.763536
 21
371.864907
 31
0.0
  0
LINE
  8
0
 10
945.834604
 20
351.864907
 30
0.0
 11
960.039764
 21
366.070067
 31
0.0
  0
LINE
  8
0
 10
952.905671
 20
351.864907
 30
0.0
 11
960.039764
 21
358.999
 31
0.0
  0
LINE
  8
0
 10
959.976739
 20
351.864907
 30
0.0
 11
960.039764
 21
351.927932
 31
0.0
  0
ENDSEC
  0
EOF
