  0
SECTION
  2
HEADER
  9
$ACADVER
  1
AC1009
  9
$INSBASE
 10
0.0
 20
0.0
 30
0.0
  9
$EXTMIN
 10
790.039764
 20
291.450693
 30
0.0
  9
$EXTMAX
 10
960.039764
 20
387.530093
 30
0.0
  9
$LIMMIN
 10
790.039764
 20
291.864907
  9
$LIMMAX
 10
960.039764
 20
371.864907
  9
$ORTHOMODE
 70
     0
  9
$REGENMODE
 70
     1
  9
$FILLMODE
 70
     1
  9
$QTEXTMODE
 70
     0
  9
$MIRRTEXT
 70
     1
  9
$DRAGMODE
 70
     2
  9
$LTSCALE
 40
1.0
  9
$OSMODE
 70
     0
  9
$ATTMODE
 70
     1
  9
$TEXTSIZE
 40
3.5
  9
$TRACEWID
 40
0.5
  9
$TEXTSTYLE
  7
STANDARD
  9
$CLAYER
  8
0
  9
$CELTYPE
  6
BYLAYER
  9
$CECOLOR
 62
   256
  9
$DIMSCALE
 40
1.0
  9
$DIMASZ
 40
0.18
  9
$DIMEXO
 40
0.0625
  9
$DIMDLI
 40
0.38
  9
$DIMRND
 40
0.0
  9
$DIMDLE
 40
0.0
  9
$DIMEXE
 40
0.18
  9
$DIMTP
 40
0.0
  9
$DIMTM
 40
0.0
  9
$DIMTXT
 40
0.18
  9
$DIMCEN
 40
0.09
  9
$DIMTSZ
 40
0.0
  9
$DIMTOL
 70
     0
  9
$DIMLIM
 70
     0
  9
$DIMTIH
 70
     1
  9
$DIMTOH
 70
     1
  9
$DIMSE1
 70
     0
  9
$DIMSE2
 70
     0
  9
$DIMTAD
 70
     0
  9
$DIMZIN
 70
     0
  9
$DIMBLK
  1

  9
$DIMASO
 70
     1
  9
$DIMSHO
 70
     1
  9
$DIMPOST
  1

  9
$DIMAPOST
  1

  9
$DIMALT
 70
     0
  9
$DIMALTD
 70
     2
  9
$DIMALTF
 40
25.4
  9
$DIMLFAC
 40
1.0
  9
$DIMTOFL
 70
     0
  9
$DIMTVP
 40
0.0
  9
$DIMTIX
 70
     0
  9
$DIMSOXD
 70
     0
  9
$DIMSAH
 70
     0
  9
$DIMBLK1
  1

  9
$DIMBLK2
  1

  9
$DIMSTYLE
  2
*UNNAMED
  9
$DIMCLRD
 70
     0
  9
$DIMCLRE
 70
     0
  9
$DIMCLRT
 70
     0
  9
$DIMTFAC
 40
1.0
  9
$DIMGAP
 40
0.09
  9
$LUNITS
 70
     2
  9
$LUPREC
 70
     4
  9
$SKETCHINC
 40
0.1
  9
$FILLETRAD
 40
2.0
  9
$AUNITS
 70
     0
  9
$AUPREC
 70
     0
  9
$MENU
  1
ACAD
  9
$ELEVATION
 40
0.0
  9
$PELEVATION
 40
0.0
  9
$THICKNESS
 40
0.0
  9
$LIMCHECK
 70
     0
  9
$BLIPMODE
 70
     1
  9
$CHAMFERA
 40
0.0
  9
$CHAMFERB
 40
0.0
  9
$SKPOLY
 70
     0
  9
$TDCREATE
 40
2450952.682636689
  9
$TDUPDATE
 40
2450952.683876388
  9
$TDINDWG
 40
0.0002969907
  9
$TDUSRTIMER
 40
0.0002969907
  9
$USRTIMER
 70
     1
  9
$ANGBASE
 50
0.0
  9
$ANGDIR
 70
     0
  9
$PDMODE
 70
     0
  9
$PDSIZE
 40
0.0
  9
$PLINEWID
 40
0.0
  9
$COORDS
 70
     2
  9
$SPLFRAME
 70
     0
  9
$SPLINETYPE
 70
     6
  9
$SPLINESEGS
 70
     8
  9
$ATTDIA
 70
     0
  9
$ATTREQ
 70
     1
  9
$HANDLING
 70
     0
  9
$HANDSEED
  5
0
  9
$SURFTAB1
 70
     6
  9
$SURFTAB2
 70
     6
  9
$SURFTYPE
 70
     6
  9
$SURFU
 70
     6
  9
$SURFV
 70
     6
  9
$UCSNAME
  2

  9
$UCSORG
 10
0.0
 20
0.0
 30
0.0
  9
$UCSXDIR
 10
1.0
 20
0.0
 30
0.0
  9
$UCSYDIR
 10
0.0
 20
1.0
 30
0.0
  9
$PUCSNAME
  2

  9
$PUCSORG
 10
0.0
 20
0.0
 30
0.0
  9
$PUCSXDIR
 10
1.0
 20
0.0
 30
0.0
  9
$PUCSYDIR
 10
0.0
 20
1.0
 30
0.0
  9
$USERI1
 70
     0
  9
$USERI2
 70
     0
  9
$USERI3
 70
     0
  9
$USERI4
 70
     0
  9
$USERI5
 70
     0
  9
$USERR1
 40
0.0
  9
$USERR2
 40
0.0
  9
$USERR3
 40
0.0
  9
$USERR4
 40
0.0
  9
$USERR5
 40
0.0
  9
$WORLDVIEW
 70
     1
  9
$SHADEDGE
 70
     3
  9
$SHADEDIF
 70
    70
  9
$TILEMODE
 70
     1
  9
$MAXACTVP
 70
    16
  9
$PINSBASE
 10
0.0
 20
0.0
 30
0.0
  9
$PLIMCHECK
 70
     0
  9
$PEXTMIN
 10
1.000000E+20
 20
1.000000E+20
 30
1.000000E+20
  9
$PEXTMAX
 10
-1.000000E+20
 20
-1.000000E+20
 30
-1.000000E+20
  9
$PLIMMIN
 10
0.0
 20
0.0
  9
$PLIMMAX
 10
420.0
 20
297.0
  9
$UNITMODE
 70
     0
  9
$VISRETAIN
 70
     0
  9
$PLINEGEN
 70
     0
  9
$PSLTSCALE
 70
     1
  9
$TREEDEPTH
 70
  3020
  9
$DWGCODEPAGE
  3
iso8859-1
  0
ENDSEC
  0
SECTION
  2
TABLES
  0
TABLE
  2
VPORT
 70
     2
  0
VPORT
  2
*ACTIVE
 70
     0
 10
0.0
 20
0.0
 11
1.0
 21
1.0
 12
884.117192
 22
332.69134
 13
0.0
 23
0.0
 14
1.0
 24
1.0
 15
0.0
 25
0.0
 16
0.0
 26
0.0
 36
1.0
 17
0.0
 27
0.0
 37
0.0
 40
136.872747
 41
1.748359
 42
50.0
 43
0.0
 44
0.0
 50
0.0
 51
0.0
 71
     0
 72
   100
 73
     1
 74
     0
 75
     0
 76
     0
 77
     0
 78
     0
  0
ENDTAB
  0
TABLE
  2
LTYPE
 70
     1
  0
LTYPE
  2
CONTINUOUS
 70
    64
  3
Solid line
 72
    65
 73
     0
 40
0.0
  0
ENDTAB
  0
TABLE
  2
LAYER
 70
     1
  0
LAYER
  2
0
 70
    64
 62
     7
  6
CONTINUOUS
  0
ENDTAB
  0
TABLE
  2
STYLE
 70
     1
  0
STYLE
  2
STANDARD
 70
     0
 40
0.0
 41
1.0
 50
0.0
 71
     0
 42
3.5
  3
txt
  4

  0
ENDTAB
  0
TABLE
  2
VIEW
 70
     0
  0
ENDTAB
  0
TABLE
  2
UCS
 70
     0
  0
ENDTAB
  0
TABLE
  2
APPID
 70
     1
  0
APPID
  2
ACAD
 70
    64
  0
ENDTAB
  0
TABLE
  2
DIMSTYLE
 70
     0
  0
ENDTAB
  0
ENDSEC
  0
SECTION
  2
BLOCKS
  0
ENDSEC
  0
SECTION
  2
ENTITIES
  0
LINE
  8
0
 10
932.639764
 20
297.764907
 30
0.0
 11
932.639764
 21
299.964907
 31
0.0
  0
LINE
  8
0
 10
928.239764
 20
297.264907
 30
0.0
 11
932.139764
 21
297.264907
 31
0.0
  0
LINE
  8
0
 10
821.737313
 20
297.264907
 30
0.0
 11
819.710134
 21
297.264907
 31
0.0
  0
LINE
  8
0
 10
821.939764
 20
295.864907
 30
0.0
 11
819.956992
 21
295.864907
 31
0.0
  0
LINE
  8
0
 10
821.737313
 20
297.264907
 30
0.0
 11
821.839764
 21
297.264907
 31
0.0
  0
LINE
  8
0
 10
841.539764
 20
349.564907
 30
0.0
 11
814.339764
 21
349.564907
 31
0.0
  0
LINE
  8
0
 10
871.539764
 20
349.564907
 30
0.0
 11
848.539764
 21
349.564907
 31
0.0
  0
LINE
  8
0
 10
901.539764
 20
349.564907
 30
0.0
 11
878.539764
 21
349.564907
 31
0.0
  0
LINE
  8
0
 10
935.739764
 20
349.564907
 30
0.0
 11
908.539764
 21
349.564907
 31
0.0
  0
LINE
  8
0
 10
902.539764
 20
348.564907
 30
0.0
 11
902.539764
 21
344.554857
 31
0.0
  0
LINE
  8
0
 10
904.139764
 20
348.664907
 30
0.0
 11
904.139764
 21
344.879121
 31
0.0
  0
LINE
  8
0
 10
901.579103
 20
343.818461
 30
0.0
 11
899.68621
 21
345.711354
 31
0.0
  0
LINE
  8
0
 10
900.039764
 20
346.564907
 30
0.0
 11
902.039764
 21
346.564907
 31
0.0
  0
LINE
  8
0
 10
902.393317
 20
345.711354
 30
0.0
 11
901.888292
 21
345.206329
 31
0.0
  0
LINE
  8
0
 10
901.888292
 20
345.206329
 30
0.0
 11
902.539764
 21
344.554857
 31
0.0
  0
LINE
  8
0
 10
907.539764
 20
344.554857
 30
0.0
 11
907.539764
 21
348.564907
 31
0.0
  0
LINE
  8
0
 10
905.939764
 20
344.879121
 30
0.0
 11
905.939764
 21
348.664907
 31
0.0
  0
LINE
  8
0
 10
910.393317
 20
345.711354
 30
0.0
 11
908.500424
 21
343.818461
 31
0.0
  0
LINE
  8
0
 10
908.039764
 20
346.564907
 30
0.0
 11
910.039764
 21
346.564907
 31
0.0
  0
LINE
  8
0
 10
908.191236
 20
345.206329
 30
0.0
 11
907.68621
 21
345.711354
 31
0.0
  0
LINE
  8
0
 10
907.539764
 20
344.554857
 30
0.0
 11
908.191236
 21
345.206329
 31
0.0
  0
LINE
  8
0
 10
842.539764
 20
348.564907
 30
0.0
 11
842.539764
 21
344.554857
 31
0.0
  0
LINE
  8
0
 10
844.139764
 20
348.664907
 30
0.0
 11
844.139764
 21
344.879121
 31
0.0
  0
LINE
  8
0
 10
841.579103
 20
343.818461
 30
0.0
 11
839.68621
 21
345.711354
 31
0.0
  0
LINE
  8
0
 10
840.039764
 20
346.564907
 30
0.0
 11
842.039764
 21
346.564907
 31
0.0
  0
LINE
  8
0
 10
842.393317
 20
345.711354
 30
0.0
 11
841.888292
 21
345.206329
 31
0.0
  0
LINE
  8
0
 10
841.888292
 20
345.206329
 30
0.0
 11
842.539764
 21
344.554857
 31
0.0
  0
LINE
  8
0
 10
847.539764
 20
344.554857
 30
0.0
 11
847.539764
 21
348.564907
 31
0.0
  0
LINE
  8
0
 10
845.939764
 20
344.879121
 30
0.0
 11
845.939764
 21
348.664907
 31
0.0
  0
LINE
  8
0
 10
850.393317
 20
345.711354
 30
0.0
 11
848.500424
 21
343.818461
 31
0.0
  0
LINE
  8
0
 10
848.039764
 20
346.564907
 30
0.0
 11
850.039764
 21
346.564907
 31
0.0
  0
LINE
  8
0
 10
848.191236
 20
345.206329
 30
0.0
 11
847.68621
 21
345.711354
 31
0.0
  0
LINE
  8
0
 10
847.539764
 20
344.554857
 30
0.0
 11
848.191236
 21
345.206329
 31
0.0
  0
LINE
  8
0
 10
812.039764
 20
351.864907
 30
0.0
 11
938.039764
 21
351.864907
 31
0.0
  0
LINE
  8
0
 10
810.039764
 20
304.519608
 30
0.0
 11
810.039764
 21
349.864907
 31
0.0
  0
LINE
  8
0
 10
932.841687
 20
301.864907
 30
0.0
 11
927.339764
 21
301.864907
 31
0.0
  0
LINE
  8
0
 10
936.739764
 20
304.115463
 30
0.0
 11
932.841687
 21
301.864907
 31
0.0
  0
LINE
  8
0
 10
817.23784
 20
301.864907
 30
0.0
 11
822.739764
 21
301.864907
 31
0.0
  0
LINE
  8
0
 10
813.339764
 20
304.115463
 30
0.0
 11
817.23784
 21
301.864907
 31
0.0
  0
LINE
  8
0
 10
934.539764
 20
300.189481
 30
0.0
 11
939.039764
 21
302.787557
 31
0.0
  0
LINE
  8
0
 10
934.039764
 20
299.316237
 30
0.0
 11
934.039764
 21
299.323456
 31
0.0
  0
LINE
  8
0
 10
811.039764
 20
302.787557
 30
0.0
 11
815.539764
 21
300.189481
 31
0.0
  0
LINE
  8
0
 10
821.939764
 20
295.864907
 30
0.0
 11
822.739764
 21
295.864907
 31
0.0
  0
LINE
  8
0
 10
927.339764
 20
295.864907
 30
0.0
 11
932.139764
 21
295.864907
 31
0.0
  0
LINE
  8
0
 10
932.139764
 20
300.464907
 30
0.0
 11
928.239764
 21
300.464907
 31
0.0
  0
LINE
  8
0
 10
927.739764
 20
299.964907
 30
0.0
 11
927.739764
 21
297.764907
 31
0.0
  0
LINE
  8
0
 10
926.339764
 20
300.864907
 30
0.0
 11
926.339764
 21
296.864907
 31
0.0
  0
LINE
  8
0
 10
934.039764
 20
299.316237
 30
0.0
 11
934.039764
 21
295.764907
 31
0.0
  0
LINE
  8
0
 10
934.539764
 20
295.264907
 30
0.0
 11
934.839764
 21
295.264907
 31
0.0
  0
LINE
  8
0
 10
934.839764
 20
293.864907
 30
0.0
 11
933.139764
 21
293.864907
 31
0.0
  0
LINE
  8
0
 10
932.639764
 20
294.364907
 30
0.0
 11
932.639764
 21
295.364907
 31
0.0
  0
LINE
  8
0
 10
937.739764
 20
347.564907
 30
0.0
 11
937.739764
 21
305.847514
 31
0.0
  0
LINE
  8
0
 10
940.039764
 20
349.864907
 30
0.0
 11
940.039764
 21
304.519608
 31
0.0
  0
LINE
  8
0
 10
817.939764
 20
300.464907
 30
0.0
 11
821.839764
 21
300.464907
 31
0.0
  0
LINE
  8
0
 10
822.339764
 20
297.764907
 30
0.0
 11
822.339764
 21
299.964907
 31
0.0
  0
LINE
  8
0
 10
817.939764
 20
297.264907
 30
0.0
 11
819.710134
 21
297.264907
 31
0.0
  0
LINE
  8
0
 10
823.739764
 20
296.864907
 30
0.0
 11
823.739764
 21
300.864907
 31
0.0
  0
LINE
  8
0
 10
817.939764
 20
295.864907
 30
0.0
 11
819.956992
 21
295.864907
 31
0.0
  0
LINE
  8
0
 10
816.039764
 20
295.764907
 30
0.0
 11
816.039764
 21
299.323456
 31
0.0
  0
LINE
  8
0
 10
815.239764
 20
295.264907
 30
0.0
 11
815.539764
 21
295.264907
 31
0.0
  0
LINE
  8
0
 10
811.739764
 20
297.364907
 30
0.0
 11
811.739764
 21
297.964907
 31
0.0
  0
LINE
  8
0
 10
816.939764
 20
293.864907
 30
0.0
 11
815.239764
 21
293.864907
 31
0.0
  0
LINE
  8
0
 10
817.439764
 20
295.364907
 30
0.0
 11
817.439764
 21
294.364907
 31
0.0
  0
LINE
  8
0
 10
817.439764
 20
297.764907
 30
0.0
 11
817.439764
 21
299.964907
 31
0.0
  0
LINE
  8
0
 10
872.539764
 20
348.564907
 30
0.0
 11
872.539764
 21
344.554857
 31
0.0
  0
LINE
  8
0
 10
874.139764
 20
348.664907
 30
0.0
 11
874.139764
 21
344.879121
 31
0.0
  0
LINE
  8
0
 10
871.579103
 20
343.818461
 30
0.0
 11
869.68621
 21
345.711354
 31
0.0
  0
LINE
  8
0
 10
870.039764
 20
346.564907
 30
0.0
 11
872.039764
 21
346.564907
 31
0.0
  0
LINE
  8
0
 10
872.393317
 20
345.711354
 30
0.0
 11
871.888292
 21
345.206329
 31
0.0
  0
LINE
  8
0
 10
871.888292
 20
345.206329
 30
0.0
 11
872.539764
 21
344.554857
 31
0.0
  0
LINE
  8
0
 10
877.539764
 20
344.554857
 30
0.0
 11
877.539764
 21
348.564907
 31
0.0
  0
LINE
  8
0
 10
875.939764
 20
344.879121
 30
0.0
 11
875.939764
 21
348.664907
 31
0.0
  0
LINE
  8
0
 10
880.393317
 20
345.711354
 30
0.0
 11
878.500424
 21
343.818461
 31
0.0
  0
LINE
  8
0
 10
878.039764
 20
346.564907
 30
0.0
 11
880.039764
 21
346.564907
 31
0.0
  0
LINE
  8
0
 10
878.191236
 20
345.206329
 30
0.0
 11
877.68621
 21
345.711354
 31
0.0
  0
LINE
  8
0
 10
877.539764
 20
344.554857
 30
0.0
 11
878.191236
 21
345.206329
 31
0.0
  0
LINE
  8
0
 10
812.339764
 20
347.564907
 30
0.0
 11
812.339764
 21
305.847514
 31
0.0
  0
LINE
  8
0
 10
813.139764
 20
297.364907
 30
0.0
 11
813.139764
 21
297.964907
 31
0.0
  0
LINE
  8
0
 10
938.339764
 20
297.364907
 30
0.0
 11
938.339764
 21
297.964907
 31
0.0
  0
LINE
  8
0
 10
936.939764
 20
297.364907
 30
0.0
 11
936.939764
 21
297.964907
 31
0.0
  0
LINE
  8
0
 10
813.339764
 20
301.404138
 30
0.0
 11
812.589764
 21
301.837151
 31
0.0
  0
ARC
  8
0
 10
902.639764
 20
344.879121
 30
0.0
 40
1.5
 50
225.0
 51
0.0
  0
ARC
  8
0
 10
900.039764
 20
346.064907
 30
0.0
 40
0.5
 50
180.0
 51
225.0
  0
ARC
  8
0
 10
902.039764
 20
346.064907
 30
0.0
 40
0.5
 50
315.0
 51
90.0
  0
ARC
  8
0
 10
907.439764
 20
344.879121
 30
0.0
 40
1.5
 50
180.0
 51
315.0
  0
ARC
  8
0
 10
910.039764
 20
346.064907
 30
0.0
 40
0.5
 50
0.0
 51
90.0
  0
ARC
  8
0
 10
908.039764
 20
346.064907
 30
0.0
 40
0.5
 50
90.0
 51
225.0
  0
ARC
  8
0
 10
910.039764
 20
346.064907
 30
0.0
 40
0.5
 50
315.0
 51
0.0
  0
ARC
  8
0
 10
900.039764
 20
346.064907
 30
0.0
 40
0.5
 50
90.0
 51
180.0
  0
ARC
  8
0
 10
842.639764
 20
344.879121
 30
0.0
 40
1.5
 50
225.0
 51
0.0
  0
ARC
  8
0
 10
840.039764
 20
346.064907
 30
0.0
 40
0.5
 50
180.0
 51
225.0
  0
ARC
  8
0
 10
842.039764
 20
346.064907
 30
0.0
 40
0.5
 50
315.0
 51
90.0
  0
ARC
  8
0
 10
847.439764
 20
344.879121
 30
0.0
 40
1.5
 50
180.0
 51
315.0
  0
ARC
  8
0
 10
850.039764
 20
346.064907
 30
0.0
 40
0.5
 50
0.0
 51
90.0
  0
ARC
  8
0
 10
848.039764
 20
346.064907
 30
0.0
 40
0.5
 50
90.0
 51
225.0
  0
ARC
  8
0
 10
850.039764
 20
346.064907
 30
0.0
 40
0.5
 50
315.0
 51
0.0
  0
ARC
  8
0
 10
840.039764
 20
346.064907
 30
0.0
 40
0.5
 50
90.0
 51
180.0
  0
ARC
  8
0
 10
872.639764
 20
344.879121
 30
0.0
 40
1.5
 50
225.0
 51
0.0
  0
ARC
  8
0
 10
870.039764
 20
346.064907
 30
0.0
 40
0.5
 50
180.0
 51
225.0
  0
ARC
  8
0
 10
872.039764
 20
346.064907
 30
0.0
 40
0.5
 50
315.0
 51
90.0
  0
ARC
  8
0
 10
877.439764
 20
344.879121
 30
0.0
 40
1.5
 50
180.0
 51
315.0
  0
ARC
  8
0
 10
880.039764
 20
346.064907
 30
0.0
 40
0.5
 50
0.0
 51
90.0
  0
ARC
  8
0
 10
878.039764
 20
346.064907
 30
0.0
 40
0.5
 50
90.0
 51
225.0
  0
ARC
  8
0
 10
880.039764
 20
346.064907
 30
0.0
 40
0.5
 50
315.0
 51
0.0
  0
ARC
  8
0
 10
870.039764
 20
346.064907
 30
0.0
 40
0.5
 50
90.0
 51
180.0
  0
ARC
  8
0
 10
932.139764
 20
297.764907
 30
0.0
 40
0.5
 50
270.0
 51
0.0
  0
ARC
  8
0
 10
905.039764
 20
348.664907
 30
0.0
 40
0.9
 50
0.0
 51
180.0
  0
ARC
  8
0
 10
908.539764
 20
348.564907
 30
0.0
 40
1.0
 50
90.0
 51
180.0
  0
ARC
  8
0
 10
901.539764
 20
348.564907
 30
0.0
 40
1.0
 50
0.0
 51
90.0
  0
ARC
  8
0
 10
845.039764
 20
348.664907
 30
0.0
 40
0.9
 50
0.0
 51
180.0
  0
ARC
  8
0
 10
848.539764
 20
348.564907
 30
0.0
 40
1.0
 50
90.0
 51
180.0
  0
ARC
  8
0
 10
841.539764
 20
348.564907
 30
0.0
 40
1.0
 50
0.0
 51
90.0
  0
ARC
  8
0
 10
812.039764
 20
349.864907
 30
0.0
 40
2.0
 50
90.0
 51
180.0
  0
ARC
  8
0
 10
938.039764
 20
349.864907
 30
0.0
 40
2.0
 50
0.0
 51
90.0
  0
ARC
  8
0
 10
935.739764
 20
305.847514
 30
0.0
 40
2.0
 50
300.0
 51
0.0
  0
ARC
  8
0
 10
814.339764
 20
305.847514
 30
0.0
 40
2.0
 50
180.0
 51
240.0
  0
ARC
  8
0
 10
935.039764
 20
299.323456
 30
0.0
 40
1.0
 50
120.0
 51
180.0
  0
ARC
  8
0
 10
938.039764
 20
304.519608
 30
0.0
 40
2.0
 50
300.0
 51
0.0
  0
ARC
  8
0
 10
815.039764
 20
299.323456
 30
0.0
 40
1.0
 50
0.0
 51
60.0
  0
ARC
  8
0
 10
812.039764
 20
304.519608
 30
0.0
 40
2.0
 50
180.0
 51
240.0
  0
ARC
  8
0
 10
928.239764
 20
299.964907
 30
0.0
 40
0.5
 50
90.0
 51
180.0
  0
ARC
  8
0
 10
928.239764
 20
297.764907
 30
0.0
 40
0.5
 50
180.0
 51
270.0
  0
ARC
  8
0
 10
821.839764
 20
299.964907
 30
0.0
 40
0.5
 50
0.0
 51
90.0
  0
ARC
  8
0
 10
821.839764
 20
297.764907
 30
0.0
 40
0.5
 50
270.0
 51
0.0
  0
ARC
  8
0
 10
937.639764
 20
297.964907
 30
0.0
 40
0.7
 50
90.0
 51
180.0
  0
ARC
  8
0
 10
937.639764
 20
297.964907
 30
0.0
 40
0.7
 50
0.0
 51
90.0
  0
ARC
  8
0
 10
934.539764
 20
295.764907
 30
0.0
 40
0.5
 50
180.0
 51
270.0
  0
ARC
  8
0
 10
934.839764
 20
297.364907
 30
0.0
 40
2.1
 50
270.0
 51
0.0
  0
ARC
  8
0
 10
934.839764
 20
297.364907
 30
0.0
 40
3.5
 50
270.0
 51
0.0
  0
ARC
  8
0
 10
927.339764
 20
296.864907
 30
0.0
 40
1.0
 50
180.0
 51
270.0
  0
ARC
  8
0
 10
927.339764
 20
300.864907
 30
0.0
 40
1.0
 50
90.0
 51
180.0
  0
ARC
  8
0
 10
933.139764
 20
294.364907
 30
0.0
 40
0.5
 50
180.0
 51
270.0
  0
ARC
  8
0
 10
932.139764
 20
295.364907
 30
0.0
 40
0.5
 50
0.0
 51
90.0
  0
ARC
  8
0
 10
932.139764
 20
299.964907
 30
0.0
 40
0.5
 50
0.0
 51
90.0
  0
ARC
  8
0
 10
935.739764
 20
347.564907
 30
0.0
 40
2.0
 50
0.0
 51
90.0
  0
ARC
  8
0
 10
812.439764
 20
297.964907
 30
0.0
 40
0.7
 50
0.0
 51
90.0
  0
ARC
  8
0
 10
812.439764
 20
297.964907
 30
0.0
 40
0.7
 50
90.0
 51
180.0
  0
ARC
  8
0
 10
815.539764
 20
295.764907
 30
0.0
 40
0.5
 50
270.0
 51
0.0
  0
ARC
  8
0
 10
815.239764
 20
297.364907
 30
0.0
 40
2.1
 50
180.0
 51
270.0
  0
ARC
  8
0
 10
815.239764
 20
297.364907
 30
0.0
 40
3.5
 50
180.0
 51
270.0
  0
ARC
  8
0
 10
822.739764
 20
296.864907
 30
0.0
 40
1.0
 50
270.0
 51
0.0
  0
ARC
  8
0
 10
822.739764
 20
300.864907
 30
0.0
 40
1.0
 50
0.0
 51
90.0
  0
ARC
  8
0
 10
816.939764
 20
294.364907
 30
0.0
 40
0.5
 50
270.0
 51
0.0
  0
ARC
  8
0
 10
817.939764
 20
295.364907
 30
0.0
 40
0.5
 50
90.0
 51
180.0
  0
ARC
  8
0
 10
817.939764
 20
297.764907
 30
0.0
 40
0.5
 50
180.0
 51
270.0
  0
ARC
  8
0
 10
817.939764
 20
299.964907
 30
0.0
 40
0.5
 50
90.0
 51
180.0
  0
ARC
  8
0
 10
875.039764
 20
348.664907
 30
0.0
 40
0.9
 50
0.0
 51
180.0
  0
ARC
  8
0
 10
878.539764
 20
348.564907
 30
0.0
 40
1.0
 50
90.0
 51
180.0
  0
ARC
  8
0
 10
871.539764
 20
348.564907
 30
0.0
 40
1.0
 50
0.0
 51
90.0
  0
ARC
  8
0
 10
814.339764
 20
347.564907
 30
0.0
 40
2.0
 50
90.0
 51
180.0
  0
LINE
  8
0
 10
938.339764
 20
298.389779
 30
0.0
 11
938.339764
 21
295.064907
 31
0.0
  0
LINE
  8
0
 10
936.839764
 20
293.564907
 30
0.0
 11
875.039764
 21
293.564907
 31
0.0
  0
LINE
  8
0
 10
875.039764
 20
291.864907
 30
0.0
 11
938.039764
 21
291.864907
 31
0.0
  0
LINE
  8
0
 10
940.039764
 20
293.864907
 30
0.0
 11
940.039764
 21
300.364907
 31
0.0
  0
LINE
  8
0
 10
937.489764
 20
301.837151
 30
0.0
 11
936.739764
 21
301.404138
 31
0.0
  0
LINE
  8
0
 10
936.739764
 20
300.018497
 30
0.0
 11
938.212007
 21
299.168497
 31
0.0
  0
LINE
  8
0
 10
938.712007
 20
300.034523
 30
0.0
 11
937.839764
 21
300.538113
 31
0.0
  0
LINE
  8
0
 10
937.839764
 20
300.884523
 30
0.0
 11
937.989764
 21
300.971125
 31
0.0
  0
LINE
  8
0
 10
939.039764
 20
300.364907
 30
0.0
 11
939.039764
 21
299.602214
 31
0.0
  0
LINE
  8
0
 10
939.039764
 20
299.602214
 30
0.0
 11
938.339764
 21
298.389779
 31
0.0
  0
LINE
  8
0
 10
811.739764
 20
295.064907
 30
0.0
 11
811.739764
 21
298.389779
 31
0.0
  0
LINE
  8
0
 10
875.039764
 20
293.564907
 30
0.0
 11
813.239764
 21
293.564907
 31
0.0
  0
LINE
  8
0
 10
812.039764
 20
291.864907
 30
0.0
 11
875.039764
 21
291.864907
 31
0.0
  0
LINE
  8
0
 10
810.039764
 20
300.364907
 30
0.0
 11
810.039764
 21
293.864907
 31
0.0
  0
LINE
  8
0
 10
811.86752
 20
299.168497
 30
0.0
 11
813.339764
 21
300.018497
 31
0.0
  0
LINE
  8
0
 10
812.239764
 20
300.538113
 30
0.0
 11
811.36752
 21
300.034523
 31
0.0
  0
LINE
  8
0
 10
812.089764
 20
300.971125
 30
0.0
 11
812.239764
 21
300.884523
 31
0.0
  0
LINE
  8
0
 10
811.039764
 20
299.602214
 30
0.0
 11
811.039764
 21
300.364907
 31
0.0
  0
LINE
  8
0
 10
811.739764
 20
298.389779
 30
0.0
 11
811.039764
 21
299.602214
 31
0.0
  0
ARC
  8
0
 10
938.339764
 20
300.364907
 30
0.0
 40
1.7
 50
0.0
 51
120.0
  0
ARC
  8
0
 10
937.139764
 20
300.711318
 30
0.0
 40
0.8
 50
120.0
 51
240.0
  0
ARC
  8
0
 10
938.462007
 20
299.60151
 30
0.0
 40
0.5
 50
240.0
 51
60.0
  0
ARC
  8
0
 10
937.939764
 20
300.711318
 30
0.0
 40
0.2
 50
120.0
 51
240.0
  0
ARC
  8
0
 10
938.339764
 20
300.364907
 30
0.0
 40
0.7
 50
0.0
 51
120.0
  0
ARC
  8
0
 10
811.739764
 20
300.364907
 30
0.0
 40
1.7
 50
60.0
 51
180.0
  0
ARC
  8
0
 10
812.939764
 20
300.711318
 30
0.0
 40
0.8
 50
300.0
 51
60.0
  0
ARC
  8
0
 10
811.61752
 20
299.60151
 30
0.0
 40
0.5
 50
120.0
 51
300.0
  0
ARC
  8
0
 10
812.139764
 20
300.711318
 30
0.0
 40
0.2
 50
300.0
 51
60.0
  0
ARC
  8
0
 10
811.739764
 20
300.364907
 30
0.0
 40
0.7
 50
60.0
 51
180.0
  0
ARC
  8
0
 10
936.839764
 20
295.064907
 30
0.0
 40
1.5
 50
270.0
 51
0.0
  0
ARC
  8
0
 10
938.039764
 20
293.864907
 30
0.0
 40
2.0
 50
270.0
 51
0.0
  0
ARC
  8
0
 10
813.239764
 20
295.064907
 30
0.0
 40
1.5
 50
180.0
 51
270.0
  0
ARC
  8
0
 10
812.039764
 20
293.864907
 30
0.0
 40
2.0
 50
180.0
 51
270.0
  0
LINE
  8
0
 10
930.665531
 20
297.264907
 30
0.0
 11
930.902388
 21
298.60819
 31
0.0
  0
LINE
  8
0
 10
819.956992
 20
295.864907
 30
0.0
 11
820.038186
 21
295.404435
 31
0.0
  0
LINE
  8
0
 10
821.737313
 20
297.264907
 30
0.0
 11
821.424571
 21
299.038556
 31
0.0
  0
LINE
  8
0
 10
840.039764
 20
294.164907
 30
0.0
 11
840.039764
 21
302.664907
 31
0.0
  0
LINE
  8
0
 10
862.539764
 20
294.164907
 30
0.0
 11
862.487382
 21
295.664907
 31
0.0
  0
LINE
  8
0
 10
863.592145
 20
295.664907
 30
0.0
 11
863.539764
 21
294.164907
 31
0.0
  0
LINE
  8
0
 10
863.539764
 20
294.164907
 30
0.0
 11
862.539764
 21
294.164907
 31
0.0
  0
LINE
  8
0
 10
862.487382
 20
295.664907
 30
0.0
 11
862.36516
 21
299.164907
 31
0.0
  0
LINE
  8
0
 10
863.714367
 20
299.164907
 30
0.0
 11
863.592145
 21
295.664907
 31
0.0
  0
LINE
  8
0
 10
862.36516
 20
299.164907
 30
0.0
 11
862.25796
 21
302.234706
 31
0.0
  0
LINE
  8
0
 10
875.039764
 20
304.164907
 30
0.0
 11
865.820349
 21
304.164907
 31
0.0
  0
LINE
  8
0
 10
863.714367
 20
299.164907
 30
0.0
 11
862.36516
 21
299.164907
 31
0.0
  0
LINE
  8
0
 10
863.821567
 20
302.234706
 30
0.0
 11
863.714367
 21
299.164907
 31
0.0
  0
LINE
  8
0
 10
886.487382
 20
295.664907
 30
0.0
 11
863.592145
 21
295.664907
 31
0.0
  0
LINE
  8
0
 10
887.592145
 20
295.664907
 30
0.0
 11
887.539764
 21
294.164907
 31
0.0
  0
LINE
  8
0
 10
887.539764
 20
294.164907
 30
0.0
 11
886.539764
 21
294.164907
 31
0.0
  0
LINE
  8
0
 10
886.539764
 20
294.164907
 30
0.0
 11
886.487382
 21
295.664907
 31
0.0
  0
LINE
  8
0
 10
863.539764
 20
294.164907
 30
0.0
 11
886.539764
 21
294.164907
 31
0.0
  0
LINE
  8
0
 10
887.714367
 20
299.164907
 30
0.0
 11
887.592145
 21
295.664907
 31
0.0
  0
LINE
  8
0
 10
886.487382
 20
295.664907
 30
0.0
 11
886.36516
 21
299.164907
 31
0.0
  0
LINE
  8
0
 10
884.259178
 20
304.164907
 30
0.0
 11
875.039764
 21
304.164907
 31
0.0
  0
LINE
  8
0
 10
887.821567
 20
302.234706
 30
0.0
 11
887.714367
 21
299.164907
 31
0.0
  0
LINE
  8
0
 10
887.714367
 20
299.164907
 30
0.0
 11
886.36516
 21
299.164907
 31
0.0
  0
LINE
  8
0
 10
886.36516
 20
299.164907
 30
0.0
 11
886.25796
 21
302.234706
 31
0.0
  0
LINE
  8
0
 10
905.759178
 20
304.164907
 30
0.0
 11
889.820349
 21
304.164907
 31
0.0
  0
LINE
  8
0
 10
908.938481
 20
302.164907
 30
0.0
 11
908.378572
 21
302.164907
 31
0.0
  0
LINE
  8
0
 10
908.205367
 20
302.064907
 30
0.0
 11
907.789069
 21
301.343858
 31
0.0
  0
LINE
  8
0
 10
907.789069
 20
301.343858
 30
0.0
 11
907.75796
 21
302.234706
 31
0.0
  0
LINE
  8
0
 10
909.631919
 20
301.142812
 30
0.0
 11
909.101941
 21
299.164907
 31
0.0
  0
LINE
  8
0
 10
887.539764
 20
294.164907
 30
0.0
 11
908.039764
 21
294.164907
 31
0.0
  0
LINE
  8
0
 10
908.039764
 20
294.164907
 30
0.0
 11
907.987382
 21
295.664907
 31
0.0
  0
LINE
  8
0
 10
907.987382
 20
295.664907
 30
0.0
 11
887.592145
 21
295.664907
 31
0.0
  0
LINE
  8
0
 10
907.987382
 20
295.664907
 30
0.0
 11
907.75796
 21
302.234706
 31
0.0
  0
LINE
  8
0
 10
909.101941
 20
294.164907
 30
0.0
 11
909.101941
 21
299.164907
 31
0.0
  0
LINE
  8
0
 10
909.101941
 20
294.164907
 30
0.0
 11
905.039764
 21
294.164907
 31
0.0
  0
LINE
  8
0
 10
910.039764
 20
294.164907
 30
0.0
 11
909.101941
 21
294.164907
 31
0.0
  0
LINE
  8
0
 10
910.039764
 20
302.664907
 30
0.0
 11
909.631919
 21
301.142812
 31
0.0
  0
LINE
  8
0
 10
910.039764
 20
302.664907
 30
0.0
 11
910.039764
 21
294.164907
 31
0.0
  0
LINE
  8
0
 10
911.816043
 20
302.664907
 30
0.0
 11
910.039764
 21
302.664907
 31
0.0
  0
LINE
  8
0
 10
924.639764
 20
300.264907
 30
0.0
 11
911.816043
 21
300.264907
 31
0.0
  0
LINE
  8
0
 10
924.639764
 20
302.664907
 30
0.0
 11
911.816043
 21
302.664907
 31
0.0
  0
LINE
  8
0
 10
925.839764
 20
296.164907
 30
0.0
 11
925.839764
 21
301.464907
 31
0.0
  0
LINE
  8
0
 10
926.139764
 20
295.864907
 30
0.0
 11
927.843626
 21
295.864907
 31
0.0
  0
LINE
  8
0
 10
928.860268
 20
294.164907
 30
0.0
 11
910.039764
 21
294.164907
 31
0.0
  0
LINE
  8
0
 10
930.337479
 20
295.404435
 30
0.0
 11
930.418673
 21
295.864907
 31
0.0
  0
LINE
  8
0
 10
928.951093
 20
299.038556
 30
0.0
 11
928.638351
 21
297.264907
 31
0.0
  0
LINE
  8
0
 10
860.259178
 20
304.164907
 30
0.0
 11
844.320349
 21
304.164907
 31
0.0
  0
LINE
  8
0
 10
842.039764
 20
294.164907
 30
0.0
 11
862.539764
 21
294.164907
 31
0.0
  0
LINE
  8
0
 10
862.487382
 20
295.664907
 30
0.0
 11
842.092145
 21
295.664907
 31
0.0
  0
LINE
  8
0
 10
845.039764
 20
294.164907
 30
0.0
 11
840.977586
 21
294.164907
 31
0.0
  0
LINE
  8
0
 10
840.977586
 20
294.164907
 30
0.0
 11
840.039764
 21
294.164907
 31
0.0
  0
LINE
  8
0
 10
842.092145
 20
295.664907
 30
0.0
 11
842.039764
 21
294.164907
 31
0.0
  0
LINE
  8
0
 10
840.977586
 20
299.164907
 30
0.0
 11
840.977586
 21
294.164907
 31
0.0
  0
LINE
  8
0
 10
842.321567
 20
302.234706
 30
0.0
 11
842.092145
 21
295.664907
 31
0.0
  0
LINE
  8
0
 10
841.700955
 20
302.164907
 30
0.0
 11
841.141046
 21
302.164907
 31
0.0
  0
LINE
  8
0
 10
842.290458
 20
301.343858
 30
0.0
 11
841.87416
 21
302.064907
 31
0.0
  0
LINE
  8
0
 10
842.321567
 20
302.234706
 30
0.0
 11
842.290458
 21
301.343858
 31
0.0
  0
LINE
  8
0
 10
840.977586
 20
299.164907
 30
0.0
 11
840.447608
 21
301.142812
 31
0.0
  0
LINE
  8
0
 10
838.263484
 20
300.264907
 30
0.0
 11
825.439764
 21
300.264907
 31
0.0
  0
LINE
  8
0
 10
838.263484
 20
302.664907
 30
0.0
 11
825.439764
 21
302.664907
 31
0.0
  0
LINE
  8
0
 10
840.039764
 20
302.664907
 30
0.0
 11
838.263484
 21
302.664907
 31
0.0
  0
LINE
  8
0
 10
840.447608
 20
301.142812
 30
0.0
 11
840.039764
 21
302.664907
 31
0.0
  0
LINE
  8
0
 10
824.239764
 20
301.464907
 30
0.0
 11
824.239764
 21
296.164907
 31
0.0
  0
LINE
  8
0
 10
822.235901
 20
295.864907
 30
0.0
 11
823.939764
 21
295.864907
 31
0.0
  0
LINE
  8
0
 10
840.039764
 20
294.164907
 30
0.0
 11
821.515397
 21
294.164907
 31
0.0
  0
LINE
  8
0
 10
819.473277
 20
298.60819
 30
0.0
 11
819.710134
 21
297.264907
 31
0.0
  0
ARC
  8
0
 10
905.039764
 20
299.164907
 30
0.0
 40
5.0
 50
23.302207
 51
35.685335
  0
ARC
  8
0
 10
911.816043
 20
301.464907
 30
0.0
 40
1.2
 50
180.0
 51
270.0
  0
ARC
  8
0
 10
924.639764
 20
301.464907
 30
0.0
 40
1.2
 50
0.0
 51
90.0
  0
ARC
  8
0
 10
924.639764
 20
301.464907
 30
0.0
 40
1.2
 50
270.0
 51
0.0
  0
ARC
  8
0
 10
929.935901
 20
298.864907
 30
0.0
 40
1.0
 50
345.124638
 51
170.0
  0
ARC
  8
0
 10
929.935901
 20
298.864907
 30
0.0
 40
1.0
 50
170.0
 51
345.124638
  0
ARC
  8
0
 10
845.039764
 20
299.164907
 30
0.0
 40
5.0
 50
144.314665
 51
156.697793
  0
ARC
  8
0
 10
838.263484
 20
301.464907
 30
0.0
 40
1.2
 50
270.0
 51
0.0
  0
ARC
  8
0
 10
825.439764
 20
301.464907
 30
0.0
 40
1.2
 50
180.0
 51
270.0
  0
ARC
  8
0
 10
825.439764
 20
301.464907
 30
0.0
 40
1.2
 50
90.0
 51
180.0
  0
ARC
  8
0
 10
820.439764
 20
298.864907
 30
0.0
 40
1.0
 50
10.0
 51
194.875362
  0
ARC
  8
0
 10
820.439764
 20
298.864907
 30
0.0
 40
1.0
 50
194.875362
 51
10.0
  0
ARC
  8
0
 10
860.259178
 20
302.164907
 30
0.0
 40
2.0
 50
2.0
 51
90.0
  0
ARC
  8
0
 10
865.820349
 20
302.164907
 30
0.0
 40
2.0
 50
90.0
 51
178.0
  0
ARC
  8
0
 10
889.820349
 20
302.164907
 30
0.0
 40
2.0
 50
90.0
 51
178.0
  0
ARC
  8
0
 10
884.259178
 20
302.164907
 30
0.0
 40
2.0
 50
2.0
 51
90.0
  0
ARC
  8
0
 10
905.759178
 20
302.164907
 30
0.0
 40
2.0
 50
2.0
 51
90.0
  0
ARC
  8
0
 10
905.759178
 20
302.164907
 30
0.0
 40
2.0
 50
2.0
 51
90.0
  0
ARC
  8
0
 10
908.938481
 20
301.964907
 30
0.0
 40
0.2
 50
35.685335
 51
90.0
  0
ARC
  8
0
 10
908.378572
 20
301.964907
 30
0.0
 40
0.2
 50
90.0
 51
150.0
  0
ARC
  8
0
 10
911.816043
 20
301.464907
 30
0.0
 40
1.2
 50
90.0
 51
180.0
  0
ARC
  8
0
 10
926.139764
 20
296.164907
 30
0.0
 40
0.3
 50
180.0
 51
270.0
  0
ARC
  8
0
 10
928.860268
 20
295.664907
 30
0.0
 40
1.5
 50
270.0
 51
350.0
  0
ARC
  8
0
 10
844.320349
 20
302.164907
 30
0.0
 40
2.0
 50
90.0
 51
178.0
  0
ARC
  8
0
 10
844.320349
 20
302.164907
 30
0.0
 40
2.0
 50
90.0
 51
178.0
  0
ARC
  8
0
 10
841.141046
 20
301.964907
 30
0.0
 40
0.2
 50
90.0
 51
144.314665
  0
ARC
  8
0
 10
841.700955
 20
301.964907
 30
0.0
 40
0.2
 50
30.0
 51
90.0
  0
ARC
  8
0
 10
838.263484
 20
301.464907
 30
0.0
 40
1.2
 50
0.0
 51
90.0
  0
ARC
  8
0
 10
823.939764
 20
296.164907
 30
0.0
 40
0.3
 50
270.0
 51
0.0
  0
ARC
  8
0
 10
821.515397
 20
295.664907
 30
0.0
 40
1.5
 50
190.0
 51
270.0
  0
LINE
  8
0
 10
812.039764
 20
351.864907
 30
0.0
 11
790.039764
 21
351.864907
 31
0.0
  0
LINE
  8
0
 10
938.039764
 20
351.864907
 30
0.0
 11
960.039764
 21
351.864907
 31
0.0
  0
LINE
  8
0
 10
790.039764
 20
365.775695
 30
0.0
 11
796.128976
 21
371.864907
 31
0.0
  0
LINE
  8
0
 10
790.039764
 20
358.704627
 30
0.0
 11
803.200044
 21
371.864907
 31
0.0
  0
LINE
  8
0
 10
790.271112
 20
351.864907
 30
0.0
 11
810.271112
 21
371.864907
 31
0.0
  0
LINE
  8
0
 10
797.34218
 20
351.864907
 30
0.0
 11
817.34218
 21
371.864907
 31
0.0
  0
LINE
  8
0
 10
804.413247
 20
351.864907
 30
0.0
 11
824.413247
 21
371.864907
 31
0.0
  0
LINE
  8
0
 10
811.484315
 20
351.864907
 30
0.0
 11
831.484315
 21
371.864907
 31
0.0
  0
LINE
  8
0
 10
818.555383
 20
351.864907
 30
0.0
 11
838.555383
 21
371.864907
 31
0.0
  0
LINE
  8
0
 10
825.626451
 20
351.864907
 30
0.0
 11
845.626451
 21
371.864907
 31
0.0
  0
LINE
  8
0
 10
832.697519
 20
351.864907
 30
0.0
 11
852.697519
 21
371.864907
 31
0.0
  0
LINE
  8
0
 10
839.768587
 20
351.864907
 30
0.0
 11
859.768587
 21
371.864907
 31
0.0
  0
LINE
  8
0
 10
846.839654
 20
351.864907
 30
0.0
 11
866.839654
 21
371.864907
 31
0.0
  0
LINE
  8
0
 10
853.910722
 20
351.864907
 30
0.0
 11
873.910722
 21
371.864907
 31
0.0
  0
LINE
  8
0
 10
860.98179
 20
351.864907
 30
0.0
 11
880.98179
 21
371.864907
 31
0.0
  0
LINE
  8
0
 10
868.052858
 20
351.864907
 30
0.0
 11
888.052858
 21
371.864907
 31
0.0
  0
LINE
  8
0
 10
875.123926
 20
351.864907
 30
0.0
 11
895.123926
 21
371.864907
 31
0.0
  0
LINE
  8
0
 10
882.194993
 20
351.864907
 30
0.0
 11
902.194993
 21
371.864907
 31
0.0
  0
LINE
  8
0
 10
889.266061
 20
351.864907
 30
0.0
 11
909.266061
 21
371.864907
 31
0.0
  0
LINE
  8
0
 10
896.337129
 20
351.864907
 30
0.0
 11
916.337129
 21
371.864907
 31
0.0
  0
LINE
  8
0
 10
903.408197
 20
351.864907
 30
0.0
 11
923.408197
 21
371.864907
 31
0.0
  0
LINE
  8
0
 10
910.479265
 20
351.864907
 30
0.0
 11
930.479265
 21
371.864907
 31
0.0
  0
LINE
  8
0
 10
917.550332
 20
351.864907
 30
0.0
 11
937.550332
 21
371.864907
 31
0.0
  0
LINE
  8
0
 10
924.6214
 20
351.864907
 30
0.0
 11
944.6214
 21
371.864907
 31
0.0
  0
LINE
  8
0
 10
931.692468
 20
351.864907
 30
0.0
 11
951.692468
 21
371.864907
 31
0.0
  0
LINE
  8
0
 10
938.763536
 20
351.864907
 30
0.0
 11
958.763536
 21
371.864907
 31
0.0
  0
LINE
  8
0
 10
945.834604
 20
351.864907
 30
0.0
 11
960.039764
 21
366.070067
 31
0.0
  0
LINE
  8
0
 10
952.905671
 20
351.864907
 30
0.0
 11
960.039764
 21
358.999
 31
0.0
  0
LINE
  8
0
 10
959.976739
 20
351.864907
 30
0.0
 11
960.039764
 21
351.927932
 31
0.0
  0
ENDSEC
  0
EOF
