  0
SECTION
  2
HEADER
  9
$ACADVER
  1
AC1009
  9
$INSBASE
 10
0.0
 20
0.0
 30
0.0
  9
$EXTMIN
 10
835.039764
 20
262.764907
 30
0.0
  9
$EXTMAX
 10
955.039764
 20
456.864907
 30
0.0
  9
$LIMMIN
 10
835.039764
 20
262.764907
  9
$LIMMAX
 10
955.039764
 20
456.864907
  9
$ORTHOMODE
 70
     0
  9
$REGENMODE
 70
     1
  9
$FILLMODE
 70
     1
  9
$QTEXTMODE
 70
     0
  9
$MIRRTEXT
 70
     1
  9
$DRAGMODE
 70
     2
  9
$LTSCALE
 40
1.0
  9
$OSMODE
 70
     0
  9
$ATTMODE
 70
     1
  9
$TEXTSIZE
 40
3.5
  9
$TRACEWID
 40
0.5
  9
$TEXTSTYLE
  7
STANDARD
  9
$CLAYER
  8
0
  9
$CELTYPE
  6
BYLAYER
  9
$CECOLOR
 62
   256
  9
$DIMSCALE
 40
1.0
  9
$DIMASZ
 40
0.18
  9
$DIMEXO
 40
0.0625
  9
$DIMDLI
 40
0.38
  9
$DIMRND
 40
0.0
  9
$DIMDLE
 40
0.0
  9
$DIMEXE
 40
0.18
  9
$DIMTP
 40
0.0
  9
$DIMTM
 40
0.0
  9
$DIMTXT
 40
0.18
  9
$DIMCEN
 40
0.09
  9
$DIMTSZ
 40
0.0
  9
$DIMTOL
 70
     0
  9
$DIMLIM
 70
     0
  9
$DIMTIH
 70
     1
  9
$DIMTOH
 70
     1
  9
$DIMSE1
 70
     0
  9
$DIMSE2
 70
     0
  9
$DIMTAD
 70
     0
  9
$DIMZIN
 70
     0
  9
$DIMBLK
  1

  9
$DIMASO
 70
     1
  9
$DIMSHO
 70
     1
  9
$DIMPOST
  1

  9
$DIMAPOST
  1

  9
$DIMALT
 70
     0
  9
$DIMALTD
 70
     2
  9
$DIMALTF
 40
25.4
  9
$DIMLFAC
 40
1.0
  9
$DIMTOFL
 70
     0
  9
$DIMTVP
 40
0.0
  9
$DIMTIX
 70
     0
  9
$DIMSOXD
 70
     0
  9
$DIMSAH
 70
     0
  9
$DIMBLK1
  1

  9
$DIMBLK2
  1

  9
$DIMSTYLE
  2
*UNNAMED
  9
$DIMCLRD
 70
     0
  9
$DIMCLRE
 70
     0
  9
$DIMCLRT
 70
     0
  9
$DIMTFAC
 40
1.0
  9
$DIMGAP
 40
0.09
  9
$LUNITS
 70
     2
  9
$LUPREC
 70
     4
  9
$SKETCHINC
 40
0.1
  9
$FILLETRAD
 40
2.0
  9
$AUNITS
 70
     0
  9
$AUPREC
 70
     0
  9
$MENU
  1
ACAD
  9
$ELEVATION
 40
0.0
  9
$PELEVATION
 40
0.0
  9
$THICKNESS
 40
0.0
  9
$LIMCHECK
 70
     0
  9
$BLIPMODE
 70
     1
  9
$CHAMFERA
 40
0.0
  9
$CHAMFERB
 40
0.0
  9
$SKPOLY
 70
     0
  9
$TDCREATE
 40
2450952.566319907
  9
$TDUPDATE
 40
2450952.566796065
  9
$TDINDWG
 40
0.0003018519
  9
$TDUSRTIMER
 40
0.0003018519
  9
$USRTIMER
 70
     1
  9
$ANGBASE
 50
0.0
  9
$ANGDIR
 70
     0
  9
$PDMODE
 70
     0
  9
$PDSIZE
 40
0.0
  9
$PLINEWID
 40
0.0
  9
$COORDS
 70
     2
  9
$SPLFRAME
 70
     0
  9
$SPLINETYPE
 70
     6
  9
$SPLINESEGS
 70
     8
  9
$ATTDIA
 70
     0
  9
$ATTREQ
 70
     1
  9
$HANDLING
 70
     0
  9
$HANDSEED
  5
0
  9
$SURFTAB1
 70
     6
  9
$SURFTAB2
 70
     6
  9
$SURFTYPE
 70
     6
  9
$SURFU
 70
     6
  9
$SURFV
 70
     6
  9
$UCSNAME
  2

  9
$UCSORG
 10
0.0
 20
0.0
 30
0.0
  9
$UCSXDIR
 10
1.0
 20
0.0
 30
0.0
  9
$UCSYDIR
 10
0.0
 20
1.0
 30
0.0
  9
$PUCSNAME
  2

  9
$PUCSORG
 10
0.0
 20
0.0
 30
0.0
  9
$PUCSXDIR
 10
1.0
 20
0.0
 30
0.0
  9
$PUCSYDIR
 10
0.0
 20
1.0
 30
0.0
  9
$USERI1
 70
     0
  9
$USERI2
 70
     0
  9
$USERI3
 70
     0
  9
$USERI4
 70
     0
  9
$USERI5
 70
     0
  9
$USERR1
 40
0.0
  9
$USERR2
 40
0.0
  9
$USERR3
 40
0.0
  9
$USERR4
 40
0.0
  9
$USERR5
 40
0.0
  9
$WORLDVIEW
 70
     1
  9
$SHADEDGE
 70
     3
  9
$SHADEDIF
 70
    70
  9
$TILEMODE
 70
     1
  9
$MAXACTVP
 70
    16
  9
$PINSBASE
 10
0.0
 20
0.0
 30
0.0
  9
$PLIMCHECK
 70
     0
  9
$PEXTMIN
 10
1.000000E+20
 20
1.000000E+20
 30
1.000000E+20
  9
$PEXTMAX
 10
-1.000000E+20
 20
-1.000000E+20
 30
-1.000000E+20
  9
$PLIMMIN
 10
0.0
 20
0.0
  9
$PLIMMAX
 10
420.0
 20
297.0
  9
$UNITMODE
 70
     0
  9
$VISRETAIN
 70
     0
  9
$PLINEGEN
 70
     0
  9
$PSLTSCALE
 70
     1
  9
$TREEDEPTH
 70
  3020
  9
$DWGCODEPAGE
  3
iso8859-1
  0
ENDSEC
  0
SECTION
  2
TABLES
  0
TABLE
  2
VPORT
 70
     2
  0
VPORT
  2
*ACTIVE
 70
     0
 10
0.0
 20
0.0
 11
1.0
 21
1.0
 12
997.668662
 22
348.6197
 13
0.0
 23
0.0
 14
1.0
 24
1.0
 15
0.0
 25
0.0
 16
0.0
 26
0.0
 36
1.0
 17
0.0
 27
0.0
 37
0.0
 40
258.502528
 41
1.748359
 42
50.0
 43
0.0
 44
0.0
 50
0.0
 51
0.0
 71
     0
 72
   100
 73
     1
 74
     0
 75
     0
 76
     0
 77
     0
 78
     0
  0
ENDTAB
  0
TABLE
  2
LTYPE
 70
     1
  0
LTYPE
  2
CONTINUOUS
 70
    64
  3
Solid line
 72
    65
 73
     0
 40
0.0
  0
ENDTAB
  0
TABLE
  2
LAYER
 70
     1
  0
LAYER
  2
0
 70
    64
 62
     7
  6
CONTINUOUS
  0
ENDTAB
  0
TABLE
  2
STYLE
 70
     1
  0
STYLE
  2
STANDARD
 70
     0
 40
0.0
 41
1.0
 50
0.0
 71
     0
 42
3.5
  3
txt
  4

  0
ENDTAB
  0
TABLE
  2
VIEW
 70
     0
  0
ENDTAB
  0
TABLE
  2
UCS
 70
     0
  0
ENDTAB
  0
TABLE
  2
APPID
 70
     1
  0
APPID
  2
ACAD
 70
    64
  0
ENDTAB
  0
TABLE
  2
DIMSTYLE
 70
     0
  0
ENDTAB
  0
ENDSEC
  0
SECTION
  2
BLOCKS
  0
ENDSEC
  0
SECTION
  2
ENTITIES
  0
LINE
  8
0
 10
855.039764
 20
436.864907
 30
0.0
 11
935.039764
 21
436.864907
 31
0.0
  0
LINE
  8
0
 10
855.039764
 20
262.764907
 30
0.0
 11
855.039764
 21
436.864907
 31
0.0
  0
LINE
  8
0
 10
875.039764
 20
262.764907
 30
0.0
 11
855.039764
 21
262.764907
 31
0.0
  0
LINE
  8
0
 10
875.039764
 20
416.864907
 30
0.0
 11
875.039764
 21
262.764907
 31
0.0
  0
LINE
  8
0
 10
935.039764
 20
416.864907
 30
0.0
 11
875.039764
 21
416.864907
 31
0.0
  0
LINE
  8
0
 10
935.039764
 20
436.864907
 30
0.0
 11
955.039764
 21
436.864907
 31
0.0
  0
LINE
  8
0
 10
935.039764
 20
436.864907
 30
0.0
 11
935.039764
 21
416.864907
 31
0.0
  0
LINE
  8
0
 10
925.500533
 20
270.164907
 30
0.0
 11
925.06752
 21
269.414907
 31
0.0
  0
LINE
  8
0
 10
929.539764
 20
393.764907
 30
0.0
 11
928.939764
 21
393.764907
 31
0.0
  0
LINE
  8
0
 10
929.539764
 20
395.164907
 30
0.0
 11
928.939764
 21
395.164907
 31
0.0
  0
LINE
  8
0
 10
929.539764
 20
269.964907
 30
0.0
 11
928.939764
 21
269.964907
 31
0.0
  0
LINE
  8
0
 10
879.339764
 20
269.164907
 30
0.0
 11
921.057157
 21
269.164907
 31
0.0
  0
LINE
  8
0
 10
882.349814
 20
334.364907
 30
0.0
 11
881.698342
 21
335.016379
 31
0.0
  0
LINE
  8
0
 10
881.698342
 20
335.016379
 30
0.0
 11
881.193317
 21
334.511354
 31
0.0
  0
LINE
  8
0
 10
880.339764
 20
334.864907
 30
0.0
 11
880.339764
 21
336.864907
 31
0.0
  0
LINE
  8
0
 10
881.193317
 20
337.218461
 30
0.0
 11
883.08621
 21
335.325568
 31
0.0
  0
LINE
  8
0
 10
882.02555
 20
332.764907
 30
0.0
 11
878.239764
 21
332.764907
 31
0.0
  0
LINE
  8
0
 10
882.349814
 20
334.364907
 30
0.0
 11
878.339764
 21
334.364907
 31
0.0
  0
LINE
  8
0
 10
881.698342
 20
328.713436
 30
0.0
 11
882.349814
 21
329.364907
 31
0.0
  0
LINE
  8
0
 10
881.193317
 20
329.218461
 30
0.0
 11
881.698342
 21
328.713436
 31
0.0
  0
LINE
  8
0
 10
880.339764
 20
326.864907
 30
0.0
 11
880.339764
 21
328.864907
 31
0.0
  0
LINE
  8
0
 10
883.08621
 20
328.404247
 30
0.0
 11
881.193317
 21
326.511354
 31
0.0
  0
LINE
  8
0
 10
878.239764
 20
330.964907
 30
0.0
 11
882.02555
 21
330.964907
 31
0.0
  0
LINE
  8
0
 10
878.339764
 20
329.364907
 30
0.0
 11
882.349814
 21
329.364907
 31
0.0
  0
LINE
  8
0
 10
929.139764
 20
274.264907
 30
0.0
 11
926.939764
 21
274.264907
 31
0.0
  0
LINE
  8
0
 10
931.539764
 20
274.264907
 30
0.0
 11
932.539764
 21
274.264907
 31
0.0
  0
LINE
  8
0
 10
933.039764
 20
273.764907
 30
0.0
 11
933.039764
 21
272.064907
 31
0.0
  0
LINE
  8
0
 10
929.539764
 20
268.564907
 30
0.0
 11
928.939764
 21
268.564907
 31
0.0
  0
LINE
  8
0
 10
931.639764
 20
272.064907
 30
0.0
 11
931.639764
 21
272.364907
 31
0.0
  0
LINE
  8
0
 10
931.139764
 20
272.864907
 30
0.0
 11
927.581216
 21
272.864907
 31
0.0
  0
LINE
  8
0
 10
931.039764
 20
274.764907
 30
0.0
 11
931.039764
 21
276.782136
 31
0.0
  0
LINE
  8
0
 10
930.039764
 20
280.564907
 30
0.0
 11
926.039764
 21
280.564907
 31
0.0
  0
LINE
  8
0
 10
929.639764
 20
274.764907
 30
0.0
 11
929.639764
 21
276.535278
 31
0.0
  0
LINE
  8
0
 10
929.139764
 20
279.164907
 30
0.0
 11
926.939764
 21
279.164907
 31
0.0
  0
LINE
  8
0
 10
926.439764
 20
274.764907
 30
0.0
 11
926.439764
 21
278.664907
 31
0.0
  0
LINE
  8
0
 10
877.039764
 20
396.864907
 30
0.0
 11
922.385063
 21
396.864907
 31
0.0
  0
LINE
  8
0
 10
879.339764
 20
394.564907
 30
0.0
 11
921.057157
 21
394.564907
 31
0.0
  0
LINE
  8
0
 10
932.539764
 20
389.464907
 30
0.0
 11
931.539764
 21
389.464907
 31
0.0
  0
LINE
  8
0
 10
933.039764
 20
391.664907
 30
0.0
 11
933.039764
 21
389.964907
 31
0.0
  0
LINE
  8
0
 10
931.639764
 20
391.364907
 30
0.0
 11
931.639764
 21
391.664907
 31
0.0
  0
LINE
  8
0
 10
927.588434
 20
390.864907
 30
0.0
 11
931.139764
 21
390.864907
 31
0.0
  0
LINE
  8
0
 10
926.039764
 20
383.164907
 30
0.0
 11
930.039764
 21
383.164907
 31
0.0
  0
LINE
  8
0
 10
926.939764
 20
384.564907
 30
0.0
 11
929.139764
 21
384.564907
 31
0.0
  0
LINE
  8
0
 10
926.439764
 20
388.964907
 30
0.0
 11
926.439764
 21
385.064907
 31
0.0
  0
LINE
  8
0
 10
931.039764
 20
384.164907
 30
0.0
 11
931.039764
 21
388.964907
 31
0.0
  0
LINE
  8
0
 10
931.039764
 20
278.764907
 30
0.0
 11
931.039764
 21
279.564907
 31
0.0
  0
LINE
  8
0
 10
924.117114
 20
267.864907
 30
0.0
 11
926.71519
 21
272.364907
 31
0.0
  0
LINE
  8
0
 10
927.588434
 20
390.864907
 30
0.0
 11
927.581216
 21
390.864907
 31
0.0
  0
LINE
  8
0
 10
926.71519
 20
391.364907
 30
0.0
 11
924.117114
 21
395.864907
 31
0.0
  0
LINE
  8
0
 10
922.789208
 20
270.164907
 30
0.0
 11
925.039764
 21
274.062984
 31
0.0
  0
LINE
  8
0
 10
925.039764
 20
274.062984
 30
0.0
 11
925.039764
 21
279.564907
 31
0.0
  0
LINE
  8
0
 10
922.789208
 20
393.564907
 30
0.0
 11
925.039764
 21
389.666831
 31
0.0
  0
LINE
  8
0
 10
925.039764
 20
389.666831
 30
0.0
 11
925.039764
 21
384.164907
 31
0.0
  0
LINE
  8
0
 10
922.385063
 20
266.864907
 30
0.0
 11
877.039764
 21
266.864907
 31
0.0
  0
LINE
  8
0
 10
875.039764
 20
268.864907
 30
0.0
 11
875.039764
 21
394.864907
 31
0.0
  0
LINE
  8
0
 10
882.349814
 20
304.364907
 30
0.0
 11
881.698342
 21
305.016379
 31
0.0
  0
LINE
  8
0
 10
881.698342
 20
305.016379
 30
0.0
 11
881.193317
 21
304.511354
 31
0.0
  0
LINE
  8
0
 10
880.339764
 20
304.864907
 30
0.0
 11
880.339764
 21
306.864907
 31
0.0
  0
LINE
  8
0
 10
881.193317
 20
307.218461
 30
0.0
 11
883.08621
 21
305.325568
 31
0.0
  0
LINE
  8
0
 10
882.02555
 20
302.764907
 30
0.0
 11
878.239764
 21
302.764907
 31
0.0
  0
LINE
  8
0
 10
882.349814
 20
304.364907
 30
0.0
 11
878.339764
 21
304.364907
 31
0.0
  0
LINE
  8
0
 10
881.698342
 20
298.713436
 30
0.0
 11
882.349814
 21
299.364907
 31
0.0
  0
LINE
  8
0
 10
881.193317
 20
299.218461
 30
0.0
 11
881.698342
 21
298.713436
 31
0.0
  0
LINE
  8
0
 10
880.339764
 20
296.864907
 30
0.0
 11
880.339764
 21
298.864907
 31
0.0
  0
LINE
  8
0
 10
883.08621
 20
298.404247
 30
0.0
 11
881.193317
 21
296.511354
 31
0.0
  0
LINE
  8
0
 10
878.239764
 20
300.964907
 30
0.0
 11
882.02555
 21
300.964907
 31
0.0
  0
LINE
  8
0
 10
878.339764
 20
299.364907
 30
0.0
 11
882.349814
 21
299.364907
 31
0.0
  0
LINE
  8
0
 10
882.349814
 20
364.364907
 30
0.0
 11
881.698342
 21
365.016379
 31
0.0
  0
LINE
  8
0
 10
881.698342
 20
365.016379
 30
0.0
 11
881.193317
 21
364.511354
 31
0.0
  0
LINE
  8
0
 10
880.339764
 20
364.864907
 30
0.0
 11
880.339764
 21
366.864907
 31
0.0
  0
LINE
  8
0
 10
881.193317
 20
367.218461
 30
0.0
 11
883.08621
 21
365.325568
 31
0.0
  0
LINE
  8
0
 10
882.02555
 20
362.764907
 30
0.0
 11
878.239764
 21
362.764907
 31
0.0
  0
LINE
  8
0
 10
882.349814
 20
364.364907
 30
0.0
 11
878.339764
 21
364.364907
 31
0.0
  0
LINE
  8
0
 10
881.698342
 20
358.713436
 30
0.0
 11
882.349814
 21
359.364907
 31
0.0
  0
LINE
  8
0
 10
881.193317
 20
359.218461
 30
0.0
 11
881.698342
 21
358.713436
 31
0.0
  0
LINE
  8
0
 10
880.339764
 20
356.864907
 30
0.0
 11
880.339764
 21
358.864907
 31
0.0
  0
LINE
  8
0
 10
883.08621
 20
358.404247
 30
0.0
 11
881.193317
 21
356.511354
 31
0.0
  0
LINE
  8
0
 10
878.239764
 20
360.964907
 30
0.0
 11
882.02555
 21
360.964907
 31
0.0
  0
LINE
  8
0
 10
878.339764
 20
359.364907
 30
0.0
 11
882.349814
 21
359.364907
 31
0.0
  0
LINE
  8
0
 10
877.339764
 20
392.564907
 30
0.0
 11
877.339764
 21
365.364907
 31
0.0
  0
LINE
  8
0
 10
877.339764
 20
358.364907
 30
0.0
 11
877.339764
 21
335.364907
 31
0.0
  0
LINE
  8
0
 10
877.339764
 20
328.364907
 30
0.0
 11
877.339764
 21
305.364907
 31
0.0
  0
LINE
  8
0
 10
877.339764
 20
298.364907
 30
0.0
 11
877.339764
 21
271.164907
 31
0.0
  0
LINE
  8
0
 10
929.639764
 20
278.562457
 30
0.0
 11
929.639764
 21
278.664907
 31
0.0
  0
LINE
  8
0
 10
931.039764
 20
278.764907
 30
0.0
 11
931.039764
 21
276.782136
 31
0.0
  0
LINE
  8
0
 10
929.639764
 20
278.562457
 30
0.0
 11
929.639764
 21
276.535278
 31
0.0
  0
LINE
  8
0
 10
929.639764
 20
385.064907
 30
0.0
 11
929.639764
 21
388.964907
 31
0.0
  0
LINE
  8
0
 10
929.139764
 20
389.464907
 30
0.0
 11
926.939764
 21
389.464907
 31
0.0
  0
LINE
  8
0
 10
835.039764
 20
436.864907
 30
0.0
 11
855.039764
 21
436.864907
 31
0.0
  0
ARC
  8
0
 10
880.839764
 20
326.864907
 30
0.0
 40
0.5
 50
180.0
 51
270.0
  0
ARC
  8
0
 10
880.839764
 20
336.864907
 30
0.0
 40
0.5
 50
45.0
 51
90.0
  0
ARC
  8
0
 10
880.839764
 20
334.864907
 30
0.0
 40
0.5
 50
180.0
 51
315.0
  0
ARC
  8
0
 10
880.839764
 20
336.864907
 30
0.0
 40
0.5
 50
90.0
 51
180.0
  0
ARC
  8
0
 10
882.02555
 20
334.264907
 30
0.0
 40
1.5
 50
270.0
 51
45.0
  0
ARC
  8
0
 10
880.839764
 20
328.864907
 30
0.0
 40
0.5
 50
45.0
 51
180.0
  0
ARC
  8
0
 10
880.839764
 20
326.864907
 30
0.0
 40
0.5
 50
270.0
 51
315.0
  0
ARC
  8
0
 10
882.02555
 20
329.464907
 30
0.0
 40
1.5
 50
315.0
 51
90.0
  0
ARC
  8
0
 10
880.839764
 20
296.864907
 30
0.0
 40
0.5
 50
180.0
 51
270.0
  0
ARC
  8
0
 10
880.839764
 20
306.864907
 30
0.0
 40
0.5
 50
45.0
 51
90.0
  0
ARC
  8
0
 10
880.839764
 20
304.864907
 30
0.0
 40
0.5
 50
180.0
 51
315.0
  0
ARC
  8
0
 10
880.839764
 20
306.864907
 30
0.0
 40
0.5
 50
90.0
 51
180.0
  0
ARC
  8
0
 10
882.02555
 20
304.264907
 30
0.0
 40
1.5
 50
270.0
 51
45.0
  0
ARC
  8
0
 10
880.839764
 20
298.864907
 30
0.0
 40
0.5
 50
45.0
 51
180.0
  0
ARC
  8
0
 10
880.839764
 20
296.864907
 30
0.0
 40
0.5
 50
270.0
 51
315.0
  0
ARC
  8
0
 10
882.02555
 20
299.464907
 30
0.0
 40
1.5
 50
315.0
 51
90.0
  0
ARC
  8
0
 10
880.839764
 20
356.864907
 30
0.0
 40
0.5
 50
180.0
 51
270.0
  0
ARC
  8
0
 10
880.839764
 20
366.864907
 30
0.0
 40
0.5
 50
45.0
 51
90.0
  0
ARC
  8
0
 10
880.839764
 20
364.864907
 30
0.0
 40
0.5
 50
180.0
 51
315.0
  0
ARC
  8
0
 10
880.839764
 20
366.864907
 30
0.0
 40
0.5
 50
90.0
 51
180.0
  0
ARC
  8
0
 10
882.02555
 20
364.264907
 30
0.0
 40
1.5
 50
270.0
 51
45.0
  0
ARC
  8
0
 10
880.839764
 20
358.864907
 30
0.0
 40
0.5
 50
45.0
 51
180.0
  0
ARC
  8
0
 10
880.839764
 20
356.864907
 30
0.0
 40
0.5
 50
270.0
 51
315.0
  0
ARC
  8
0
 10
882.02555
 20
359.464907
 30
0.0
 40
1.5
 50
315.0
 51
90.0
  0
ARC
  8
0
 10
879.339764
 20
271.164907
 30
0.0
 40
2.0
 50
180.0
 51
270.0
  0
ARC
  8
0
 10
878.339764
 20
328.364907
 30
0.0
 40
1.0
 50
90.0
 51
180.0
  0
ARC
  8
0
 10
878.339764
 20
335.364907
 30
0.0
 40
1.0
 50
180.0
 51
270.0
  0
ARC
  8
0
 10
878.239764
 20
331.864907
 30
0.0
 40
0.9
 50
90.0
 51
270.0
  0
ARC
  8
0
 10
926.939764
 20
274.764907
 30
0.0
 40
0.5
 50
180.0
 51
270.0
  0
ARC
  8
0
 10
929.139764
 20
274.764907
 30
0.0
 40
0.5
 50
270.0
 51
0.0
  0
ARC
  8
0
 10
931.539764
 20
274.764907
 30
0.0
 40
0.5
 50
180.0
 51
270.0
  0
ARC
  8
0
 10
932.539764
 20
273.764907
 30
0.0
 40
0.5
 50
0.0
 51
90.0
  0
ARC
  8
0
 10
926.039764
 20
279.564907
 30
0.0
 40
1.0
 50
90.0
 51
180.0
  0
ARC
  8
0
 10
930.039764
 20
279.564907
 30
0.0
 40
1.0
 50
0.0
 51
90.0
  0
ARC
  8
0
 10
929.539764
 20
272.064907
 30
0.0
 40
3.5
 50
270.0
 51
0.0
  0
ARC
  8
0
 10
929.539764
 20
272.064907
 30
0.0
 40
2.1
 50
270.0
 51
0.0
  0
ARC
  8
0
 10
931.139764
 20
272.364907
 30
0.0
 40
0.5
 50
0.0
 51
90.0
  0
ARC
  8
0
 10
928.939764
 20
269.264907
 30
0.0
 40
0.7
 50
180.0
 51
270.0
  0
ARC
  8
0
 10
928.939764
 20
269.264907
 30
0.0
 40
0.7
 50
90.0
 51
180.0
  0
ARC
  8
0
 10
879.339764
 20
392.564907
 30
0.0
 40
2.0
 50
90.0
 51
180.0
  0
ARC
  8
0
 10
926.939764
 20
388.964907
 30
0.0
 40
0.5
 50
90.0
 51
180.0
  0
ARC
  8
0
 10
931.539764
 20
388.964907
 30
0.0
 40
0.5
 50
90.0
 51
180.0
  0
ARC
  8
0
 10
932.539764
 20
389.964907
 30
0.0
 40
0.5
 50
270.0
 51
0.0
  0
ARC
  8
0
 10
926.039764
 20
384.164907
 30
0.0
 40
1.0
 50
180.0
 51
270.0
  0
ARC
  8
0
 10
930.039764
 20
384.164907
 30
0.0
 40
1.0
 50
270.0
 51
0.0
  0
ARC
  8
0
 10
929.539764
 20
391.664907
 30
0.0
 40
3.5
 50
0.0
 51
90.0
  0
ARC
  8
0
 10
929.539764
 20
391.664907
 30
0.0
 40
2.1
 50
0.0
 51
90.0
  0
ARC
  8
0
 10
931.139764
 20
391.364907
 30
0.0
 40
0.5
 50
270.0
 51
0.0
  0
ARC
  8
0
 10
928.939764
 20
394.464907
 30
0.0
 40
0.7
 50
90.0
 51
180.0
  0
ARC
  8
0
 10
928.939764
 20
394.464907
 30
0.0
 40
0.7
 50
180.0
 51
270.0
  0
ARC
  8
0
 10
929.139764
 20
278.664907
 30
0.0
 40
0.5
 50
0.0
 51
90.0
  0
ARC
  8
0
 10
926.939764
 20
278.664907
 30
0.0
 40
0.5
 50
90.0
 51
180.0
  0
ARC
  8
0
 10
929.139764
 20
385.064907
 30
0.0
 40
0.5
 50
270.0
 51
0.0
  0
ARC
  8
0
 10
926.939764
 20
385.064907
 30
0.0
 40
0.5
 50
180.0
 51
270.0
  0
ARC
  8
0
 10
922.385063
 20
268.864907
 30
0.0
 40
2.0
 50
270.0
 51
330.0
  0
ARC
  8
0
 10
927.581216
 20
271.864907
 30
0.0
 40
1.0
 50
90.0
 51
150.0
  0
ARC
  8
0
 10
922.385063
 20
394.864907
 30
0.0
 40
2.0
 50
30.0
 51
90.0
  0
ARC
  8
0
 10
927.581216
 20
391.864907
 30
0.0
 40
1.0
 50
210.0
 51
270.0
  0
ARC
  8
0
 10
921.057157
 20
271.164907
 30
0.0
 40
2.0
 50
270.0
 51
330.0
  0
ARC
  8
0
 10
921.057157
 20
392.564907
 30
0.0
 40
2.0
 50
30.0
 51
90.0
  0
ARC
  8
0
 10
877.039764
 20
394.864907
 30
0.0
 40
2.0
 50
90.0
 51
180.0
  0
ARC
  8
0
 10
877.039764
 20
268.864907
 30
0.0
 40
2.0
 50
180.0
 51
270.0
  0
ARC
  8
0
 10
878.339764
 20
298.364907
 30
0.0
 40
1.0
 50
90.0
 51
180.0
  0
ARC
  8
0
 10
878.339764
 20
305.364907
 30
0.0
 40
1.0
 50
180.0
 51
270.0
  0
ARC
  8
0
 10
878.239764
 20
301.864907
 30
0.0
 40
0.9
 50
90.0
 51
270.0
  0
ARC
  8
0
 10
878.339764
 20
358.364907
 30
0.0
 40
1.0
 50
90.0
 51
180.0
  0
ARC
  8
0
 10
878.339764
 20
365.364907
 30
0.0
 40
1.0
 50
180.0
 51
270.0
  0
ARC
  8
0
 10
878.239764
 20
361.864907
 30
0.0
 40
0.9
 50
90.0
 51
270.0
  0
ARC
  8
0
 10
929.139764
 20
388.964907
 30
0.0
 40
0.5
 50
0.0
 51
90.0
  0
LINE
  8
0
 10
887.152092
 20
359.319601
 30
0.0
 11
920.029827
 21
359.319601
 31
0.0
  0
LINE
  8
0
 10
886.532316
 20
360.8164
 30
0.0
 11
891.306976
 21
360.8164
 31
0.0
  0
LINE
  8
0
 10
886.532316
 20
362.821827
 30
0.0
 11
891.306976
 21
362.810411
 31
0.0
  0
LINE
  8
0
 10
887.152092
 20
364.291974
 30
0.0
 11
920.029827
 21
364.30721
 31
0.0
  0
LINE
  8
0
 10
885.388511
 20
365.141424
 30
0.0
 11
881.623172
 21
368.906763
 31
0.0
  0
LINE
  8
0
 10
881.623172
 20
368.906763
 30
0.0
 11
885.388511
 21
365.141424
 31
0.0
  0
LINE
  8
0
 10
878.337762
 20
369.198375
 30
0.0
 11
880.916985
 21
369.198375
 31
0.0
  0
LINE
  8
0
 10
880.404676
 20
367.162252
 30
0.0
 11
879.540962
 21
366.298737
 31
0.0
  0
LINE
  8
0
 10
879.540962
 20
366.298737
 30
0.0
 11
880.404676
 21
367.162252
 31
0.0
  0
LINE
  8
0
 10
879.69829
 20
367.866651
 30
0.0
 11
878.836761
 21
367.004924
 31
0.0
  0
LINE
  8
0
 10
878.836761
 20
367.004924
 30
0.0
 11
879.69829
 21
367.866651
 31
0.0
  0
LINE
  8
0
 10
878.836761
 20
367.004924
 30
0.0
 11
878.337762
 21
367.503923
 31
0.0
  0
LINE
  8
0
 10
878.337762
 20
367.503923
 30
0.0
 11
878.836761
 21
367.004924
 31
0.0
  0
LINE
  8
0
 10
878.337762
 20
368.200575
 30
0.0
 11
878.337762
 21
367.503923
 31
0.0
  0
LINE
  8
0
 10
880.210797
 20
368.200575
 30
0.0
 11
878.337762
 21
368.200575
 31
0.0
  0
LINE
  8
0
 10
880.210797
 20
368.200575
 30
0.0
 11
884.768536
 21
363.644625
 31
0.0
  0
LINE
  8
0
 10
878.337762
 20
368.200575
 30
0.0
 11
880.210797
 21
368.200575
 31
0.0
  0
LINE
  8
0
 10
878.337762
 20
367.503923
 30
0.0
 11
878.337762
 21
368.200575
 31
0.0
  0
LINE
  8
0
 10
877.339764
 20
367.089348
 30
0.0
 11
877.339764
 21
368.200575
 31
0.0
  0
LINE
  8
0
 10
877.339764
 20
367.089348
 30
0.0
 11
878.130376
 21
366.298737
 31
0.0
  0
LINE
  8
0
 10
877.339764
 20
355.529431
 30
0.0
 11
877.339764
 21
356.640459
 31
0.0
  0
LINE
  8
0
 10
885.388511
 20
358.588384
 30
0.0
 11
881.623172
 21
354.823244
 31
0.0
  0
LINE
  8
0
 10
881.623172
 20
354.823244
 30
0.0
 11
885.388511
 21
358.588384
 31
0.0
  0
LINE
  8
0
 10
880.916985
 20
354.531433
 30
0.0
 11
878.337762
 21
354.531433
 31
0.0
  0
LINE
  8
0
 10
880.210797
 20
355.529431
 30
0.0
 11
884.768536
 21
360.085382
 31
0.0
  0
LINE
  8
0
 10
878.337762
 20
356.226083
 30
0.0
 11
878.836761
 21
356.724884
 31
0.0
  0
LINE
  8
0
 10
878.337762
 20
355.529431
 30
0.0
 11
878.337762
 21
356.226083
 31
0.0
  0
LINE
  8
0
 10
880.210797
 20
355.529431
 30
0.0
 11
878.337762
 21
355.529431
 31
0.0
  0
LINE
  8
0
 10
878.836761
 20
356.724884
 30
0.0
 11
879.69829
 21
355.863355
 31
0.0
  0
LINE
  8
0
 10
879.69829
 20
355.863355
 30
0.0
 11
879.744376
 21
355.82303
 31
0.0
  0
LINE
  8
0
 10
879.744376
 20
355.82303
 30
0.0
 11
879.69829
 21
355.863355
 31
0.0
  0
LINE
  8
0
 10
879.744376
 20
355.82303
 30
0.0
 11
879.794236
 21
355.788466
 31
0.0
  0
LINE
  8
0
 10
879.794236
 20
355.788466
 30
0.0
 11
879.744376
 21
355.82303
 31
0.0
  0
LINE
  8
0
 10
879.794236
 20
355.788466
 30
0.0
 11
879.846083
 21
355.759662
 31
0.0
  0
LINE
  8
0
 10
879.846083
 20
355.759662
 30
0.0
 11
879.794236
 21
355.788466
 31
0.0
  0
LINE
  8
0
 10
879.846083
 20
355.759662
 30
0.0
 11
879.90369
 21
355.738606
 31
0.0
  0
LINE
  8
0
 10
879.90369
 20
355.738606
 30
0.0
 11
879.846083
 21
355.759662
 31
0.0
  0
LINE
  8
0
 10
879.90369
 20
355.738606
 30
0.0
 11
879.961298
 21
355.725098
 31
0.0
  0
LINE
  8
0
 10
879.961298
 20
355.725098
 30
0.0
 11
879.90369
 21
355.738606
 31
0.0
  0
LINE
  8
0
 10
879.961298
 20
355.725098
 30
0.0
 11
880.020693
 21
355.71735
 31
0.0
  0
LINE
  8
0
 10
880.020693
 20
355.71735
 30
0.0
 11
879.961298
 21
355.725098
 31
0.0
  0
LINE
  8
0
 10
880.020693
 20
355.71735
 30
0.0
 11
880.082273
 21
355.71735
 31
0.0
  0
LINE
  8
0
 10
880.082273
 20
355.71735
 30
0.0
 11
880.020693
 21
355.71735
 31
0.0
  0
LINE
  8
0
 10
880.082273
 20
355.71735
 30
0.0
 11
880.141668
 21
355.725098
 31
0.0
  0
LINE
  8
0
 10
880.141668
 20
355.725098
 30
0.0
 11
880.082273
 21
355.71735
 31
0.0
  0
LINE
  8
0
 10
880.141668
 20
355.725098
 30
0.0
 11
880.199276
 21
355.738606
 31
0.0
  0
LINE
  8
0
 10
880.199276
 20
355.738606
 30
0.0
 11
880.141668
 21
355.725098
 31
0.0
  0
LINE
  8
0
 10
880.199276
 20
355.738606
 30
0.0
 11
880.256883
 21
355.759662
 31
0.0
  0
LINE
  8
0
 10
880.256883
 20
355.759662
 30
0.0
 11
880.199276
 21
355.738606
 31
0.0
  0
LINE
  8
0
 10
880.256883
 20
355.759662
 30
0.0
 11
880.310518
 21
355.788466
 31
0.0
  0
LINE
  8
0
 10
880.310518
 20
355.788466
 30
0.0
 11
880.256883
 21
355.759662
 31
0.0
  0
LINE
  8
0
 10
880.310518
 20
355.788466
 30
0.0
 11
880.35859
 21
355.82303
 31
0.0
  0
LINE
  8
0
 10
880.35859
 20
355.82303
 30
0.0
 11
880.310518
 21
355.788466
 31
0.0
  0
LINE
  8
0
 10
880.35859
 20
355.82303
 30
0.0
 11
880.404676
 21
355.863355
 31
0.0
  0
LINE
  8
0
 10
880.404676
 20
355.863355
 30
0.0
 11
880.35859
 21
355.82303
 31
0.0
  0
LINE
  8
0
 10
880.404676
 20
355.863355
 30
0.0
 11
880.444803
 21
355.907455
 31
0.0
  0
LINE
  8
0
 10
880.444803
 20
355.907455
 30
0.0
 11
880.404676
 21
355.863355
 31
0.0
  0
LINE
  8
0
 10
880.444803
 20
355.907455
 30
0.0
 11
880.479367
 21
355.957315
 31
0.0
  0
LINE
  8
0
 10
880.479367
 20
355.957315
 30
0.0
 11
880.444803
 21
355.907455
 31
0.0
  0
LINE
  8
0
 10
880.479367
 20
355.957315
 30
0.0
 11
880.506383
 21
356.011148
 31
0.0
  0
LINE
  8
0
 10
880.506383
 20
356.011148
 30
0.0
 11
880.479367
 21
355.957315
 31
0.0
  0
LINE
  8
0
 10
880.506383
 20
356.011148
 30
0.0
 11
880.527439
 21
356.066769
 31
0.0
  0
LINE
  8
0
 10
880.527439
 20
356.066769
 30
0.0
 11
880.506383
 21
356.011148
 31
0.0
  0
LINE
  8
0
 10
880.527439
 20
356.066769
 30
0.0
 11
880.542735
 21
356.126164
 31
0.0
  0
LINE
  8
0
 10
880.542735
 20
356.126164
 30
0.0
 11
880.527439
 21
356.066769
 31
0.0
  0
LINE
  8
0
 10
880.542735
 20
356.126164
 30
0.0
 11
880.550482
 21
356.185758
 31
0.0
  0
LINE
  8
0
 10
880.550482
 20
356.185758
 30
0.0
 11
880.542735
 21
356.126164
 31
0.0
  0
LINE
  8
0
 10
880.550482
 20
356.185758
 30
0.0
 11
880.550482
 21
356.245153
 31
0.0
  0
LINE
  8
0
 10
880.550482
 20
356.245153
 30
0.0
 11
880.550482
 21
356.185758
 31
0.0
  0
LINE
  8
0
 10
880.550482
 20
356.245153
 30
0.0
 11
880.542735
 21
356.304747
 31
0.0
  0
LINE
  8
0
 10
880.542735
 20
356.304747
 30
0.0
 11
880.550482
 21
356.245153
 31
0.0
  0
LINE
  8
0
 10
880.542735
 20
356.304747
 30
0.0
 11
880.527439
 21
356.364143
 31
0.0
  0
LINE
  8
0
 10
880.527439
 20
356.364143
 30
0.0
 11
880.542735
 21
356.304747
 31
0.0
  0
LINE
  8
0
 10
880.527439
 20
356.364143
 30
0.0
 11
880.506383
 21
356.419763
 31
0.0
  0
LINE
  8
0
 10
880.506383
 20
356.419763
 30
0.0
 11
880.527439
 21
356.364143
 31
0.0
  0
LINE
  8
0
 10
880.506383
 20
356.419763
 30
0.0
 11
880.479367
 21
356.473597
 31
0.0
  0
LINE
  8
0
 10
880.479367
 20
356.473597
 30
0.0
 11
880.506383
 21
356.419763
 31
0.0
  0
LINE
  8
0
 10
880.479367
 20
356.473597
 30
0.0
 11
880.444803
 21
356.523457
 31
0.0
  0
LINE
  8
0
 10
880.444803
 20
356.523457
 30
0.0
 11
880.479367
 21
356.473597
 31
0.0
  0
LINE
  8
0
 10
879.540962
 20
357.43127
 30
0.0
 11
880.404676
 21
356.567556
 31
0.0
  0
LINE
  8
0
 10
879.477594
 20
357.490665
 30
0.0
 11
879.540962
 21
357.43127
 31
0.0
  0
LINE
  8
0
 10
879.408664
 20
357.542512
 30
0.0
 11
879.477594
 21
357.490665
 31
0.0
  0
LINE
  8
0
 10
879.333774
 20
357.590584
 30
0.0
 11
879.408664
 21
357.542512
 31
0.0
  0
LINE
  8
0
 10
879.256898
 20
357.628923
 30
0.0
 11
879.333774
 21
357.590584
 31
0.0
  0
LINE
  8
0
 10
879.176446
 20
357.663487
 30
0.0
 11
879.256898
 21
357.628923
 31
0.0
  0
LINE
  8
0
 10
879.09381
 20
357.688318
 30
0.0
 11
879.176446
 21
357.663487
 31
0.0
  0
LINE
  8
0
 10
879.009385
 20
357.707587
 30
0.0
 11
879.09381
 21
357.688318
 31
0.0
  0
LINE
  8
0
 10
878.922974
 20
357.719108
 30
0.0
 11
879.009385
 21
357.707587
 31
0.0
  0
LINE
  8
0
 10
878.836761
 20
357.722883
 30
0.0
 11
878.922974
 21
357.719108
 31
0.0
  0
LINE
  8
0
 10
878.748364
 20
357.719108
 30
0.0
 11
878.836761
 21
357.722883
 31
0.0
  0
LINE
  8
0
 10
878.661953
 20
357.707587
 30
0.0
 11
878.748364
 21
357.719108
 31
0.0
  0
LINE
  8
0
 10
878.577528
 20
357.688318
 30
0.0
 11
878.661953
 21
357.707587
 31
0.0
  0
LINE
  8
0
 10
878.49509
 20
357.663487
 30
0.0
 11
878.577528
 21
357.688318
 31
0.0
  0
LINE
  8
0
 10
878.41444
 20
357.628923
 30
0.0
 11
878.49509
 21
357.663487
 31
0.0
  0
LINE
  8
0
 10
878.337762
 20
357.590584
 30
0.0
 11
878.41444
 21
357.628923
 31
0.0
  0
LINE
  8
0
 10
878.262873
 20
357.542512
 30
0.0
 11
878.337762
 21
357.590584
 31
0.0
  0
LINE
  8
0
 10
878.193744
 20
357.490665
 30
0.0
 11
878.262873
 21
357.542512
 31
0.0
  0
LINE
  8
0
 10
878.130376
 20
357.43127
 30
0.0
 11
878.193744
 21
357.490665
 31
0.0
  0
LINE
  8
0
 10
877.339764
 20
356.640459
 30
0.0
 11
878.130376
 21
357.43127
 31
0.0
  0
LINE
  8
0
 10
878.130376
 20
357.43127
 30
0.0
 11
877.339764
 21
356.640459
 31
0.0
  0
LINE
  8
0
 10
878.193744
 20
357.490665
 30
0.0
 11
878.130376
 21
357.43127
 31
0.0
  0
LINE
  8
0
 10
878.262873
 20
357.542512
 30
0.0
 11
878.193744
 21
357.490665
 31
0.0
  0
LINE
  8
0
 10
878.337762
 20
357.590584
 30
0.0
 11
878.262873
 21
357.542512
 31
0.0
  0
LINE
  8
0
 10
878.41444
 20
357.628923
 30
0.0
 11
878.337762
 21
357.590584
 31
0.0
  0
LINE
  8
0
 10
878.49509
 20
357.663487
 30
0.0
 11
878.41444
 21
357.628923
 31
0.0
  0
LINE
  8
0
 10
878.577528
 20
357.688318
 30
0.0
 11
878.49509
 21
357.663487
 31
0.0
  0
LINE
  8
0
 10
878.661953
 20
357.707587
 30
0.0
 11
878.577528
 21
357.688318
 31
0.0
  0
LINE
  8
0
 10
878.748364
 20
357.719108
 30
0.0
 11
878.661953
 21
357.707587
 31
0.0
  0
LINE
  8
0
 10
878.836761
 20
357.722883
 30
0.0
 11
878.748364
 21
357.719108
 31
0.0
  0
LINE
  8
0
 10
878.922974
 20
357.719108
 30
0.0
 11
878.836761
 21
357.722883
 31
0.0
  0
LINE
  8
0
 10
879.009385
 20
357.707587
 30
0.0
 11
878.922974
 21
357.719108
 31
0.0
  0
LINE
  8
0
 10
879.09381
 20
357.688318
 30
0.0
 11
879.009385
 21
357.707587
 31
0.0
  0
LINE
  8
0
 10
879.176446
 20
357.663487
 30
0.0
 11
879.09381
 21
357.688318
 31
0.0
  0
LINE
  8
0
 10
879.256898
 20
357.628923
 30
0.0
 11
879.176446
 21
357.663487
 31
0.0
  0
LINE
  8
0
 10
879.333774
 20
357.590584
 30
0.0
 11
879.256898
 21
357.628923
 31
0.0
  0
LINE
  8
0
 10
879.408664
 20
357.542512
 30
0.0
 11
879.333774
 21
357.590584
 31
0.0
  0
LINE
  8
0
 10
879.477594
 20
357.490665
 30
0.0
 11
879.408664
 21
357.542512
 31
0.0
  0
LINE
  8
0
 10
879.540962
 20
357.43127
 30
0.0
 11
879.477594
 21
357.490665
 31
0.0
  0
LINE
  8
0
 10
880.404676
 20
356.567556
 30
0.0
 11
879.540962
 21
357.43127
 31
0.0
  0
LINE
  8
0
 10
880.444803
 20
356.523457
 30
0.0
 11
880.404676
 21
356.567556
 31
0.0
  0
LINE
  8
0
 10
880.404676
 20
356.567556
 30
0.0
 11
880.444803
 21
356.523457
 31
0.0
  0
LINE
  8
0
 10
886.532316
 20
360.8164
 30
0.0
 11
886.401805
 21
360.812626
 31
0.0
  0
LINE
  8
0
 10
886.401805
 20
360.812626
 30
0.0
 11
886.532316
 21
360.8164
 31
0.0
  0
LINE
  8
0
 10
886.401805
 20
360.812626
 30
0.0
 11
886.271294
 21
360.803091
 31
0.0
  0
LINE
  8
0
 10
886.271294
 20
360.803091
 30
0.0
 11
886.401805
 21
360.812626
 31
0.0
  0
LINE
  8
0
 10
886.271294
 20
360.803091
 30
0.0
 11
886.142572
 21
360.785808
 31
0.0
  0
LINE
  8
0
 10
886.142572
 20
360.785808
 30
0.0
 11
886.271294
 21
360.803091
 31
0.0
  0
LINE
  8
0
 10
886.142572
 20
360.785808
 30
0.0
 11
886.014048
 21
360.760779
 31
0.0
  0
LINE
  8
0
 10
886.014048
 20
360.760779
 30
0.0
 11
886.142572
 21
360.785808
 31
0.0
  0
LINE
  8
0
 10
886.014048
 20
360.760779
 30
0.0
 11
885.887311
 21
360.730188
 31
0.0
  0
LINE
  8
0
 10
885.887311
 20
360.730188
 30
0.0
 11
886.014048
 21
360.760779
 31
0.0
  0
LINE
  8
0
 10
885.887311
 20
360.730188
 30
0.0
 11
885.760774
 21
360.693637
 31
0.0
  0
LINE
  8
0
 10
885.760774
 20
360.693637
 30
0.0
 11
885.887311
 21
360.730188
 31
0.0
  0
LINE
  8
0
 10
885.760774
 20
360.693637
 30
0.0
 11
885.63801
 21
360.649537
 31
0.0
  0
LINE
  8
0
 10
885.63801
 20
360.649537
 30
0.0
 11
885.760774
 21
360.693637
 31
0.0
  0
LINE
  8
0
 10
885.63801
 20
360.649537
 30
0.0
 11
885.517035
 21
360.599677
 31
0.0
  0
LINE
  8
0
 10
885.517035
 20
360.599677
 30
0.0
 11
885.63801
 21
360.649537
 31
0.0
  0
LINE
  8
0
 10
885.517035
 20
360.599677
 30
0.0
 11
885.400032
 21
360.544056
 31
0.0
  0
LINE
  8
0
 10
885.400032
 20
360.544056
 30
0.0
 11
885.517035
 21
360.599677
 31
0.0
  0
LINE
  8
0
 10
885.400032
 20
360.544056
 30
0.0
 11
885.284817
 21
360.482476
 31
0.0
  0
LINE
  8
0
 10
885.284817
 20
360.482476
 30
0.0
 11
885.400032
 21
360.544056
 31
0.0
  0
LINE
  8
0
 10
885.284817
 20
360.482476
 30
0.0
 11
885.173575
 21
360.413545
 31
0.0
  0
LINE
  8
0
 10
885.173575
 20
360.413545
 30
0.0
 11
885.284817
 21
360.482476
 31
0.0
  0
LINE
  8
0
 10
885.173575
 20
360.413545
 30
0.0
 11
885.066108
 21
360.338656
 31
0.0
  0
LINE
  8
0
 10
885.066108
 20
360.338656
 30
0.0
 11
885.173575
 21
360.413545
 31
0.0
  0
LINE
  8
0
 10
885.066108
 20
360.338656
 30
0.0
 11
884.962415
 21
360.259992
 31
0.0
  0
LINE
  8
0
 10
884.962415
 20
360.259992
 30
0.0
 11
885.066108
 21
360.338656
 31
0.0
  0
LINE
  8
0
 10
884.962415
 20
360.259992
 30
0.0
 11
884.862694
 21
360.175567
 31
0.0
  0
LINE
  8
0
 10
884.862694
 20
360.175567
 30
0.0
 11
884.962415
 21
360.259992
 31
0.0
  0
LINE
  8
0
 10
884.862694
 20
360.175567
 30
0.0
 11
884.768536
 21
360.085382
 31
0.0
  0
LINE
  8
0
 10
884.768536
 20
360.085382
 30
0.0
 11
884.862694
 21
360.175567
 31
0.0
  0
LINE
  8
0
 10
884.862694
 20
363.566704
 30
0.0
 11
884.768536
 21
363.644625
 31
0.0
  0
LINE
  8
0
 10
884.962415
 20
363.486087
 30
0.0
 11
884.862694
 21
363.566704
 31
0.0
  0
LINE
  8
0
 10
885.066108
 20
363.40901
 30
0.0
 11
884.962415
 21
363.486087
 31
0.0
  0
LINE
  8
0
 10
885.173575
 20
363.33576
 30
0.0
 11
885.066108
 21
363.40901
 31
0.0
  0
LINE
  8
0
 10
885.284817
 20
363.266475
 30
0.0
 11
885.173575
 21
363.33576
 31
0.0
  0
LINE
  8
0
 10
885.400032
 20
363.201204
 30
0.0
 11
885.284817
 21
363.266475
 31
0.0
  0
LINE
  8
0
 10
885.517035
 20
363.141216
 30
0.0
 11
885.400032
 21
363.201204
 31
0.0
  0
LINE
  8
0
 10
885.63801
 20
363.085447
 30
0.0
 11
885.517035
 21
363.141216
 31
0.0
  0
LINE
  8
0
 10
885.760774
 20
363.034989
 30
0.0
 11
885.63801
 21
363.085447
 31
0.0
  0
LINE
  8
0
 10
885.887311
 20
362.98912
 30
0.0
 11
885.760774
 21
363.034989
 31
0.0
  0
LINE
  8
0
 10
886.014048
 20
362.949148
 30
0.0
 11
885.887311
 21
362.98912
 31
0.0
  0
LINE
  8
0
 10
886.142572
 20
362.914474
 30
0.0
 11
886.014048
 21
362.949148
 31
0.0
  0
LINE
  8
0
 10
886.271294
 20
362.885465
 30
0.0
 11
886.142572
 21
362.914474
 31
0.0
  0
LINE
  8
0
 10
886.401805
 20
362.854423
 30
0.0
 11
886.271294
 21
362.885465
 31
0.0
  0
LINE
  8
0
 10
886.532316
 20
362.821827
 30
0.0
 11
886.401805
 21
362.854423
 31
0.0
  0
LINE
  8
0
 10
886.401805
 20
362.854423
 30
0.0
 11
886.532316
 21
362.821827
 31
0.0
  0
LINE
  8
0
 10
886.271294
 20
362.885465
 30
0.0
 11
886.401805
 21
362.854423
 31
0.0
  0
LINE
  8
0
 10
886.142572
 20
362.914474
 30
0.0
 11
886.271294
 21
362.885465
 31
0.0
  0
LINE
  8
0
 10
886.014048
 20
362.949148
 30
0.0
 11
886.142572
 21
362.914474
 31
0.0
  0
LINE
  8
0
 10
885.887311
 20
362.98912
 30
0.0
 11
886.014048
 21
362.949148
 31
0.0
  0
LINE
  8
0
 10
885.760774
 20
363.034989
 30
0.0
 11
885.887311
 21
362.98912
 31
0.0
  0
LINE
  8
0
 10
885.63801
 20
363.085447
 30
0.0
 11
885.760774
 21
363.034989
 31
0.0
  0
LINE
  8
0
 10
885.517035
 20
363.141216
 30
0.0
 11
885.63801
 21
363.085447
 31
0.0
  0
LINE
  8
0
 10
885.400032
 20
363.201204
 30
0.0
 11
885.517035
 21
363.141216
 31
0.0
  0
LINE
  8
0
 10
885.284817
 20
363.266475
 30
0.0
 11
885.400032
 21
363.201204
 31
0.0
  0
LINE
  8
0
 10
885.173575
 20
363.33576
 30
0.0
 11
885.284817
 21
363.266475
 31
0.0
  0
LINE
  8
0
 10
885.066108
 20
363.40901
 30
0.0
 11
885.173575
 21
363.33576
 31
0.0
  0
LINE
  8
0
 10
884.962415
 20
363.486087
 30
0.0
 11
885.066108
 21
363.40901
 31
0.0
  0
LINE
  8
0
 10
884.862694
 20
363.566704
 30
0.0
 11
884.962415
 21
363.486087
 31
0.0
  0
LINE
  8
0
 10
884.768536
 20
363.644625
 30
0.0
 11
884.862694
 21
363.566704
 31
0.0
  0
LINE
  8
0
 10
880.404676
 20
367.162252
 30
0.0
 11
880.444803
 21
367.206351
 31
0.0
  0
LINE
  8
0
 10
880.444803
 20
367.206351
 30
0.0
 11
880.404676
 21
367.162252
 31
0.0
  0
LINE
  8
0
 10
880.444803
 20
367.206351
 30
0.0
 11
880.479367
 21
367.256211
 31
0.0
  0
LINE
  8
0
 10
880.479367
 20
367.256211
 30
0.0
 11
880.444803
 21
367.206351
 31
0.0
  0
LINE
  8
0
 10
880.479367
 20
367.256211
 30
0.0
 11
880.506383
 21
367.310044
 31
0.0
  0
LINE
  8
0
 10
880.506383
 20
367.310044
 30
0.0
 11
880.479367
 21
367.256211
 31
0.0
  0
LINE
  8
0
 10
880.506383
 20
367.310044
 30
0.0
 11
880.527439
 21
367.365665
 31
0.0
  0
LINE
  8
0
 10
880.527439
 20
367.365665
 30
0.0
 11
880.506383
 21
367.310044
 31
0.0
  0
LINE
  8
0
 10
880.527439
 20
367.365665
 30
0.0
 11
880.542735
 21
367.425259
 31
0.0
  0
LINE
  8
0
 10
880.542735
 20
367.425259
 30
0.0
 11
880.527439
 21
367.365665
 31
0.0
  0
LINE
  8
0
 10
880.542735
 20
367.425259
 30
0.0
 11
880.550482
 21
367.484654
 31
0.0
  0
LINE
  8
0
 10
880.550482
 20
367.484654
 30
0.0
 11
880.542735
 21
367.425259
 31
0.0
  0
LINE
  8
0
 10
880.550482
 20
367.484654
 30
0.0
 11
880.550482
 21
367.544248
 31
0.0
  0
LINE
  8
0
 10
880.550482
 20
367.544248
 30
0.0
 11
880.550482
 21
367.484654
 31
0.0
  0
LINE
  8
0
 10
880.550482
 20
367.544248
 30
0.0
 11
880.542735
 21
367.603644
 31
0.0
  0
LINE
  8
0
 10
880.542735
 20
367.603644
 30
0.0
 11
880.550482
 21
367.544248
 31
0.0
  0
LINE
  8
0
 10
880.542735
 20
367.603644
 30
0.0
 11
880.527439
 21
367.663039
 31
0.0
  0
LINE
  8
0
 10
880.527439
 20
367.663039
 30
0.0
 11
880.542735
 21
367.603644
 31
0.0
  0
LINE
  8
0
 10
880.527439
 20
367.663039
 30
0.0
 11
880.506383
 21
367.718858
 31
0.0
  0
LINE
  8
0
 10
880.506383
 20
367.718858
 30
0.0
 11
880.527439
 21
367.663039
 31
0.0
  0
LINE
  8
0
 10
880.506383
 20
367.718858
 30
0.0
 11
880.479367
 21
367.772493
 31
0.0
  0
LINE
  8
0
 10
880.479367
 20
367.772493
 30
0.0
 11
880.506383
 21
367.718858
 31
0.0
  0
LINE
  8
0
 10
880.479367
 20
367.772493
 30
0.0
 11
880.444803
 21
367.822353
 31
0.0
  0
LINE
  8
0
 10
880.444803
 20
367.822353
 30
0.0
 11
880.479367
 21
367.772493
 31
0.0
  0
LINE
  8
0
 10
880.444803
 20
367.822353
 30
0.0
 11
880.404676
 21
367.866651
 31
0.0
  0
LINE
  8
0
 10
880.404676
 20
367.866651
 30
0.0
 11
880.444803
 21
367.822353
 31
0.0
  0
LINE
  8
0
 10
880.35859
 20
367.906778
 30
0.0
 11
880.404676
 21
367.866651
 31
0.0
  0
LINE
  8
0
 10
880.310518
 20
367.941342
 30
0.0
 11
880.35859
 21
367.906778
 31
0.0
  0
LINE
  8
0
 10
880.256883
 20
367.970146
 30
0.0
 11
880.310518
 21
367.941342
 31
0.0
  0
LINE
  8
0
 10
880.199276
 20
367.991202
 30
0.0
 11
880.256883
 21
367.970146
 31
0.0
  0
LINE
  8
0
 10
880.141668
 20
368.00471
 30
0.0
 11
880.199276
 21
367.991202
 31
0.0
  0
LINE
  8
0
 10
880.082273
 20
368.012457
 30
0.0
 11
880.141668
 21
368.00471
 31
0.0
  0
LINE
  8
0
 10
880.020693
 20
368.012457
 30
0.0
 11
880.082273
 21
368.012457
 31
0.0
  0
LINE
  8
0
 10
879.961298
 20
368.00471
 30
0.0
 11
880.020693
 21
368.012457
 31
0.0
  0
LINE
  8
0
 10
879.90369
 20
367.991202
 30
0.0
 11
879.961298
 21
368.00471
 31
0.0
  0
LINE
  8
0
 10
879.846083
 20
367.970146
 30
0.0
 11
879.90369
 21
367.991202
 31
0.0
  0
LINE
  8
0
 10
879.794236
 20
367.941342
 30
0.0
 11
879.846083
 21
367.970146
 31
0.0
  0
LINE
  8
0
 10
879.744376
 20
367.906778
 30
0.0
 11
879.794236
 21
367.941342
 31
0.0
  0
LINE
  8
0
 10
879.69829
 20
367.866651
 30
0.0
 11
879.744376
 21
367.906778
 31
0.0
  0
LINE
  8
0
 10
879.744376
 20
367.906778
 30
0.0
 11
879.69829
 21
367.866651
 31
0.0
  0
LINE
  8
0
 10
879.794236
 20
367.941342
 30
0.0
 11
879.744376
 21
367.906778
 31
0.0
  0
LINE
  8
0
 10
879.846083
 20
367.970146
 30
0.0
 11
879.794236
 21
367.941342
 31
0.0
  0
LINE
  8
0
 10
879.90369
 20
367.991202
 30
0.0
 11
879.846083
 21
367.970146
 31
0.0
  0
LINE
  8
0
 10
879.961298
 20
368.00471
 30
0.0
 11
879.90369
 21
367.991202
 31
0.0
  0
LINE
  8
0
 10
880.020693
 20
368.012457
 30
0.0
 11
879.961298
 21
368.00471
 31
0.0
  0
LINE
  8
0
 10
880.082273
 20
368.012457
 30
0.0
 11
880.020693
 21
368.012457
 31
0.0
  0
LINE
  8
0
 10
880.141668
 20
368.00471
 30
0.0
 11
880.082273
 21
368.012457
 31
0.0
  0
LINE
  8
0
 10
880.199276
 20
367.991202
 30
0.0
 11
880.141668
 21
368.00471
 31
0.0
  0
LINE
  8
0
 10
880.256883
 20
367.970146
 30
0.0
 11
880.199276
 21
367.991202
 31
0.0
  0
LINE
  8
0
 10
880.310518
 20
367.941342
 30
0.0
 11
880.256883
 21
367.970146
 31
0.0
  0
LINE
  8
0
 10
880.35859
 20
367.906778
 30
0.0
 11
880.310518
 21
367.941342
 31
0.0
  0
LINE
  8
0
 10
880.404676
 20
367.866651
 30
0.0
 11
880.35859
 21
367.906778
 31
0.0
  0
LINE
  8
0
 10
881.623172
 20
368.906763
 30
0.0
 11
881.558016
 21
368.966158
 31
0.0
  0
LINE
  8
0
 10
881.558016
 20
368.966158
 30
0.0
 11
881.623172
 21
368.906763
 31
0.0
  0
LINE
  8
0
 10
881.558016
 20
368.966158
 30
0.0
 11
881.488887
 21
369.018005
 31
0.0
  0
LINE
  8
0
 10
881.488887
 20
369.018005
 30
0.0
 11
881.558016
 21
368.966158
 31
0.0
  0
LINE
  8
0
 10
881.488887
 20
369.018005
 30
0.0
 11
881.415984
 21
369.066077
 31
0.0
  0
LINE
  8
0
 10
881.415984
 20
369.066077
 30
0.0
 11
881.488887
 21
369.018005
 31
0.0
  0
LINE
  8
0
 10
881.415984
 20
369.066077
 30
0.0
 11
881.339108
 21
369.106203
 31
0.0
  0
LINE
  8
0
 10
881.339108
 20
369.106203
 30
0.0
 11
881.415984
 21
369.066077
 31
0.0
  0
LINE
  8
0
 10
881.339108
 20
369.106203
 30
0.0
 11
881.258656
 21
369.13898
 31
0.0
  0
LINE
  8
0
 10
881.258656
 20
369.13898
 30
0.0
 11
881.339108
 21
369.106203
 31
0.0
  0
LINE
  8
0
 10
881.258656
 20
369.13898
 30
0.0
 11
881.174231
 21
369.165797
 31
0.0
  0
LINE
  8
0
 10
881.174231
 20
369.165797
 30
0.0
 11
881.258656
 21
369.13898
 31
0.0
  0
LINE
  8
0
 10
881.174231
 20
369.165797
 30
0.0
 11
881.089608
 21
369.18308
 31
0.0
  0
LINE
  8
0
 10
881.089608
 20
369.18308
 30
0.0
 11
881.174231
 21
369.165797
 31
0.0
  0
LINE
  8
0
 10
881.089608
 20
369.18308
 30
0.0
 11
881.003396
 21
369.194601
 31
0.0
  0
LINE
  8
0
 10
881.003396
 20
369.194601
 30
0.0
 11
881.089608
 21
369.18308
 31
0.0
  0
LINE
  8
0
 10
881.003396
 20
369.194601
 30
0.0
 11
880.916985
 21
369.198375
 31
0.0
  0
LINE
  8
0
 10
880.916985
 20
369.198375
 30
0.0
 11
881.003396
 21
369.194601
 31
0.0
  0
LINE
  8
0
 10
878.337762
 20
369.198375
 30
0.0
 11
878.249365
 21
369.194601
 31
0.0
  0
LINE
  8
0
 10
878.249365
 20
369.194601
 30
0.0
 11
878.337762
 21
369.198375
 31
0.0
  0
LINE
  8
0
 10
878.249365
 20
369.194601
 30
0.0
 11
878.163152
 21
369.18308
 31
0.0
  0
LINE
  8
0
 10
878.163152
 20
369.18308
 30
0.0
 11
878.249365
 21
369.194601
 31
0.0
  0
LINE
  8
0
 10
878.163152
 20
369.18308
 30
0.0
 11
878.078728
 21
369.165797
 31
0.0
  0
LINE
  8
0
 10
878.078728
 20
369.165797
 30
0.0
 11
878.163152
 21
369.18308
 31
0.0
  0
LINE
  8
0
 10
878.078728
 20
369.165797
 30
0.0
 11
877.996091
 21
369.13898
 31
0.0
  0
LINE
  8
0
 10
877.996091
 20
369.13898
 30
0.0
 11
878.078728
 21
369.165797
 31
0.0
  0
LINE
  8
0
 10
877.996091
 20
369.13898
 30
0.0
 11
877.91544
 21
369.106203
 31
0.0
  0
LINE
  8
0
 10
877.91544
 20
369.106203
 30
0.0
 11
877.996091
 21
369.13898
 31
0.0
  0
LINE
  8
0
 10
877.91544
 20
369.106203
 30
0.0
 11
877.838763
 21
369.066077
 31
0.0
  0
LINE
  8
0
 10
877.838763
 20
369.066077
 30
0.0
 11
877.91544
 21
369.106203
 31
0.0
  0
LINE
  8
0
 10
877.838763
 20
369.066077
 30
0.0
 11
877.763873
 21
369.018005
 31
0.0
  0
LINE
  8
0
 10
877.763873
 20
369.018005
 30
0.0
 11
877.838763
 21
369.066077
 31
0.0
  0
LINE
  8
0
 10
877.763873
 20
369.018005
 30
0.0
 11
877.694744
 21
368.966158
 31
0.0
  0
LINE
  8
0
 10
877.694744
 20
368.966158
 30
0.0
 11
877.763873
 21
369.018005
 31
0.0
  0
LINE
  8
0
 10
877.694744
 20
368.966158
 30
0.0
 11
877.631575
 21
368.906763
 31
0.0
  0
LINE
  8
0
 10
877.631575
 20
368.906763
 30
0.0
 11
877.694744
 21
368.966158
 31
0.0
  0
LINE
  8
0
 10
877.631575
 20
368.906763
 30
0.0
 11
877.571981
 21
368.843394
 31
0.0
  0
LINE
  8
0
 10
877.571981
 20
368.843394
 30
0.0
 11
877.631575
 21
368.906763
 31
0.0
  0
LINE
  8
0
 10
877.571981
 20
368.843394
 30
0.0
 11
877.520134
 21
368.774266
 31
0.0
  0
LINE
  8
0
 10
877.520134
 20
368.774266
 30
0.0
 11
877.571981
 21
368.843394
 31
0.0
  0
LINE
  8
0
 10
877.520134
 20
368.774266
 30
0.0
 11
877.472261
 21
368.699376
 31
0.0
  0
LINE
  8
0
 10
877.472261
 20
368.699376
 30
0.0
 11
877.520134
 21
368.774266
 31
0.0
  0
LINE
  8
0
 10
877.472261
 20
368.699376
 30
0.0
 11
877.431935
 21
368.622699
 31
0.0
  0
LINE
  8
0
 10
877.431935
 20
368.622699
 30
0.0
 11
877.472261
 21
368.699376
 31
0.0
  0
LINE
  8
0
 10
877.431935
 20
368.622699
 30
0.0
 11
877.399358
 21
368.542048
 31
0.0
  0
LINE
  8
0
 10
877.399358
 20
368.542048
 30
0.0
 11
877.431935
 21
368.622699
 31
0.0
  0
LINE
  8
0
 10
877.399358
 20
368.542048
 30
0.0
 11
877.372342
 21
368.45961
 31
0.0
  0
LINE
  8
0
 10
877.372342
 20
368.45961
 30
0.0
 11
877.399358
 21
368.542048
 31
0.0
  0
LINE
  8
0
 10
877.372342
 20
368.45961
 30
0.0
 11
877.355059
 21
368.375185
 31
0.0
  0
LINE
  8
0
 10
877.355059
 20
368.375185
 30
0.0
 11
877.372342
 21
368.45961
 31
0.0
  0
LINE
  8
0
 10
877.355059
 20
368.375185
 30
0.0
 11
877.343538
 21
368.288774
 31
0.0
  0
LINE
  8
0
 10
877.343538
 20
368.288774
 30
0.0
 11
877.355059
 21
368.375185
 31
0.0
  0
LINE
  8
0
 10
877.343538
 20
368.288774
 30
0.0
 11
877.339764
 21
368.200575
 31
0.0
  0
LINE
  8
0
 10
877.339764
 20
368.200575
 30
0.0
 11
877.343538
 21
368.288774
 31
0.0
  0
LINE
  8
0
 10
878.130376
 20
366.298737
 30
0.0
 11
878.193744
 21
366.239143
 31
0.0
  0
LINE
  8
0
 10
878.193744
 20
366.239143
 30
0.0
 11
878.130376
 21
366.298737
 31
0.0
  0
LINE
  8
0
 10
878.193744
 20
366.239143
 30
0.0
 11
878.262873
 21
366.187296
 31
0.0
  0
LINE
  8
0
 10
878.262873
 20
366.187296
 30
0.0
 11
878.193744
 21
366.239143
 31
0.0
  0
LINE
  8
0
 10
878.262873
 20
366.187296
 30
0.0
 11
878.337762
 21
366.139422
 31
0.0
  0
LINE
  8
0
 10
878.337762
 20
366.139422
 30
0.0
 11
878.262873
 21
366.187296
 31
0.0
  0
LINE
  8
0
 10
878.337762
 20
366.139422
 30
0.0
 11
878.41444
 21
366.101084
 31
0.0
  0
LINE
  8
0
 10
878.41444
 20
366.101084
 30
0.0
 11
878.337762
 21
366.139422
 31
0.0
  0
LINE
  8
0
 10
878.41444
 20
366.101084
 30
0.0
 11
878.49509
 21
366.066519
 31
0.0
  0
LINE
  8
0
 10
878.49509
 20
366.066519
 30
0.0
 11
878.41444
 21
366.101084
 31
0.0
  0
LINE
  8
0
 10
878.49509
 20
366.066519
 30
0.0
 11
878.577528
 21
366.04149
 31
0.0
  0
LINE
  8
0
 10
878.577528
 20
366.04149
 30
0.0
 11
878.49509
 21
366.066519
 31
0.0
  0
LINE
  8
0
 10
878.577528
 20
366.04149
 30
0.0
 11
878.661953
 21
366.02242
 31
0.0
  0
LINE
  8
0
 10
878.661953
 20
366.02242
 30
0.0
 11
878.577528
 21
366.04149
 31
0.0
  0
LINE
  8
0
 10
878.661953
 20
366.02242
 30
0.0
 11
878.748364
 21
366.010898
 31
0.0
  0
LINE
  8
0
 10
878.748364
 20
366.010898
 30
0.0
 11
878.661953
 21
366.02242
 31
0.0
  0
LINE
  8
0
 10
878.748364
 20
366.010898
 30
0.0
 11
878.836761
 21
366.006925
 31
0.0
  0
LINE
  8
0
 10
878.836761
 20
366.006925
 30
0.0
 11
878.748364
 21
366.010898
 31
0.0
  0
LINE
  8
0
 10
878.836761
 20
366.006925
 30
0.0
 11
878.922974
 21
366.010898
 31
0.0
  0
LINE
  8
0
 10
878.922974
 20
366.010898
 30
0.0
 11
878.836761
 21
366.006925
 31
0.0
  0
LINE
  8
0
 10
878.922974
 20
366.010898
 30
0.0
 11
879.009385
 21
366.02242
 31
0.0
  0
LINE
  8
0
 10
879.009385
 20
366.02242
 30
0.0
 11
878.922974
 21
366.010898
 31
0.0
  0
LINE
  8
0
 10
879.009385
 20
366.02242
 30
0.0
 11
879.09381
 21
366.04149
 31
0.0
  0
LINE
  8
0
 10
879.09381
 20
366.04149
 30
0.0
 11
879.009385
 21
366.02242
 31
0.0
  0
LINE
  8
0
 10
879.09381
 20
366.04149
 30
0.0
 11
879.176446
 21
366.066519
 31
0.0
  0
LINE
  8
0
 10
879.176446
 20
366.066519
 30
0.0
 11
879.09381
 21
366.04149
 31
0.0
  0
LINE
  8
0
 10
879.176446
 20
366.066519
 30
0.0
 11
879.256898
 21
366.101084
 31
0.0
  0
LINE
  8
0
 10
879.256898
 20
366.101084
 30
0.0
 11
879.176446
 21
366.066519
 31
0.0
  0
LINE
  8
0
 10
879.256898
 20
366.101084
 30
0.0
 11
879.333774
 21
366.139422
 31
0.0
  0
LINE
  8
0
 10
879.333774
 20
366.139422
 30
0.0
 11
879.256898
 21
366.101084
 31
0.0
  0
LINE
  8
0
 10
879.333774
 20
366.139422
 30
0.0
 11
879.408664
 21
366.187296
 31
0.0
  0
LINE
  8
0
 10
879.408664
 20
366.187296
 30
0.0
 11
879.333774
 21
366.139422
 31
0.0
  0
LINE
  8
0
 10
879.408664
 20
366.187296
 30
0.0
 11
879.477594
 21
366.239143
 31
0.0
  0
LINE
  8
0
 10
879.477594
 20
366.239143
 30
0.0
 11
879.408664
 21
366.187296
 31
0.0
  0
LINE
  8
0
 10
879.477594
 20
366.239143
 30
0.0
 11
879.540962
 21
366.298737
 31
0.0
  0
LINE
  8
0
 10
879.540962
 20
366.298737
 30
0.0
 11
879.477594
 21
366.239143
 31
0.0
  0
LINE
  8
0
 10
920.450162
 20
364.21325
 30
0.0
 11
920.528826
 21
364.172925
 31
0.0
  0
LINE
  8
0
 10
920.369512
 20
364.247815
 30
0.0
 11
920.450162
 21
364.21325
 31
0.0
  0
LINE
  8
0
 10
920.287074
 20
364.272645
 30
0.0
 11
920.369512
 21
364.247815
 31
0.0
  0
LINE
  8
0
 10
920.202649
 20
364.291914
 30
0.0
 11
920.287074
 21
364.272645
 31
0.0
  0
LINE
  8
0
 10
920.116238
 20
364.303436
 30
0.0
 11
920.202649
 21
364.291914
 31
0.0
  0
LINE
  8
0
 10
920.029827
 20
364.30721
 30
0.0
 11
920.116238
 21
364.303436
 31
0.0
  0
LINE
  8
0
 10
920.116238
 20
364.303436
 30
0.0
 11
920.029827
 21
364.30721
 31
0.0
  0
LINE
  8
0
 10
920.202649
 20
364.291914
 30
0.0
 11
920.116238
 21
364.303436
 31
0.0
  0
LINE
  8
0
 10
920.287074
 20
364.272645
 30
0.0
 11
920.202649
 21
364.291914
 31
0.0
  0
LINE
  8
0
 10
920.369512
 20
364.247815
 30
0.0
 11
920.287074
 21
364.272645
 31
0.0
  0
LINE
  8
0
 10
920.450162
 20
364.21325
 30
0.0
 11
920.369512
 21
364.247815
 31
0.0
  0
LINE
  8
0
 10
920.528826
 20
364.172925
 30
0.0
 11
920.450162
 21
364.21325
 31
0.0
  0
LINE
  8
0
 10
920.116238
 20
359.323375
 30
0.0
 11
920.029827
 21
359.319601
 31
0.0
  0
LINE
  8
0
 10
920.202649
 20
359.334897
 30
0.0
 11
920.116238
 21
359.323375
 31
0.0
  0
LINE
  8
0
 10
920.287074
 20
359.354165
 30
0.0
 11
920.202649
 21
359.334897
 31
0.0
  0
LINE
  8
0
 10
920.369512
 20
359.378996
 30
0.0
 11
920.287074
 21
359.354165
 31
0.0
  0
LINE
  8
0
 10
920.450162
 20
359.41356
 30
0.0
 11
920.369512
 21
359.378996
 31
0.0
  0
LINE
  8
0
 10
920.528826
 20
359.453886
 30
0.0
 11
920.450162
 21
359.41356
 31
0.0
  0
LINE
  8
0
 10
920.450162
 20
359.41356
 30
0.0
 11
920.528826
 21
359.453886
 31
0.0
  0
LINE
  8
0
 10
920.369512
 20
359.378996
 30
0.0
 11
920.450162
 21
359.41356
 31
0.0
  0
LINE
  8
0
 10
920.287074
 20
359.354165
 30
0.0
 11
920.369512
 21
359.378996
 31
0.0
  0
LINE
  8
0
 10
920.202649
 20
359.334897
 30
0.0
 11
920.287074
 21
359.354165
 31
0.0
  0
LINE
  8
0
 10
920.116238
 20
359.323375
 30
0.0
 11
920.202649
 21
359.334897
 31
0.0
  0
LINE
  8
0
 10
920.029827
 20
359.319601
 30
0.0
 11
920.116238
 21
359.323375
 31
0.0
  0
LINE
  8
0
 10
887.152092
 20
359.319601
 30
0.0
 11
887.021581
 21
359.315827
 31
0.0
  0
LINE
  8
0
 10
887.021581
 20
359.315827
 30
0.0
 11
887.152092
 21
359.319601
 31
0.0
  0
LINE
  8
0
 10
887.021581
 20
359.315827
 30
0.0
 11
886.891071
 21
359.306093
 31
0.0
  0
LINE
  8
0
 10
886.891071
 20
359.306093
 30
0.0
 11
887.021581
 21
359.315827
 31
0.0
  0
LINE
  8
0
 10
886.891071
 20
359.306093
 30
0.0
 11
886.762546
 21
359.288811
 31
0.0
  0
LINE
  8
0
 10
886.762546
 20
359.288811
 30
0.0
 11
886.891071
 21
359.306093
 31
0.0
  0
LINE
  8
0
 10
886.762546
 20
359.288811
 30
0.0
 11
886.634022
 21
359.265768
 31
0.0
  0
LINE
  8
0
 10
886.634022
 20
359.265768
 30
0.0
 11
886.762546
 21
359.288811
 31
0.0
  0
LINE
  8
0
 10
886.634022
 20
359.265768
 30
0.0
 11
886.507286
 21
359.235176
 31
0.0
  0
LINE
  8
0
 10
886.507286
 20
359.235176
 30
0.0
 11
886.634022
 21
359.265768
 31
0.0
  0
LINE
  8
0
 10
886.507286
 20
359.235176
 30
0.0
 11
886.38055
 21
359.196837
 31
0.0
  0
LINE
  8
0
 10
886.38055
 20
359.196837
 30
0.0
 11
886.507286
 21
359.235176
 31
0.0
  0
LINE
  8
0
 10
886.38055
 20
359.196837
 30
0.0
 11
886.257786
 21
359.154526
 31
0.0
  0
LINE
  8
0
 10
886.257786
 20
359.154526
 30
0.0
 11
886.38055
 21
359.196837
 31
0.0
  0
LINE
  8
0
 10
886.257786
 20
359.154526
 30
0.0
 11
886.136811
 21
359.104666
 31
0.0
  0
LINE
  8
0
 10
886.136811
 20
359.104666
 30
0.0
 11
886.257786
 21
359.154526
 31
0.0
  0
LINE
  8
0
 10
886.136811
 20
359.104666
 30
0.0
 11
886.019808
 21
359.047058
 31
0.0
  0
LINE
  8
0
 10
886.019808
 20
359.047058
 30
0.0
 11
886.136811
 21
359.104666
 31
0.0
  0
LINE
  8
0
 10
886.019808
 20
359.047058
 30
0.0
 11
885.904594
 21
358.985677
 31
0.0
  0
LINE
  8
0
 10
885.904594
 20
358.985677
 30
0.0
 11
886.019808
 21
359.047058
 31
0.0
  0
LINE
  8
0
 10
885.904594
 20
358.985677
 30
0.0
 11
885.793352
 21
358.916548
 31
0.0
  0
LINE
  8
0
 10
885.793352
 20
358.916548
 30
0.0
 11
885.904594
 21
358.985677
 31
0.0
  0
LINE
  8
0
 10
885.793352
 20
358.916548
 30
0.0
 11
885.685884
 21
358.843644
 31
0.0
  0
LINE
  8
0
 10
885.685884
 20
358.843644
 30
0.0
 11
885.793352
 21
358.916548
 31
0.0
  0
LINE
  8
0
 10
885.685884
 20
358.843644
 30
0.0
 11
885.582191
 21
358.762994
 31
0.0
  0
LINE
  8
0
 10
885.582191
 20
358.762994
 30
0.0
 11
885.685884
 21
358.843644
 31
0.0
  0
LINE
  8
0
 10
885.582191
 20
358.762994
 30
0.0
 11
885.48247
 21
358.678569
 31
0.0
  0
LINE
  8
0
 10
885.48247
 20
358.678569
 30
0.0
 11
885.582191
 21
358.762994
 31
0.0
  0
LINE
  8
0
 10
885.48247
 20
358.678569
 30
0.0
 11
885.388511
 21
358.588384
 31
0.0
  0
LINE
  8
0
 10
885.388511
 20
358.588384
 30
0.0
 11
885.48247
 21
358.678569
 31
0.0
  0
LINE
  8
0
 10
881.558016
 20
354.76365
 30
0.0
 11
881.623172
 21
354.823244
 31
0.0
  0
LINE
  8
0
 10
881.488887
 20
354.711803
 30
0.0
 11
881.558016
 21
354.76365
 31
0.0
  0
LINE
  8
0
 10
881.415984
 20
354.66393
 30
0.0
 11
881.488887
 21
354.711803
 31
0.0
  0
LINE
  8
0
 10
881.339108
 20
354.623604
 30
0.0
 11
881.415984
 21
354.66393
 31
0.0
  0
LINE
  8
0
 10
881.258656
 20
354.591026
 30
0.0
 11
881.339108
 21
354.623604
 31
0.0
  0
LINE
  8
0
 10
881.174231
 20
354.564011
 30
0.0
 11
881.258656
 21
354.591026
 31
0.0
  0
LINE
  8
0
 10
881.089608
 20
354.546728
 30
0.0
 11
881.174231
 21
354.564011
 31
0.0
  0
LINE
  8
0
 10
881.003396
 20
354.535207
 30
0.0
 11
881.089608
 21
354.546728
 31
0.0
  0
LINE
  8
0
 10
881.003396
 20
354.535207
 30
0.0
 11
880.916985
 21
354.531433
 31
0.0
  0
LINE
  8
0
 10
881.558016
 20
354.76365
 30
0.0
 11
881.623172
 21
354.823244
 31
0.0
  0
LINE
  8
0
 10
881.488887
 20
354.711803
 30
0.0
 11
881.558016
 21
354.76365
 31
0.0
  0
LINE
  8
0
 10
881.415984
 20
354.66393
 30
0.0
 11
881.488887
 21
354.711803
 31
0.0
  0
LINE
  8
0
 10
881.339108
 20
354.623604
 30
0.0
 11
881.415984
 21
354.66393
 31
0.0
  0
LINE
  8
0
 10
881.258656
 20
354.591026
 30
0.0
 11
881.339108
 21
354.623604
 31
0.0
  0
LINE
  8
0
 10
881.174231
 20
354.564011
 30
0.0
 11
881.258656
 21
354.591026
 31
0.0
  0
LINE
  8
0
 10
881.089608
 20
354.546728
 30
0.0
 11
881.174231
 21
354.564011
 31
0.0
  0
LINE
  8
0
 10
881.003396
 20
354.535207
 30
0.0
 11
881.089608
 21
354.546728
 31
0.0
  0
LINE
  8
0
 10
880.916985
 20
354.531433
 30
0.0
 11
881.003396
 21
354.535207
 31
0.0
  0
LINE
  8
0
 10
878.249365
 20
354.535207
 30
0.0
 11
878.337762
 21
354.531433
 31
0.0
  0
LINE
  8
0
 10
878.163152
 20
354.546728
 30
0.0
 11
878.249365
 21
354.535207
 31
0.0
  0
LINE
  8
0
 10
878.078728
 20
354.564011
 30
0.0
 11
878.163152
 21
354.546728
 31
0.0
  0
LINE
  8
0
 10
877.996091
 20
354.591026
 30
0.0
 11
878.078728
 21
354.564011
 31
0.0
  0
LINE
  8
0
 10
877.91544
 20
354.623604
 30
0.0
 11
877.996091
 21
354.591026
 31
0.0
  0
LINE
  8
0
 10
877.838763
 20
354.66393
 30
0.0
 11
877.91544
 21
354.623604
 31
0.0
  0
LINE
  8
0
 10
877.763873
 20
354.711803
 30
0.0
 11
877.838763
 21
354.66393
 31
0.0
  0
LINE
  8
0
 10
877.694744
 20
354.76365
 30
0.0
 11
877.763873
 21
354.711803
 31
0.0
  0
LINE
  8
0
 10
877.631575
 20
354.823244
 30
0.0
 11
877.694744
 21
354.76365
 31
0.0
  0
LINE
  8
0
 10
877.571981
 20
354.886413
 30
0.0
 11
877.631575
 21
354.823244
 31
0.0
  0
LINE
  8
0
 10
877.520134
 20
354.955542
 30
0.0
 11
877.571981
 21
354.886413
 31
0.0
  0
LINE
  8
0
 10
877.472261
 20
355.030432
 30
0.0
 11
877.520134
 21
354.955542
 31
0.0
  0
LINE
  8
0
 10
877.431935
 20
355.107109
 30
0.0
 11
877.472261
 21
355.030432
 31
0.0
  0
LINE
  8
0
 10
877.399358
 20
355.18776
 30
0.0
 11
877.431935
 21
355.107109
 31
0.0
  0
LINE
  8
0
 10
877.372342
 20
355.270397
 30
0.0
 11
877.399358
 21
355.18776
 31
0.0
  0
LINE
  8
0
 10
877.355059
 20
355.354821
 30
0.0
 11
877.372342
 21
355.270397
 31
0.0
  0
LINE
  8
0
 10
877.343538
 20
355.441034
 30
0.0
 11
877.355059
 21
355.354821
 31
0.0
  0
LINE
  8
0
 10
877.343538
 20
355.441034
 30
0.0
 11
877.339764
 21
355.529431
 31
0.0
  0
LINE
  8
0
 10
878.249365
 20
354.535207
 30
0.0
 11
878.337762
 21
354.531433
 31
0.0
  0
LINE
  8
0
 10
878.163152
 20
354.546728
 30
0.0
 11
878.249365
 21
354.535207
 31
0.0
  0
LINE
  8
0
 10
878.078728
 20
354.564011
 30
0.0
 11
878.163152
 21
354.546728
 31
0.0
  0
LINE
  8
0
 10
877.996091
 20
354.591026
 30
0.0
 11
878.078728
 21
354.564011
 31
0.0
  0
LINE
  8
0
 10
877.91544
 20
354.623604
 30
0.0
 11
877.996091
 21
354.591026
 31
0.0
  0
LINE
  8
0
 10
877.838763
 20
354.66393
 30
0.0
 11
877.91544
 21
354.623604
 31
0.0
  0
LINE
  8
0
 10
877.763873
 20
354.711803
 30
0.0
 11
877.838763
 21
354.66393
 31
0.0
  0
LINE
  8
0
 10
877.694744
 20
354.76365
 30
0.0
 11
877.763873
 21
354.711803
 31
0.0
  0
LINE
  8
0
 10
877.631575
 20
354.823244
 30
0.0
 11
877.694744
 21
354.76365
 31
0.0
  0
LINE
  8
0
 10
877.571981
 20
354.886413
 30
0.0
 11
877.631575
 21
354.823244
 31
0.0
  0
LINE
  8
0
 10
877.520134
 20
354.955542
 30
0.0
 11
877.571981
 21
354.886413
 31
0.0
  0
LINE
  8
0
 10
877.472261
 20
355.030432
 30
0.0
 11
877.520134
 21
354.955542
 31
0.0
  0
LINE
  8
0
 10
877.431935
 20
355.107109
 30
0.0
 11
877.472261
 21
355.030432
 31
0.0
  0
LINE
  8
0
 10
877.399358
 20
355.18776
 30
0.0
 11
877.431935
 21
355.107109
 31
0.0
  0
LINE
  8
0
 10
877.372342
 20
355.270397
 30
0.0
 11
877.399358
 21
355.18776
 31
0.0
  0
LINE
  8
0
 10
877.355059
 20
355.354821
 30
0.0
 11
877.372342
 21
355.270397
 31
0.0
  0
LINE
  8
0
 10
877.343538
 20
355.441034
 30
0.0
 11
877.339764
 21
355.529431
 31
0.0
  0
LINE
  8
0
 10
877.355059
 20
355.354821
 30
0.0
 11
877.343538
 21
355.441034
 31
0.0
  0
LINE
  8
0
 10
885.388511
 20
365.141424
 30
0.0
 11
885.48247
 21
365.051238
 31
0.0
  0
LINE
  8
0
 10
885.48247
 20
365.051238
 30
0.0
 11
885.388511
 21
365.141424
 31
0.0
  0
LINE
  8
0
 10
885.48247
 20
365.051238
 30
0.0
 11
885.582191
 21
364.966814
 31
0.0
  0
LINE
  8
0
 10
885.582191
 20
364.966814
 30
0.0
 11
885.48247
 21
365.051238
 31
0.0
  0
LINE
  8
0
 10
885.582191
 20
364.966814
 30
0.0
 11
885.685884
 21
364.886163
 31
0.0
  0
LINE
  8
0
 10
885.685884
 20
364.886163
 30
0.0
 11
885.582191
 21
364.966814
 31
0.0
  0
LINE
  8
0
 10
885.685884
 20
364.886163
 30
0.0
 11
885.793352
 21
364.81326
 31
0.0
  0
LINE
  8
0
 10
885.793352
 20
364.81326
 30
0.0
 11
885.685884
 21
364.886163
 31
0.0
  0
LINE
  8
0
 10
885.793352
 20
364.81326
 30
0.0
 11
885.904594
 21
364.744131
 31
0.0
  0
LINE
  8
0
 10
885.904594
 20
364.744131
 30
0.0
 11
885.793352
 21
364.81326
 31
0.0
  0
LINE
  8
0
 10
885.904594
 20
364.744131
 30
0.0
 11
886.019808
 21
364.656098
 31
0.0
  0
LINE
  8
0
 10
886.019808
 20
364.656098
 30
0.0
 11
885.904594
 21
364.744131
 31
0.0
  0
LINE
  8
0
 10
886.019808
 20
364.656098
 30
0.0
 11
886.136811
 21
364.59849
 31
0.0
  0
LINE
  8
0
 10
886.136811
 20
364.59849
 30
0.0
 11
886.019808
 21
364.656098
 31
0.0
  0
LINE
  8
0
 10
886.136811
 20
364.59849
 30
0.0
 11
886.257786
 21
364.54863
 31
0.0
  0
LINE
  8
0
 10
886.257786
 20
364.54863
 30
0.0
 11
886.136811
 21
364.59849
 31
0.0
  0
LINE
  8
0
 10
886.257786
 20
364.54863
 30
0.0
 11
886.38055
 21
364.479865
 31
0.0
  0
LINE
  8
0
 10
886.38055
 20
364.479865
 30
0.0
 11
886.257786
 21
364.54863
 31
0.0
  0
LINE
  8
0
 10
886.38055
 20
364.479865
 30
0.0
 11
886.507286
 21
364.414676
 31
0.0
  0
LINE
  8
0
 10
886.507286
 20
364.414676
 30
0.0
 11
886.38055
 21
364.479865
 31
0.0
  0
LINE
  8
0
 10
886.634022
 20
364.359419
 30
0.0
 11
886.507286
 21
364.414676
 31
0.0
  0
LINE
  8
0
 10
886.762546
 20
364.307738
 30
0.0
 11
886.634022
 21
364.359419
 31
0.0
  0
LINE
  8
0
 10
886.891071
 20
364.290456
 30
0.0
 11
886.762546
 21
364.307738
 31
0.0
  0
LINE
  8
0
 10
887.021581
 20
364.295947
 30
0.0
 11
886.891071
 21
364.290456
 31
0.0
  0
LINE
  8
0
 10
887.152092
 20
364.291974
 30
0.0
 11
887.021581
 21
364.295947
 31
0.0
  0
LINE
  8
0
 10
887.021581
 20
364.295947
 30
0.0
 11
887.152092
 21
364.291974
 31
0.0
  0
LINE
  8
0
 10
886.891071
 20
364.290456
 30
0.0
 11
887.021581
 21
364.295947
 31
0.0
  0
LINE
  8
0
 10
886.762546
 20
364.307738
 30
0.0
 11
886.891071
 21
364.290456
 31
0.0
  0
LINE
  8
0
 10
886.634022
 20
364.359419
 30
0.0
 11
886.762546
 21
364.307738
 31
0.0
  0
LINE
  8
0
 10
886.507286
 20
364.414676
 30
0.0
 11
886.634022
 21
364.359419
 31
0.0
  0
LINE
  8
0
 10
922.620571
 20
361.814399
 30
0.0
 11
920.029827
 21
363.30941
 31
0.0
  0
LINE
  8
0
 10
920.029827
 20
360.317599
 30
0.0
 11
922.620571
 21
361.814399
 31
0.0
  0
LINE
  8
0
 10
894.300773
 20
360.317599
 30
0.0
 11
920.029827
 21
360.317599
 31
0.0
  0
LINE
  8
0
 10
891.306976
 20
360.8164
 30
0.0
 11
891.393188
 21
360.820373
 31
0.0
  0
LINE
  8
0
 10
891.393188
 20
360.820373
 30
0.0
 11
891.306976
 21
360.8164
 31
0.0
  0
LINE
  8
0
 10
891.393188
 20
360.820373
 30
0.0
 11
891.479599
 21
360.831894
 31
0.0
  0
LINE
  8
0
 10
891.479599
 20
360.831894
 30
0.0
 11
891.393188
 21
360.820373
 31
0.0
  0
LINE
  8
0
 10
891.479599
 20
360.831894
 30
0.0
 11
891.56601
 21
360.849177
 31
0.0
  0
LINE
  8
0
 10
891.56601
 20
360.849177
 30
0.0
 11
891.479599
 21
360.831894
 31
0.0
  0
LINE
  8
0
 10
891.56601
 20
360.849177
 30
0.0
 11
891.648449
 21
360.875994
 31
0.0
  0
LINE
  8
0
 10
891.648449
 20
360.875994
 30
0.0
 11
891.56601
 21
360.849177
 31
0.0
  0
LINE
  8
0
 10
891.648449
 20
360.875994
 30
0.0
 11
891.729099
 21
360.908572
 31
0.0
  0
LINE
  8
0
 10
891.729099
 20
360.908572
 30
0.0
 11
891.648449
 21
360.875994
 31
0.0
  0
LINE
  8
0
 10
891.729099
 20
360.908572
 30
0.0
 11
891.805975
 21
360.948897
 31
0.0
  0
LINE
  8
0
 10
891.805975
 20
360.948897
 30
0.0
 11
891.729099
 21
360.908572
 31
0.0
  0
LINE
  8
0
 10
891.805975
 20
360.948897
 30
0.0
 11
891.878878
 21
360.996771
 31
0.0
  0
LINE
  8
0
 10
891.878878
 20
360.996771
 30
0.0
 11
891.805975
 21
360.948897
 31
0.0
  0
LINE
  8
0
 10
891.878878
 20
360.996771
 30
0.0
 11
891.947808
 21
361.048617
 31
0.0
  0
LINE
  8
0
 10
891.947808
 20
361.048617
 30
0.0
 11
891.878878
 21
360.996771
 31
0.0
  0
LINE
  8
0
 10
891.947808
 20
361.048617
 30
0.0
 11
892.013163
 21
361.108211
 31
0.0
  0
LINE
  8
0
 10
892.013163
 20
361.108211
 30
0.0
 11
891.947808
 21
361.048617
 31
0.0
  0
LINE
  8
0
 10
892.013163
 20
361.108211
 30
0.0
 11
892.07077
 21
361.171579
 31
0.0
  0
LINE
  8
0
 10
892.07077
 20
361.171579
 30
0.0
 11
892.013163
 21
361.108211
 31
0.0
  0
LINE
  8
0
 10
892.07077
 20
361.171579
 30
0.0
 11
892.124405
 21
361.24051
 31
0.0
  0
LINE
  8
0
 10
892.124405
 20
361.24051
 30
0.0
 11
892.07077
 21
361.171579
 31
0.0
  0
LINE
  8
0
 10
892.124405
 20
361.24051
 30
0.0
 11
892.170491
 21
361.315399
 31
0.0
  0
LINE
  8
0
 10
892.170491
 20
361.315399
 30
0.0
 11
892.124405
 21
361.24051
 31
0.0
  0
LINE
  8
0
 10
892.170491
 20
361.315399
 30
0.0
 11
892.210816
 21
361.392275
 31
0.0
  0
LINE
  8
0
 10
892.210816
 20
361.392275
 30
0.0
 11
892.170491
 21
361.315399
 31
0.0
  0
LINE
  8
0
 10
892.210816
 20
361.392275
 30
0.0
 11
892.243394
 21
361.472727
 31
0.0
  0
LINE
  8
0
 10
892.243394
 20
361.472727
 30
0.0
 11
892.210816
 21
361.392275
 31
0.0
  0
LINE
  8
0
 10
892.243394
 20
361.472727
 30
0.0
 11
892.270211
 21
361.555364
 31
0.0
  0
LINE
  8
0
 10
892.270211
 20
361.555364
 30
0.0
 11
892.243394
 21
361.472727
 31
0.0
  0
LINE
  8
0
 10
892.270211
 20
361.555364
 30
0.0
 11
892.28948
 21
361.639789
 31
0.0
  0
LINE
  8
0
 10
892.28948
 20
361.639789
 30
0.0
 11
892.270211
 21
361.555364
 31
0.0
  0
LINE
  8
0
 10
891.393188
 20
362.806636
 30
0.0
 11
891.306976
 21
362.810411
 31
0.0
  0
LINE
  8
0
 10
891.479599
 20
362.795115
 30
0.0
 11
891.393188
 21
362.806636
 31
0.0
  0
LINE
  8
0
 10
891.56601
 20
362.777833
 30
0.0
 11
891.479599
 21
362.795115
 31
0.0
  0
LINE
  8
0
 10
891.648449
 20
362.750817
 30
0.0
 11
891.56601
 21
362.777833
 31
0.0
  0
LINE
  8
0
 10
891.729099
 20
362.718239
 30
0.0
 11
891.648449
 21
362.750817
 31
0.0
  0
LINE
  8
0
 10
891.805975
 20
362.677914
 30
0.0
 11
891.729099
 21
362.718239
 31
0.0
  0
LINE
  8
0
 10
891.878878
 20
362.63004
 30
0.0
 11
891.805975
 21
362.677914
 31
0.0
  0
LINE
  8
0
 10
891.947808
 20
362.578193
 30
0.0
 11
891.878878
 21
362.63004
 31
0.0
  0
LINE
  8
0
 10
892.013163
 20
362.518798
 30
0.0
 11
891.947808
 21
362.578193
 31
0.0
  0
LINE
  8
0
 10
892.07077
 20
362.45543
 30
0.0
 11
892.013163
 21
362.518798
 31
0.0
  0
LINE
  8
0
 10
892.124405
 20
362.386301
 30
0.0
 11
892.07077
 21
362.45543
 31
0.0
  0
LINE
  8
0
 10
892.170491
 20
362.311411
 30
0.0
 11
892.124405
 21
362.386301
 31
0.0
  0
LINE
  8
0
 10
892.210816
 20
362.234734
 30
0.0
 11
892.170491
 21
362.311411
 31
0.0
  0
LINE
  8
0
 10
892.243394
 20
362.154084
 30
0.0
 11
892.210816
 21
362.234734
 31
0.0
  0
LINE
  8
0
 10
892.270211
 20
362.071645
 30
0.0
 11
892.243394
 21
362.154084
 31
0.0
  0
LINE
  8
0
 10
892.28948
 20
361.987022
 30
0.0
 11
892.270211
 21
362.071645
 31
0.0
  0
LINE
  8
0
 10
892.301001
 20
361.90081
 30
0.0
 11
892.28948
 21
361.987022
 31
0.0
  0
LINE
  8
0
 10
892.304776
 20
361.814399
 30
0.0
 11
892.301001
 21
361.90081
 31
0.0
  0
LINE
  8
0
 10
892.301001
 20
361.7262
 30
0.0
 11
892.304776
 21
361.814399
 31
0.0
  0
LINE
  8
0
 10
892.28948
 20
361.639789
 30
0.0
 11
892.301001
 21
361.7262
 31
0.0
  0
LINE
  8
0
 10
892.301001
 20
361.7262
 30
0.0
 11
892.28948
 21
361.639789
 31
0.0
  0
LINE
  8
0
 10
892.304776
 20
361.814399
 30
0.0
 11
892.301001
 21
361.7262
 31
0.0
  0
LINE
  8
0
 10
892.301001
 20
361.90081
 30
0.0
 11
892.304776
 21
361.814399
 31
0.0
  0
LINE
  8
0
 10
892.28948
 20
361.987022
 30
0.0
 11
892.301001
 21
361.90081
 31
0.0
  0
LINE
  8
0
 10
892.270211
 20
362.071645
 30
0.0
 11
892.28948
 21
361.987022
 31
0.0
  0
LINE
  8
0
 10
892.243394
 20
362.154084
 30
0.0
 11
892.270211
 21
362.071645
 31
0.0
  0
LINE
  8
0
 10
892.210816
 20
362.234734
 30
0.0
 11
892.243394
 21
362.154084
 31
0.0
  0
LINE
  8
0
 10
892.170491
 20
362.311411
 30
0.0
 11
892.210816
 21
362.234734
 31
0.0
  0
LINE
  8
0
 10
891.393188
 20
362.806636
 30
0.0
 11
891.306976
 21
362.810411
 31
0.0
  0
LINE
  8
0
 10
891.479599
 20
362.795115
 30
0.0
 11
891.393188
 21
362.806636
 31
0.0
  0
LINE
  8
0
 10
891.56601
 20
362.777833
 30
0.0
 11
891.479599
 21
362.795115
 31
0.0
  0
LINE
  8
0
 10
891.648449
 20
362.750817
 30
0.0
 11
891.56601
 21
362.777833
 31
0.0
  0
LINE
  8
0
 10
891.729099
 20
362.718239
 30
0.0
 11
891.648449
 21
362.750817
 31
0.0
  0
LINE
  8
0
 10
891.805975
 20
362.677914
 30
0.0
 11
891.729099
 21
362.718239
 31
0.0
  0
LINE
  8
0
 10
891.878878
 20
362.63004
 30
0.0
 11
891.805975
 21
362.677914
 31
0.0
  0
LINE
  8
0
 10
891.947808
 20
362.578193
 30
0.0
 11
891.878878
 21
362.63004
 31
0.0
  0
LINE
  8
0
 10
892.013163
 20
362.518798
 30
0.0
 11
891.947808
 21
362.578193
 31
0.0
  0
LINE
  8
0
 10
892.07077
 20
362.45543
 30
0.0
 11
892.013163
 21
362.518798
 31
0.0
  0
LINE
  8
0
 10
892.124405
 20
362.386301
 30
0.0
 11
892.07077
 21
362.45543
 31
0.0
  0
LINE
  8
0
 10
892.170491
 20
362.311411
 30
0.0
 11
892.124405
 21
362.386301
 31
0.0
  0
LINE
  8
0
 10
893.302774
 20
361.315399
 30
0.0
 11
893.302774
 21
362.311411
 31
0.0
  0
LINE
  8
0
 10
893.302774
 20
362.311411
 30
0.0
 11
893.302774
 21
361.315399
 31
0.0
  0
LINE
  8
0
 10
894.300773
 20
363.30941
 30
0.0
 11
920.029827
 21
363.30941
 31
0.0
  0
LINE
  8
0
 10
894.300773
 20
363.30941
 30
0.0
 11
894.212375
 21
363.305437
 31
0.0
  0
LINE
  8
0
 10
894.212375
 20
363.305437
 30
0.0
 11
894.300773
 21
363.30941
 31
0.0
  0
LINE
  8
0
 10
894.212375
 20
363.305437
 30
0.0
 11
894.125964
 21
363.293915
 31
0.0
  0
LINE
  8
0
 10
894.125964
 20
363.293915
 30
0.0
 11
894.212375
 21
363.305437
 31
0.0
  0
LINE
  8
0
 10
894.125964
 20
363.293915
 30
0.0
 11
894.041539
 21
363.276832
 31
0.0
  0
LINE
  8
0
 10
894.041539
 20
363.276832
 30
0.0
 11
894.125964
 21
363.293915
 31
0.0
  0
LINE
  8
0
 10
894.041539
 20
363.276832
 30
0.0
 11
893.959101
 21
363.249816
 31
0.0
  0
LINE
  8
0
 10
893.959101
 20
363.249816
 30
0.0
 11
894.041539
 21
363.276832
 31
0.0
  0
LINE
  8
0
 10
893.959101
 20
363.249816
 30
0.0
 11
893.878451
 21
363.217238
 31
0.0
  0
LINE
  8
0
 10
893.878451
 20
363.217238
 30
0.0
 11
893.959101
 21
363.249816
 31
0.0
  0
LINE
  8
0
 10
893.878451
 20
363.217238
 30
0.0
 11
893.801773
 21
363.176913
 31
0.0
  0
LINE
  8
0
 10
893.801773
 20
363.176913
 30
0.0
 11
893.878451
 21
363.217238
 31
0.0
  0
LINE
  8
0
 10
893.801773
 20
363.176913
 30
0.0
 11
893.726884
 21
363.129039
 31
0.0
  0
LINE
  8
0
 10
893.726884
 20
363.129039
 30
0.0
 11
893.801773
 21
363.176913
 31
0.0
  0
LINE
  8
0
 10
893.726884
 20
363.129039
 30
0.0
 11
893.657755
 21
363.077192
 31
0.0
  0
LINE
  8
0
 10
893.657755
 20
363.077192
 30
0.0
 11
893.726884
 21
363.129039
 31
0.0
  0
LINE
  8
0
 10
893.657755
 20
363.077192
 30
0.0
 11
893.594387
 21
363.017599
 31
0.0
  0
LINE
  8
0
 10
893.594387
 20
363.017599
 30
0.0
 11
893.657755
 21
363.077192
 31
0.0
  0
LINE
  8
0
 10
893.594387
 20
363.017599
 30
0.0
 11
893.534992
 21
362.95423
 31
0.0
  0
LINE
  8
0
 10
893.534992
 20
362.95423
 30
0.0
 11
893.594387
 21
363.017599
 31
0.0
  0
LINE
  8
0
 10
893.534992
 20
362.95423
 30
0.0
 11
893.483145
 21
362.8853
 31
0.0
  0
LINE
  8
0
 10
893.483145
 20
362.8853
 30
0.0
 11
893.534992
 21
362.95423
 31
0.0
  0
LINE
  8
0
 10
893.483145
 20
362.8853
 30
0.0
 11
893.435271
 21
362.810411
 31
0.0
  0
LINE
  8
0
 10
893.435271
 20
362.810411
 30
0.0
 11
893.483145
 21
362.8853
 31
0.0
  0
LINE
  8
0
 10
893.435271
 20
362.810411
 30
0.0
 11
893.394946
 21
362.733733
 31
0.0
  0
LINE
  8
0
 10
893.394946
 20
362.733733
 30
0.0
 11
893.435271
 21
362.810411
 31
0.0
  0
LINE
  8
0
 10
893.394946
 20
362.733733
 30
0.0
 11
893.362169
 21
362.653083
 31
0.0
  0
LINE
  8
0
 10
893.362169
 20
362.653083
 30
0.0
 11
893.394946
 21
362.733733
 31
0.0
  0
LINE
  8
0
 10
893.362169
 20
362.653083
 30
0.0
 11
893.335352
 21
362.570446
 31
0.0
  0
LINE
  8
0
 10
893.335352
 20
362.570446
 30
0.0
 11
893.362169
 21
362.653083
 31
0.0
  0
LINE
  8
0
 10
893.335352
 20
362.570446
 30
0.0
 11
893.31807
 21
362.486021
 31
0.0
  0
LINE
  8
0
 10
893.31807
 20
362.486021
 30
0.0
 11
893.335352
 21
362.570446
 31
0.0
  0
LINE
  8
0
 10
893.31807
 20
362.486021
 30
0.0
 11
893.306549
 21
362.399809
 31
0.0
  0
LINE
  8
0
 10
893.306549
 20
362.399809
 30
0.0
 11
893.31807
 21
362.486021
 31
0.0
  0
LINE
  8
0
 10
893.306549
 20
362.399809
 30
0.0
 11
893.302774
 21
362.313398
 31
0.0
  0
LINE
  8
0
 10
893.302774
 20
362.311411
 30
0.0
 11
893.306549
 21
362.399809
 31
0.0
  0
LINE
  8
0
 10
893.302774
 20
361.315399
 30
0.0
 11
893.306549
 21
361.2272
 31
0.0
  0
LINE
  8
0
 10
893.302774
 20
361.313413
 30
0.0
 11
893.302774
 21
361.315399
 31
0.0
  0
LINE
  8
0
 10
893.306549
 20
361.2272
 30
0.0
 11
893.302774
 21
361.313413
 31
0.0
  0
LINE
  8
0
 10
893.306549
 20
361.2272
 30
0.0
 11
893.31807
 21
361.140789
 31
0.0
  0
LINE
  8
0
 10
893.31807
 20
361.140789
 30
0.0
 11
893.306549
 21
361.2272
 31
0.0
  0
LINE
  8
0
 10
893.31807
 20
361.140789
 30
0.0
 11
893.335352
 21
361.056365
 31
0.0
  0
LINE
  8
0
 10
893.335352
 20
361.056365
 30
0.0
 11
893.31807
 21
361.140789
 31
0.0
  0
LINE
  8
0
 10
893.335352
 20
361.056365
 30
0.0
 11
893.362169
 21
360.973926
 31
0.0
  0
LINE
  8
0
 10
893.362169
 20
360.973926
 30
0.0
 11
893.335352
 21
361.056365
 31
0.0
  0
LINE
  8
0
 10
893.362169
 20
360.973926
 30
0.0
 11
893.394946
 21
360.893276
 31
0.0
  0
LINE
  8
0
 10
893.394946
 20
360.893276
 30
0.0
 11
893.362169
 21
360.973926
 31
0.0
  0
LINE
  8
0
 10
893.394946
 20
360.893276
 30
0.0
 11
893.435271
 21
360.8164
 31
0.0
  0
LINE
  8
0
 10
893.435271
 20
360.8164
 30
0.0
 11
893.394946
 21
360.893276
 31
0.0
  0
LINE
  8
0
 10
893.435271
 20
360.8164
 30
0.0
 11
893.483145
 21
360.741709
 31
0.0
  0
LINE
  8
0
 10
893.483145
 20
360.741709
 30
0.0
 11
893.435271
 21
360.8164
 31
0.0
  0
LINE
  8
0
 10
893.483145
 20
360.741709
 30
0.0
 11
893.534992
 21
360.67258
 31
0.0
  0
LINE
  8
0
 10
893.534992
 20
360.67258
 30
0.0
 11
893.483145
 21
360.741709
 31
0.0
  0
LINE
  8
0
 10
893.534992
 20
360.67258
 30
0.0
 11
893.594387
 21
360.609212
 31
0.0
  0
LINE
  8
0
 10
893.594387
 20
360.609212
 30
0.0
 11
893.534992
 21
360.67258
 31
0.0
  0
LINE
  8
0
 10
893.594387
 20
360.609212
 30
0.0
 11
893.657755
 21
360.549618
 31
0.0
  0
LINE
  8
0
 10
893.657755
 20
360.549618
 30
0.0
 11
893.594387
 21
360.609212
 31
0.0
  0
LINE
  8
0
 10
893.657755
 20
360.549618
 30
0.0
 11
893.726884
 21
360.49797
 31
0.0
  0
LINE
  8
0
 10
893.726884
 20
360.49797
 30
0.0
 11
893.657755
 21
360.549618
 31
0.0
  0
LINE
  8
0
 10
893.726884
 20
360.49797
 30
0.0
 11
893.801773
 21
360.449898
 31
0.0
  0
LINE
  8
0
 10
893.801773
 20
360.449898
 30
0.0
 11
893.726884
 21
360.49797
 31
0.0
  0
LINE
  8
0
 10
893.801773
 20
360.449898
 30
0.0
 11
893.878451
 21
360.409573
 31
0.0
  0
LINE
  8
0
 10
893.878451
 20
360.409573
 30
0.0
 11
893.801773
 21
360.449898
 31
0.0
  0
LINE
  8
0
 10
893.878451
 20
360.409573
 30
0.0
 11
893.959101
 21
360.376995
 31
0.0
  0
LINE
  8
0
 10
893.959101
 20
360.376995
 30
0.0
 11
893.878451
 21
360.409573
 31
0.0
  0
LINE
  8
0
 10
893.959101
 20
360.376995
 30
0.0
 11
894.041539
 21
360.350177
 31
0.0
  0
LINE
  8
0
 10
894.041539
 20
360.350177
 30
0.0
 11
893.959101
 21
360.376995
 31
0.0
  0
LINE
  8
0
 10
894.212375
 20
360.321374
 30
0.0
 11
894.300773
 21
360.317599
 31
0.0
  0
LINE
  8
0
 10
894.125964
 20
360.332895
 30
0.0
 11
894.212375
 21
360.321374
 31
0.0
  0
LINE
  8
0
 10
894.041539
 20
360.350177
 30
0.0
 11
894.125964
 21
360.332895
 31
0.0
  0
LINE
  8
0
 10
894.125964
 20
360.332895
 30
0.0
 11
894.041539
 21
360.350177
 31
0.0
  0
LINE
  8
0
 10
894.212375
 20
360.321374
 30
0.0
 11
894.125964
 21
360.332895
 31
0.0
  0
LINE
  8
0
 10
894.298786
 20
360.317599
 30
0.0
 11
894.212375
 21
360.321374
 31
0.0
  0
LINE
  8
0
 10
894.300773
 20
360.317599
 30
0.0
 11
894.298786
 21
360.317599
 31
0.0
  0
LINE
  8
0
 10
880.210797
 20
368.200575
 30
0.0
 11
884.768536
 21
363.644625
 31
0.0
  0
LINE
  8
0
 10
884.768536
 20
363.644625
 30
0.0
 11
880.210797
 21
368.200575
 31
0.0
  0
LINE
  8
0
 10
922.739764
 20
360.7305
 30
0.0
 11
920.528826
 21
359.453886
 31
0.0
  0
LINE
  8
0
 10
922.762242
 20
362.883332
 30
0.0
 11
920.528826
 21
364.172925
 31
0.0
  0
LINE
  8
0
 10
923.157716
 20
300.971829
 30
0.0
 11
923.157909
 21
300.97194
 31
0.0
  0
LINE
  8
0
 10
923.157909
 20
300.97194
 30
0.0
 11
923.157716
 21
300.971829
 31
0.0
  0
LINE
  8
0
 10
920.029827
 20
299.319601
 30
0.0
 11
887.152092
 21
299.319601
 31
0.0
  0
LINE
  8
0
 10
887.152092
 20
299.319601
 30
0.0
 11
920.029827
 21
299.319601
 31
0.0
  0
LINE
  8
0
 10
891.306976
 20
300.8164
 30
0.0
 11
886.532316
 21
300.8164
 31
0.0
  0
LINE
  8
0
 10
886.532316
 20
300.8164
 30
0.0
 11
891.306976
 21
300.8164
 31
0.0
  0
LINE
  8
0
 10
891.306976
 20
302.810411
 30
0.0
 11
886.532316
 21
302.821827
 31
0.0
  0
LINE
  8
0
 10
886.532316
 20
302.821827
 30
0.0
 11
891.306976
 21
302.810411
 31
0.0
  0
LINE
  8
0
 10
920.029827
 20
304.30721
 30
0.0
 11
887.152092
 21
304.291974
 31
0.0
  0
LINE
  8
0
 10
887.152092
 20
304.291974
 30
0.0
 11
920.029827
 21
304.30721
 31
0.0
  0
LINE
  8
0
 10
885.388511
 20
305.141424
 30
0.0
 11
881.623172
 21
308.906763
 31
0.0
  0
LINE
  8
0
 10
881.623172
 20
308.906763
 30
0.0
 11
885.388511
 21
305.141424
 31
0.0
  0
LINE
  8
0
 10
880.916985
 20
309.198375
 30
0.0
 11
878.337762
 21
309.198375
 31
0.0
  0
LINE
  8
0
 10
878.337762
 20
309.198375
 30
0.0
 11
880.916985
 21
309.198375
 31
0.0
  0
LINE
  8
0
 10
880.404676
 20
307.162252
 30
0.0
 11
879.540962
 21
306.298737
 31
0.0
  0
LINE
  8
0
 10
879.540962
 20
306.298737
 30
0.0
 11
880.404676
 21
307.162252
 31
0.0
  0
LINE
  8
0
 10
879.69829
 20
307.866651
 30
0.0
 11
878.836761
 21
307.004924
 31
0.0
  0
LINE
  8
0
 10
878.836761
 20
307.004924
 30
0.0
 11
879.69829
 21
307.866651
 31
0.0
  0
LINE
  8
0
 10
878.836761
 20
307.004924
 30
0.0
 11
878.337762
 21
307.503923
 31
0.0
  0
LINE
  8
0
 10
878.337762
 20
307.503923
 30
0.0
 11
878.836761
 21
307.004924
 31
0.0
  0
LINE
  8
0
 10
878.337762
 20
308.200575
 30
0.0
 11
878.337762
 21
307.503923
 31
0.0
  0
LINE
  8
0
 10
880.210797
 20
308.200575
 30
0.0
 11
878.337762
 21
308.200575
 31
0.0
  0
LINE
  8
0
 10
880.210797
 20
308.200575
 30
0.0
 11
884.768536
 21
303.644625
 31
0.0
  0
LINE
  8
0
 10
878.337762
 20
308.200575
 30
0.0
 11
880.210797
 21
308.200575
 31
0.0
  0
LINE
  8
0
 10
878.337762
 20
307.503923
 30
0.0
 11
878.337762
 21
308.200575
 31
0.0
  0
LINE
  8
0
 10
877.339764
 20
308.200575
 30
0.0
 11
877.339764
 21
307.089348
 31
0.0
  0
LINE
  8
0
 10
877.339764
 20
307.089348
 30
0.0
 11
877.339764
 21
308.200575
 31
0.0
  0
LINE
  8
0
 10
878.130376
 20
306.298737
 30
0.0
 11
877.339764
 21
307.089348
 31
0.0
  0
LINE
  8
0
 10
877.339764
 20
307.089348
 30
0.0
 11
878.130376
 21
306.298737
 31
0.0
  0
LINE
  8
0
 10
877.339764
 20
296.640459
 30
0.0
 11
877.339764
 21
295.529431
 31
0.0
  0
LINE
  8
0
 10
877.339764
 20
295.529431
 30
0.0
 11
877.339764
 21
296.640459
 31
0.0
  0
LINE
  8
0
 10
885.388511
 20
298.588384
 30
0.0
 11
881.623172
 21
294.823244
 31
0.0
  0
LINE
  8
0
 10
881.623172
 20
294.823244
 30
0.0
 11
885.388511
 21
298.588384
 31
0.0
  0
LINE
  8
0
 10
878.337762
 20
294.531433
 30
0.0
 11
880.916985
 21
294.531433
 31
0.0
  0
LINE
  8
0
 10
880.916985
 20
294.531433
 30
0.0
 11
878.337762
 21
294.531433
 31
0.0
  0
LINE
  8
0
 10
884.768536
 20
300.085382
 30
0.0
 11
880.210797
 21
295.529431
 31
0.0
  0
LINE
  8
0
 10
880.210797
 20
295.529431
 30
0.0
 11
884.768536
 21
300.085382
 31
0.0
  0
LINE
  8
0
 10
878.337762
 20
295.529431
 30
0.0
 11
880.210797
 21
295.529431
 31
0.0
  0
LINE
  8
0
 10
878.337762
 20
296.226083
 30
0.0
 11
878.337762
 21
295.529431
 31
0.0
  0
LINE
  8
0
 10
878.836761
 20
296.724884
 30
0.0
 11
878.337762
 21
296.226083
 31
0.0
  0
LINE
  8
0
 10
878.337762
 20
296.226083
 30
0.0
 11
878.836761
 21
296.724884
 31
0.0
  0
LINE
  8
0
 10
878.337762
 20
295.529431
 30
0.0
 11
878.337762
 21
296.226083
 31
0.0
  0
LINE
  8
0
 10
880.210797
 20
295.529431
 30
0.0
 11
878.337762
 21
295.529431
 31
0.0
  0
LINE
  8
0
 10
878.836761
 20
296.724884
 30
0.0
 11
879.69829
 21
295.863355
 31
0.0
  0
LINE
  8
0
 10
879.69829
 20
295.863355
 30
0.0
 11
878.836761
 21
296.724884
 31
0.0
  0
LINE
  8
0
 10
879.69829
 20
295.863355
 30
0.0
 11
879.744376
 21
295.82303
 31
0.0
  0
LINE
  8
0
 10
879.744376
 20
295.82303
 30
0.0
 11
879.69829
 21
295.863355
 31
0.0
  0
LINE
  8
0
 10
879.744376
 20
295.82303
 30
0.0
 11
879.794236
 21
295.788466
 31
0.0
  0
LINE
  8
0
 10
879.794236
 20
295.788466
 30
0.0
 11
879.744376
 21
295.82303
 31
0.0
  0
LINE
  8
0
 10
879.794236
 20
295.788466
 30
0.0
 11
879.846083
 21
295.759662
 31
0.0
  0
LINE
  8
0
 10
879.846083
 20
295.759662
 30
0.0
 11
879.794236
 21
295.788466
 31
0.0
  0
LINE
  8
0
 10
879.846083
 20
295.759662
 30
0.0
 11
879.90369
 21
295.738606
 31
0.0
  0
LINE
  8
0
 10
879.90369
 20
295.738606
 30
0.0
 11
879.846083
 21
295.759662
 31
0.0
  0
LINE
  8
0
 10
879.90369
 20
295.738606
 30
0.0
 11
879.961298
 21
295.725098
 31
0.0
  0
LINE
  8
0
 10
879.961298
 20
295.725098
 30
0.0
 11
879.90369
 21
295.738606
 31
0.0
  0
LINE
  8
0
 10
879.961298
 20
295.725098
 30
0.0
 11
880.020693
 21
295.71735
 31
0.0
  0
LINE
  8
0
 10
880.020693
 20
295.71735
 30
0.0
 11
879.961298
 21
295.725098
 31
0.0
  0
LINE
  8
0
 10
880.020693
 20
295.71735
 30
0.0
 11
880.082273
 21
295.71735
 31
0.0
  0
LINE
  8
0
 10
880.082273
 20
295.71735
 30
0.0
 11
880.020693
 21
295.71735
 31
0.0
  0
LINE
  8
0
 10
880.082273
 20
295.71735
 30
0.0
 11
880.141668
 21
295.725098
 31
0.0
  0
LINE
  8
0
 10
880.141668
 20
295.725098
 30
0.0
 11
880.082273
 21
295.71735
 31
0.0
  0
LINE
  8
0
 10
880.141668
 20
295.725098
 30
0.0
 11
880.199276
 21
295.738606
 31
0.0
  0
LINE
  8
0
 10
880.199276
 20
295.738606
 30
0.0
 11
880.141668
 21
295.725098
 31
0.0
  0
LINE
  8
0
 10
880.199276
 20
295.738606
 30
0.0
 11
880.256883
 21
295.759662
 31
0.0
  0
LINE
  8
0
 10
880.256883
 20
295.759662
 30
0.0
 11
880.199276
 21
295.738606
 31
0.0
  0
LINE
  8
0
 10
880.256883
 20
295.759662
 30
0.0
 11
880.310518
 21
295.788466
 31
0.0
  0
LINE
  8
0
 10
880.310518
 20
295.788466
 30
0.0
 11
880.256883
 21
295.759662
 31
0.0
  0
LINE
  8
0
 10
880.310518
 20
295.788466
 30
0.0
 11
880.35859
 21
295.82303
 31
0.0
  0
LINE
  8
0
 10
880.35859
 20
295.82303
 30
0.0
 11
880.310518
 21
295.788466
 31
0.0
  0
LINE
  8
0
 10
880.35859
 20
295.82303
 30
0.0
 11
880.404676
 21
295.863355
 31
0.0
  0
LINE
  8
0
 10
880.404676
 20
295.863355
 30
0.0
 11
880.35859
 21
295.82303
 31
0.0
  0
LINE
  8
0
 10
880.404676
 20
295.863355
 30
0.0
 11
880.444803
 21
295.907455
 31
0.0
  0
LINE
  8
0
 10
880.444803
 20
295.907455
 30
0.0
 11
880.404676
 21
295.863355
 31
0.0
  0
LINE
  8
0
 10
880.444803
 20
295.907455
 30
0.0
 11
880.479367
 21
295.957315
 31
0.0
  0
LINE
  8
0
 10
880.479367
 20
295.957315
 30
0.0
 11
880.444803
 21
295.907455
 31
0.0
  0
LINE
  8
0
 10
880.479367
 20
295.957315
 30
0.0
 11
880.506383
 21
296.011148
 31
0.0
  0
LINE
  8
0
 10
880.506383
 20
296.011148
 30
0.0
 11
880.479367
 21
295.957315
 31
0.0
  0
LINE
  8
0
 10
880.506383
 20
296.011148
 30
0.0
 11
880.527439
 21
296.066769
 31
0.0
  0
LINE
  8
0
 10
880.527439
 20
296.066769
 30
0.0
 11
880.506383
 21
296.011148
 31
0.0
  0
LINE
  8
0
 10
880.527439
 20
296.066769
 30
0.0
 11
880.542735
 21
296.126164
 31
0.0
  0
LINE
  8
0
 10
880.542735
 20
296.126164
 30
0.0
 11
880.527439
 21
296.066769
 31
0.0
  0
LINE
  8
0
 10
880.542735
 20
296.126164
 30
0.0
 11
880.550482
 21
296.185758
 31
0.0
  0
LINE
  8
0
 10
880.550482
 20
296.185758
 30
0.0
 11
880.542735
 21
296.126164
 31
0.0
  0
LINE
  8
0
 10
880.550482
 20
296.185758
 30
0.0
 11
880.550482
 21
296.245153
 31
0.0
  0
LINE
  8
0
 10
880.550482
 20
296.245153
 30
0.0
 11
880.550482
 21
296.185758
 31
0.0
  0
LINE
  8
0
 10
880.550482
 20
296.245153
 30
0.0
 11
880.542735
 21
296.304747
 31
0.0
  0
LINE
  8
0
 10
880.542735
 20
296.304747
 30
0.0
 11
880.550482
 21
296.245153
 31
0.0
  0
LINE
  8
0
 10
880.542735
 20
296.304747
 30
0.0
 11
880.527439
 21
296.364143
 31
0.0
  0
LINE
  8
0
 10
880.527439
 20
296.364143
 30
0.0
 11
880.542735
 21
296.304747
 31
0.0
  0
LINE
  8
0
 10
880.527439
 20
296.364143
 30
0.0
 11
880.506383
 21
296.419763
 31
0.0
  0
LINE
  8
0
 10
880.506383
 20
296.419763
 30
0.0
 11
880.527439
 21
296.364143
 31
0.0
  0
LINE
  8
0
 10
880.506383
 20
296.419763
 30
0.0
 11
880.479367
 21
296.473597
 31
0.0
  0
LINE
  8
0
 10
880.479367
 20
296.473597
 30
0.0
 11
880.506383
 21
296.419763
 31
0.0
  0
LINE
  8
0
 10
880.479367
 20
296.473597
 30
0.0
 11
880.444803
 21
296.523457
 31
0.0
  0
LINE
  8
0
 10
880.444803
 20
296.523457
 30
0.0
 11
880.479367
 21
296.473597
 31
0.0
  0
LINE
  8
0
 10
879.540962
 20
297.43127
 30
0.0
 11
880.404676
 21
296.567556
 31
0.0
  0
LINE
  8
0
 10
879.477594
 20
297.490665
 30
0.0
 11
879.540962
 21
297.43127
 31
0.0
  0
LINE
  8
0
 10
879.408664
 20
297.542512
 30
0.0
 11
879.477594
 21
297.490665
 31
0.0
  0
LINE
  8
0
 10
879.333774
 20
297.590584
 30
0.0
 11
879.408664
 21
297.542512
 31
0.0
  0
LINE
  8
0
 10
879.256898
 20
297.628923
 30
0.0
 11
879.333774
 21
297.590584
 31
0.0
  0
LINE
  8
0
 10
879.176446
 20
297.663487
 30
0.0
 11
879.256898
 21
297.628923
 31
0.0
  0
LINE
  8
0
 10
879.09381
 20
297.688318
 30
0.0
 11
879.176446
 21
297.663487
 31
0.0
  0
LINE
  8
0
 10
879.009385
 20
297.707587
 30
0.0
 11
879.09381
 21
297.688318
 31
0.0
  0
LINE
  8
0
 10
878.922974
 20
297.719108
 30
0.0
 11
879.009385
 21
297.707587
 31
0.0
  0
LINE
  8
0
 10
878.836761
 20
297.722883
 30
0.0
 11
878.922974
 21
297.719108
 31
0.0
  0
LINE
  8
0
 10
878.748364
 20
297.719108
 30
0.0
 11
878.836761
 21
297.722883
 31
0.0
  0
LINE
  8
0
 10
878.661953
 20
297.707587
 30
0.0
 11
878.748364
 21
297.719108
 31
0.0
  0
LINE
  8
0
 10
878.577528
 20
297.688318
 30
0.0
 11
878.661953
 21
297.707587
 31
0.0
  0
LINE
  8
0
 10
878.49509
 20
297.663487
 30
0.0
 11
878.577528
 21
297.688318
 31
0.0
  0
LINE
  8
0
 10
878.41444
 20
297.628923
 30
0.0
 11
878.49509
 21
297.663487
 31
0.0
  0
LINE
  8
0
 10
878.337762
 20
297.590584
 30
0.0
 11
878.41444
 21
297.628923
 31
0.0
  0
LINE
  8
0
 10
878.262873
 20
297.542512
 30
0.0
 11
878.337762
 21
297.590584
 31
0.0
  0
LINE
  8
0
 10
878.193744
 20
297.490665
 30
0.0
 11
878.262873
 21
297.542512
 31
0.0
  0
LINE
  8
0
 10
878.130376
 20
297.43127
 30
0.0
 11
878.193744
 21
297.490665
 31
0.0
  0
LINE
  8
0
 10
877.339764
 20
296.640459
 30
0.0
 11
878.130376
 21
297.43127
 31
0.0
  0
LINE
  8
0
 10
878.130376
 20
297.43127
 30
0.0
 11
877.339764
 21
296.640459
 31
0.0
  0
LINE
  8
0
 10
878.193744
 20
297.490665
 30
0.0
 11
878.130376
 21
297.43127
 31
0.0
  0
LINE
  8
0
 10
878.262873
 20
297.542512
 30
0.0
 11
878.193744
 21
297.490665
 31
0.0
  0
LINE
  8
0
 10
878.337762
 20
297.590584
 30
0.0
 11
878.262873
 21
297.542512
 31
0.0
  0
LINE
  8
0
 10
878.41444
 20
297.628923
 30
0.0
 11
878.337762
 21
297.590584
 31
0.0
  0
LINE
  8
0
 10
878.49509
 20
297.663487
 30
0.0
 11
878.41444
 21
297.628923
 31
0.0
  0
LINE
  8
0
 10
878.577528
 20
297.688318
 30
0.0
 11
878.49509
 21
297.663487
 31
0.0
  0
LINE
  8
0
 10
878.661953
 20
297.707587
 30
0.0
 11
878.577528
 21
297.688318
 31
0.0
  0
LINE
  8
0
 10
878.748364
 20
297.719108
 30
0.0
 11
878.661953
 21
297.707587
 31
0.0
  0
LINE
  8
0
 10
878.836761
 20
297.722883
 30
0.0
 11
878.748364
 21
297.719108
 31
0.0
  0
LINE
  8
0
 10
878.922974
 20
297.719108
 30
0.0
 11
878.836761
 21
297.722883
 31
0.0
  0
LINE
  8
0
 10
879.009385
 20
297.707587
 30
0.0
 11
878.922974
 21
297.719108
 31
0.0
  0
LINE
  8
0
 10
879.09381
 20
297.688318
 30
0.0
 11
879.009385
 21
297.707587
 31
0.0
  0
LINE
  8
0
 10
879.176446
 20
297.663487
 30
0.0
 11
879.09381
 21
297.688318
 31
0.0
  0
LINE
  8
0
 10
879.256898
 20
297.628923
 30
0.0
 11
879.176446
 21
297.663487
 31
0.0
  0
LINE
  8
0
 10
879.333774
 20
297.590584
 30
0.0
 11
879.256898
 21
297.628923
 31
0.0
  0
LINE
  8
0
 10
879.408664
 20
297.542512
 30
0.0
 11
879.333774
 21
297.590584
 31
0.0
  0
LINE
  8
0
 10
879.477594
 20
297.490665
 30
0.0
 11
879.408664
 21
297.542512
 31
0.0
  0
LINE
  8
0
 10
879.540962
 20
297.43127
 30
0.0
 11
879.477594
 21
297.490665
 31
0.0
  0
LINE
  8
0
 10
880.404676
 20
296.567556
 30
0.0
 11
879.540962
 21
297.43127
 31
0.0
  0
LINE
  8
0
 10
880.444803
 20
296.523457
 30
0.0
 11
880.404676
 21
296.567556
 31
0.0
  0
LINE
  8
0
 10
880.404676
 20
296.567556
 30
0.0
 11
880.444803
 21
296.523457
 31
0.0
  0
LINE
  8
0
 10
886.532316
 20
300.8164
 30
0.0
 11
886.401805
 21
300.812626
 31
0.0
  0
LINE
  8
0
 10
886.401805
 20
300.812626
 30
0.0
 11
886.532316
 21
300.8164
 31
0.0
  0
LINE
  8
0
 10
886.401805
 20
300.812626
 30
0.0
 11
886.271294
 21
300.803091
 31
0.0
  0
LINE
  8
0
 10
886.271294
 20
300.803091
 30
0.0
 11
886.401805
 21
300.812626
 31
0.0
  0
LINE
  8
0
 10
886.271294
 20
300.803091
 30
0.0
 11
886.142572
 21
300.785808
 31
0.0
  0
LINE
  8
0
 10
886.142572
 20
300.785808
 30
0.0
 11
886.271294
 21
300.803091
 31
0.0
  0
LINE
  8
0
 10
886.142572
 20
300.785808
 30
0.0
 11
886.014048
 21
300.760779
 31
0.0
  0
LINE
  8
0
 10
886.014048
 20
300.760779
 30
0.0
 11
886.142572
 21
300.785808
 31
0.0
  0
LINE
  8
0
 10
886.014048
 20
300.760779
 30
0.0
 11
885.887311
 21
300.730188
 31
0.0
  0
LINE
  8
0
 10
885.887311
 20
300.730188
 30
0.0
 11
886.014048
 21
300.760779
 31
0.0
  0
LINE
  8
0
 10
885.887311
 20
300.730188
 30
0.0
 11
885.760774
 21
300.693637
 31
0.0
  0
LINE
  8
0
 10
885.760774
 20
300.693637
 30
0.0
 11
885.887311
 21
300.730188
 31
0.0
  0
LINE
  8
0
 10
885.760774
 20
300.693637
 30
0.0
 11
885.63801
 21
300.649537
 31
0.0
  0
LINE
  8
0
 10
885.63801
 20
300.649537
 30
0.0
 11
885.760774
 21
300.693637
 31
0.0
  0
LINE
  8
0
 10
885.63801
 20
300.649537
 30
0.0
 11
885.517035
 21
300.599677
 31
0.0
  0
LINE
  8
0
 10
885.517035
 20
300.599677
 30
0.0
 11
885.63801
 21
300.649537
 31
0.0
  0
LINE
  8
0
 10
885.517035
 20
300.599677
 30
0.0
 11
885.400032
 21
300.544056
 31
0.0
  0
LINE
  8
0
 10
885.400032
 20
300.544056
 30
0.0
 11
885.517035
 21
300.599677
 31
0.0
  0
LINE
  8
0
 10
885.400032
 20
300.544056
 30
0.0
 11
885.284817
 21
300.482476
 31
0.0
  0
LINE
  8
0
 10
885.284817
 20
300.482476
 30
0.0
 11
885.400032
 21
300.544056
 31
0.0
  0
LINE
  8
0
 10
885.284817
 20
300.482476
 30
0.0
 11
885.173575
 21
300.413545
 31
0.0
  0
LINE
  8
0
 10
885.173575
 20
300.413545
 30
0.0
 11
885.284817
 21
300.482476
 31
0.0
  0
LINE
  8
0
 10
885.173575
 20
300.413545
 30
0.0
 11
885.066108
 21
300.338656
 31
0.0
  0
LINE
  8
0
 10
885.066108
 20
300.338656
 30
0.0
 11
885.173575
 21
300.413545
 31
0.0
  0
LINE
  8
0
 10
885.066108
 20
300.338656
 30
0.0
 11
884.962415
 21
300.259992
 31
0.0
  0
LINE
  8
0
 10
884.962415
 20
300.259992
 30
0.0
 11
885.066108
 21
300.338656
 31
0.0
  0
LINE
  8
0
 10
884.962415
 20
300.259992
 30
0.0
 11
884.862694
 21
300.175567
 31
0.0
  0
LINE
  8
0
 10
884.862694
 20
300.175567
 30
0.0
 11
884.962415
 21
300.259992
 31
0.0
  0
LINE
  8
0
 10
884.862694
 20
300.175567
 30
0.0
 11
884.768536
 21
300.085382
 31
0.0
  0
LINE
  8
0
 10
884.768536
 20
300.085382
 30
0.0
 11
884.862694
 21
300.175567
 31
0.0
  0
LINE
  8
0
 10
884.862694
 20
303.566704
 30
0.0
 11
884.768536
 21
303.644625
 31
0.0
  0
LINE
  8
0
 10
884.962415
 20
303.486087
 30
0.0
 11
884.862694
 21
303.566704
 31
0.0
  0
LINE
  8
0
 10
885.066108
 20
303.40901
 30
0.0
 11
884.962415
 21
303.486087
 31
0.0
  0
LINE
  8
0
 10
885.173575
 20
303.33576
 30
0.0
 11
885.066108
 21
303.40901
 31
0.0
  0
LINE
  8
0
 10
885.284817
 20
303.266475
 30
0.0
 11
885.173575
 21
303.33576
 31
0.0
  0
LINE
  8
0
 10
885.400032
 20
303.201204
 30
0.0
 11
885.284817
 21
303.266475
 31
0.0
  0
LINE
  8
0
 10
885.517035
 20
303.141216
 30
0.0
 11
885.400032
 21
303.201204
 31
0.0
  0
LINE
  8
0
 10
885.63801
 20
303.085447
 30
0.0
 11
885.517035
 21
303.141216
 31
0.0
  0
LINE
  8
0
 10
885.760774
 20
303.034989
 30
0.0
 11
885.63801
 21
303.085447
 31
0.0
  0
LINE
  8
0
 10
885.887311
 20
302.98912
 30
0.0
 11
885.760774
 21
303.034989
 31
0.0
  0
LINE
  8
0
 10
886.014048
 20
302.949148
 30
0.0
 11
885.887311
 21
302.98912
 31
0.0
  0
LINE
  8
0
 10
886.142572
 20
302.914474
 30
0.0
 11
886.014048
 21
302.949148
 31
0.0
  0
LINE
  8
0
 10
886.271294
 20
302.885465
 30
0.0
 11
886.142572
 21
302.914474
 31
0.0
  0
LINE
  8
0
 10
886.401805
 20
302.854423
 30
0.0
 11
886.271294
 21
302.885465
 31
0.0
  0
LINE
  8
0
 10
886.532316
 20
302.821827
 30
0.0
 11
886.401805
 21
302.854423
 31
0.0
  0
LINE
  8
0
 10
886.401805
 20
302.854423
 30
0.0
 11
886.532316
 21
302.821827
 31
0.0
  0
LINE
  8
0
 10
886.271294
 20
302.885465
 30
0.0
 11
886.401805
 21
302.854423
 31
0.0
  0
LINE
  8
0
 10
886.142572
 20
302.914474
 30
0.0
 11
886.271294
 21
302.885465
 31
0.0
  0
LINE
  8
0
 10
886.014048
 20
302.949148
 30
0.0
 11
886.142572
 21
302.914474
 31
0.0
  0
LINE
  8
0
 10
885.887311
 20
302.98912
 30
0.0
 11
886.014048
 21
302.949148
 31
0.0
  0
LINE
  8
0
 10
885.760774
 20
303.034989
 30
0.0
 11
885.887311
 21
302.98912
 31
0.0
  0
LINE
  8
0
 10
885.63801
 20
303.085447
 30
0.0
 11
885.760774
 21
303.034989
 31
0.0
  0
LINE
  8
0
 10
885.517035
 20
303.141216
 30
0.0
 11
885.63801
 21
303.085447
 31
0.0
  0
LINE
  8
0
 10
885.400032
 20
303.201204
 30
0.0
 11
885.517035
 21
303.141216
 31
0.0
  0
LINE
  8
0
 10
885.284817
 20
303.266475
 30
0.0
 11
885.400032
 21
303.201204
 31
0.0
  0
LINE
  8
0
 10
885.173575
 20
303.33576
 30
0.0
 11
885.284817
 21
303.266475
 31
0.0
  0
LINE
  8
0
 10
885.066108
 20
303.40901
 30
0.0
 11
885.173575
 21
303.33576
 31
0.0
  0
LINE
  8
0
 10
884.962415
 20
303.486087
 30
0.0
 11
885.066108
 21
303.40901
 31
0.0
  0
LINE
  8
0
 10
884.862694
 20
303.566704
 30
0.0
 11
884.962415
 21
303.486087
 31
0.0
  0
LINE
  8
0
 10
884.768536
 20
303.644625
 30
0.0
 11
884.862694
 21
303.566704
 31
0.0
  0
LINE
  8
0
 10
880.404676
 20
307.162252
 30
0.0
 11
880.444803
 21
307.206351
 31
0.0
  0
LINE
  8
0
 10
880.444803
 20
307.206351
 30
0.0
 11
880.404676
 21
307.162252
 31
0.0
  0
LINE
  8
0
 10
880.444803
 20
307.206351
 30
0.0
 11
880.479367
 21
307.256211
 31
0.0
  0
LINE
  8
0
 10
880.479367
 20
307.256211
 30
0.0
 11
880.444803
 21
307.206351
 31
0.0
  0
LINE
  8
0
 10
880.479367
 20
307.256211
 30
0.0
 11
880.506383
 21
307.310044
 31
0.0
  0
LINE
  8
0
 10
880.506383
 20
307.310044
 30
0.0
 11
880.479367
 21
307.256211
 31
0.0
  0
LINE
  8
0
 10
880.506383
 20
307.310044
 30
0.0
 11
880.527439
 21
307.365665
 31
0.0
  0
LINE
  8
0
 10
880.527439
 20
307.365665
 30
0.0
 11
880.506383
 21
307.310044
 31
0.0
  0
LINE
  8
0
 10
880.527439
 20
307.365665
 30
0.0
 11
880.542735
 21
307.425259
 31
0.0
  0
LINE
  8
0
 10
880.542735
 20
307.425259
 30
0.0
 11
880.527439
 21
307.365665
 31
0.0
  0
LINE
  8
0
 10
880.542735
 20
307.425259
 30
0.0
 11
880.550482
 21
307.484654
 31
0.0
  0
LINE
  8
0
 10
880.550482
 20
307.484654
 30
0.0
 11
880.542735
 21
307.425259
 31
0.0
  0
LINE
  8
0
 10
880.550482
 20
307.484654
 30
0.0
 11
880.550482
 21
307.544248
 31
0.0
  0
LINE
  8
0
 10
880.550482
 20
307.544248
 30
0.0
 11
880.550482
 21
307.484654
 31
0.0
  0
LINE
  8
0
 10
880.550482
 20
307.544248
 30
0.0
 11
880.542735
 21
307.603644
 31
0.0
  0
LINE
  8
0
 10
880.542735
 20
307.603644
 30
0.0
 11
880.550482
 21
307.544248
 31
0.0
  0
LINE
  8
0
 10
880.542735
 20
307.603644
 30
0.0
 11
880.527439
 21
307.663039
 31
0.0
  0
LINE
  8
0
 10
880.527439
 20
307.663039
 30
0.0
 11
880.542735
 21
307.603644
 31
0.0
  0
LINE
  8
0
 10
880.527439
 20
307.663039
 30
0.0
 11
880.506383
 21
307.718858
 31
0.0
  0
LINE
  8
0
 10
880.506383
 20
307.718858
 30
0.0
 11
880.527439
 21
307.663039
 31
0.0
  0
LINE
  8
0
 10
880.506383
 20
307.718858
 30
0.0
 11
880.479367
 21
307.772493
 31
0.0
  0
LINE
  8
0
 10
880.479367
 20
307.772493
 30
0.0
 11
880.506383
 21
307.718858
 31
0.0
  0
LINE
  8
0
 10
880.479367
 20
307.772493
 30
0.0
 11
880.444803
 21
307.822353
 31
0.0
  0
LINE
  8
0
 10
880.444803
 20
307.822353
 30
0.0
 11
880.479367
 21
307.772493
 31
0.0
  0
LINE
  8
0
 10
880.444803
 20
307.822353
 30
0.0
 11
880.404676
 21
307.866651
 31
0.0
  0
LINE
  8
0
 10
880.404676
 20
307.866651
 30
0.0
 11
880.444803
 21
307.822353
 31
0.0
  0
LINE
  8
0
 10
880.35859
 20
307.906778
 30
0.0
 11
880.404676
 21
307.866651
 31
0.0
  0
LINE
  8
0
 10
880.310518
 20
307.941342
 30
0.0
 11
880.35859
 21
307.906778
 31
0.0
  0
LINE
  8
0
 10
880.256883
 20
307.970146
 30
0.0
 11
880.310518
 21
307.941342
 31
0.0
  0
LINE
  8
0
 10
880.199276
 20
307.991202
 30
0.0
 11
880.256883
 21
307.970146
 31
0.0
  0
LINE
  8
0
 10
880.141668
 20
308.00471
 30
0.0
 11
880.199276
 21
307.991202
 31
0.0
  0
LINE
  8
0
 10
880.082273
 20
308.012457
 30
0.0
 11
880.141668
 21
308.00471
 31
0.0
  0
LINE
  8
0
 10
880.020693
 20
308.012457
 30
0.0
 11
880.082273
 21
308.012457
 31
0.0
  0
LINE
  8
0
 10
879.961298
 20
308.00471
 30
0.0
 11
880.020693
 21
308.012457
 31
0.0
  0
LINE
  8
0
 10
879.90369
 20
307.991202
 30
0.0
 11
879.961298
 21
308.00471
 31
0.0
  0
LINE
  8
0
 10
879.846083
 20
307.970146
 30
0.0
 11
879.90369
 21
307.991202
 31
0.0
  0
LINE
  8
0
 10
879.794236
 20
307.941342
 30
0.0
 11
879.846083
 21
307.970146
 31
0.0
  0
LINE
  8
0
 10
879.744376
 20
307.906778
 30
0.0
 11
879.794236
 21
307.941342
 31
0.0
  0
LINE
  8
0
 10
879.69829
 20
307.866651
 30
0.0
 11
879.744376
 21
307.906778
 31
0.0
  0
LINE
  8
0
 10
879.744376
 20
307.906778
 30
0.0
 11
879.69829
 21
307.866651
 31
0.0
  0
LINE
  8
0
 10
879.794236
 20
307.941342
 30
0.0
 11
879.744376
 21
307.906778
 31
0.0
  0
LINE
  8
0
 10
879.846083
 20
307.970146
 30
0.0
 11
879.794236
 21
307.941342
 31
0.0
  0
LINE
  8
0
 10
879.90369
 20
307.991202
 30
0.0
 11
879.846083
 21
307.970146
 31
0.0
  0
LINE
  8
0
 10
879.961298
 20
308.00471
 30
0.0
 11
879.90369
 21
307.991202
 31
0.0
  0
LINE
  8
0
 10
880.020693
 20
308.012457
 30
0.0
 11
879.961298
 21
308.00471
 31
0.0
  0
LINE
  8
0
 10
880.082273
 20
308.012457
 30
0.0
 11
880.020693
 21
308.012457
 31
0.0
  0
LINE
  8
0
 10
880.141668
 20
308.00471
 30
0.0
 11
880.082273
 21
308.012457
 31
0.0
  0
LINE
  8
0
 10
880.199276
 20
307.991202
 30
0.0
 11
880.141668
 21
308.00471
 31
0.0
  0
LINE
  8
0
 10
880.256883
 20
307.970146
 30
0.0
 11
880.199276
 21
307.991202
 31
0.0
  0
LINE
  8
0
 10
880.310518
 20
307.941342
 30
0.0
 11
880.256883
 21
307.970146
 31
0.0
  0
LINE
  8
0
 10
880.35859
 20
307.906778
 30
0.0
 11
880.310518
 21
307.941342
 31
0.0
  0
LINE
  8
0
 10
880.404676
 20
307.866651
 30
0.0
 11
880.35859
 21
307.906778
 31
0.0
  0
LINE
  8
0
 10
881.623172
 20
308.906763
 30
0.0
 11
881.558016
 21
308.966158
 31
0.0
  0
LINE
  8
0
 10
881.558016
 20
308.966158
 30
0.0
 11
881.623172
 21
308.906763
 31
0.0
  0
LINE
  8
0
 10
881.558016
 20
308.966158
 30
0.0
 11
881.488887
 21
309.018005
 31
0.0
  0
LINE
  8
0
 10
881.488887
 20
309.018005
 30
0.0
 11
881.558016
 21
308.966158
 31
0.0
  0
LINE
  8
0
 10
881.488887
 20
309.018005
 30
0.0
 11
881.415984
 21
309.066077
 31
0.0
  0
LINE
  8
0
 10
881.415984
 20
309.066077
 30
0.0
 11
881.488887
 21
309.018005
 31
0.0
  0
LINE
  8
0
 10
881.415984
 20
309.066077
 30
0.0
 11
881.339108
 21
309.106203
 31
0.0
  0
LINE
  8
0
 10
881.339108
 20
309.106203
 30
0.0
 11
881.415984
 21
309.066077
 31
0.0
  0
LINE
  8
0
 10
881.339108
 20
309.106203
 30
0.0
 11
881.258656
 21
309.13898
 31
0.0
  0
LINE
  8
0
 10
881.258656
 20
309.13898
 30
0.0
 11
881.339108
 21
309.106203
 31
0.0
  0
LINE
  8
0
 10
881.258656
 20
309.13898
 30
0.0
 11
881.174231
 21
309.165797
 31
0.0
  0
LINE
  8
0
 10
881.174231
 20
309.165797
 30
0.0
 11
881.258656
 21
309.13898
 31
0.0
  0
LINE
  8
0
 10
881.174231
 20
309.165797
 30
0.0
 11
881.089608
 21
309.18308
 31
0.0
  0
LINE
  8
0
 10
881.089608
 20
309.18308
 30
0.0
 11
881.174231
 21
309.165797
 31
0.0
  0
LINE
  8
0
 10
881.089608
 20
309.18308
 30
0.0
 11
881.003396
 21
309.194601
 31
0.0
  0
LINE
  8
0
 10
881.003396
 20
309.194601
 30
0.0
 11
881.089608
 21
309.18308
 31
0.0
  0
LINE
  8
0
 10
881.003396
 20
309.194601
 30
0.0
 11
880.916985
 21
309.198375
 31
0.0
  0
LINE
  8
0
 10
880.916985
 20
309.198375
 30
0.0
 11
881.003396
 21
309.194601
 31
0.0
  0
LINE
  8
0
 10
878.337762
 20
309.198375
 30
0.0
 11
878.249365
 21
309.194601
 31
0.0
  0
LINE
  8
0
 10
878.249365
 20
309.194601
 30
0.0
 11
878.337762
 21
309.198375
 31
0.0
  0
LINE
  8
0
 10
878.249365
 20
309.194601
 30
0.0
 11
878.163152
 21
309.18308
 31
0.0
  0
LINE
  8
0
 10
878.163152
 20
309.18308
 30
0.0
 11
878.249365
 21
309.194601
 31
0.0
  0
LINE
  8
0
 10
878.163152
 20
309.18308
 30
0.0
 11
878.078728
 21
309.165797
 31
0.0
  0
LINE
  8
0
 10
878.078728
 20
309.165797
 30
0.0
 11
878.163152
 21
309.18308
 31
0.0
  0
LINE
  8
0
 10
878.078728
 20
309.165797
 30
0.0
 11
877.996091
 21
309.13898
 31
0.0
  0
LINE
  8
0
 10
877.996091
 20
309.13898
 30
0.0
 11
878.078728
 21
309.165797
 31
0.0
  0
LINE
  8
0
 10
877.996091
 20
309.13898
 30
0.0
 11
877.91544
 21
309.106203
 31
0.0
  0
LINE
  8
0
 10
877.91544
 20
309.106203
 30
0.0
 11
877.996091
 21
309.13898
 31
0.0
  0
LINE
  8
0
 10
877.91544
 20
309.106203
 30
0.0
 11
877.838763
 21
309.066077
 31
0.0
  0
LINE
  8
0
 10
877.838763
 20
309.066077
 30
0.0
 11
877.91544
 21
309.106203
 31
0.0
  0
LINE
  8
0
 10
877.838763
 20
309.066077
 30
0.0
 11
877.763873
 21
309.018005
 31
0.0
  0
LINE
  8
0
 10
877.763873
 20
309.018005
 30
0.0
 11
877.838763
 21
309.066077
 31
0.0
  0
LINE
  8
0
 10
877.763873
 20
309.018005
 30
0.0
 11
877.694744
 21
308.966158
 31
0.0
  0
LINE
  8
0
 10
877.694744
 20
308.966158
 30
0.0
 11
877.763873
 21
309.018005
 31
0.0
  0
LINE
  8
0
 10
877.694744
 20
308.966158
 30
0.0
 11
877.631575
 21
308.906763
 31
0.0
  0
LINE
  8
0
 10
877.631575
 20
308.906763
 30
0.0
 11
877.694744
 21
308.966158
 31
0.0
  0
LINE
  8
0
 10
877.631575
 20
308.906763
 30
0.0
 11
877.571981
 21
308.843394
 31
0.0
  0
LINE
  8
0
 10
877.571981
 20
308.843394
 30
0.0
 11
877.631575
 21
308.906763
 31
0.0
  0
LINE
  8
0
 10
877.571981
 20
308.843394
 30
0.0
 11
877.520134
 21
308.774266
 31
0.0
  0
LINE
  8
0
 10
877.520134
 20
308.774266
 30
0.0
 11
877.571981
 21
308.843394
 31
0.0
  0
LINE
  8
0
 10
877.520134
 20
308.774266
 30
0.0
 11
877.472261
 21
308.699376
 31
0.0
  0
LINE
  8
0
 10
877.472261
 20
308.699376
 30
0.0
 11
877.520134
 21
308.774266
 31
0.0
  0
LINE
  8
0
 10
877.472261
 20
308.699376
 30
0.0
 11
877.431935
 21
308.622699
 31
0.0
  0
LINE
  8
0
 10
877.431935
 20
308.622699
 30
0.0
 11
877.472261
 21
308.699376
 31
0.0
  0
LINE
  8
0
 10
877.431935
 20
308.622699
 30
0.0
 11
877.399358
 21
308.542048
 31
0.0
  0
LINE
  8
0
 10
877.399358
 20
308.542048
 30
0.0
 11
877.431935
 21
308.622699
 31
0.0
  0
LINE
  8
0
 10
877.399358
 20
308.542048
 30
0.0
 11
877.372342
 21
308.45961
 31
0.0
  0
LINE
  8
0
 10
877.372342
 20
308.45961
 30
0.0
 11
877.399358
 21
308.542048
 31
0.0
  0
LINE
  8
0
 10
877.372342
 20
308.45961
 30
0.0
 11
877.355059
 21
308.375185
 31
0.0
  0
LINE
  8
0
 10
877.355059
 20
308.375185
 30
0.0
 11
877.372342
 21
308.45961
 31
0.0
  0
LINE
  8
0
 10
877.355059
 20
308.375185
 30
0.0
 11
877.343538
 21
308.288774
 31
0.0
  0
LINE
  8
0
 10
877.343538
 20
308.288774
 30
0.0
 11
877.355059
 21
308.375185
 31
0.0
  0
LINE
  8
0
 10
877.343538
 20
308.288774
 30
0.0
 11
877.339764
 21
308.200575
 31
0.0
  0
LINE
  8
0
 10
877.339764
 20
308.200575
 30
0.0
 11
877.343538
 21
308.288774
 31
0.0
  0
LINE
  8
0
 10
878.130376
 20
306.298737
 30
0.0
 11
878.193744
 21
306.239143
 31
0.0
  0
LINE
  8
0
 10
878.193744
 20
306.239143
 30
0.0
 11
878.130376
 21
306.298737
 31
0.0
  0
LINE
  8
0
 10
878.193744
 20
306.239143
 30
0.0
 11
878.262873
 21
306.187296
 31
0.0
  0
LINE
  8
0
 10
878.262873
 20
306.187296
 30
0.0
 11
878.193744
 21
306.239143
 31
0.0
  0
LINE
  8
0
 10
878.262873
 20
306.187296
 30
0.0
 11
878.337762
 21
306.139422
 31
0.0
  0
LINE
  8
0
 10
878.337762
 20
306.139422
 30
0.0
 11
878.262873
 21
306.187296
 31
0.0
  0
LINE
  8
0
 10
878.337762
 20
306.139422
 30
0.0
 11
878.41444
 21
306.101084
 31
0.0
  0
LINE
  8
0
 10
878.41444
 20
306.101084
 30
0.0
 11
878.337762
 21
306.139422
 31
0.0
  0
LINE
  8
0
 10
878.41444
 20
306.101084
 30
0.0
 11
878.49509
 21
306.066519
 31
0.0
  0
LINE
  8
0
 10
878.49509
 20
306.066519
 30
0.0
 11
878.41444
 21
306.101084
 31
0.0
  0
LINE
  8
0
 10
878.49509
 20
306.066519
 30
0.0
 11
878.577528
 21
306.04149
 31
0.0
  0
LINE
  8
0
 10
878.577528
 20
306.04149
 30
0.0
 11
878.49509
 21
306.066519
 31
0.0
  0
LINE
  8
0
 10
878.577528
 20
306.04149
 30
0.0
 11
878.661953
 21
306.02242
 31
0.0
  0
LINE
  8
0
 10
878.661953
 20
306.02242
 30
0.0
 11
878.577528
 21
306.04149
 31
0.0
  0
LINE
  8
0
 10
878.661953
 20
306.02242
 30
0.0
 11
878.748364
 21
306.010898
 31
0.0
  0
LINE
  8
0
 10
878.748364
 20
306.010898
 30
0.0
 11
878.661953
 21
306.02242
 31
0.0
  0
LINE
  8
0
 10
878.748364
 20
306.010898
 30
0.0
 11
878.836761
 21
306.006925
 31
0.0
  0
LINE
  8
0
 10
878.836761
 20
306.006925
 30
0.0
 11
878.748364
 21
306.010898
 31
0.0
  0
LINE
  8
0
 10
878.836761
 20
306.006925
 30
0.0
 11
878.922974
 21
306.010898
 31
0.0
  0
LINE
  8
0
 10
878.922974
 20
306.010898
 30
0.0
 11
878.836761
 21
306.006925
 31
0.0
  0
LINE
  8
0
 10
878.922974
 20
306.010898
 30
0.0
 11
879.009385
 21
306.02242
 31
0.0
  0
LINE
  8
0
 10
879.009385
 20
306.02242
 30
0.0
 11
878.922974
 21
306.010898
 31
0.0
  0
LINE
  8
0
 10
879.009385
 20
306.02242
 30
0.0
 11
879.09381
 21
306.04149
 31
0.0
  0
LINE
  8
0
 10
879.09381
 20
306.04149
 30
0.0
 11
879.009385
 21
306.02242
 31
0.0
  0
LINE
  8
0
 10
879.09381
 20
306.04149
 30
0.0
 11
879.176446
 21
306.066519
 31
0.0
  0
LINE
  8
0
 10
879.176446
 20
306.066519
 30
0.0
 11
879.09381
 21
306.04149
 31
0.0
  0
LINE
  8
0
 10
879.176446
 20
306.066519
 30
0.0
 11
879.256898
 21
306.101084
 31
0.0
  0
LINE
  8
0
 10
879.256898
 20
306.101084
 30
0.0
 11
879.176446
 21
306.066519
 31
0.0
  0
LINE
  8
0
 10
879.256898
 20
306.101084
 30
0.0
 11
879.333774
 21
306.139422
 31
0.0
  0
LINE
  8
0
 10
879.333774
 20
306.139422
 30
0.0
 11
879.256898
 21
306.101084
 31
0.0
  0
LINE
  8
0
 10
879.333774
 20
306.139422
 30
0.0
 11
879.408664
 21
306.187296
 31
0.0
  0
LINE
  8
0
 10
879.408664
 20
306.187296
 30
0.0
 11
879.333774
 21
306.139422
 31
0.0
  0
LINE
  8
0
 10
879.408664
 20
306.187296
 30
0.0
 11
879.477594
 21
306.239143
 31
0.0
  0
LINE
  8
0
 10
879.477594
 20
306.239143
 30
0.0
 11
879.408664
 21
306.187296
 31
0.0
  0
LINE
  8
0
 10
879.477594
 20
306.239143
 30
0.0
 11
879.540962
 21
306.298737
 31
0.0
  0
LINE
  8
0
 10
879.540962
 20
306.298737
 30
0.0
 11
879.477594
 21
306.239143
 31
0.0
  0
LINE
  8
0
 10
920.450162
 20
304.21325
 30
0.0
 11
920.528826
 21
304.172925
 31
0.0
  0
LINE
  8
0
 10
920.369512
 20
304.247815
 30
0.0
 11
920.450162
 21
304.21325
 31
0.0
  0
LINE
  8
0
 10
920.287074
 20
304.272645
 30
0.0
 11
920.369512
 21
304.247815
 31
0.0
  0
LINE
  8
0
 10
920.202649
 20
304.291914
 30
0.0
 11
920.287074
 21
304.272645
 31
0.0
  0
LINE
  8
0
 10
920.116238
 20
304.303436
 30
0.0
 11
920.202649
 21
304.291914
 31
0.0
  0
LINE
  8
0
 10
920.029827
 20
304.30721
 30
0.0
 11
920.116238
 21
304.303436
 31
0.0
  0
LINE
  8
0
 10
920.116238
 20
304.303436
 30
0.0
 11
920.029827
 21
304.30721
 31
0.0
  0
LINE
  8
0
 10
920.202649
 20
304.291914
 30
0.0
 11
920.116238
 21
304.303436
 31
0.0
  0
LINE
  8
0
 10
920.287074
 20
304.272645
 30
0.0
 11
920.202649
 21
304.291914
 31
0.0
  0
LINE
  8
0
 10
920.369512
 20
304.247815
 30
0.0
 11
920.287074
 21
304.272645
 31
0.0
  0
LINE
  8
0
 10
920.450162
 20
304.21325
 30
0.0
 11
920.369512
 21
304.247815
 31
0.0
  0
LINE
  8
0
 10
920.528826
 20
304.172925
 30
0.0
 11
920.450162
 21
304.21325
 31
0.0
  0
LINE
  8
0
 10
920.116238
 20
299.323375
 30
0.0
 11
920.029827
 21
299.319601
 31
0.0
  0
LINE
  8
0
 10
920.202649
 20
299.334897
 30
0.0
 11
920.116238
 21
299.323375
 31
0.0
  0
LINE
  8
0
 10
920.287074
 20
299.354165
 30
0.0
 11
920.202649
 21
299.334897
 31
0.0
  0
LINE
  8
0
 10
920.369512
 20
299.378996
 30
0.0
 11
920.287074
 21
299.354165
 31
0.0
  0
LINE
  8
0
 10
920.450162
 20
299.41356
 30
0.0
 11
920.369512
 21
299.378996
 31
0.0
  0
LINE
  8
0
 10
920.528826
 20
299.453886
 30
0.0
 11
920.450162
 21
299.41356
 31
0.0
  0
LINE
  8
0
 10
920.450162
 20
299.41356
 30
0.0
 11
920.528826
 21
299.453886
 31
0.0
  0
LINE
  8
0
 10
920.369512
 20
299.378996
 30
0.0
 11
920.450162
 21
299.41356
 31
0.0
  0
LINE
  8
0
 10
920.287074
 20
299.354165
 30
0.0
 11
920.369512
 21
299.378996
 31
0.0
  0
LINE
  8
0
 10
920.202649
 20
299.334897
 30
0.0
 11
920.287074
 21
299.354165
 31
0.0
  0
LINE
  8
0
 10
920.116238
 20
299.323375
 30
0.0
 11
920.202649
 21
299.334897
 31
0.0
  0
LINE
  8
0
 10
920.029827
 20
299.319601
 30
0.0
 11
920.116238
 21
299.323375
 31
0.0
  0
LINE
  8
0
 10
887.152092
 20
299.319601
 30
0.0
 11
887.021581
 21
299.315827
 31
0.0
  0
LINE
  8
0
 10
887.021581
 20
299.315827
 30
0.0
 11
887.152092
 21
299.319601
 31
0.0
  0
LINE
  8
0
 10
887.021581
 20
299.315827
 30
0.0
 11
886.891071
 21
299.306093
 31
0.0
  0
LINE
  8
0
 10
886.891071
 20
299.306093
 30
0.0
 11
887.021581
 21
299.315827
 31
0.0
  0
LINE
  8
0
 10
886.891071
 20
299.306093
 30
0.0
 11
886.762546
 21
299.288811
 31
0.0
  0
LINE
  8
0
 10
886.762546
 20
299.288811
 30
0.0
 11
886.891071
 21
299.306093
 31
0.0
  0
LINE
  8
0
 10
886.762546
 20
299.288811
 30
0.0
 11
886.634022
 21
299.265768
 31
0.0
  0
LINE
  8
0
 10
886.634022
 20
299.265768
 30
0.0
 11
886.762546
 21
299.288811
 31
0.0
  0
LINE
  8
0
 10
886.634022
 20
299.265768
 30
0.0
 11
886.507286
 21
299.235176
 31
0.0
  0
LINE
  8
0
 10
886.507286
 20
299.235176
 30
0.0
 11
886.634022
 21
299.265768
 31
0.0
  0
LINE
  8
0
 10
886.507286
 20
299.235176
 30
0.0
 11
886.38055
 21
299.196837
 31
0.0
  0
LINE
  8
0
 10
886.38055
 20
299.196837
 30
0.0
 11
886.507286
 21
299.235176
 31
0.0
  0
LINE
  8
0
 10
886.38055
 20
299.196837
 30
0.0
 11
886.257786
 21
299.154526
 31
0.0
  0
LINE
  8
0
 10
886.257786
 20
299.154526
 30
0.0
 11
886.38055
 21
299.196837
 31
0.0
  0
LINE
  8
0
 10
886.257786
 20
299.154526
 30
0.0
 11
886.136811
 21
299.104666
 31
0.0
  0
LINE
  8
0
 10
886.136811
 20
299.104666
 30
0.0
 11
886.257786
 21
299.154526
 31
0.0
  0
LINE
  8
0
 10
886.136811
 20
299.104666
 30
0.0
 11
886.019808
 21
299.047058
 31
0.0
  0
LINE
  8
0
 10
886.019808
 20
299.047058
 30
0.0
 11
886.136811
 21
299.104666
 31
0.0
  0
LINE
  8
0
 10
886.019808
 20
299.047058
 30
0.0
 11
885.904594
 21
298.985677
 31
0.0
  0
LINE
  8
0
 10
885.904594
 20
298.985677
 30
0.0
 11
886.019808
 21
299.047058
 31
0.0
  0
LINE
  8
0
 10
885.904594
 20
298.985677
 30
0.0
 11
885.793352
 21
298.916548
 31
0.0
  0
LINE
  8
0
 10
885.793352
 20
298.916548
 30
0.0
 11
885.904594
 21
298.985677
 31
0.0
  0
LINE
  8
0
 10
885.793352
 20
298.916548
 30
0.0
 11
885.685884
 21
298.843644
 31
0.0
  0
LINE
  8
0
 10
885.685884
 20
298.843644
 30
0.0
 11
885.793352
 21
298.916548
 31
0.0
  0
LINE
  8
0
 10
885.685884
 20
298.843644
 30
0.0
 11
885.582191
 21
298.762994
 31
0.0
  0
LINE
  8
0
 10
885.582191
 20
298.762994
 30
0.0
 11
885.685884
 21
298.843644
 31
0.0
  0
LINE
  8
0
 10
885.582191
 20
298.762994
 30
0.0
 11
885.48247
 21
298.678569
 31
0.0
  0
LINE
  8
0
 10
885.48247
 20
298.678569
 30
0.0
 11
885.582191
 21
298.762994
 31
0.0
  0
LINE
  8
0
 10
885.48247
 20
298.678569
 30
0.0
 11
885.388511
 21
298.588384
 31
0.0
  0
LINE
  8
0
 10
885.388511
 20
298.588384
 30
0.0
 11
885.48247
 21
298.678569
 31
0.0
  0
LINE
  8
0
 10
881.558016
 20
294.76365
 30
0.0
 11
881.623172
 21
294.823244
 31
0.0
  0
LINE
  8
0
 10
881.488887
 20
294.711803
 30
0.0
 11
881.558016
 21
294.76365
 31
0.0
  0
LINE
  8
0
 10
881.415984
 20
294.66393
 30
0.0
 11
881.488887
 21
294.711803
 31
0.0
  0
LINE
  8
0
 10
881.339108
 20
294.623604
 30
0.0
 11
881.415984
 21
294.66393
 31
0.0
  0
LINE
  8
0
 10
881.258656
 20
294.591026
 30
0.0
 11
881.339108
 21
294.623604
 31
0.0
  0
LINE
  8
0
 10
881.174231
 20
294.564011
 30
0.0
 11
881.258656
 21
294.591026
 31
0.0
  0
LINE
  8
0
 10
881.089608
 20
294.546728
 30
0.0
 11
881.174231
 21
294.564011
 31
0.0
  0
LINE
  8
0
 10
881.003396
 20
294.535207
 30
0.0
 11
881.089608
 21
294.546728
 31
0.0
  0
LINE
  8
0
 10
881.003396
 20
294.535207
 30
0.0
 11
880.916985
 21
294.531433
 31
0.0
  0
LINE
  8
0
 10
881.558016
 20
294.76365
 30
0.0
 11
881.623172
 21
294.823244
 31
0.0
  0
LINE
  8
0
 10
881.488887
 20
294.711803
 30
0.0
 11
881.558016
 21
294.76365
 31
0.0
  0
LINE
  8
0
 10
881.415984
 20
294.66393
 30
0.0
 11
881.488887
 21
294.711803
 31
0.0
  0
LINE
  8
0
 10
881.339108
 20
294.623604
 30
0.0
 11
881.415984
 21
294.66393
 31
0.0
  0
LINE
  8
0
 10
881.258656
 20
294.591026
 30
0.0
 11
881.339108
 21
294.623604
 31
0.0
  0
LINE
  8
0
 10
881.174231
 20
294.564011
 30
0.0
 11
881.258656
 21
294.591026
 31
0.0
  0
LINE
  8
0
 10
881.089608
 20
294.546728
 30
0.0
 11
881.174231
 21
294.564011
 31
0.0
  0
LINE
  8
0
 10
881.003396
 20
294.535207
 30
0.0
 11
881.089608
 21
294.546728
 31
0.0
  0
LINE
  8
0
 10
880.916985
 20
294.531433
 30
0.0
 11
881.003396
 21
294.535207
 31
0.0
  0
LINE
  8
0
 10
878.249365
 20
294.535207
 30
0.0
 11
878.337762
 21
294.531433
 31
0.0
  0
LINE
  8
0
 10
878.163152
 20
294.546728
 30
0.0
 11
878.249365
 21
294.535207
 31
0.0
  0
LINE
  8
0
 10
878.078728
 20
294.564011
 30
0.0
 11
878.163152
 21
294.546728
 31
0.0
  0
LINE
  8
0
 10
877.996091
 20
294.591026
 30
0.0
 11
878.078728
 21
294.564011
 31
0.0
  0
LINE
  8
0
 10
877.91544
 20
294.623604
 30
0.0
 11
877.996091
 21
294.591026
 31
0.0
  0
LINE
  8
0
 10
877.838763
 20
294.66393
 30
0.0
 11
877.91544
 21
294.623604
 31
0.0
  0
LINE
  8
0
 10
877.763873
 20
294.711803
 30
0.0
 11
877.838763
 21
294.66393
 31
0.0
  0
LINE
  8
0
 10
877.694744
 20
294.76365
 30
0.0
 11
877.763873
 21
294.711803
 31
0.0
  0
LINE
  8
0
 10
877.631575
 20
294.823244
 30
0.0
 11
877.694744
 21
294.76365
 31
0.0
  0
LINE
  8
0
 10
877.571981
 20
294.886413
 30
0.0
 11
877.631575
 21
294.823244
 31
0.0
  0
LINE
  8
0
 10
877.520134
 20
294.955542
 30
0.0
 11
877.571981
 21
294.886413
 31
0.0
  0
LINE
  8
0
 10
877.472261
 20
295.030432
 30
0.0
 11
877.520134
 21
294.955542
 31
0.0
  0
LINE
  8
0
 10
877.431935
 20
295.107109
 30
0.0
 11
877.472261
 21
295.030432
 31
0.0
  0
LINE
  8
0
 10
877.399358
 20
295.18776
 30
0.0
 11
877.431935
 21
295.107109
 31
0.0
  0
LINE
  8
0
 10
877.372342
 20
295.270397
 30
0.0
 11
877.399358
 21
295.18776
 31
0.0
  0
LINE
  8
0
 10
877.355059
 20
295.354821
 30
0.0
 11
877.372342
 21
295.270397
 31
0.0
  0
LINE
  8
0
 10
877.343538
 20
295.441034
 30
0.0
 11
877.355059
 21
295.354821
 31
0.0
  0
LINE
  8
0
 10
877.343538
 20
295.441034
 30
0.0
 11
877.339764
 21
295.529431
 31
0.0
  0
LINE
  8
0
 10
878.249365
 20
294.535207
 30
0.0
 11
878.337762
 21
294.531433
 31
0.0
  0
LINE
  8
0
 10
878.163152
 20
294.546728
 30
0.0
 11
878.249365
 21
294.535207
 31
0.0
  0
LINE
  8
0
 10
878.078728
 20
294.564011
 30
0.0
 11
878.163152
 21
294.546728
 31
0.0
  0
LINE
  8
0
 10
877.996091
 20
294.591026
 30
0.0
 11
878.078728
 21
294.564011
 31
0.0
  0
LINE
  8
0
 10
877.91544
 20
294.623604
 30
0.0
 11
877.996091
 21
294.591026
 31
0.0
  0
LINE
  8
0
 10
877.838763
 20
294.66393
 30
0.0
 11
877.91544
 21
294.623604
 31
0.0
  0
LINE
  8
0
 10
877.763873
 20
294.711803
 30
0.0
 11
877.838763
 21
294.66393
 31
0.0
  0
LINE
  8
0
 10
877.694744
 20
294.76365
 30
0.0
 11
877.763873
 21
294.711803
 31
0.0
  0
LINE
  8
0
 10
877.631575
 20
294.823244
 30
0.0
 11
877.694744
 21
294.76365
 31
0.0
  0
LINE
  8
0
 10
877.571981
 20
294.886413
 30
0.0
 11
877.631575
 21
294.823244
 31
0.0
  0
LINE
  8
0
 10
877.520134
 20
294.955542
 30
0.0
 11
877.571981
 21
294.886413
 31
0.0
  0
LINE
  8
0
 10
877.472261
 20
295.030432
 30
0.0
 11
877.520134
 21
294.955542
 31
0.0
  0
LINE
  8
0
 10
877.431935
 20
295.107109
 30
0.0
 11
877.472261
 21
295.030432
 31
0.0
  0
LINE
  8
0
 10
877.399358
 20
295.18776
 30
0.0
 11
877.431935
 21
295.107109
 31
0.0
  0
LINE
  8
0
 10
877.372342
 20
295.270397
 30
0.0
 11
877.399358
 21
295.18776
 31
0.0
  0
LINE
  8
0
 10
877.355059
 20
295.354821
 30
0.0
 11
877.372342
 21
295.270397
 31
0.0
  0
LINE
  8
0
 10
877.343538
 20
295.441034
 30
0.0
 11
877.339764
 21
295.529431
 31
0.0
  0
LINE
  8
0
 10
877.355059
 20
295.354821
 30
0.0
 11
877.343538
 21
295.441034
 31
0.0
  0
LINE
  8
0
 10
885.388511
 20
305.141424
 30
0.0
 11
885.48247
 21
305.051238
 31
0.0
  0
LINE
  8
0
 10
885.48247
 20
305.051238
 30
0.0
 11
885.388511
 21
305.141424
 31
0.0
  0
LINE
  8
0
 10
885.48247
 20
305.051238
 30
0.0
 11
885.582191
 21
304.966814
 31
0.0
  0
LINE
  8
0
 10
885.582191
 20
304.966814
 30
0.0
 11
885.48247
 21
305.051238
 31
0.0
  0
LINE
  8
0
 10
885.582191
 20
304.966814
 30
0.0
 11
885.685884
 21
304.886163
 31
0.0
  0
LINE
  8
0
 10
885.685884
 20
304.886163
 30
0.0
 11
885.582191
 21
304.966814
 31
0.0
  0
LINE
  8
0
 10
885.685884
 20
304.886163
 30
0.0
 11
885.793352
 21
304.81326
 31
0.0
  0
LINE
  8
0
 10
885.793352
 20
304.81326
 30
0.0
 11
885.685884
 21
304.886163
 31
0.0
  0
LINE
  8
0
 10
885.793352
 20
304.81326
 30
0.0
 11
885.904594
 21
304.744131
 31
0.0
  0
LINE
  8
0
 10
885.904594
 20
304.744131
 30
0.0
 11
885.793352
 21
304.81326
 31
0.0
  0
LINE
  8
0
 10
885.904594
 20
304.744131
 30
0.0
 11
886.019808
 21
304.656098
 31
0.0
  0
LINE
  8
0
 10
886.019808
 20
304.656098
 30
0.0
 11
885.904594
 21
304.744131
 31
0.0
  0
LINE
  8
0
 10
886.019808
 20
304.656098
 30
0.0
 11
886.136811
 21
304.59849
 31
0.0
  0
LINE
  8
0
 10
886.136811
 20
304.59849
 30
0.0
 11
886.019808
 21
304.656098
 31
0.0
  0
LINE
  8
0
 10
886.136811
 20
304.59849
 30
0.0
 11
886.257786
 21
304.54863
 31
0.0
  0
LINE
  8
0
 10
886.257786
 20
304.54863
 30
0.0
 11
886.136811
 21
304.59849
 31
0.0
  0
LINE
  8
0
 10
886.257786
 20
304.54863
 30
0.0
 11
886.38055
 21
304.479865
 31
0.0
  0
LINE
  8
0
 10
886.38055
 20
304.479865
 30
0.0
 11
886.257786
 21
304.54863
 31
0.0
  0
LINE
  8
0
 10
886.38055
 20
304.479865
 30
0.0
 11
886.507286
 21
304.414676
 31
0.0
  0
LINE
  8
0
 10
886.507286
 20
304.414676
 30
0.0
 11
886.38055
 21
304.479865
 31
0.0
  0
LINE
  8
0
 10
886.634022
 20
304.359419
 30
0.0
 11
886.507286
 21
304.414676
 31
0.0
  0
LINE
  8
0
 10
886.762546
 20
304.307738
 30
0.0
 11
886.634022
 21
304.359419
 31
0.0
  0
LINE
  8
0
 10
886.891071
 20
304.290456
 30
0.0
 11
886.762546
 21
304.307738
 31
0.0
  0
LINE
  8
0
 10
887.021581
 20
304.295947
 30
0.0
 11
886.891071
 21
304.290456
 31
0.0
  0
LINE
  8
0
 10
887.152092
 20
304.291974
 30
0.0
 11
887.021581
 21
304.295947
 31
0.0
  0
LINE
  8
0
 10
887.021581
 20
304.295947
 30
0.0
 11
887.152092
 21
304.291974
 31
0.0
  0
LINE
  8
0
 10
886.891071
 20
304.290456
 30
0.0
 11
887.021581
 21
304.295947
 31
0.0
  0
LINE
  8
0
 10
886.762546
 20
304.307738
 30
0.0
 11
886.891071
 21
304.290456
 31
0.0
  0
LINE
  8
0
 10
886.634022
 20
304.359419
 30
0.0
 11
886.762546
 21
304.307738
 31
0.0
  0
LINE
  8
0
 10
886.507286
 20
304.414676
 30
0.0
 11
886.634022
 21
304.359419
 31
0.0
  0
LINE
  8
0
 10
920.029827
 20
300.317599
 30
0.0
 11
894.300773
 21
300.317599
 31
0.0
  0
LINE
  8
0
 10
922.620571
 20
301.814399
 30
0.0
 11
920.029827
 21
300.317599
 31
0.0
  0
LINE
  8
0
 10
920.029827
 20
303.30941
 30
0.0
 11
922.620571
 21
301.814399
 31
0.0
  0
LINE
  8
0
 10
922.620571
 20
301.814399
 30
0.0
 11
920.029827
 21
303.30941
 31
0.0
  0
LINE
  8
0
 10
920.029827
 20
300.317599
 30
0.0
 11
922.620571
 21
301.814399
 31
0.0
  0
LINE
  8
0
 10
894.300773
 20
300.317599
 30
0.0
 11
920.029827
 21
300.317599
 31
0.0
  0
LINE
  8
0
 10
891.306976
 20
300.8164
 30
0.0
 11
891.393188
 21
300.820373
 31
0.0
  0
LINE
  8
0
 10
891.393188
 20
300.820373
 30
0.0
 11
891.306976
 21
300.8164
 31
0.0
  0
LINE
  8
0
 10
891.393188
 20
300.820373
 30
0.0
 11
891.479599
 21
300.831894
 31
0.0
  0
LINE
  8
0
 10
891.479599
 20
300.831894
 30
0.0
 11
891.393188
 21
300.820373
 31
0.0
  0
LINE
  8
0
 10
891.479599
 20
300.831894
 30
0.0
 11
891.56601
 21
300.849177
 31
0.0
  0
LINE
  8
0
 10
891.56601
 20
300.849177
 30
0.0
 11
891.479599
 21
300.831894
 31
0.0
  0
LINE
  8
0
 10
891.56601
 20
300.849177
 30
0.0
 11
891.648449
 21
300.875994
 31
0.0
  0
LINE
  8
0
 10
891.648449
 20
300.875994
 30
0.0
 11
891.56601
 21
300.849177
 31
0.0
  0
LINE
  8
0
 10
891.648449
 20
300.875994
 30
0.0
 11
891.729099
 21
300.908572
 31
0.0
  0
LINE
  8
0
 10
891.729099
 20
300.908572
 30
0.0
 11
891.648449
 21
300.875994
 31
0.0
  0
LINE
  8
0
 10
891.729099
 20
300.908572
 30
0.0
 11
891.805975
 21
300.948897
 31
0.0
  0
LINE
  8
0
 10
891.805975
 20
300.948897
 30
0.0
 11
891.729099
 21
300.908572
 31
0.0
  0
LINE
  8
0
 10
891.805975
 20
300.948897
 30
0.0
 11
891.878878
 21
300.996771
 31
0.0
  0
LINE
  8
0
 10
891.878878
 20
300.996771
 30
0.0
 11
891.805975
 21
300.948897
 31
0.0
  0
LINE
  8
0
 10
891.878878
 20
300.996771
 30
0.0
 11
891.947808
 21
301.048617
 31
0.0
  0
LINE
  8
0
 10
891.947808
 20
301.048617
 30
0.0
 11
891.878878
 21
300.996771
 31
0.0
  0
LINE
  8
0
 10
891.947808
 20
301.048617
 30
0.0
 11
892.013163
 21
301.108211
 31
0.0
  0
LINE
  8
0
 10
892.013163
 20
301.108211
 30
0.0
 11
891.947808
 21
301.048617
 31
0.0
  0
LINE
  8
0
 10
892.013163
 20
301.108211
 30
0.0
 11
892.07077
 21
301.171579
 31
0.0
  0
LINE
  8
0
 10
892.07077
 20
301.171579
 30
0.0
 11
892.013163
 21
301.108211
 31
0.0
  0
LINE
  8
0
 10
892.07077
 20
301.171579
 30
0.0
 11
892.124405
 21
301.24051
 31
0.0
  0
LINE
  8
0
 10
892.124405
 20
301.24051
 30
0.0
 11
892.07077
 21
301.171579
 31
0.0
  0
LINE
  8
0
 10
892.124405
 20
301.24051
 30
0.0
 11
892.170491
 21
301.315399
 31
0.0
  0
LINE
  8
0
 10
892.170491
 20
301.315399
 30
0.0
 11
892.124405
 21
301.24051
 31
0.0
  0
LINE
  8
0
 10
892.170491
 20
301.315399
 30
0.0
 11
892.210816
 21
301.392275
 31
0.0
  0
LINE
  8
0
 10
892.210816
 20
301.392275
 30
0.0
 11
892.170491
 21
301.315399
 31
0.0
  0
LINE
  8
0
 10
892.210816
 20
301.392275
 30
0.0
 11
892.243394
 21
301.472727
 31
0.0
  0
LINE
  8
0
 10
892.243394
 20
301.472727
 30
0.0
 11
892.210816
 21
301.392275
 31
0.0
  0
LINE
  8
0
 10
892.243394
 20
301.472727
 30
0.0
 11
892.270211
 21
301.555364
 31
0.0
  0
LINE
  8
0
 10
892.270211
 20
301.555364
 30
0.0
 11
892.243394
 21
301.472727
 31
0.0
  0
LINE
  8
0
 10
892.270211
 20
301.555364
 30
0.0
 11
892.28948
 21
301.639789
 31
0.0
  0
LINE
  8
0
 10
892.28948
 20
301.639789
 30
0.0
 11
892.270211
 21
301.555364
 31
0.0
  0
LINE
  8
0
 10
891.393188
 20
302.806636
 30
0.0
 11
891.306976
 21
302.810411
 31
0.0
  0
LINE
  8
0
 10
891.479599
 20
302.795115
 30
0.0
 11
891.393188
 21
302.806636
 31
0.0
  0
LINE
  8
0
 10
891.56601
 20
302.777833
 30
0.0
 11
891.479599
 21
302.795115
 31
0.0
  0
LINE
  8
0
 10
891.648449
 20
302.750817
 30
0.0
 11
891.56601
 21
302.777833
 31
0.0
  0
LINE
  8
0
 10
891.729099
 20
302.718239
 30
0.0
 11
891.648449
 21
302.750817
 31
0.0
  0
LINE
  8
0
 10
891.805975
 20
302.677914
 30
0.0
 11
891.729099
 21
302.718239
 31
0.0
  0
LINE
  8
0
 10
891.878878
 20
302.63004
 30
0.0
 11
891.805975
 21
302.677914
 31
0.0
  0
LINE
  8
0
 10
891.947808
 20
302.578193
 30
0.0
 11
891.878878
 21
302.63004
 31
0.0
  0
LINE
  8
0
 10
892.013163
 20
302.518798
 30
0.0
 11
891.947808
 21
302.578193
 31
0.0
  0
LINE
  8
0
 10
892.07077
 20
302.45543
 30
0.0
 11
892.013163
 21
302.518798
 31
0.0
  0
LINE
  8
0
 10
892.124405
 20
302.386301
 30
0.0
 11
892.07077
 21
302.45543
 31
0.0
  0
LINE
  8
0
 10
892.170491
 20
302.311411
 30
0.0
 11
892.124405
 21
302.386301
 31
0.0
  0
LINE
  8
0
 10
892.210816
 20
302.234734
 30
0.0
 11
892.170491
 21
302.311411
 31
0.0
  0
LINE
  8
0
 10
892.243394
 20
302.154084
 30
0.0
 11
892.210816
 21
302.234734
 31
0.0
  0
LINE
  8
0
 10
892.270211
 20
302.071645
 30
0.0
 11
892.243394
 21
302.154084
 31
0.0
  0
LINE
  8
0
 10
892.28948
 20
301.987022
 30
0.0
 11
892.270211
 21
302.071645
 31
0.0
  0
LINE
  8
0
 10
892.301001
 20
301.90081
 30
0.0
 11
892.28948
 21
301.987022
 31
0.0
  0
LINE
  8
0
 10
892.304776
 20
301.814399
 30
0.0
 11
892.301001
 21
301.90081
 31
0.0
  0
LINE
  8
0
 10
892.301001
 20
301.7262
 30
0.0
 11
892.304776
 21
301.814399
 31
0.0
  0
LINE
  8
0
 10
892.28948
 20
301.639789
 30
0.0
 11
892.301001
 21
301.7262
 31
0.0
  0
LINE
  8
0
 10
892.301001
 20
301.7262
 30
0.0
 11
892.28948
 21
301.639789
 31
0.0
  0
LINE
  8
0
 10
892.304776
 20
301.814399
 30
0.0
 11
892.301001
 21
301.7262
 31
0.0
  0
LINE
  8
0
 10
892.301001
 20
301.90081
 30
0.0
 11
892.304776
 21
301.814399
 31
0.0
  0
LINE
  8
0
 10
892.28948
 20
301.987022
 30
0.0
 11
892.301001
 21
301.90081
 31
0.0
  0
LINE
  8
0
 10
892.270211
 20
302.071645
 30
0.0
 11
892.28948
 21
301.987022
 31
0.0
  0
LINE
  8
0
 10
892.243394
 20
302.154084
 30
0.0
 11
892.270211
 21
302.071645
 31
0.0
  0
LINE
  8
0
 10
892.210816
 20
302.234734
 30
0.0
 11
892.243394
 21
302.154084
 31
0.0
  0
LINE
  8
0
 10
892.170491
 20
302.311411
 30
0.0
 11
892.210816
 21
302.234734
 31
0.0
  0
LINE
  8
0
 10
891.393188
 20
302.806636
 30
0.0
 11
891.306976
 21
302.810411
 31
0.0
  0
LINE
  8
0
 10
891.479599
 20
302.795115
 30
0.0
 11
891.393188
 21
302.806636
 31
0.0
  0
LINE
  8
0
 10
891.56601
 20
302.777833
 30
0.0
 11
891.479599
 21
302.795115
 31
0.0
  0
LINE
  8
0
 10
891.648449
 20
302.750817
 30
0.0
 11
891.56601
 21
302.777833
 31
0.0
  0
LINE
  8
0
 10
891.729099
 20
302.718239
 30
0.0
 11
891.648449
 21
302.750817
 31
0.0
  0
LINE
  8
0
 10
891.805975
 20
302.677914
 30
0.0
 11
891.729099
 21
302.718239
 31
0.0
  0
LINE
  8
0
 10
891.878878
 20
302.63004
 30
0.0
 11
891.805975
 21
302.677914
 31
0.0
  0
LINE
  8
0
 10
891.947808
 20
302.578193
 30
0.0
 11
891.878878
 21
302.63004
 31
0.0
  0
LINE
  8
0
 10
892.013163
 20
302.518798
 30
0.0
 11
891.947808
 21
302.578193
 31
0.0
  0
LINE
  8
0
 10
892.07077
 20
302.45543
 30
0.0
 11
892.013163
 21
302.518798
 31
0.0
  0
LINE
  8
0
 10
892.124405
 20
302.386301
 30
0.0
 11
892.07077
 21
302.45543
 31
0.0
  0
LINE
  8
0
 10
892.170491
 20
302.311411
 30
0.0
 11
892.124405
 21
302.386301
 31
0.0
  0
LINE
  8
0
 10
893.302774
 20
301.315399
 30
0.0
 11
893.302774
 21
302.311411
 31
0.0
  0
LINE
  8
0
 10
893.302774
 20
302.311411
 30
0.0
 11
893.302774
 21
301.315399
 31
0.0
  0
LINE
  8
0
 10
920.029827
 20
303.30941
 30
0.0
 11
894.300773
 21
303.30941
 31
0.0
  0
LINE
  8
0
 10
894.300773
 20
303.30941
 30
0.0
 11
920.029827
 21
303.30941
 31
0.0
  0
LINE
  8
0
 10
894.300773
 20
303.30941
 30
0.0
 11
894.212375
 21
303.305437
 31
0.0
  0
LINE
  8
0
 10
894.212375
 20
303.305437
 30
0.0
 11
894.300773
 21
303.30941
 31
0.0
  0
LINE
  8
0
 10
894.212375
 20
303.305437
 30
0.0
 11
894.125964
 21
303.293915
 31
0.0
  0
LINE
  8
0
 10
894.125964
 20
303.293915
 30
0.0
 11
894.212375
 21
303.305437
 31
0.0
  0
LINE
  8
0
 10
894.125964
 20
303.293915
 30
0.0
 11
894.041539
 21
303.276832
 31
0.0
  0
LINE
  8
0
 10
894.041539
 20
303.276832
 30
0.0
 11
894.125964
 21
303.293915
 31
0.0
  0
LINE
  8
0
 10
894.041539
 20
303.276832
 30
0.0
 11
893.959101
 21
303.249816
 31
0.0
  0
LINE
  8
0
 10
893.959101
 20
303.249816
 30
0.0
 11
894.041539
 21
303.276832
 31
0.0
  0
LINE
  8
0
 10
893.959101
 20
303.249816
 30
0.0
 11
893.878451
 21
303.217238
 31
0.0
  0
LINE
  8
0
 10
893.878451
 20
303.217238
 30
0.0
 11
893.959101
 21
303.249816
 31
0.0
  0
LINE
  8
0
 10
893.878451
 20
303.217238
 30
0.0
 11
893.801773
 21
303.176913
 31
0.0
  0
LINE
  8
0
 10
893.801773
 20
303.176913
 30
0.0
 11
893.878451
 21
303.217238
 31
0.0
  0
LINE
  8
0
 10
893.801773
 20
303.176913
 30
0.0
 11
893.726884
 21
303.129039
 31
0.0
  0
LINE
  8
0
 10
893.726884
 20
303.129039
 30
0.0
 11
893.801773
 21
303.176913
 31
0.0
  0
LINE
  8
0
 10
893.726884
 20
303.129039
 30
0.0
 11
893.657755
 21
303.077192
 31
0.0
  0
LINE
  8
0
 10
893.657755
 20
303.077192
 30
0.0
 11
893.726884
 21
303.129039
 31
0.0
  0
LINE
  8
0
 10
893.657755
 20
303.077192
 30
0.0
 11
893.594387
 21
303.017599
 31
0.0
  0
LINE
  8
0
 10
893.594387
 20
303.017599
 30
0.0
 11
893.657755
 21
303.077192
 31
0.0
  0
LINE
  8
0
 10
893.594387
 20
303.017599
 30
0.0
 11
893.534992
 21
302.95423
 31
0.0
  0
LINE
  8
0
 10
893.534992
 20
302.95423
 30
0.0
 11
893.594387
 21
303.017599
 31
0.0
  0
LINE
  8
0
 10
893.534992
 20
302.95423
 30
0.0
 11
893.483145
 21
302.8853
 31
0.0
  0
LINE
  8
0
 10
893.483145
 20
302.8853
 30
0.0
 11
893.534992
 21
302.95423
 31
0.0
  0
LINE
  8
0
 10
893.483145
 20
302.8853
 30
0.0
 11
893.435271
 21
302.810411
 31
0.0
  0
LINE
  8
0
 10
893.435271
 20
302.810411
 30
0.0
 11
893.483145
 21
302.8853
 31
0.0
  0
LINE
  8
0
 10
893.435271
 20
302.810411
 30
0.0
 11
893.394946
 21
302.733733
 31
0.0
  0
LINE
  8
0
 10
893.394946
 20
302.733733
 30
0.0
 11
893.435271
 21
302.810411
 31
0.0
  0
LINE
  8
0
 10
893.394946
 20
302.733733
 30
0.0
 11
893.362169
 21
302.653083
 31
0.0
  0
LINE
  8
0
 10
893.362169
 20
302.653083
 30
0.0
 11
893.394946
 21
302.733733
 31
0.0
  0
LINE
  8
0
 10
893.362169
 20
302.653083
 30
0.0
 11
893.335352
 21
302.570446
 31
0.0
  0
LINE
  8
0
 10
893.335352
 20
302.570446
 30
0.0
 11
893.362169
 21
302.653083
 31
0.0
  0
LINE
  8
0
 10
893.335352
 20
302.570446
 30
0.0
 11
893.31807
 21
302.486021
 31
0.0
  0
LINE
  8
0
 10
893.31807
 20
302.486021
 30
0.0
 11
893.335352
 21
302.570446
 31
0.0
  0
LINE
  8
0
 10
893.31807
 20
302.486021
 30
0.0
 11
893.306549
 21
302.399809
 31
0.0
  0
LINE
  8
0
 10
893.306549
 20
302.399809
 30
0.0
 11
893.31807
 21
302.486021
 31
0.0
  0
LINE
  8
0
 10
893.306549
 20
302.399809
 30
0.0
 11
893.302774
 21
302.313398
 31
0.0
  0
LINE
  8
0
 10
893.302774
 20
302.311411
 30
0.0
 11
893.306549
 21
302.399809
 31
0.0
  0
LINE
  8
0
 10
893.302774
 20
301.315399
 30
0.0
 11
893.306549
 21
301.2272
 31
0.0
  0
LINE
  8
0
 10
893.302774
 20
301.313413
 30
0.0
 11
893.302774
 21
301.315399
 31
0.0
  0
LINE
  8
0
 10
893.306549
 20
301.2272
 30
0.0
 11
893.302774
 21
301.313413
 31
0.0
  0
LINE
  8
0
 10
893.306549
 20
301.2272
 30
0.0
 11
893.31807
 21
301.140789
 31
0.0
  0
LINE
  8
0
 10
893.31807
 20
301.140789
 30
0.0
 11
893.306549
 21
301.2272
 31
0.0
  0
LINE
  8
0
 10
893.31807
 20
301.140789
 30
0.0
 11
893.335352
 21
301.056365
 31
0.0
  0
LINE
  8
0
 10
893.335352
 20
301.056365
 30
0.0
 11
893.31807
 21
301.140789
 31
0.0
  0
LINE
  8
0
 10
893.335352
 20
301.056365
 30
0.0
 11
893.362169
 21
300.973926
 31
0.0
  0
LINE
  8
0
 10
893.362169
 20
300.973926
 30
0.0
 11
893.335352
 21
301.056365
 31
0.0
  0
LINE
  8
0
 10
893.362169
 20
300.973926
 30
0.0
 11
893.394946
 21
300.893276
 31
0.0
  0
LINE
  8
0
 10
893.394946
 20
300.893276
 30
0.0
 11
893.362169
 21
300.973926
 31
0.0
  0
LINE
  8
0
 10
893.394946
 20
300.893276
 30
0.0
 11
893.435271
 21
300.8164
 31
0.0
  0
LINE
  8
0
 10
893.435271
 20
300.8164
 30
0.0
 11
893.394946
 21
300.893276
 31
0.0
  0
LINE
  8
0
 10
893.435271
 20
300.8164
 30
0.0
 11
893.483145
 21
300.741709
 31
0.0
  0
LINE
  8
0
 10
893.483145
 20
300.741709
 30
0.0
 11
893.435271
 21
300.8164
 31
0.0
  0
LINE
  8
0
 10
893.483145
 20
300.741709
 30
0.0
 11
893.534992
 21
300.67258
 31
0.0
  0
LINE
  8
0
 10
893.534992
 20
300.67258
 30
0.0
 11
893.483145
 21
300.741709
 31
0.0
  0
LINE
  8
0
 10
893.534992
 20
300.67258
 30
0.0
 11
893.594387
 21
300.609212
 31
0.0
  0
LINE
  8
0
 10
893.594387
 20
300.609212
 30
0.0
 11
893.534992
 21
300.67258
 31
0.0
  0
LINE
  8
0
 10
893.594387
 20
300.609212
 30
0.0
 11
893.657755
 21
300.549618
 31
0.0
  0
LINE
  8
0
 10
893.657755
 20
300.549618
 30
0.0
 11
893.594387
 21
300.609212
 31
0.0
  0
LINE
  8
0
 10
893.657755
 20
300.549618
 30
0.0
 11
893.726884
 21
300.49797
 31
0.0
  0
LINE
  8
0
 10
893.726884
 20
300.49797
 30
0.0
 11
893.657755
 21
300.549618
 31
0.0
  0
LINE
  8
0
 10
893.726884
 20
300.49797
 30
0.0
 11
893.801773
 21
300.449898
 31
0.0
  0
LINE
  8
0
 10
893.801773
 20
300.449898
 30
0.0
 11
893.726884
 21
300.49797
 31
0.0
  0
LINE
  8
0
 10
893.801773
 20
300.449898
 30
0.0
 11
893.878451
 21
300.409573
 31
0.0
  0
LINE
  8
0
 10
893.878451
 20
300.409573
 30
0.0
 11
893.801773
 21
300.449898
 31
0.0
  0
LINE
  8
0
 10
893.878451
 20
300.409573
 30
0.0
 11
893.959101
 21
300.376995
 31
0.0
  0
LINE
  8
0
 10
893.959101
 20
300.376995
 30
0.0
 11
893.878451
 21
300.409573
 31
0.0
  0
LINE
  8
0
 10
893.959101
 20
300.376995
 30
0.0
 11
894.041539
 21
300.350177
 31
0.0
  0
LINE
  8
0
 10
894.041539
 20
300.350177
 30
0.0
 11
893.959101
 21
300.376995
 31
0.0
  0
LINE
  8
0
 10
894.212375
 20
300.321374
 30
0.0
 11
894.300773
 21
300.317599
 31
0.0
  0
LINE
  8
0
 10
894.125964
 20
300.332895
 30
0.0
 11
894.212375
 21
300.321374
 31
0.0
  0
LINE
  8
0
 10
894.041539
 20
300.350177
 30
0.0
 11
894.125964
 21
300.332895
 31
0.0
  0
LINE
  8
0
 10
894.125964
 20
300.332895
 30
0.0
 11
894.041539
 21
300.350177
 31
0.0
  0
LINE
  8
0
 10
894.212375
 20
300.321374
 30
0.0
 11
894.125964
 21
300.332895
 31
0.0
  0
LINE
  8
0
 10
894.298786
 20
300.317599
 30
0.0
 11
894.212375
 21
300.321374
 31
0.0
  0
LINE
  8
0
 10
894.300773
 20
300.317599
 30
0.0
 11
894.298786
 21
300.317599
 31
0.0
  0
LINE
  8
0
 10
880.210797
 20
308.200575
 30
0.0
 11
884.768536
 21
303.644625
 31
0.0
  0
LINE
  8
0
 10
884.768536
 20
303.644625
 30
0.0
 11
880.210797
 21
308.200575
 31
0.0
  0
LINE
  8
0
 10
922.778662
 20
300.75296
 30
0.0
 11
920.528826
 21
299.453886
 31
0.0
  0
LINE
  8
0
 10
922.739764
 20
302.896311
 30
0.0
 11
920.528826
 21
304.172925
 31
0.0
  0
LINE
  8
0
 10
884.768536
 20
333.644625
 30
0.0
 11
880.210797
 21
338.200575
 31
0.0
  0
LINE
  8
0
 10
880.210797
 20
338.200575
 30
0.0
 11
884.768536
 21
333.644625
 31
0.0
  0
LINE
  8
0
 10
894.300773
 20
330.317599
 30
0.0
 11
894.298786
 21
330.317599
 31
0.0
  0
LINE
  8
0
 10
894.298786
 20
330.317599
 30
0.0
 11
894.212375
 21
330.321374
 31
0.0
  0
LINE
  8
0
 10
894.212375
 20
330.321374
 30
0.0
 11
894.125964
 21
330.332895
 31
0.0
  0
LINE
  8
0
 10
894.125964
 20
330.332895
 30
0.0
 11
894.041539
 21
330.350177
 31
0.0
  0
LINE
  8
0
 10
894.041539
 20
330.350177
 30
0.0
 11
894.125964
 21
330.332895
 31
0.0
  0
LINE
  8
0
 10
894.125964
 20
330.332895
 30
0.0
 11
894.212375
 21
330.321374
 31
0.0
  0
LINE
  8
0
 10
894.212375
 20
330.321374
 30
0.0
 11
894.300773
 21
330.317599
 31
0.0
  0
LINE
  8
0
 10
894.041539
 20
330.350177
 30
0.0
 11
893.959101
 21
330.376995
 31
0.0
  0
LINE
  8
0
 10
893.959101
 20
330.376995
 30
0.0
 11
894.041539
 21
330.350177
 31
0.0
  0
LINE
  8
0
 10
893.959101
 20
330.376995
 30
0.0
 11
893.878451
 21
330.409573
 31
0.0
  0
LINE
  8
0
 10
893.878451
 20
330.409573
 30
0.0
 11
893.959101
 21
330.376995
 31
0.0
  0
LINE
  8
0
 10
893.878451
 20
330.409573
 30
0.0
 11
893.801773
 21
330.449898
 31
0.0
  0
LINE
  8
0
 10
893.801773
 20
330.449898
 30
0.0
 11
893.878451
 21
330.409573
 31
0.0
  0
LINE
  8
0
 10
893.801773
 20
330.449898
 30
0.0
 11
893.726884
 21
330.49797
 31
0.0
  0
LINE
  8
0
 10
893.726884
 20
330.49797
 30
0.0
 11
893.801773
 21
330.449898
 31
0.0
  0
LINE
  8
0
 10
893.726884
 20
330.49797
 30
0.0
 11
893.657755
 21
330.549618
 31
0.0
  0
LINE
  8
0
 10
893.657755
 20
330.549618
 30
0.0
 11
893.726884
 21
330.49797
 31
0.0
  0
LINE
  8
0
 10
893.657755
 20
330.549618
 30
0.0
 11
893.594387
 21
330.609212
 31
0.0
  0
LINE
  8
0
 10
893.594387
 20
330.609212
 30
0.0
 11
893.657755
 21
330.549618
 31
0.0
  0
LINE
  8
0
 10
893.594387
 20
330.609212
 30
0.0
 11
893.534992
 21
330.67258
 31
0.0
  0
LINE
  8
0
 10
893.534992
 20
330.67258
 30
0.0
 11
893.594387
 21
330.609212
 31
0.0
  0
LINE
  8
0
 10
893.534992
 20
330.67258
 30
0.0
 11
893.483145
 21
330.741709
 31
0.0
  0
LINE
  8
0
 10
893.483145
 20
330.741709
 30
0.0
 11
893.534992
 21
330.67258
 31
0.0
  0
LINE
  8
0
 10
893.483145
 20
330.741709
 30
0.0
 11
893.435271
 21
330.8164
 31
0.0
  0
LINE
  8
0
 10
893.435271
 20
330.8164
 30
0.0
 11
893.483145
 21
330.741709
 31
0.0
  0
LINE
  8
0
 10
893.435271
 20
330.8164
 30
0.0
 11
893.394946
 21
330.893276
 31
0.0
  0
LINE
  8
0
 10
893.394946
 20
330.893276
 30
0.0
 11
893.435271
 21
330.8164
 31
0.0
  0
LINE
  8
0
 10
893.394946
 20
330.893276
 30
0.0
 11
893.362169
 21
330.973926
 31
0.0
  0
LINE
  8
0
 10
893.362169
 20
330.973926
 30
0.0
 11
893.394946
 21
330.893276
 31
0.0
  0
LINE
  8
0
 10
893.362169
 20
330.973926
 30
0.0
 11
893.335352
 21
331.056365
 31
0.0
  0
LINE
  8
0
 10
893.335352
 20
331.056365
 30
0.0
 11
893.362169
 21
330.973926
 31
0.0
  0
LINE
  8
0
 10
893.335352
 20
331.056365
 30
0.0
 11
893.31807
 21
331.140789
 31
0.0
  0
LINE
  8
0
 10
893.31807
 20
331.140789
 30
0.0
 11
893.335352
 21
331.056365
 31
0.0
  0
LINE
  8
0
 10
893.31807
 20
331.140789
 30
0.0
 11
893.306549
 21
331.2272
 31
0.0
  0
LINE
  8
0
 10
893.306549
 20
331.2272
 30
0.0
 11
893.31807
 21
331.140789
 31
0.0
  0
LINE
  8
0
 10
893.306549
 20
331.2272
 30
0.0
 11
893.302774
 21
331.313413
 31
0.0
  0
LINE
  8
0
 10
893.302774
 20
331.313413
 30
0.0
 11
893.302774
 21
331.315399
 31
0.0
  0
LINE
  8
0
 10
893.302774
 20
331.315399
 30
0.0
 11
893.306549
 21
331.2272
 31
0.0
  0
LINE
  8
0
 10
893.302774
 20
332.311411
 30
0.0
 11
893.306549
 21
332.399809
 31
0.0
  0
LINE
  8
0
 10
893.306549
 20
332.399809
 30
0.0
 11
893.302774
 21
332.313398
 31
0.0
  0
LINE
  8
0
 10
893.306549
 20
332.399809
 30
0.0
 11
893.31807
 21
332.486021
 31
0.0
  0
LINE
  8
0
 10
893.31807
 20
332.486021
 30
0.0
 11
893.306549
 21
332.399809
 31
0.0
  0
LINE
  8
0
 10
893.31807
 20
332.486021
 30
0.0
 11
893.335352
 21
332.570446
 31
0.0
  0
LINE
  8
0
 10
893.335352
 20
332.570446
 30
0.0
 11
893.31807
 21
332.486021
 31
0.0
  0
LINE
  8
0
 10
893.335352
 20
332.570446
 30
0.0
 11
893.362169
 21
332.653083
 31
0.0
  0
LINE
  8
0
 10
893.362169
 20
332.653083
 30
0.0
 11
893.335352
 21
332.570446
 31
0.0
  0
LINE
  8
0
 10
893.362169
 20
332.653083
 30
0.0
 11
893.394946
 21
332.733733
 31
0.0
  0
LINE
  8
0
 10
893.394946
 20
332.733733
 30
0.0
 11
893.362169
 21
332.653083
 31
0.0
  0
LINE
  8
0
 10
893.394946
 20
332.733733
 30
0.0
 11
893.435271
 21
332.810411
 31
0.0
  0
LINE
  8
0
 10
893.435271
 20
332.810411
 30
0.0
 11
893.394946
 21
332.733733
 31
0.0
  0
LINE
  8
0
 10
893.435271
 20
332.810411
 30
0.0
 11
893.483145
 21
332.8853
 31
0.0
  0
LINE
  8
0
 10
893.483145
 20
332.8853
 30
0.0
 11
893.435271
 21
332.810411
 31
0.0
  0
LINE
  8
0
 10
893.483145
 20
332.8853
 30
0.0
 11
893.534992
 21
332.95423
 31
0.0
  0
LINE
  8
0
 10
893.534992
 20
332.95423
 30
0.0
 11
893.483145
 21
332.8853
 31
0.0
  0
LINE
  8
0
 10
893.534992
 20
332.95423
 30
0.0
 11
893.594387
 21
333.017599
 31
0.0
  0
LINE
  8
0
 10
893.594387
 20
333.017599
 30
0.0
 11
893.534992
 21
332.95423
 31
0.0
  0
LINE
  8
0
 10
893.594387
 20
333.017599
 30
0.0
 11
893.657755
 21
333.077192
 31
0.0
  0
LINE
  8
0
 10
893.657755
 20
333.077192
 30
0.0
 11
893.594387
 21
333.017599
 31
0.0
  0
LINE
  8
0
 10
893.657755
 20
333.077192
 30
0.0
 11
893.726884
 21
333.129039
 31
0.0
  0
LINE
  8
0
 10
893.726884
 20
333.129039
 30
0.0
 11
893.657755
 21
333.077192
 31
0.0
  0
LINE
  8
0
 10
893.726884
 20
333.129039
 30
0.0
 11
893.801773
 21
333.176913
 31
0.0
  0
LINE
  8
0
 10
893.801773
 20
333.176913
 30
0.0
 11
893.726884
 21
333.129039
 31
0.0
  0
LINE
  8
0
 10
893.801773
 20
333.176913
 30
0.0
 11
893.878451
 21
333.217238
 31
0.0
  0
LINE
  8
0
 10
893.878451
 20
333.217238
 30
0.0
 11
893.801773
 21
333.176913
 31
0.0
  0
LINE
  8
0
 10
893.878451
 20
333.217238
 30
0.0
 11
893.959101
 21
333.249816
 31
0.0
  0
LINE
  8
0
 10
893.959101
 20
333.249816
 30
0.0
 11
893.878451
 21
333.217238
 31
0.0
  0
LINE
  8
0
 10
893.959101
 20
333.249816
 30
0.0
 11
894.041539
 21
333.276832
 31
0.0
  0
LINE
  8
0
 10
894.041539
 20
333.276832
 30
0.0
 11
893.959101
 21
333.249816
 31
0.0
  0
LINE
  8
0
 10
894.041539
 20
333.276832
 30
0.0
 11
894.125964
 21
333.293915
 31
0.0
  0
LINE
  8
0
 10
894.125964
 20
333.293915
 30
0.0
 11
894.041539
 21
333.276832
 31
0.0
  0
LINE
  8
0
 10
894.125964
 20
333.293915
 30
0.0
 11
894.212375
 21
333.305437
 31
0.0
  0
LINE
  8
0
 10
894.212375
 20
333.305437
 30
0.0
 11
894.125964
 21
333.293915
 31
0.0
  0
LINE
  8
0
 10
894.212375
 20
333.305437
 30
0.0
 11
894.300773
 21
333.30941
 31
0.0
  0
LINE
  8
0
 10
894.300773
 20
333.30941
 30
0.0
 11
894.212375
 21
333.305437
 31
0.0
  0
LINE
  8
0
 10
894.300773
 20
333.30941
 30
0.0
 11
920.029827
 21
333.30941
 31
0.0
  0
LINE
  8
0
 10
920.029827
 20
333.30941
 30
0.0
 11
894.300773
 21
333.30941
 31
0.0
  0
LINE
  8
0
 10
893.302774
 20
332.311411
 30
0.0
 11
893.302774
 21
331.315399
 31
0.0
  0
LINE
  8
0
 10
893.302774
 20
331.315399
 30
0.0
 11
893.302774
 21
332.311411
 31
0.0
  0
LINE
  8
0
 10
892.170491
 20
332.311411
 30
0.0
 11
892.124405
 21
332.386301
 31
0.0
  0
LINE
  8
0
 10
892.124405
 20
332.386301
 30
0.0
 11
892.07077
 21
332.45543
 31
0.0
  0
LINE
  8
0
 10
892.07077
 20
332.45543
 30
0.0
 11
892.013163
 21
332.518798
 31
0.0
  0
LINE
  8
0
 10
892.013163
 20
332.518798
 30
0.0
 11
891.947808
 21
332.578193
 31
0.0
  0
LINE
  8
0
 10
891.947808
 20
332.578193
 30
0.0
 11
891.878878
 21
332.63004
 31
0.0
  0
LINE
  8
0
 10
891.878878
 20
332.63004
 30
0.0
 11
891.805975
 21
332.677914
 31
0.0
  0
LINE
  8
0
 10
891.805975
 20
332.677914
 30
0.0
 11
891.729099
 21
332.718239
 31
0.0
  0
LINE
  8
0
 10
891.729099
 20
332.718239
 30
0.0
 11
891.648449
 21
332.750817
 31
0.0
  0
LINE
  8
0
 10
891.648449
 20
332.750817
 30
0.0
 11
891.56601
 21
332.777833
 31
0.0
  0
LINE
  8
0
 10
891.56601
 20
332.777833
 30
0.0
 11
891.479599
 21
332.795115
 31
0.0
  0
LINE
  8
0
 10
891.479599
 20
332.795115
 30
0.0
 11
891.393188
 21
332.806636
 31
0.0
  0
LINE
  8
0
 10
891.393188
 20
332.806636
 30
0.0
 11
891.306976
 21
332.810411
 31
0.0
  0
LINE
  8
0
 10
892.170491
 20
332.311411
 30
0.0
 11
892.210816
 21
332.234734
 31
0.0
  0
LINE
  8
0
 10
892.210816
 20
332.234734
 30
0.0
 11
892.243394
 21
332.154084
 31
0.0
  0
LINE
  8
0
 10
892.243394
 20
332.154084
 30
0.0
 11
892.270211
 21
332.071645
 31
0.0
  0
LINE
  8
0
 10
892.270211
 20
332.071645
 30
0.0
 11
892.28948
 21
331.987022
 31
0.0
  0
LINE
  8
0
 10
892.28948
 20
331.987022
 30
0.0
 11
892.301001
 21
331.90081
 31
0.0
  0
LINE
  8
0
 10
892.301001
 20
331.90081
 30
0.0
 11
892.304776
 21
331.814399
 31
0.0
  0
LINE
  8
0
 10
892.304776
 20
331.814399
 30
0.0
 11
892.301001
 21
331.7262
 31
0.0
  0
LINE
  8
0
 10
892.301001
 20
331.7262
 30
0.0
 11
892.28948
 21
331.639789
 31
0.0
  0
LINE
  8
0
 10
892.28948
 20
331.639789
 30
0.0
 11
892.301001
 21
331.7262
 31
0.0
  0
LINE
  8
0
 10
892.301001
 20
331.7262
 30
0.0
 11
892.304776
 21
331.814399
 31
0.0
  0
LINE
  8
0
 10
892.304776
 20
331.814399
 30
0.0
 11
892.301001
 21
331.90081
 31
0.0
  0
LINE
  8
0
 10
892.301001
 20
331.90081
 30
0.0
 11
892.28948
 21
331.987022
 31
0.0
  0
LINE
  8
0
 10
892.28948
 20
331.987022
 30
0.0
 11
892.270211
 21
332.071645
 31
0.0
  0
LINE
  8
0
 10
892.270211
 20
332.071645
 30
0.0
 11
892.243394
 21
332.154084
 31
0.0
  0
LINE
  8
0
 10
892.243394
 20
332.154084
 30
0.0
 11
892.210816
 21
332.234734
 31
0.0
  0
LINE
  8
0
 10
892.210816
 20
332.234734
 30
0.0
 11
892.170491
 21
332.311411
 31
0.0
  0
LINE
  8
0
 10
892.170491
 20
332.311411
 30
0.0
 11
892.124405
 21
332.386301
 31
0.0
  0
LINE
  8
0
 10
892.124405
 20
332.386301
 30
0.0
 11
892.07077
 21
332.45543
 31
0.0
  0
LINE
  8
0
 10
892.07077
 20
332.45543
 30
0.0
 11
892.013163
 21
332.518798
 31
0.0
  0
LINE
  8
0
 10
892.013163
 20
332.518798
 30
0.0
 11
891.947808
 21
332.578193
 31
0.0
  0
LINE
  8
0
 10
891.947808
 20
332.578193
 30
0.0
 11
891.878878
 21
332.63004
 31
0.0
  0
LINE
  8
0
 10
891.878878
 20
332.63004
 30
0.0
 11
891.805975
 21
332.677914
 31
0.0
  0
LINE
  8
0
 10
891.805975
 20
332.677914
 30
0.0
 11
891.729099
 21
332.718239
 31
0.0
  0
LINE
  8
0
 10
891.729099
 20
332.718239
 30
0.0
 11
891.648449
 21
332.750817
 31
0.0
  0
LINE
  8
0
 10
891.648449
 20
332.750817
 30
0.0
 11
891.56601
 21
332.777833
 31
0.0
  0
LINE
  8
0
 10
891.56601
 20
332.777833
 30
0.0
 11
891.479599
 21
332.795115
 31
0.0
  0
LINE
  8
0
 10
891.479599
 20
332.795115
 30
0.0
 11
891.393188
 21
332.806636
 31
0.0
  0
LINE
  8
0
 10
891.393188
 20
332.806636
 30
0.0
 11
891.306976
 21
332.810411
 31
0.0
  0
LINE
  8
0
 10
892.28948
 20
331.639789
 30
0.0
 11
892.270211
 21
331.555364
 31
0.0
  0
LINE
  8
0
 10
892.270211
 20
331.555364
 30
0.0
 11
892.28948
 21
331.639789
 31
0.0
  0
LINE
  8
0
 10
892.270211
 20
331.555364
 30
0.0
 11
892.243394
 21
331.472727
 31
0.0
  0
LINE
  8
0
 10
892.243394
 20
331.472727
 30
0.0
 11
892.270211
 21
331.555364
 31
0.0
  0
LINE
  8
0
 10
892.243394
 20
331.472727
 30
0.0
 11
892.210816
 21
331.392275
 31
0.0
  0
LINE
  8
0
 10
892.210816
 20
331.392275
 30
0.0
 11
892.243394
 21
331.472727
 31
0.0
  0
LINE
  8
0
 10
892.210816
 20
331.392275
 30
0.0
 11
892.170491
 21
331.315399
 31
0.0
  0
LINE
  8
0
 10
892.170491
 20
331.315399
 30
0.0
 11
892.210816
 21
331.392275
 31
0.0
  0
LINE
  8
0
 10
892.170491
 20
331.315399
 30
0.0
 11
892.124405
 21
331.24051
 31
0.0
  0
LINE
  8
0
 10
892.124405
 20
331.24051
 30
0.0
 11
892.170491
 21
331.315399
 31
0.0
  0
LINE
  8
0
 10
892.124405
 20
331.24051
 30
0.0
 11
892.07077
 21
331.171579
 31
0.0
  0
LINE
  8
0
 10
892.07077
 20
331.171579
 30
0.0
 11
892.124405
 21
331.24051
 31
0.0
  0
LINE
  8
0
 10
892.07077
 20
331.171579
 30
0.0
 11
892.013163
 21
331.108211
 31
0.0
  0
LINE
  8
0
 10
892.013163
 20
331.108211
 30
0.0
 11
892.07077
 21
331.171579
 31
0.0
  0
LINE
  8
0
 10
892.013163
 20
331.108211
 30
0.0
 11
891.947808
 21
331.048617
 31
0.0
  0
LINE
  8
0
 10
891.947808
 20
331.048617
 30
0.0
 11
892.013163
 21
331.108211
 31
0.0
  0
LINE
  8
0
 10
891.947808
 20
331.048617
 30
0.0
 11
891.878878
 21
330.996771
 31
0.0
  0
LINE
  8
0
 10
891.878878
 20
330.996771
 30
0.0
 11
891.947808
 21
331.048617
 31
0.0
  0
LINE
  8
0
 10
891.878878
 20
330.996771
 30
0.0
 11
891.805975
 21
330.948897
 31
0.0
  0
LINE
  8
0
 10
891.805975
 20
330.948897
 30
0.0
 11
891.878878
 21
330.996771
 31
0.0
  0
LINE
  8
0
 10
891.805975
 20
330.948897
 30
0.0
 11
891.729099
 21
330.908572
 31
0.0
  0
LINE
  8
0
 10
891.729099
 20
330.908572
 30
0.0
 11
891.805975
 21
330.948897
 31
0.0
  0
LINE
  8
0
 10
891.729099
 20
330.908572
 30
0.0
 11
891.648449
 21
330.875994
 31
0.0
  0
LINE
  8
0
 10
891.648449
 20
330.875994
 30
0.0
 11
891.729099
 21
330.908572
 31
0.0
  0
LINE
  8
0
 10
891.648449
 20
330.875994
 30
0.0
 11
891.56601
 21
330.849177
 31
0.0
  0
LINE
  8
0
 10
891.56601
 20
330.849177
 30
0.0
 11
891.648449
 21
330.875994
 31
0.0
  0
LINE
  8
0
 10
891.56601
 20
330.849177
 30
0.0
 11
891.479599
 21
330.831894
 31
0.0
  0
LINE
  8
0
 10
891.479599
 20
330.831894
 30
0.0
 11
891.56601
 21
330.849177
 31
0.0
  0
LINE
  8
0
 10
891.479599
 20
330.831894
 30
0.0
 11
891.393188
 21
330.820373
 31
0.0
  0
LINE
  8
0
 10
891.393188
 20
330.820373
 30
0.0
 11
891.479599
 21
330.831894
 31
0.0
  0
LINE
  8
0
 10
891.393188
 20
330.820373
 30
0.0
 11
891.306976
 21
330.8164
 31
0.0
  0
LINE
  8
0
 10
891.306976
 20
330.8164
 30
0.0
 11
891.393188
 21
330.820373
 31
0.0
  0
LINE
  8
0
 10
894.300773
 20
330.317599
 30
0.0
 11
920.029827
 21
330.317599
 31
0.0
  0
LINE
  8
0
 10
920.029827
 20
330.317599
 30
0.0
 11
922.620571
 21
331.814399
 31
0.0
  0
LINE
  8
0
 10
922.620571
 20
331.814399
 30
0.0
 11
920.029827
 21
333.30941
 31
0.0
  0
LINE
  8
0
 10
920.029827
 20
333.30941
 30
0.0
 11
922.620571
 21
331.814399
 31
0.0
  0
LINE
  8
0
 10
922.620571
 20
331.814399
 30
0.0
 11
920.029827
 21
330.317599
 31
0.0
  0
LINE
  8
0
 10
920.029827
 20
330.317599
 30
0.0
 11
894.300773
 21
330.317599
 31
0.0
  0
LINE
  8
0
 10
886.507286
 20
334.414676
 30
0.0
 11
886.634022
 21
334.359419
 31
0.0
  0
LINE
  8
0
 10
886.634022
 20
334.359419
 30
0.0
 11
886.762546
 21
334.307738
 31
0.0
  0
LINE
  8
0
 10
886.762546
 20
334.307738
 30
0.0
 11
886.891071
 21
334.290456
 31
0.0
  0
LINE
  8
0
 10
886.891071
 20
334.290456
 30
0.0
 11
887.021581
 21
334.295947
 31
0.0
  0
LINE
  8
0
 10
887.021581
 20
334.295947
 30
0.0
 11
887.152092
 21
334.291974
 31
0.0
  0
LINE
  8
0
 10
887.152092
 20
334.291974
 30
0.0
 11
887.021581
 21
334.295947
 31
0.0
  0
LINE
  8
0
 10
887.021581
 20
334.295947
 30
0.0
 11
886.891071
 21
334.290456
 31
0.0
  0
LINE
  8
0
 10
886.891071
 20
334.290456
 30
0.0
 11
886.762546
 21
334.307738
 31
0.0
  0
LINE
  8
0
 10
886.762546
 20
334.307738
 30
0.0
 11
886.634022
 21
334.359419
 31
0.0
  0
LINE
  8
0
 10
886.634022
 20
334.359419
 30
0.0
 11
886.507286
 21
334.414676
 31
0.0
  0
LINE
  8
0
 10
886.507286
 20
334.414676
 30
0.0
 11
886.38055
 21
334.479865
 31
0.0
  0
LINE
  8
0
 10
886.38055
 20
334.479865
 30
0.0
 11
886.507286
 21
334.414676
 31
0.0
  0
LINE
  8
0
 10
886.38055
 20
334.479865
 30
0.0
 11
886.257786
 21
334.54863
 31
0.0
  0
LINE
  8
0
 10
886.257786
 20
334.54863
 30
0.0
 11
886.38055
 21
334.479865
 31
0.0
  0
LINE
  8
0
 10
886.257786
 20
334.54863
 30
0.0
 11
886.136811
 21
334.59849
 31
0.0
  0
LINE
  8
0
 10
886.136811
 20
334.59849
 30
0.0
 11
886.257786
 21
334.54863
 31
0.0
  0
LINE
  8
0
 10
886.136811
 20
334.59849
 30
0.0
 11
886.019808
 21
334.656098
 31
0.0
  0
LINE
  8
0
 10
886.019808
 20
334.656098
 30
0.0
 11
886.136811
 21
334.59849
 31
0.0
  0
LINE
  8
0
 10
886.019808
 20
334.656098
 30
0.0
 11
885.904594
 21
334.744131
 31
0.0
  0
LINE
  8
0
 10
885.904594
 20
334.744131
 30
0.0
 11
886.019808
 21
334.656098
 31
0.0
  0
LINE
  8
0
 10
885.904594
 20
334.744131
 30
0.0
 11
885.793352
 21
334.81326
 31
0.0
  0
LINE
  8
0
 10
885.793352
 20
334.81326
 30
0.0
 11
885.904594
 21
334.744131
 31
0.0
  0
LINE
  8
0
 10
885.793352
 20
334.81326
 30
0.0
 11
885.685884
 21
334.886163
 31
0.0
  0
LINE
  8
0
 10
885.685884
 20
334.886163
 30
0.0
 11
885.793352
 21
334.81326
 31
0.0
  0
LINE
  8
0
 10
885.685884
 20
334.886163
 30
0.0
 11
885.582191
 21
334.966814
 31
0.0
  0
LINE
  8
0
 10
885.582191
 20
334.966814
 30
0.0
 11
885.685884
 21
334.886163
 31
0.0
  0
LINE
  8
0
 10
885.582191
 20
334.966814
 30
0.0
 11
885.48247
 21
335.051238
 31
0.0
  0
LINE
  8
0
 10
885.48247
 20
335.051238
 30
0.0
 11
885.582191
 21
334.966814
 31
0.0
  0
LINE
  8
0
 10
885.48247
 20
335.051238
 30
0.0
 11
885.388511
 21
335.141424
 31
0.0
  0
LINE
  8
0
 10
885.388511
 20
335.141424
 30
0.0
 11
885.48247
 21
335.051238
 31
0.0
  0
LINE
  8
0
 10
877.355059
 20
325.354821
 30
0.0
 11
877.343538
 21
325.441034
 31
0.0
  0
LINE
  8
0
 10
877.343538
 20
325.441034
 30
0.0
 11
877.339764
 21
325.529431
 31
0.0
  0
LINE
  8
0
 10
877.355059
 20
325.354821
 30
0.0
 11
877.372342
 21
325.270397
 31
0.0
  0
LINE
  8
0
 10
877.372342
 20
325.270397
 30
0.0
 11
877.399358
 21
325.18776
 31
0.0
  0
LINE
  8
0
 10
877.399358
 20
325.18776
 30
0.0
 11
877.431935
 21
325.107109
 31
0.0
  0
LINE
  8
0
 10
877.431935
 20
325.107109
 30
0.0
 11
877.472261
 21
325.030432
 31
0.0
  0
LINE
  8
0
 10
877.472261
 20
325.030432
 30
0.0
 11
877.520134
 21
324.955542
 31
0.0
  0
LINE
  8
0
 10
877.520134
 20
324.955542
 30
0.0
 11
877.571981
 21
324.886413
 31
0.0
  0
LINE
  8
0
 10
877.571981
 20
324.886413
 30
0.0
 11
877.631575
 21
324.823244
 31
0.0
  0
LINE
  8
0
 10
877.631575
 20
324.823244
 30
0.0
 11
877.694744
 21
324.76365
 31
0.0
  0
LINE
  8
0
 10
877.694744
 20
324.76365
 30
0.0
 11
877.763873
 21
324.711803
 31
0.0
  0
LINE
  8
0
 10
877.763873
 20
324.711803
 30
0.0
 11
877.838763
 21
324.66393
 31
0.0
  0
LINE
  8
0
 10
877.838763
 20
324.66393
 30
0.0
 11
877.91544
 21
324.623604
 31
0.0
  0
LINE
  8
0
 10
877.91544
 20
324.623604
 30
0.0
 11
877.996091
 21
324.591026
 31
0.0
  0
LINE
  8
0
 10
877.996091
 20
324.591026
 30
0.0
 11
878.078728
 21
324.564011
 31
0.0
  0
LINE
  8
0
 10
878.078728
 20
324.564011
 30
0.0
 11
878.163152
 21
324.546728
 31
0.0
  0
LINE
  8
0
 10
878.163152
 20
324.546728
 30
0.0
 11
878.249365
 21
324.535207
 31
0.0
  0
LINE
  8
0
 10
878.249365
 20
324.535207
 30
0.0
 11
878.337762
 21
324.531433
 31
0.0
  0
LINE
  8
0
 10
877.343538
 20
325.441034
 30
0.0
 11
877.339764
 21
325.529431
 31
0.0
  0
LINE
  8
0
 10
877.343538
 20
325.441034
 30
0.0
 11
877.355059
 21
325.354821
 31
0.0
  0
LINE
  8
0
 10
877.355059
 20
325.354821
 30
0.0
 11
877.372342
 21
325.270397
 31
0.0
  0
LINE
  8
0
 10
877.372342
 20
325.270397
 30
0.0
 11
877.399358
 21
325.18776
 31
0.0
  0
LINE
  8
0
 10
877.399358
 20
325.18776
 30
0.0
 11
877.431935
 21
325.107109
 31
0.0
  0
LINE
  8
0
 10
877.431935
 20
325.107109
 30
0.0
 11
877.472261
 21
325.030432
 31
0.0
  0
LINE
  8
0
 10
877.472261
 20
325.030432
 30
0.0
 11
877.520134
 21
324.955542
 31
0.0
  0
LINE
  8
0
 10
877.520134
 20
324.955542
 30
0.0
 11
877.571981
 21
324.886413
 31
0.0
  0
LINE
  8
0
 10
877.571981
 20
324.886413
 30
0.0
 11
877.631575
 21
324.823244
 31
0.0
  0
LINE
  8
0
 10
877.631575
 20
324.823244
 30
0.0
 11
877.694744
 21
324.76365
 31
0.0
  0
LINE
  8
0
 10
877.694744
 20
324.76365
 30
0.0
 11
877.763873
 21
324.711803
 31
0.0
  0
LINE
  8
0
 10
877.763873
 20
324.711803
 30
0.0
 11
877.838763
 21
324.66393
 31
0.0
  0
LINE
  8
0
 10
877.838763
 20
324.66393
 30
0.0
 11
877.91544
 21
324.623604
 31
0.0
  0
LINE
  8
0
 10
877.91544
 20
324.623604
 30
0.0
 11
877.996091
 21
324.591026
 31
0.0
  0
LINE
  8
0
 10
877.996091
 20
324.591026
 30
0.0
 11
878.078728
 21
324.564011
 31
0.0
  0
LINE
  8
0
 10
878.078728
 20
324.564011
 30
0.0
 11
878.163152
 21
324.546728
 31
0.0
  0
LINE
  8
0
 10
878.163152
 20
324.546728
 30
0.0
 11
878.249365
 21
324.535207
 31
0.0
  0
LINE
  8
0
 10
878.249365
 20
324.535207
 30
0.0
 11
878.337762
 21
324.531433
 31
0.0
  0
LINE
  8
0
 10
880.916985
 20
324.531433
 30
0.0
 11
881.003396
 21
324.535207
 31
0.0
  0
LINE
  8
0
 10
881.003396
 20
324.535207
 30
0.0
 11
881.089608
 21
324.546728
 31
0.0
  0
LINE
  8
0
 10
881.089608
 20
324.546728
 30
0.0
 11
881.174231
 21
324.564011
 31
0.0
  0
LINE
  8
0
 10
881.174231
 20
324.564011
 30
0.0
 11
881.258656
 21
324.591026
 31
0.0
  0
LINE
  8
0
 10
881.258656
 20
324.591026
 30
0.0
 11
881.339108
 21
324.623604
 31
0.0
  0
LINE
  8
0
 10
881.339108
 20
324.623604
 30
0.0
 11
881.415984
 21
324.66393
 31
0.0
  0
LINE
  8
0
 10
881.415984
 20
324.66393
 30
0.0
 11
881.488887
 21
324.711803
 31
0.0
  0
LINE
  8
0
 10
881.488887
 20
324.711803
 30
0.0
 11
881.558016
 21
324.76365
 31
0.0
  0
LINE
  8
0
 10
881.558016
 20
324.76365
 30
0.0
 11
881.623172
 21
324.823244
 31
0.0
  0
LINE
  8
0
 10
881.003396
 20
324.535207
 30
0.0
 11
880.916985
 21
324.531433
 31
0.0
  0
LINE
  8
0
 10
881.003396
 20
324.535207
 30
0.0
 11
881.089608
 21
324.546728
 31
0.0
  0
LINE
  8
0
 10
881.089608
 20
324.546728
 30
0.0
 11
881.174231
 21
324.564011
 31
0.0
  0
LINE
  8
0
 10
881.174231
 20
324.564011
 30
0.0
 11
881.258656
 21
324.591026
 31
0.0
  0
LINE
  8
0
 10
881.258656
 20
324.591026
 30
0.0
 11
881.339108
 21
324.623604
 31
0.0
  0
LINE
  8
0
 10
881.339108
 20
324.623604
 30
0.0
 11
881.415984
 21
324.66393
 31
0.0
  0
LINE
  8
0
 10
881.415984
 20
324.66393
 30
0.0
 11
881.488887
 21
324.711803
 31
0.0
  0
LINE
  8
0
 10
881.488887
 20
324.711803
 30
0.0
 11
881.558016
 21
324.76365
 31
0.0
  0
LINE
  8
0
 10
881.558016
 20
324.76365
 30
0.0
 11
881.623172
 21
324.823244
 31
0.0
  0
LINE
  8
0
 10
885.388511
 20
328.588384
 30
0.0
 11
885.48247
 21
328.678569
 31
0.0
  0
LINE
  8
0
 10
885.48247
 20
328.678569
 30
0.0
 11
885.388511
 21
328.588384
 31
0.0
  0
LINE
  8
0
 10
885.48247
 20
328.678569
 30
0.0
 11
885.582191
 21
328.762994
 31
0.0
  0
LINE
  8
0
 10
885.582191
 20
328.762994
 30
0.0
 11
885.48247
 21
328.678569
 31
0.0
  0
LINE
  8
0
 10
885.582191
 20
328.762994
 30
0.0
 11
885.685884
 21
328.843644
 31
0.0
  0
LINE
  8
0
 10
885.685884
 20
328.843644
 30
0.0
 11
885.582191
 21
328.762994
 31
0.0
  0
LINE
  8
0
 10
885.685884
 20
328.843644
 30
0.0
 11
885.793352
 21
328.916548
 31
0.0
  0
LINE
  8
0
 10
885.793352
 20
328.916548
 30
0.0
 11
885.685884
 21
328.843644
 31
0.0
  0
LINE
  8
0
 10
885.793352
 20
328.916548
 30
0.0
 11
885.904594
 21
328.985677
 31
0.0
  0
LINE
  8
0
 10
885.904594
 20
328.985677
 30
0.0
 11
885.793352
 21
328.916548
 31
0.0
  0
LINE
  8
0
 10
885.904594
 20
328.985677
 30
0.0
 11
886.019808
 21
329.047058
 31
0.0
  0
LINE
  8
0
 10
886.019808
 20
329.047058
 30
0.0
 11
885.904594
 21
328.985677
 31
0.0
  0
LINE
  8
0
 10
886.019808
 20
329.047058
 30
0.0
 11
886.136811
 21
329.104666
 31
0.0
  0
LINE
  8
0
 10
886.136811
 20
329.104666
 30
0.0
 11
886.019808
 21
329.047058
 31
0.0
  0
LINE
  8
0
 10
886.136811
 20
329.104666
 30
0.0
 11
886.257786
 21
329.154526
 31
0.0
  0
LINE
  8
0
 10
886.257786
 20
329.154526
 30
0.0
 11
886.136811
 21
329.104666
 31
0.0
  0
LINE
  8
0
 10
886.257786
 20
329.154526
 30
0.0
 11
886.38055
 21
329.196837
 31
0.0
  0
LINE
  8
0
 10
886.38055
 20
329.196837
 30
0.0
 11
886.257786
 21
329.154526
 31
0.0
  0
LINE
  8
0
 10
886.38055
 20
329.196837
 30
0.0
 11
886.507286
 21
329.235176
 31
0.0
  0
LINE
  8
0
 10
886.507286
 20
329.235176
 30
0.0
 11
886.38055
 21
329.196837
 31
0.0
  0
LINE
  8
0
 10
886.507286
 20
329.235176
 30
0.0
 11
886.634022
 21
329.265768
 31
0.0
  0
LINE
  8
0
 10
886.634022
 20
329.265768
 30
0.0
 11
886.507286
 21
329.235176
 31
0.0
  0
LINE
  8
0
 10
886.634022
 20
329.265768
 30
0.0
 11
886.762546
 21
329.288811
 31
0.0
  0
LINE
  8
0
 10
886.762546
 20
329.288811
 30
0.0
 11
886.634022
 21
329.265768
 31
0.0
  0
LINE
  8
0
 10
886.762546
 20
329.288811
 30
0.0
 11
886.891071
 21
329.306093
 31
0.0
  0
LINE
  8
0
 10
886.891071
 20
329.306093
 30
0.0
 11
886.762546
 21
329.288811
 31
0.0
  0
LINE
  8
0
 10
886.891071
 20
329.306093
 30
0.0
 11
887.021581
 21
329.315827
 31
0.0
  0
LINE
  8
0
 10
887.021581
 20
329.315827
 30
0.0
 11
886.891071
 21
329.306093
 31
0.0
  0
LINE
  8
0
 10
887.021581
 20
329.315827
 30
0.0
 11
887.152092
 21
329.319601
 31
0.0
  0
LINE
  8
0
 10
887.152092
 20
329.319601
 30
0.0
 11
887.021581
 21
329.315827
 31
0.0
  0
LINE
  8
0
 10
920.029827
 20
329.319601
 30
0.0
 11
920.116238
 21
329.323375
 31
0.0
  0
LINE
  8
0
 10
920.116238
 20
329.323375
 30
0.0
 11
920.202649
 21
329.334897
 31
0.0
  0
LINE
  8
0
 10
920.202649
 20
329.334897
 30
0.0
 11
920.287074
 21
329.354165
 31
0.0
  0
LINE
  8
0
 10
920.287074
 20
329.354165
 30
0.0
 11
920.369512
 21
329.378996
 31
0.0
  0
LINE
  8
0
 10
920.369512
 20
329.378996
 30
0.0
 11
920.450162
 21
329.41356
 31
0.0
  0
LINE
  8
0
 10
920.450162
 20
329.41356
 30
0.0
 11
920.528826
 21
329.453886
 31
0.0
  0
LINE
  8
0
 10
920.528826
 20
329.453886
 30
0.0
 11
920.450162
 21
329.41356
 31
0.0
  0
LINE
  8
0
 10
920.450162
 20
329.41356
 30
0.0
 11
920.369512
 21
329.378996
 31
0.0
  0
LINE
  8
0
 10
920.369512
 20
329.378996
 30
0.0
 11
920.287074
 21
329.354165
 31
0.0
  0
LINE
  8
0
 10
920.287074
 20
329.354165
 30
0.0
 11
920.202649
 21
329.334897
 31
0.0
  0
LINE
  8
0
 10
920.202649
 20
329.334897
 30
0.0
 11
920.116238
 21
329.323375
 31
0.0
  0
LINE
  8
0
 10
920.116238
 20
329.323375
 30
0.0
 11
920.029827
 21
329.319601
 31
0.0
  0
LINE
  8
0
 10
920.528826
 20
334.172925
 30
0.0
 11
920.450162
 21
334.21325
 31
0.0
  0
LINE
  8
0
 10
920.450162
 20
334.21325
 30
0.0
 11
920.369512
 21
334.247815
 31
0.0
  0
LINE
  8
0
 10
920.369512
 20
334.247815
 30
0.0
 11
920.287074
 21
334.272645
 31
0.0
  0
LINE
  8
0
 10
920.287074
 20
334.272645
 30
0.0
 11
920.202649
 21
334.291914
 31
0.0
  0
LINE
  8
0
 10
920.202649
 20
334.291914
 30
0.0
 11
920.116238
 21
334.303436
 31
0.0
  0
LINE
  8
0
 10
920.116238
 20
334.303436
 30
0.0
 11
920.029827
 21
334.30721
 31
0.0
  0
LINE
  8
0
 10
920.029827
 20
334.30721
 30
0.0
 11
920.116238
 21
334.303436
 31
0.0
  0
LINE
  8
0
 10
920.116238
 20
334.303436
 30
0.0
 11
920.202649
 21
334.291914
 31
0.0
  0
LINE
  8
0
 10
920.202649
 20
334.291914
 30
0.0
 11
920.287074
 21
334.272645
 31
0.0
  0
LINE
  8
0
 10
920.287074
 20
334.272645
 30
0.0
 11
920.369512
 21
334.247815
 31
0.0
  0
LINE
  8
0
 10
920.369512
 20
334.247815
 30
0.0
 11
920.450162
 21
334.21325
 31
0.0
  0
LINE
  8
0
 10
920.450162
 20
334.21325
 30
0.0
 11
920.528826
 21
334.172925
 31
0.0
  0
LINE
  8
0
 10
879.540962
 20
336.298737
 30
0.0
 11
879.477594
 21
336.239143
 31
0.0
  0
LINE
  8
0
 10
879.477594
 20
336.239143
 30
0.0
 11
879.540962
 21
336.298737
 31
0.0
  0
LINE
  8
0
 10
879.477594
 20
336.239143
 30
0.0
 11
879.408664
 21
336.187296
 31
0.0
  0
LINE
  8
0
 10
879.408664
 20
336.187296
 30
0.0
 11
879.477594
 21
336.239143
 31
0.0
  0
LINE
  8
0
 10
879.408664
 20
336.187296
 30
0.0
 11
879.333774
 21
336.139422
 31
0.0
  0
LINE
  8
0
 10
879.333774
 20
336.139422
 30
0.0
 11
879.408664
 21
336.187296
 31
0.0
  0
LINE
  8
0
 10
879.333774
 20
336.139422
 30
0.0
 11
879.256898
 21
336.101084
 31
0.0
  0
LINE
  8
0
 10
879.256898
 20
336.101084
 30
0.0
 11
879.333774
 21
336.139422
 31
0.0
  0
LINE
  8
0
 10
879.256898
 20
336.101084
 30
0.0
 11
879.176446
 21
336.066519
 31
0.0
  0
LINE
  8
0
 10
879.176446
 20
336.066519
 30
0.0
 11
879.256898
 21
336.101084
 31
0.0
  0
LINE
  8
0
 10
879.176446
 20
336.066519
 30
0.0
 11
879.09381
 21
336.04149
 31
0.0
  0
LINE
  8
0
 10
879.09381
 20
336.04149
 30
0.0
 11
879.176446
 21
336.066519
 31
0.0
  0
LINE
  8
0
 10
879.09381
 20
336.04149
 30
0.0
 11
879.009385
 21
336.02242
 31
0.0
  0
LINE
  8
0
 10
879.009385
 20
336.02242
 30
0.0
 11
879.09381
 21
336.04149
 31
0.0
  0
LINE
  8
0
 10
879.009385
 20
336.02242
 30
0.0
 11
878.922974
 21
336.010898
 31
0.0
  0
LINE
  8
0
 10
878.922974
 20
336.010898
 30
0.0
 11
879.009385
 21
336.02242
 31
0.0
  0
LINE
  8
0
 10
878.922974
 20
336.010898
 30
0.0
 11
878.836761
 21
336.006925
 31
0.0
  0
LINE
  8
0
 10
878.836761
 20
336.006925
 30
0.0
 11
878.922974
 21
336.010898
 31
0.0
  0
LINE
  8
0
 10
878.836761
 20
336.006925
 30
0.0
 11
878.748364
 21
336.010898
 31
0.0
  0
LINE
  8
0
 10
878.748364
 20
336.010898
 30
0.0
 11
878.836761
 21
336.006925
 31
0.0
  0
LINE
  8
0
 10
878.748364
 20
336.010898
 30
0.0
 11
878.661953
 21
336.02242
 31
0.0
  0
LINE
  8
0
 10
878.661953
 20
336.02242
 30
0.0
 11
878.748364
 21
336.010898
 31
0.0
  0
LINE
  8
0
 10
878.661953
 20
336.02242
 30
0.0
 11
878.577528
 21
336.04149
 31
0.0
  0
LINE
  8
0
 10
878.577528
 20
336.04149
 30
0.0
 11
878.661953
 21
336.02242
 31
0.0
  0
LINE
  8
0
 10
878.577528
 20
336.04149
 30
0.0
 11
878.49509
 21
336.066519
 31
0.0
  0
LINE
  8
0
 10
878.49509
 20
336.066519
 30
0.0
 11
878.577528
 21
336.04149
 31
0.0
  0
LINE
  8
0
 10
878.49509
 20
336.066519
 30
0.0
 11
878.41444
 21
336.101084
 31
0.0
  0
LINE
  8
0
 10
878.41444
 20
336.101084
 30
0.0
 11
878.49509
 21
336.066519
 31
0.0
  0
LINE
  8
0
 10
878.41444
 20
336.101084
 30
0.0
 11
878.337762
 21
336.139422
 31
0.0
  0
LINE
  8
0
 10
878.337762
 20
336.139422
 30
0.0
 11
878.41444
 21
336.101084
 31
0.0
  0
LINE
  8
0
 10
878.337762
 20
336.139422
 30
0.0
 11
878.262873
 21
336.187296
 31
0.0
  0
LINE
  8
0
 10
878.262873
 20
336.187296
 30
0.0
 11
878.337762
 21
336.139422
 31
0.0
  0
LINE
  8
0
 10
878.262873
 20
336.187296
 30
0.0
 11
878.193744
 21
336.239143
 31
0.0
  0
LINE
  8
0
 10
878.193744
 20
336.239143
 30
0.0
 11
878.262873
 21
336.187296
 31
0.0
  0
LINE
  8
0
 10
878.193744
 20
336.239143
 30
0.0
 11
878.130376
 21
336.298737
 31
0.0
  0
LINE
  8
0
 10
878.130376
 20
336.298737
 30
0.0
 11
878.193744
 21
336.239143
 31
0.0
  0
LINE
  8
0
 10
877.339764
 20
338.200575
 30
0.0
 11
877.343538
 21
338.288774
 31
0.0
  0
LINE
  8
0
 10
877.343538
 20
338.288774
 30
0.0
 11
877.339764
 21
338.200575
 31
0.0
  0
LINE
  8
0
 10
877.343538
 20
338.288774
 30
0.0
 11
877.355059
 21
338.375185
 31
0.0
  0
LINE
  8
0
 10
877.355059
 20
338.375185
 30
0.0
 11
877.343538
 21
338.288774
 31
0.0
  0
LINE
  8
0
 10
877.355059
 20
338.375185
 30
0.0
 11
877.372342
 21
338.45961
 31
0.0
  0
LINE
  8
0
 10
877.372342
 20
338.45961
 30
0.0
 11
877.355059
 21
338.375185
 31
0.0
  0
LINE
  8
0
 10
877.372342
 20
338.45961
 30
0.0
 11
877.399358
 21
338.542048
 31
0.0
  0
LINE
  8
0
 10
877.399358
 20
338.542048
 30
0.0
 11
877.372342
 21
338.45961
 31
0.0
  0
LINE
  8
0
 10
877.399358
 20
338.542048
 30
0.0
 11
877.431935
 21
338.622699
 31
0.0
  0
LINE
  8
0
 10
877.431935
 20
338.622699
 30
0.0
 11
877.399358
 21
338.542048
 31
0.0
  0
LINE
  8
0
 10
877.431935
 20
338.622699
 30
0.0
 11
877.472261
 21
338.699376
 31
0.0
  0
LINE
  8
0
 10
877.472261
 20
338.699376
 30
0.0
 11
877.431935
 21
338.622699
 31
0.0
  0
LINE
  8
0
 10
877.472261
 20
338.699376
 30
0.0
 11
877.520134
 21
338.774266
 31
0.0
  0
LINE
  8
0
 10
877.520134
 20
338.774266
 30
0.0
 11
877.472261
 21
338.699376
 31
0.0
  0
LINE
  8
0
 10
877.520134
 20
338.774266
 30
0.0
 11
877.571981
 21
338.843394
 31
0.0
  0
LINE
  8
0
 10
877.571981
 20
338.843394
 30
0.0
 11
877.520134
 21
338.774266
 31
0.0
  0
LINE
  8
0
 10
877.571981
 20
338.843394
 30
0.0
 11
877.631575
 21
338.906763
 31
0.0
  0
LINE
  8
0
 10
877.631575
 20
338.906763
 30
0.0
 11
877.571981
 21
338.843394
 31
0.0
  0
LINE
  8
0
 10
877.631575
 20
338.906763
 30
0.0
 11
877.694744
 21
338.966158
 31
0.0
  0
LINE
  8
0
 10
877.694744
 20
338.966158
 30
0.0
 11
877.631575
 21
338.906763
 31
0.0
  0
LINE
  8
0
 10
877.694744
 20
338.966158
 30
0.0
 11
877.763873
 21
339.018005
 31
0.0
  0
LINE
  8
0
 10
877.763873
 20
339.018005
 30
0.0
 11
877.694744
 21
338.966158
 31
0.0
  0
LINE
  8
0
 10
877.763873
 20
339.018005
 30
0.0
 11
877.838763
 21
339.066077
 31
0.0
  0
LINE
  8
0
 10
877.838763
 20
339.066077
 30
0.0
 11
877.763873
 21
339.018005
 31
0.0
  0
LINE
  8
0
 10
877.838763
 20
339.066077
 30
0.0
 11
877.91544
 21
339.106203
 31
0.0
  0
LINE
  8
0
 10
877.91544
 20
339.106203
 30
0.0
 11
877.838763
 21
339.066077
 31
0.0
  0
LINE
  8
0
 10
877.91544
 20
339.106203
 30
0.0
 11
877.996091
 21
339.13898
 31
0.0
  0
LINE
  8
0
 10
877.996091
 20
339.13898
 30
0.0
 11
877.91544
 21
339.106203
 31
0.0
  0
LINE
  8
0
 10
877.996091
 20
339.13898
 30
0.0
 11
878.078728
 21
339.165797
 31
0.0
  0
LINE
  8
0
 10
878.078728
 20
339.165797
 30
0.0
 11
877.996091
 21
339.13898
 31
0.0
  0
LINE
  8
0
 10
878.078728
 20
339.165797
 30
0.0
 11
878.163152
 21
339.18308
 31
0.0
  0
LINE
  8
0
 10
878.163152
 20
339.18308
 30
0.0
 11
878.078728
 21
339.165797
 31
0.0
  0
LINE
  8
0
 10
878.163152
 20
339.18308
 30
0.0
 11
878.249365
 21
339.194601
 31
0.0
  0
LINE
  8
0
 10
878.249365
 20
339.194601
 30
0.0
 11
878.163152
 21
339.18308
 31
0.0
  0
LINE
  8
0
 10
878.249365
 20
339.194601
 30
0.0
 11
878.337762
 21
339.198375
 31
0.0
  0
LINE
  8
0
 10
878.337762
 20
339.198375
 30
0.0
 11
878.249365
 21
339.194601
 31
0.0
  0
LINE
  8
0
 10
880.916985
 20
339.198375
 30
0.0
 11
881.003396
 21
339.194601
 31
0.0
  0
LINE
  8
0
 10
881.003396
 20
339.194601
 30
0.0
 11
880.916985
 21
339.198375
 31
0.0
  0
LINE
  8
0
 10
881.003396
 20
339.194601
 30
0.0
 11
881.089608
 21
339.18308
 31
0.0
  0
LINE
  8
0
 10
881.089608
 20
339.18308
 30
0.0
 11
881.003396
 21
339.194601
 31
0.0
  0
LINE
  8
0
 10
881.089608
 20
339.18308
 30
0.0
 11
881.174231
 21
339.165797
 31
0.0
  0
LINE
  8
0
 10
881.174231
 20
339.165797
 30
0.0
 11
881.089608
 21
339.18308
 31
0.0
  0
LINE
  8
0
 10
881.174231
 20
339.165797
 30
0.0
 11
881.258656
 21
339.13898
 31
0.0
  0
LINE
  8
0
 10
881.258656
 20
339.13898
 30
0.0
 11
881.174231
 21
339.165797
 31
0.0
  0
LINE
  8
0
 10
881.258656
 20
339.13898
 30
0.0
 11
881.339108
 21
339.106203
 31
0.0
  0
LINE
  8
0
 10
881.339108
 20
339.106203
 30
0.0
 11
881.258656
 21
339.13898
 31
0.0
  0
LINE
  8
0
 10
881.339108
 20
339.106203
 30
0.0
 11
881.415984
 21
339.066077
 31
0.0
  0
LINE
  8
0
 10
881.415984
 20
339.066077
 30
0.0
 11
881.339108
 21
339.106203
 31
0.0
  0
LINE
  8
0
 10
881.415984
 20
339.066077
 30
0.0
 11
881.488887
 21
339.018005
 31
0.0
  0
LINE
  8
0
 10
881.488887
 20
339.018005
 30
0.0
 11
881.415984
 21
339.066077
 31
0.0
  0
LINE
  8
0
 10
881.488887
 20
339.018005
 30
0.0
 11
881.558016
 21
338.966158
 31
0.0
  0
LINE
  8
0
 10
881.558016
 20
338.966158
 30
0.0
 11
881.488887
 21
339.018005
 31
0.0
  0
LINE
  8
0
 10
881.558016
 20
338.966158
 30
0.0
 11
881.623172
 21
338.906763
 31
0.0
  0
LINE
  8
0
 10
881.623172
 20
338.906763
 30
0.0
 11
881.558016
 21
338.966158
 31
0.0
  0
LINE
  8
0
 10
880.404676
 20
337.866651
 30
0.0
 11
880.35859
 21
337.906778
 31
0.0
  0
LINE
  8
0
 10
880.35859
 20
337.906778
 30
0.0
 11
880.310518
 21
337.941342
 31
0.0
  0
LINE
  8
0
 10
880.310518
 20
337.941342
 30
0.0
 11
880.256883
 21
337.970146
 31
0.0
  0
LINE
  8
0
 10
880.256883
 20
337.970146
 30
0.0
 11
880.199276
 21
337.991202
 31
0.0
  0
LINE
  8
0
 10
880.199276
 20
337.991202
 30
0.0
 11
880.141668
 21
338.00471
 31
0.0
  0
LINE
  8
0
 10
880.141668
 20
338.00471
 30
0.0
 11
880.082273
 21
338.012457
 31
0.0
  0
LINE
  8
0
 10
880.082273
 20
338.012457
 30
0.0
 11
880.020693
 21
338.012457
 31
0.0
  0
LINE
  8
0
 10
880.020693
 20
338.012457
 30
0.0
 11
879.961298
 21
338.00471
 31
0.0
  0
LINE
  8
0
 10
879.961298
 20
338.00471
 30
0.0
 11
879.90369
 21
337.991202
 31
0.0
  0
LINE
  8
0
 10
879.90369
 20
337.991202
 30
0.0
 11
879.846083
 21
337.970146
 31
0.0
  0
LINE
  8
0
 10
879.846083
 20
337.970146
 30
0.0
 11
879.794236
 21
337.941342
 31
0.0
  0
LINE
  8
0
 10
879.794236
 20
337.941342
 30
0.0
 11
879.744376
 21
337.906778
 31
0.0
  0
LINE
  8
0
 10
879.744376
 20
337.906778
 30
0.0
 11
879.69829
 21
337.866651
 31
0.0
  0
LINE
  8
0
 10
879.69829
 20
337.866651
 30
0.0
 11
879.744376
 21
337.906778
 31
0.0
  0
LINE
  8
0
 10
879.744376
 20
337.906778
 30
0.0
 11
879.794236
 21
337.941342
 31
0.0
  0
LINE
  8
0
 10
879.794236
 20
337.941342
 30
0.0
 11
879.846083
 21
337.970146
 31
0.0
  0
LINE
  8
0
 10
879.846083
 20
337.970146
 30
0.0
 11
879.90369
 21
337.991202
 31
0.0
  0
LINE
  8
0
 10
879.90369
 20
337.991202
 30
0.0
 11
879.961298
 21
338.00471
 31
0.0
  0
LINE
  8
0
 10
879.961298
 20
338.00471
 30
0.0
 11
880.020693
 21
338.012457
 31
0.0
  0
LINE
  8
0
 10
880.020693
 20
338.012457
 30
0.0
 11
880.082273
 21
338.012457
 31
0.0
  0
LINE
  8
0
 10
880.082273
 20
338.012457
 30
0.0
 11
880.141668
 21
338.00471
 31
0.0
  0
LINE
  8
0
 10
880.141668
 20
338.00471
 30
0.0
 11
880.199276
 21
337.991202
 31
0.0
  0
LINE
  8
0
 10
880.199276
 20
337.991202
 30
0.0
 11
880.256883
 21
337.970146
 31
0.0
  0
LINE
  8
0
 10
880.256883
 20
337.970146
 30
0.0
 11
880.310518
 21
337.941342
 31
0.0
  0
LINE
  8
0
 10
880.310518
 20
337.941342
 30
0.0
 11
880.35859
 21
337.906778
 31
0.0
  0
LINE
  8
0
 10
880.35859
 20
337.906778
 30
0.0
 11
880.404676
 21
337.866651
 31
0.0
  0
LINE
  8
0
 10
880.404676
 20
337.866651
 30
0.0
 11
880.444803
 21
337.822353
 31
0.0
  0
LINE
  8
0
 10
880.444803
 20
337.822353
 30
0.0
 11
880.404676
 21
337.866651
 31
0.0
  0
LINE
  8
0
 10
880.444803
 20
337.822353
 30
0.0
 11
880.479367
 21
337.772493
 31
0.0
  0
LINE
  8
0
 10
880.479367
 20
337.772493
 30
0.0
 11
880.444803
 21
337.822353
 31
0.0
  0
LINE
  8
0
 10
880.479367
 20
337.772493
 30
0.0
 11
880.506383
 21
337.718858
 31
0.0
  0
LINE
  8
0
 10
880.506383
 20
337.718858
 30
0.0
 11
880.479367
 21
337.772493
 31
0.0
  0
LINE
  8
0
 10
880.506383
 20
337.718858
 30
0.0
 11
880.527439
 21
337.663039
 31
0.0
  0
LINE
  8
0
 10
880.527439
 20
337.663039
 30
0.0
 11
880.506383
 21
337.718858
 31
0.0
  0
LINE
  8
0
 10
880.527439
 20
337.663039
 30
0.0
 11
880.542735
 21
337.603644
 31
0.0
  0
LINE
  8
0
 10
880.542735
 20
337.603644
 30
0.0
 11
880.527439
 21
337.663039
 31
0.0
  0
LINE
  8
0
 10
880.542735
 20
337.603644
 30
0.0
 11
880.550482
 21
337.544248
 31
0.0
  0
LINE
  8
0
 10
880.550482
 20
337.544248
 30
0.0
 11
880.542735
 21
337.603644
 31
0.0
  0
LINE
  8
0
 10
880.550482
 20
337.544248
 30
0.0
 11
880.550482
 21
337.484654
 31
0.0
  0
LINE
  8
0
 10
880.550482
 20
337.484654
 30
0.0
 11
880.550482
 21
337.544248
 31
0.0
  0
LINE
  8
0
 10
880.550482
 20
337.484654
 30
0.0
 11
880.542735
 21
337.425259
 31
0.0
  0
LINE
  8
0
 10
880.542735
 20
337.425259
 30
0.0
 11
880.550482
 21
337.484654
 31
0.0
  0
LINE
  8
0
 10
880.542735
 20
337.425259
 30
0.0
 11
880.527439
 21
337.365665
 31
0.0
  0
LINE
  8
0
 10
880.527439
 20
337.365665
 30
0.0
 11
880.542735
 21
337.425259
 31
0.0
  0
LINE
  8
0
 10
880.527439
 20
337.365665
 30
0.0
 11
880.506383
 21
337.310044
 31
0.0
  0
LINE
  8
0
 10
880.506383
 20
337.310044
 30
0.0
 11
880.527439
 21
337.365665
 31
0.0
  0
LINE
  8
0
 10
880.506383
 20
337.310044
 30
0.0
 11
880.479367
 21
337.256211
 31
0.0
  0
LINE
  8
0
 10
880.479367
 20
337.256211
 30
0.0
 11
880.506383
 21
337.310044
 31
0.0
  0
LINE
  8
0
 10
880.479367
 20
337.256211
 30
0.0
 11
880.444803
 21
337.206351
 31
0.0
  0
LINE
  8
0
 10
880.444803
 20
337.206351
 30
0.0
 11
880.479367
 21
337.256211
 31
0.0
  0
LINE
  8
0
 10
880.444803
 20
337.206351
 30
0.0
 11
880.404676
 21
337.162252
 31
0.0
  0
LINE
  8
0
 10
880.404676
 20
337.162252
 30
0.0
 11
880.444803
 21
337.206351
 31
0.0
  0
LINE
  8
0
 10
884.768536
 20
333.644625
 30
0.0
 11
884.862694
 21
333.566704
 31
0.0
  0
LINE
  8
0
 10
884.862694
 20
333.566704
 30
0.0
 11
884.962415
 21
333.486087
 31
0.0
  0
LINE
  8
0
 10
884.962415
 20
333.486087
 30
0.0
 11
885.066108
 21
333.40901
 31
0.0
  0
LINE
  8
0
 10
885.066108
 20
333.40901
 30
0.0
 11
885.173575
 21
333.33576
 31
0.0
  0
LINE
  8
0
 10
885.173575
 20
333.33576
 30
0.0
 11
885.284817
 21
333.266475
 31
0.0
  0
LINE
  8
0
 10
885.284817
 20
333.266475
 30
0.0
 11
885.400032
 21
333.201204
 31
0.0
  0
LINE
  8
0
 10
885.400032
 20
333.201204
 30
0.0
 11
885.517035
 21
333.141216
 31
0.0
  0
LINE
  8
0
 10
885.517035
 20
333.141216
 30
0.0
 11
885.63801
 21
333.085447
 31
0.0
  0
LINE
  8
0
 10
885.63801
 20
333.085447
 30
0.0
 11
885.760774
 21
333.034989
 31
0.0
  0
LINE
  8
0
 10
885.760774
 20
333.034989
 30
0.0
 11
885.887311
 21
332.98912
 31
0.0
  0
LINE
  8
0
 10
885.887311
 20
332.98912
 30
0.0
 11
886.014048
 21
332.949148
 31
0.0
  0
LINE
  8
0
 10
886.014048
 20
332.949148
 30
0.0
 11
886.142572
 21
332.914474
 31
0.0
  0
LINE
  8
0
 10
886.142572
 20
332.914474
 30
0.0
 11
886.271294
 21
332.885465
 31
0.0
  0
LINE
  8
0
 10
886.271294
 20
332.885465
 30
0.0
 11
886.401805
 21
332.854423
 31
0.0
  0
LINE
  8
0
 10
886.401805
 20
332.854423
 30
0.0
 11
886.532316
 21
332.821827
 31
0.0
  0
LINE
  8
0
 10
886.532316
 20
332.821827
 30
0.0
 11
886.401805
 21
332.854423
 31
0.0
  0
LINE
  8
0
 10
886.401805
 20
332.854423
 30
0.0
 11
886.271294
 21
332.885465
 31
0.0
  0
LINE
  8
0
 10
886.271294
 20
332.885465
 30
0.0
 11
886.142572
 21
332.914474
 31
0.0
  0
LINE
  8
0
 10
886.142572
 20
332.914474
 30
0.0
 11
886.014048
 21
332.949148
 31
0.0
  0
LINE
  8
0
 10
886.014048
 20
332.949148
 30
0.0
 11
885.887311
 21
332.98912
 31
0.0
  0
LINE
  8
0
 10
885.887311
 20
332.98912
 30
0.0
 11
885.760774
 21
333.034989
 31
0.0
  0
LINE
  8
0
 10
885.760774
 20
333.034989
 30
0.0
 11
885.63801
 21
333.085447
 31
0.0
  0
LINE
  8
0
 10
885.63801
 20
333.085447
 30
0.0
 11
885.517035
 21
333.141216
 31
0.0
  0
LINE
  8
0
 10
885.517035
 20
333.141216
 30
0.0
 11
885.400032
 21
333.201204
 31
0.0
  0
LINE
  8
0
 10
885.400032
 20
333.201204
 30
0.0
 11
885.284817
 21
333.266475
 31
0.0
  0
LINE
  8
0
 10
885.284817
 20
333.266475
 30
0.0
 11
885.173575
 21
333.33576
 31
0.0
  0
LINE
  8
0
 10
885.173575
 20
333.33576
 30
0.0
 11
885.066108
 21
333.40901
 31
0.0
  0
LINE
  8
0
 10
885.066108
 20
333.40901
 30
0.0
 11
884.962415
 21
333.486087
 31
0.0
  0
LINE
  8
0
 10
884.962415
 20
333.486087
 30
0.0
 11
884.862694
 21
333.566704
 31
0.0
  0
LINE
  8
0
 10
884.862694
 20
333.566704
 30
0.0
 11
884.768536
 21
333.644625
 31
0.0
  0
LINE
  8
0
 10
884.768536
 20
330.085382
 30
0.0
 11
884.862694
 21
330.175567
 31
0.0
  0
LINE
  8
0
 10
884.862694
 20
330.175567
 30
0.0
 11
884.768536
 21
330.085382
 31
0.0
  0
LINE
  8
0
 10
884.862694
 20
330.175567
 30
0.0
 11
884.962415
 21
330.259992
 31
0.0
  0
LINE
  8
0
 10
884.962415
 20
330.259992
 30
0.0
 11
884.862694
 21
330.175567
 31
0.0
  0
LINE
  8
0
 10
884.962415
 20
330.259992
 30
0.0
 11
885.066108
 21
330.338656
 31
0.0
  0
LINE
  8
0
 10
885.066108
 20
330.338656
 30
0.0
 11
884.962415
 21
330.259992
 31
0.0
  0
LINE
  8
0
 10
885.066108
 20
330.338656
 30
0.0
 11
885.173575
 21
330.413545
 31
0.0
  0
LINE
  8
0
 10
885.173575
 20
330.413545
 30
0.0
 11
885.066108
 21
330.338656
 31
0.0
  0
LINE
  8
0
 10
885.173575
 20
330.413545
 30
0.0
 11
885.284817
 21
330.482476
 31
0.0
  0
LINE
  8
0
 10
885.284817
 20
330.482476
 30
0.0
 11
885.173575
 21
330.413545
 31
0.0
  0
LINE
  8
0
 10
885.284817
 20
330.482476
 30
0.0
 11
885.400032
 21
330.544056
 31
0.0
  0
LINE
  8
0
 10
885.400032
 20
330.544056
 30
0.0
 11
885.284817
 21
330.482476
 31
0.0
  0
LINE
  8
0
 10
885.400032
 20
330.544056
 30
0.0
 11
885.517035
 21
330.599677
 31
0.0
  0
LINE
  8
0
 10
885.517035
 20
330.599677
 30
0.0
 11
885.400032
 21
330.544056
 31
0.0
  0
LINE
  8
0
 10
885.517035
 20
330.599677
 30
0.0
 11
885.63801
 21
330.649537
 31
0.0
  0
LINE
  8
0
 10
885.63801
 20
330.649537
 30
0.0
 11
885.517035
 21
330.599677
 31
0.0
  0
LINE
  8
0
 10
885.63801
 20
330.649537
 30
0.0
 11
885.760774
 21
330.693637
 31
0.0
  0
LINE
  8
0
 10
885.760774
 20
330.693637
 30
0.0
 11
885.63801
 21
330.649537
 31
0.0
  0
LINE
  8
0
 10
885.760774
 20
330.693637
 30
0.0
 11
885.887311
 21
330.730188
 31
0.0
  0
LINE
  8
0
 10
885.887311
 20
330.730188
 30
0.0
 11
885.760774
 21
330.693637
 31
0.0
  0
LINE
  8
0
 10
885.887311
 20
330.730188
 30
0.0
 11
886.014048
 21
330.760779
 31
0.0
  0
LINE
  8
0
 10
886.014048
 20
330.760779
 30
0.0
 11
885.887311
 21
330.730188
 31
0.0
  0
LINE
  8
0
 10
886.014048
 20
330.760779
 30
0.0
 11
886.142572
 21
330.785808
 31
0.0
  0
LINE
  8
0
 10
886.142572
 20
330.785808
 30
0.0
 11
886.014048
 21
330.760779
 31
0.0
  0
LINE
  8
0
 10
886.142572
 20
330.785808
 30
0.0
 11
886.271294
 21
330.803091
 31
0.0
  0
LINE
  8
0
 10
886.271294
 20
330.803091
 30
0.0
 11
886.142572
 21
330.785808
 31
0.0
  0
LINE
  8
0
 10
886.271294
 20
330.803091
 30
0.0
 11
886.401805
 21
330.812626
 31
0.0
  0
LINE
  8
0
 10
886.401805
 20
330.812626
 30
0.0
 11
886.271294
 21
330.803091
 31
0.0
  0
LINE
  8
0
 10
886.401805
 20
330.812626
 30
0.0
 11
886.532316
 21
330.8164
 31
0.0
  0
LINE
  8
0
 10
886.532316
 20
330.8164
 30
0.0
 11
886.401805
 21
330.812626
 31
0.0
  0
LINE
  8
0
 10
880.404676
 20
326.567556
 30
0.0
 11
880.444803
 21
326.523457
 31
0.0
  0
LINE
  8
0
 10
880.444803
 20
326.523457
 30
0.0
 11
880.404676
 21
326.567556
 31
0.0
  0
LINE
  8
0
 10
880.404676
 20
326.567556
 30
0.0
 11
879.540962
 21
327.43127
 31
0.0
  0
LINE
  8
0
 10
879.540962
 20
327.43127
 30
0.0
 11
879.477594
 21
327.490665
 31
0.0
  0
LINE
  8
0
 10
879.477594
 20
327.490665
 30
0.0
 11
879.408664
 21
327.542512
 31
0.0
  0
LINE
  8
0
 10
879.408664
 20
327.542512
 30
0.0
 11
879.333774
 21
327.590584
 31
0.0
  0
LINE
  8
0
 10
879.333774
 20
327.590584
 30
0.0
 11
879.256898
 21
327.628923
 31
0.0
  0
LINE
  8
0
 10
879.256898
 20
327.628923
 30
0.0
 11
879.176446
 21
327.663487
 31
0.0
  0
LINE
  8
0
 10
879.176446
 20
327.663487
 30
0.0
 11
879.09381
 21
327.688318
 31
0.0
  0
LINE
  8
0
 10
879.09381
 20
327.688318
 30
0.0
 11
879.009385
 21
327.707587
 31
0.0
  0
LINE
  8
0
 10
879.009385
 20
327.707587
 30
0.0
 11
878.922974
 21
327.719108
 31
0.0
  0
LINE
  8
0
 10
878.922974
 20
327.719108
 30
0.0
 11
878.836761
 21
327.722883
 31
0.0
  0
LINE
  8
0
 10
878.836761
 20
327.722883
 30
0.0
 11
878.748364
 21
327.719108
 31
0.0
  0
LINE
  8
0
 10
878.748364
 20
327.719108
 30
0.0
 11
878.661953
 21
327.707587
 31
0.0
  0
LINE
  8
0
 10
878.661953
 20
327.707587
 30
0.0
 11
878.577528
 21
327.688318
 31
0.0
  0
LINE
  8
0
 10
878.577528
 20
327.688318
 30
0.0
 11
878.49509
 21
327.663487
 31
0.0
  0
LINE
  8
0
 10
878.49509
 20
327.663487
 30
0.0
 11
878.41444
 21
327.628923
 31
0.0
  0
LINE
  8
0
 10
878.41444
 20
327.628923
 30
0.0
 11
878.337762
 21
327.590584
 31
0.0
  0
LINE
  8
0
 10
878.337762
 20
327.590584
 30
0.0
 11
878.262873
 21
327.542512
 31
0.0
  0
LINE
  8
0
 10
878.262873
 20
327.542512
 30
0.0
 11
878.193744
 21
327.490665
 31
0.0
  0
LINE
  8
0
 10
878.193744
 20
327.490665
 30
0.0
 11
878.130376
 21
327.43127
 31
0.0
  0
LINE
  8
0
 10
878.130376
 20
327.43127
 30
0.0
 11
877.339764
 21
326.640459
 31
0.0
  0
LINE
  8
0
 10
877.339764
 20
326.640459
 30
0.0
 11
878.130376
 21
327.43127
 31
0.0
  0
LINE
  8
0
 10
878.130376
 20
327.43127
 30
0.0
 11
878.193744
 21
327.490665
 31
0.0
  0
LINE
  8
0
 10
878.193744
 20
327.490665
 30
0.0
 11
878.262873
 21
327.542512
 31
0.0
  0
LINE
  8
0
 10
878.262873
 20
327.542512
 30
0.0
 11
878.337762
 21
327.590584
 31
0.0
  0
LINE
  8
0
 10
878.337762
 20
327.590584
 30
0.0
 11
878.41444
 21
327.628923
 31
0.0
  0
LINE
  8
0
 10
878.41444
 20
327.628923
 30
0.0
 11
878.49509
 21
327.663487
 31
0.0
  0
LINE
  8
0
 10
878.49509
 20
327.663487
 30
0.0
 11
878.577528
 21
327.688318
 31
0.0
  0
LINE
  8
0
 10
878.577528
 20
327.688318
 30
0.0
 11
878.661953
 21
327.707587
 31
0.0
  0
LINE
  8
0
 10
878.661953
 20
327.707587
 30
0.0
 11
878.748364
 21
327.719108
 31
0.0
  0
LINE
  8
0
 10
878.748364
 20
327.719108
 30
0.0
 11
878.836761
 21
327.722883
 31
0.0
  0
LINE
  8
0
 10
878.836761
 20
327.722883
 30
0.0
 11
878.922974
 21
327.719108
 31
0.0
  0
LINE
  8
0
 10
878.922974
 20
327.719108
 30
0.0
 11
879.009385
 21
327.707587
 31
0.0
  0
LINE
  8
0
 10
879.009385
 20
327.707587
 30
0.0
 11
879.09381
 21
327.688318
 31
0.0
  0
LINE
  8
0
 10
879.09381
 20
327.688318
 30
0.0
 11
879.176446
 21
327.663487
 31
0.0
  0
LINE
  8
0
 10
879.176446
 20
327.663487
 30
0.0
 11
879.256898
 21
327.628923
 31
0.0
  0
LINE
  8
0
 10
879.256898
 20
327.628923
 30
0.0
 11
879.333774
 21
327.590584
 31
0.0
  0
LINE
  8
0
 10
879.333774
 20
327.590584
 30
0.0
 11
879.408664
 21
327.542512
 31
0.0
  0
LINE
  8
0
 10
879.408664
 20
327.542512
 30
0.0
 11
879.477594
 21
327.490665
 31
0.0
  0
LINE
  8
0
 10
879.477594
 20
327.490665
 30
0.0
 11
879.540962
 21
327.43127
 31
0.0
  0
LINE
  8
0
 10
879.540962
 20
327.43127
 30
0.0
 11
880.404676
 21
326.567556
 31
0.0
  0
LINE
  8
0
 10
880.444803
 20
326.523457
 30
0.0
 11
880.479367
 21
326.473597
 31
0.0
  0
LINE
  8
0
 10
880.479367
 20
326.473597
 30
0.0
 11
880.444803
 21
326.523457
 31
0.0
  0
LINE
  8
0
 10
880.479367
 20
326.473597
 30
0.0
 11
880.506383
 21
326.419763
 31
0.0
  0
LINE
  8
0
 10
880.506383
 20
326.419763
 30
0.0
 11
880.479367
 21
326.473597
 31
0.0
  0
LINE
  8
0
 10
880.506383
 20
326.419763
 30
0.0
 11
880.527439
 21
326.364143
 31
0.0
  0
LINE
  8
0
 10
880.527439
 20
326.364143
 30
0.0
 11
880.506383
 21
326.419763
 31
0.0
  0
LINE
  8
0
 10
880.527439
 20
326.364143
 30
0.0
 11
880.542735
 21
326.304747
 31
0.0
  0
LINE
  8
0
 10
880.542735
 20
326.304747
 30
0.0
 11
880.527439
 21
326.364143
 31
0.0
  0
LINE
  8
0
 10
880.542735
 20
326.304747
 30
0.0
 11
880.550482
 21
326.245153
 31
0.0
  0
LINE
  8
0
 10
880.550482
 20
326.245153
 30
0.0
 11
880.542735
 21
326.304747
 31
0.0
  0
LINE
  8
0
 10
880.550482
 20
326.245153
 30
0.0
 11
880.550482
 21
326.185758
 31
0.0
  0
LINE
  8
0
 10
880.550482
 20
326.185758
 30
0.0
 11
880.550482
 21
326.245153
 31
0.0
  0
LINE
  8
0
 10
880.550482
 20
326.185758
 30
0.0
 11
880.542735
 21
326.126164
 31
0.0
  0
LINE
  8
0
 10
880.542735
 20
326.126164
 30
0.0
 11
880.550482
 21
326.185758
 31
0.0
  0
LINE
  8
0
 10
880.542735
 20
326.126164
 30
0.0
 11
880.527439
 21
326.066769
 31
0.0
  0
LINE
  8
0
 10
880.527439
 20
326.066769
 30
0.0
 11
880.542735
 21
326.126164
 31
0.0
  0
LINE
  8
0
 10
880.527439
 20
326.066769
 30
0.0
 11
880.506383
 21
326.011148
 31
0.0
  0
LINE
  8
0
 10
880.506383
 20
326.011148
 30
0.0
 11
880.527439
 21
326.066769
 31
0.0
  0
LINE
  8
0
 10
880.506383
 20
326.011148
 30
0.0
 11
880.479367
 21
325.957315
 31
0.0
  0
LINE
  8
0
 10
880.479367
 20
325.957315
 30
0.0
 11
880.506383
 21
326.011148
 31
0.0
  0
LINE
  8
0
 10
880.479367
 20
325.957315
 30
0.0
 11
880.444803
 21
325.907455
 31
0.0
  0
LINE
  8
0
 10
880.444803
 20
325.907455
 30
0.0
 11
880.479367
 21
325.957315
 31
0.0
  0
LINE
  8
0
 10
880.444803
 20
325.907455
 30
0.0
 11
880.404676
 21
325.863355
 31
0.0
  0
LINE
  8
0
 10
880.404676
 20
325.863355
 30
0.0
 11
880.444803
 21
325.907455
 31
0.0
  0
LINE
  8
0
 10
880.404676
 20
325.863355
 30
0.0
 11
880.35859
 21
325.82303
 31
0.0
  0
LINE
  8
0
 10
880.35859
 20
325.82303
 30
0.0
 11
880.404676
 21
325.863355
 31
0.0
  0
LINE
  8
0
 10
880.35859
 20
325.82303
 30
0.0
 11
880.310518
 21
325.788466
 31
0.0
  0
LINE
  8
0
 10
880.310518
 20
325.788466
 30
0.0
 11
880.35859
 21
325.82303
 31
0.0
  0
LINE
  8
0
 10
880.310518
 20
325.788466
 30
0.0
 11
880.256883
 21
325.759662
 31
0.0
  0
LINE
  8
0
 10
880.256883
 20
325.759662
 30
0.0
 11
880.310518
 21
325.788466
 31
0.0
  0
LINE
  8
0
 10
880.256883
 20
325.759662
 30
0.0
 11
880.199276
 21
325.738606
 31
0.0
  0
LINE
  8
0
 10
880.199276
 20
325.738606
 30
0.0
 11
880.256883
 21
325.759662
 31
0.0
  0
LINE
  8
0
 10
880.199276
 20
325.738606
 30
0.0
 11
880.141668
 21
325.725098
 31
0.0
  0
LINE
  8
0
 10
880.141668
 20
325.725098
 30
0.0
 11
880.199276
 21
325.738606
 31
0.0
  0
LINE
  8
0
 10
880.141668
 20
325.725098
 30
0.0
 11
880.082273
 21
325.71735
 31
0.0
  0
LINE
  8
0
 10
880.082273
 20
325.71735
 30
0.0
 11
880.141668
 21
325.725098
 31
0.0
  0
LINE
  8
0
 10
880.082273
 20
325.71735
 30
0.0
 11
880.020693
 21
325.71735
 31
0.0
  0
LINE
  8
0
 10
880.020693
 20
325.71735
 30
0.0
 11
880.082273
 21
325.71735
 31
0.0
  0
LINE
  8
0
 10
880.020693
 20
325.71735
 30
0.0
 11
879.961298
 21
325.725098
 31
0.0
  0
LINE
  8
0
 10
879.961298
 20
325.725098
 30
0.0
 11
880.020693
 21
325.71735
 31
0.0
  0
LINE
  8
0
 10
879.961298
 20
325.725098
 30
0.0
 11
879.90369
 21
325.738606
 31
0.0
  0
LINE
  8
0
 10
879.90369
 20
325.738606
 30
0.0
 11
879.961298
 21
325.725098
 31
0.0
  0
LINE
  8
0
 10
879.90369
 20
325.738606
 30
0.0
 11
879.846083
 21
325.759662
 31
0.0
  0
LINE
  8
0
 10
879.846083
 20
325.759662
 30
0.0
 11
879.90369
 21
325.738606
 31
0.0
  0
LINE
  8
0
 10
879.846083
 20
325.759662
 30
0.0
 11
879.794236
 21
325.788466
 31
0.0
  0
LINE
  8
0
 10
879.794236
 20
325.788466
 30
0.0
 11
879.846083
 21
325.759662
 31
0.0
  0
LINE
  8
0
 10
879.794236
 20
325.788466
 30
0.0
 11
879.744376
 21
325.82303
 31
0.0
  0
LINE
  8
0
 10
879.744376
 20
325.82303
 30
0.0
 11
879.794236
 21
325.788466
 31
0.0
  0
LINE
  8
0
 10
879.744376
 20
325.82303
 30
0.0
 11
879.69829
 21
325.863355
 31
0.0
  0
LINE
  8
0
 10
879.69829
 20
325.863355
 30
0.0
 11
879.744376
 21
325.82303
 31
0.0
  0
LINE
  8
0
 10
879.69829
 20
325.863355
 30
0.0
 11
878.836761
 21
326.724884
 31
0.0
  0
LINE
  8
0
 10
878.836761
 20
326.724884
 30
0.0
 11
879.69829
 21
325.863355
 31
0.0
  0
LINE
  8
0
 10
880.210797
 20
325.529431
 30
0.0
 11
878.337762
 21
325.529431
 31
0.0
  0
LINE
  8
0
 10
878.337762
 20
325.529431
 30
0.0
 11
878.337762
 21
326.226083
 31
0.0
  0
LINE
  8
0
 10
878.337762
 20
326.226083
 30
0.0
 11
878.836761
 21
326.724884
 31
0.0
  0
LINE
  8
0
 10
878.836761
 20
326.724884
 30
0.0
 11
878.337762
 21
326.226083
 31
0.0
  0
LINE
  8
0
 10
878.337762
 20
326.226083
 30
0.0
 11
878.337762
 21
325.529431
 31
0.0
  0
LINE
  8
0
 10
878.337762
 20
325.529431
 30
0.0
 11
880.210797
 21
325.529431
 31
0.0
  0
LINE
  8
0
 10
880.210797
 20
325.529431
 30
0.0
 11
884.768536
 21
330.085382
 31
0.0
  0
LINE
  8
0
 10
884.768536
 20
330.085382
 30
0.0
 11
880.210797
 21
325.529431
 31
0.0
  0
LINE
  8
0
 10
880.916985
 20
324.531433
 30
0.0
 11
878.337762
 21
324.531433
 31
0.0
  0
LINE
  8
0
 10
878.337762
 20
324.531433
 30
0.0
 11
880.916985
 21
324.531433
 31
0.0
  0
LINE
  8
0
 10
881.623172
 20
324.823244
 30
0.0
 11
885.388511
 21
328.588384
 31
0.0
  0
LINE
  8
0
 10
885.388511
 20
328.588384
 30
0.0
 11
881.623172
 21
324.823244
 31
0.0
  0
LINE
  8
0
 10
877.339764
 20
325.529431
 30
0.0
 11
877.339764
 21
326.640459
 31
0.0
  0
LINE
  8
0
 10
877.339764
 20
326.640459
 30
0.0
 11
877.339764
 21
325.529431
 31
0.0
  0
LINE
  8
0
 10
877.339764
 20
337.089348
 30
0.0
 11
878.130376
 21
336.298737
 31
0.0
  0
LINE
  8
0
 10
878.130376
 20
336.298737
 30
0.0
 11
877.339764
 21
337.089348
 31
0.0
  0
LINE
  8
0
 10
877.339764
 20
337.089348
 30
0.0
 11
877.339764
 21
338.200575
 31
0.0
  0
LINE
  8
0
 10
877.339764
 20
338.200575
 30
0.0
 11
877.339764
 21
337.089348
 31
0.0
  0
LINE
  8
0
 10
878.337762
 20
337.503923
 30
0.0
 11
878.337762
 21
338.200575
 31
0.0
  0
LINE
  8
0
 10
878.337762
 20
338.200575
 30
0.0
 11
880.210797
 21
338.200575
 31
0.0
  0
LINE
  8
0
 10
880.210797
 20
338.200575
 30
0.0
 11
884.768536
 21
333.644625
 31
0.0
  0
LINE
  8
0
 10
880.210797
 20
338.200575
 30
0.0
 11
878.337762
 21
338.200575
 31
0.0
  0
LINE
  8
0
 10
878.337762
 20
338.200575
 30
0.0
 11
878.337762
 21
337.503923
 31
0.0
  0
LINE
  8
0
 10
878.337762
 20
337.503923
 30
0.0
 11
878.836761
 21
337.004924
 31
0.0
  0
LINE
  8
0
 10
878.836761
 20
337.004924
 30
0.0
 11
878.337762
 21
337.503923
 31
0.0
  0
LINE
  8
0
 10
878.836761
 20
337.004924
 30
0.0
 11
879.69829
 21
337.866651
 31
0.0
  0
LINE
  8
0
 10
879.69829
 20
337.866651
 30
0.0
 11
878.836761
 21
337.004924
 31
0.0
  0
LINE
  8
0
 10
879.540962
 20
336.298737
 30
0.0
 11
880.404676
 21
337.162252
 31
0.0
  0
LINE
  8
0
 10
880.404676
 20
337.162252
 30
0.0
 11
879.540962
 21
336.298737
 31
0.0
  0
LINE
  8
0
 10
878.337762
 20
339.198375
 30
0.0
 11
880.916985
 21
339.198375
 31
0.0
  0
LINE
  8
0
 10
880.916985
 20
339.198375
 30
0.0
 11
878.337762
 21
339.198375
 31
0.0
  0
LINE
  8
0
 10
881.623172
 20
338.906763
 30
0.0
 11
885.388511
 21
335.141424
 31
0.0
  0
LINE
  8
0
 10
885.388511
 20
335.141424
 30
0.0
 11
881.623172
 21
338.906763
 31
0.0
  0
LINE
  8
0
 10
887.152092
 20
334.291974
 30
0.0
 11
920.029827
 21
334.30721
 31
0.0
  0
LINE
  8
0
 10
920.029827
 20
334.30721
 30
0.0
 11
887.152092
 21
334.291974
 31
0.0
  0
LINE
  8
0
 10
886.532316
 20
332.821827
 30
0.0
 11
891.306976
 21
332.810411
 31
0.0
  0
LINE
  8
0
 10
891.306976
 20
332.810411
 30
0.0
 11
886.532316
 21
332.821827
 31
0.0
  0
LINE
  8
0
 10
886.532316
 20
330.8164
 30
0.0
 11
891.306976
 21
330.8164
 31
0.0
  0
LINE
  8
0
 10
891.306976
 20
330.8164
 30
0.0
 11
886.532316
 21
330.8164
 31
0.0
  0
LINE
  8
0
 10
887.152092
 20
329.319601
 30
0.0
 11
920.029827
 21
329.319601
 31
0.0
  0
LINE
  8
0
 10
920.029827
 20
329.319601
 30
0.0
 11
887.152092
 21
329.319601
 31
0.0
  0
LINE
  8
0
 10
923.157909
 20
330.97194
 30
0.0
 11
923.157716
 21
330.971829
 31
0.0
  0
LINE
  8
0
 10
923.157909
 20
332.654871
 30
0.0
 11
923.157716
 21
332.654982
 31
0.0
  0
LINE
  8
0
 10
923.157716
 20
332.654982
 30
0.0
 11
923.157909
 21
332.654871
 31
0.0
  0
LINE
  8
0
 10
923.157716
 20
330.971829
 30
0.0
 11
923.157909
 21
330.97194
 31
0.0
  0
LINE
  8
0
 10
922.739764
 20
330.7305
 30
0.0
 11
920.528826
 21
329.453886
 31
0.0
  0
LINE
  8
0
 10
922.739764
 20
332.896311
 30
0.0
 11
920.528826
 21
334.172925
 31
0.0
  0
LINE
  8
0
 10
835.039764
 20
453.202102
 30
0.0
 11
838.702569
 21
456.864907
 31
0.0
  0
LINE
  8
0
 10
835.039764
 20
446.131034
 30
0.0
 11
845.773637
 21
456.864907
 31
0.0
  0
LINE
  8
0
 10
835.039764
 20
439.059966
 30
0.0
 11
852.844705
 21
456.864907
 31
0.0
  0
LINE
  8
0
 10
839.915773
 20
436.864907
 30
0.0
 11
859.915773
 21
456.864907
 31
0.0
  0
LINE
  8
0
 10
846.986841
 20
436.864907
 30
0.0
 11
866.986841
 21
456.864907
 31
0.0
  0
LINE
  8
0
 10
854.057908
 20
436.864907
 30
0.0
 11
874.057908
 21
456.864907
 31
0.0
  0
LINE
  8
0
 10
861.128976
 20
436.864907
 30
0.0
 11
881.128976
 21
456.864907
 31
0.0
  0
LINE
  8
0
 10
868.200044
 20
436.864907
 30
0.0
 11
888.200044
 21
456.864907
 31
0.0
  0
LINE
  8
0
 10
875.271112
 20
436.864907
 30
0.0
 11
895.271112
 21
456.864907
 31
0.0
  0
LINE
  8
0
 10
882.34218
 20
436.864907
 30
0.0
 11
902.34218
 21
456.864907
 31
0.0
  0
LINE
  8
0
 10
889.413247
 20
436.864907
 30
0.0
 11
909.413247
 21
456.864907
 31
0.0
  0
LINE
  8
0
 10
896.484315
 20
436.864907
 30
0.0
 11
916.484315
 21
456.864907
 31
0.0
  0
LINE
  8
0
 10
903.555383
 20
436.864907
 30
0.0
 11
923.555383
 21
456.864907
 31
0.0
  0
LINE
  8
0
 10
910.626451
 20
436.864907
 30
0.0
 11
930.626451
 21
456.864907
 31
0.0
  0
LINE
  8
0
 10
917.697519
 20
436.864907
 30
0.0
 11
937.697519
 21
456.864907
 31
0.0
  0
LINE
  8
0
 10
924.768587
 20
436.864907
 30
0.0
 11
944.768587
 21
456.864907
 31
0.0
  0
LINE
  8
0
 10
931.839654
 20
436.864907
 30
0.0
 11
951.839654
 21
456.864907
 31
0.0
  0
LINE
  8
0
 10
938.910722
 20
436.864907
 30
0.0
 11
955.039764
 21
452.993949
 31
0.0
  0
LINE
  8
0
 10
945.98179
 20
436.864907
 30
0.0
 11
955.039764
 21
445.922881
 31
0.0
  0
LINE
  8
0
 10
953.052858
 20
436.864907
 30
0.0
 11
955.039764
 21
438.851813
 31
0.0
  0
LINE
  8
0
 10
928.296481
 20
276.298421
 30
0.0
 11
929.639764
 21
276.535278
 31
0.0
  0
LINE
  8
0
 10
932.739764
 20
296.864907
 30
0.0
 11
932.739764
 21
278.340541
 31
0.0
  0
LINE
  8
0
 10
931.039764
 20
279.061045
 30
0.0
 11
931.039764
 21
280.764907
 31
0.0
  0
LINE
  8
0
 10
925.439764
 20
281.064907
 30
0.0
 11
930.739764
 21
281.064907
 31
0.0
  0
LINE
  8
0
 10
925.761859
 20
297.272752
 30
0.0
 11
924.239764
 21
296.864907
 31
0.0
  0
LINE
  8
0
 10
924.239764
 20
296.864907
 30
0.0
 11
924.239764
 21
295.088628
 31
0.0
  0
LINE
  8
0
 10
924.239764
 20
295.088628
 30
0.0
 11
924.239764
 21
282.264907
 31
0.0
  0
LINE
  8
0
 10
926.639764
 20
295.088628
 30
0.0
 11
926.639764
 21
282.264907
 31
0.0
  0
LINE
  8
0
 10
927.739764
 20
297.80273
 30
0.0
 11
925.761859
 21
297.272752
 31
0.0
  0
LINE
  8
0
 10
924.669965
 20
299.146711
 30
0.0
 11
925.560813
 21
299.115602
 31
0.0
  0
LINE
  8
0
 10
925.560813
 20
299.115602
 30
0.0
 11
924.839764
 21
298.699304
 31
0.0
  0
LINE
  8
0
 10
924.739764
 20
298.526099
 30
0.0
 11
924.739764
 21
297.96619
 31
0.0
  0
LINE
  8
0
 10
924.669965
 20
299.146711
 30
0.0
 11
931.239764
 21
298.917289
 31
0.0
  0
LINE
  8
0
 10
927.739764
 20
297.80273
 30
0.0
 11
932.739764
 21
297.80273
 31
0.0
  0
LINE
  8
0
 10
931.239764
 20
298.917289
 30
0.0
 11
932.739764
 21
298.864907
 31
0.0
  0
LINE
  8
0
 10
932.739764
 20
297.80273
 30
0.0
 11
932.739764
 21
296.864907
 31
0.0
  0
LINE
  8
0
 10
932.739764
 20
301.864907
 30
0.0
 11
932.739764
 21
297.80273
 31
0.0
  0
LINE
  8
0
 10
931.239764
 20
319.312526
 30
0.0
 11
931.239764
 21
298.917289
 31
0.0
  0
LINE
  8
0
 10
932.739764
 20
298.864907
 30
0.0
 11
932.739764
 21
319.364907
 31
0.0
  0
LINE
  8
0
 10
922.739764
 20
317.084322
 30
0.0
 11
922.739764
 21
301.145493
 31
0.0
  0
LINE
  8
0
 10
927.866115
 20
385.776237
 30
0.0
 11
929.639764
 21
385.463495
 31
0.0
  0
LINE
  8
0
 10
931.500236
 20
387.162623
 30
0.0
 11
931.039764
 21
387.243817
 31
0.0
  0
LINE
  8
0
 10
932.739764
 20
385.685411
 30
0.0
 11
932.739764
 21
366.864907
 31
0.0
  0
LINE
  8
0
 10
931.039764
 20
382.964907
 30
0.0
 11
931.039764
 21
384.66877
 31
0.0
  0
LINE
  8
0
 10
930.739764
 20
382.664907
 30
0.0
 11
925.439764
 21
382.664907
 31
0.0
  0
LINE
  8
0
 10
924.239764
 20
381.464907
 30
0.0
 11
924.239764
 21
368.641187
 31
0.0
  0
LINE
  8
0
 10
926.639764
 20
381.464907
 30
0.0
 11
926.639764
 21
368.641187
 31
0.0
  0
LINE
  8
0
 10
924.239764
 20
368.641187
 30
0.0
 11
924.239764
 21
366.864907
 31
0.0
  0
LINE
  8
0
 10
924.239764
 20
366.864907
 30
0.0
 11
932.739764
 21
366.864907
 31
0.0
  0
LINE
  8
0
 10
924.239764
 20
366.864907
 30
0.0
 11
925.761859
 21
366.457063
 31
0.0
  0
LINE
  8
0
 10
932.739764
 20
366.864907
 30
0.0
 11
932.739764
 21
365.927085
 31
0.0
  0
LINE
  8
0
 10
932.739764
 20
365.927085
 30
0.0
 11
932.739764
 21
361.864907
 31
0.0
  0
LINE
  8
0
 10
932.739764
 20
365.927085
 30
0.0
 11
927.739764
 21
365.927085
 31
0.0
  0
LINE
  8
0
 10
931.239764
 20
364.812526
 30
0.0
 11
924.669965
 21
364.583104
 31
0.0
  0
LINE
  8
0
 10
931.239764
 20
364.812526
 30
0.0
 11
931.239764
 21
344.417289
 31
0.0
  0
LINE
  8
0
 10
932.739764
 20
364.864907
 30
0.0
 11
931.239764
 21
364.812526
 31
0.0
  0
LINE
  8
0
 10
932.739764
 20
344.364907
 30
0.0
 11
932.739764
 21
364.864907
 31
0.0
  0
LINE
  8
0
 10
925.761859
 20
366.457063
 30
0.0
 11
927.739764
 21
365.927085
 31
0.0
  0
LINE
  8
0
 10
925.560813
 20
364.614213
 30
0.0
 11
924.669965
 21
364.583104
 31
0.0
  0
LINE
  8
0
 10
924.839764
 20
365.030511
 30
0.0
 11
925.560813
 21
364.614213
 31
0.0
  0
LINE
  8
0
 10
924.739764
 20
365.763625
 30
0.0
 11
924.739764
 21
365.203716
 31
0.0
  0
LINE
  8
0
 10
922.739764
 20
362.584322
 30
0.0
 11
922.739764
 21
346.645493
 31
0.0
  0
LINE
  8
0
 10
927.739764
 20
343.190304
 30
0.0
 11
924.669965
 21
343.083104
 31
0.0
  0
LINE
  8
0
 10
927.739764
 20
344.539511
 30
0.0
 11
927.739764
 21
343.190304
 31
0.0
  0
LINE
  8
0
 10
924.669965
 20
344.646711
 30
0.0
 11
927.739764
 21
344.539511
 31
0.0
  0
LINE
  8
0
 10
922.739764
 20
341.084322
 30
0.0
 11
922.739764
 21
331.864907
 31
0.0
  0
LINE
  8
0
 10
931.239764
 20
343.312526
 30
0.0
 11
927.739764
 21
343.190304
 31
0.0
  0
LINE
  8
0
 10
927.739764
 20
344.539511
 30
0.0
 11
931.239764
 21
344.417289
 31
0.0
  0
LINE
  8
0
 10
932.739764
 20
320.364907
 30
0.0
 11
932.739764
 21
343.364907
 31
0.0
  0
LINE
  8
0
 10
932.739764
 20
343.364907
 30
0.0
 11
931.239764
 21
343.312526
 31
0.0
  0
LINE
  8
0
 10
932.739764
 20
344.364907
 30
0.0
 11
932.739764
 21
343.364907
 31
0.0
  0
LINE
  8
0
 10
931.239764
 20
344.417289
 30
0.0
 11
932.739764
 21
344.364907
 31
0.0
  0
LINE
  8
0
 10
931.239764
 20
343.312526
 30
0.0
 11
931.239764
 21
320.417289
 31
0.0
  0
LINE
  8
0
 10
924.669965
 20
320.646711
 30
0.0
 11
927.739764
 21
320.539511
 31
0.0
  0
LINE
  8
0
 10
927.739764
 20
320.539511
 30
0.0
 11
927.739764
 21
319.190304
 31
0.0
  0
LINE
  8
0
 10
922.739764
 20
331.864907
 30
0.0
 11
922.739764
 21
322.645493
 31
0.0
  0
LINE
  8
0
 10
927.739764
 20
319.190304
 30
0.0
 11
924.669965
 21
319.083104
 31
0.0
  0
LINE
  8
0
 10
927.739764
 20
320.539511
 30
0.0
 11
931.239764
 21
320.417289
 31
0.0
  0
LINE
  8
0
 10
931.239764
 20
319.312526
 30
0.0
 11
927.739764
 21
319.190304
 31
0.0
  0
LINE
  8
0
 10
932.739764
 20
320.364907
 30
0.0
 11
932.739764
 21
319.364907
 31
0.0
  0
LINE
  8
0
 10
931.239764
 20
320.417289
 30
0.0
 11
932.739764
 21
320.364907
 31
0.0
  0
LINE
  8
0
 10
932.739764
 20
319.364907
 30
0.0
 11
931.239764
 21
319.312526
 31
0.0
  0
LINE
  8
0
 10
932.739764
 20
296.864907
 30
0.0
 11
924.239764
 21
296.864907
 31
0.0
  0
LINE
  8
0
 10
929.639764
 20
278.562457
 30
0.0
 11
927.866115
 21
278.249715
 31
0.0
  0
LINE
  8
0
 10
931.039764
 20
276.782136
 30
0.0
 11
931.500236
 21
276.863329
 31
0.0
  0
LINE
  8
0
 10
929.639764
 20
387.490674
 30
0.0
 11
928.296481
 21
387.727531
 31
0.0
  0
ARC
  8
0
 10
928.039764
 20
277.264907
 30
0.0
 40
1.0
 50
284.875362
 51
100.0
  0
ARC
  8
0
 10
928.039764
 20
277.264907
 30
0.0
 40
1.0
 50
100.0
 51
284.875362
  0
ARC
  8
0
 10
925.439764
 20
282.264907
 30
0.0
 40
1.2
 50
180.0
 51
270.0
  0
ARC
  8
0
 10
925.439764
 20
282.264907
 30
0.0
 40
1.2
 50
270.0
 51
0.0
  0
ARC
  8
0
 10
925.439764
 20
295.088628
 30
0.0
 40
1.2
 50
0.0
 51
90.0
  0
ARC
  8
0
 10
927.739764
 20
301.864907
 30
0.0
 40
5.0
 50
234.314665
 51
246.697793
  0
ARC
  8
0
 10
928.039764
 20
386.761045
 30
0.0
 40
1.0
 50
260.0
 51
75.124638
  0
ARC
  8
0
 10
928.039764
 20
386.761045
 30
0.0
 40
1.0
 50
75.124638
 51
260.0
  0
ARC
  8
0
 10
925.439764
 20
381.464907
 30
0.0
 40
1.2
 50
0.0
 51
90.0
  0
ARC
  8
0
 10
925.439764
 20
381.464907
 30
0.0
 40
1.2
 50
90.0
 51
180.0
  0
ARC
  8
0
 10
925.439764
 20
368.641187
 30
0.0
 40
1.2
 50
270.0
 51
0.0
  0
ARC
  8
0
 10
927.739764
 20
361.864907
 30
0.0
 40
5.0
 50
113.302207
 51
125.685335
  0
ARC
  8
0
 10
931.239764
 20
278.340541
 30
0.0
 40
1.5
 50
280.0
 51
0.0
  0
ARC
  8
0
 10
930.739764
 20
280.764907
 30
0.0
 40
0.3
 50
0.0
 51
90.0
  0
ARC
  8
0
 10
925.439764
 20
295.088628
 30
0.0
 40
1.2
 50
90.0
 51
180.0
  0
ARC
  8
0
 10
924.939764
 20
298.526099
 30
0.0
 40
0.2
 50
120.0
 51
180.0
  0
ARC
  8
0
 10
924.939764
 20
297.96619
 30
0.0
 40
0.2
 50
180.0
 51
234.314665
  0
ARC
  8
0
 10
924.739764
 20
301.145493
 30
0.0
 40
2.0
 50
180.0
 51
268.0
  0
ARC
  8
0
 10
924.739764
 20
301.145493
 30
0.0
 40
2.0
 50
180.0
 51
268.0
  0
ARC
  8
0
 10
931.239764
 20
385.685411
 30
0.0
 40
1.5
 50
0.0
 51
80.0
  0
ARC
  8
0
 10
930.739764
 20
382.964907
 30
0.0
 40
0.3
 50
270.0
 51
0.0
  0
ARC
  8
0
 10
925.439764
 20
368.641187
 30
0.0
 40
1.2
 50
180.0
 51
270.0
  0
ARC
  8
0
 10
924.939764
 20
365.203716
 30
0.0
 40
0.2
 50
180.0
 51
240.0
  0
ARC
  8
0
 10
924.939764
 20
365.763625
 30
0.0
 40
0.2
 50
125.685335
 51
180.0
  0
ARC
  8
0
 10
924.739764
 20
362.584322
 30
0.0
 40
2.0
 50
92.0
 51
180.0
  0
ARC
  8
0
 10
924.739764
 20
362.584322
 30
0.0
 40
2.0
 50
92.0
 51
180.0
  0
ARC
  8
0
 10
924.739764
 20
341.084322
 30
0.0
 40
2.0
 50
92.0
 51
180.0
  0
ARC
  8
0
 10
924.739764
 20
346.645493
 30
0.0
 40
2.0
 50
180.0
 51
268.0
  0
ARC
  8
0
 10
924.739764
 20
322.645493
 30
0.0
 40
2.0
 50
180.0
 51
268.0
  0
ARC
  8
0
 10
924.739764
 20
317.084322
 30
0.0
 40
2.0
 50
92.0
 51
180.0
  0
LINE
  8
0
 10
928.514893
 20
268.564907
 30
0.0
 11
927.302457
 21
267.864907
 31
0.0
  0
LINE
  8
0
 10
927.302457
 20
267.864907
 30
0.0
 11
926.539764
 21
267.864907
 31
0.0
  0
LINE
  8
0
 10
925.933546
 20
268.914907
 30
0.0
 11
926.020148
 21
269.064907
 31
0.0
  0
LINE
  8
0
 10
926.366559
 20
269.064907
 30
0.0
 11
926.870148
 21
268.192664
 31
0.0
  0
LINE
  8
0
 10
927.736174
 20
268.692664
 30
0.0
 11
926.886174
 21
270.164907
 31
0.0
  0
LINE
  8
0
 10
926.539764
 20
266.864907
 30
0.0
 11
933.039764
 21
266.864907
 31
0.0
  0
LINE
  8
0
 10
935.039764
 20
268.864907
 30
0.0
 11
935.039764
 21
331.864907
 31
0.0
  0
LINE
  8
0
 10
933.339764
 20
331.864907
 30
0.0
 11
933.339764
 21
270.064907
 31
0.0
  0
LINE
  8
0
 10
931.839764
 20
268.564907
 30
0.0
 11
928.514893
 21
268.564907
 31
0.0
  0
LINE
  8
0
 10
927.302457
 20
395.864907
 30
0.0
 11
928.514893
 21
395.164907
 31
0.0
  0
LINE
  8
0
 10
926.539764
 20
395.864907
 30
0.0
 11
927.302457
 21
395.864907
 31
0.0
  0
LINE
  8
0
 10
926.020148
 20
394.664907
 30
0.0
 11
925.933546
 21
394.814907
 31
0.0
  0
LINE
  8
0
 10
926.870148
 20
395.537151
 30
0.0
 11
926.366559
 21
394.664907
 31
0.0
  0
LINE
  8
0
 10
926.886174
 20
393.564907
 30
0.0
 11
927.736174
 21
395.037151
 31
0.0
  0
LINE
  8
0
 10
925.06752
 20
394.314907
 30
0.0
 11
925.500533
 21
393.564907
 31
0.0
  0
LINE
  8
0
 10
933.039764
 20
396.864907
 30
0.0
 11
926.539764
 21
396.864907
 31
0.0
  0
LINE
  8
0
 10
935.039764
 20
331.864907
 30
0.0
 11
935.039764
 21
394.864907
 31
0.0
  0
LINE
  8
0
 10
933.339764
 20
393.664907
 30
0.0
 11
933.339764
 21
331.864907
 31
0.0
  0
LINE
  8
0
 10
928.514893
 20
395.164907
 30
0.0
 11
931.839764
 21
395.164907
 31
0.0
  0
ARC
  8
0
 10
926.539764
 20
268.564907
 30
0.0
 40
0.7
 50
150.0
 51
270.0
  0
ARC
  8
0
 10
926.193353
 20
268.964907
 30
0.0
 40
0.2
 50
30.0
 51
150.0
  0
ARC
  8
0
 10
927.303161
 20
268.442664
 30
0.0
 40
0.5
 50
210.0
 51
30.0
  0
ARC
  8
0
 10
926.193353
 20
269.764907
 30
0.0
 40
0.8
 50
30.0
 51
150.0
  0
ARC
  8
0
 10
926.539764
 20
268.564907
 30
0.0
 40
1.7
 50
150.0
 51
270.0
  0
ARC
  8
0
 10
926.539764
 20
395.164907
 30
0.0
 40
0.7
 50
90.0
 51
210.0
  0
ARC
  8
0
 10
926.193353
 20
394.764907
 30
0.0
 40
0.2
 50
210.0
 51
330.0
  0
ARC
  8
0
 10
927.303161
 20
395.287151
 30
0.0
 40
0.5
 50
330.0
 51
150.0
  0
ARC
  8
0
 10
926.193353
 20
393.964907
 30
0.0
 40
0.8
 50
210.0
 51
330.0
  0
ARC
  8
0
 10
926.539764
 20
395.164907
 30
0.0
 40
1.7
 50
90.0
 51
210.0
  0
ARC
  8
0
 10
933.039764
 20
268.864907
 30
0.0
 40
2.0
 50
270.0
 51
0.0
  0
ARC
  8
0
 10
931.839764
 20
270.064907
 30
0.0
 40
1.5
 50
270.0
 51
0.0
  0
ARC
  8
0
 10
933.039764
 20
394.864907
 30
0.0
 40
2.0
 50
0.0
 51
90.0
  0
ARC
  8
0
 10
931.839764
 20
393.664907
 30
0.0
 40
1.5
 50
0.0
 51
90.0
  0
ENDSEC
  0
EOF
