  0
SECTION
  2
HEADER
  9
$ACADVER
  1
AC1009
  9
$INSBASE
 10
0.0
 20
0.0
 30
0.0
  9
$EXTMIN
 10
835.039764
 20
262.764907
 30
0.0
  9
$EXTMAX
 10
955.039764
 20
456.864907
 30
0.0
  9
$LIMMIN
 10
835.039764
 20
262.764907
  9
$LIMMAX
 10
955.039764
 20
456.864907
  9
$ORTHOMODE
 70
     0
  9
$REGENMODE
 70
     1
  9
$FILLMODE
 70
     1
  9
$QTEXTMODE
 70
     0
  9
$MIRRTEXT
 70
     1
  9
$DRAGMODE
 70
     2
  9
$LTSCALE
 40
1.0
  9
$OSMODE
 70
     0
  9
$ATTMODE
 70
     1
  9
$TEXTSIZE
 40
3.5
  9
$TRACEWID
 40
0.5
  9
$TEXTSTYLE
  7
STANDARD
  9
$CLAYER
  8
0
  9
$CELTYPE
  6
BYLAYER
  9
$CECOLOR
 62
   256
  9
$DIMSCALE
 40
1.0
  9
$DIMASZ
 40
0.18
  9
$DIMEXO
 40
0.0625
  9
$DIMDLI
 40
0.38
  9
$DIMRND
 40
0.0
  9
$DIMDLE
 40
0.0
  9
$DIMEXE
 40
0.18
  9
$DIMTP
 40
0.0
  9
$DIMTM
 40
0.0
  9
$DIMTXT
 40
0.18
  9
$DIMCEN
 40
0.09
  9
$DIMTSZ
 40
0.0
  9
$DIMTOL
 70
     0
  9
$DIMLIM
 70
     0
  9
$DIMTIH
 70
     1
  9
$DIMTOH
 70
     1
  9
$DIMSE1
 70
     0
  9
$DIMSE2
 70
     0
  9
$DIMTAD
 70
     0
  9
$DIMZIN
 70
     0
  9
$DIMBLK
  1

  9
$DIMASO
 70
     1
  9
$DIMSHO
 70
     1
  9
$DIMPOST
  1

  9
$DIMAPOST
  1

  9
$DIMALT
 70
     0
  9
$DIMALTD
 70
     2
  9
$DIMALTF
 40
25.4
  9
$DIMLFAC
 40
1.0
  9
$DIMTOFL
 70
     0
  9
$DIMTVP
 40
0.0
  9
$DIMTIX
 70
     0
  9
$DIMSOXD
 70
     0
  9
$DIMSAH
 70
     0
  9
$DIMBLK1
  1

  9
$DIMBLK2
  1

  9
$DIMSTYLE
  2
*UNNAMED
  9
$DIMCLRD
 70
     0
  9
$DIMCLRE
 70
     0
  9
$DIMCLRT
 70
     0
  9
$DIMTFAC
 40
1.0
  9
$DIMGAP
 40
0.09
  9
$LUNITS
 70
     2
  9
$LUPREC
 70
     4
  9
$SKETCHINC
 40
0.1
  9
$FILLETRAD
 40
2.0
  9
$AUNITS
 70
     0
  9
$AUPREC
 70
     0
  9
$MENU
  1
ACAD
  9
$ELEVATION
 40
0.0
  9
$PELEVATION
 40
0.0
  9
$THICKNESS
 40
0.0
  9
$LIMCHECK
 70
     0
  9
$BLIPMODE
 70
     1
  9
$CHAMFERA
 40
0.0
  9
$CHAMFERB
 40
0.0
  9
$SKPOLY
 70
     0
  9
$TDCREATE
 40
2450952.561164930
  9
$TDUPDATE
 40
2450952.561761921
  9
$TDINDWG
 40
0.0004921296
  9
$TDUSRTIMER
 40
0.0004921296
  9
$USRTIMER
 70
     1
  9
$ANGBASE
 50
0.0
  9
$ANGDIR
 70
     0
  9
$PDMODE
 70
     0
  9
$PDSIZE
 40
0.0
  9
$PLINEWID
 40
0.0
  9
$COORDS
 70
     2
  9
$SPLFRAME
 70
     0
  9
$SPLINETYPE
 70
     6
  9
$SPLINESEGS
 70
     8
  9
$ATTDIA
 70
     0
  9
$ATTREQ
 70
     1
  9
$HANDLING
 70
     0
  9
$HANDSEED
  5
0
  9
$SURFTAB1
 70
     6
  9
$SURFTAB2
 70
     6
  9
$SURFTYPE
 70
     6
  9
$SURFU
 70
     6
  9
$SURFV
 70
     6
  9
$UCSNAME
  2

  9
$UCSORG
 10
0.0
 20
0.0
 30
0.0
  9
$UCSXDIR
 10
1.0
 20
0.0
 30
0.0
  9
$UCSYDIR
 10
0.0
 20
1.0
 30
0.0
  9
$PUCSNAME
  2

  9
$PUCSORG
 10
0.0
 20
0.0
 30
0.0
  9
$PUCSXDIR
 10
1.0
 20
0.0
 30
0.0
  9
$PUCSYDIR
 10
0.0
 20
1.0
 30
0.0
  9
$USERI1
 70
     0
  9
$USERI2
 70
     0
  9
$USERI3
 70
     0
  9
$USERI4
 70
     0
  9
$USERI5
 70
     0
  9
$USERR1
 40
0.0
  9
$USERR2
 40
0.0
  9
$USERR3
 40
0.0
  9
$USERR4
 40
0.0
  9
$USERR5
 40
0.0
  9
$WORLDVIEW
 70
     1
  9
$SHADEDGE
 70
     3
  9
$SHADEDIF
 70
    70
  9
$TILEMODE
 70
     1
  9
$MAXACTVP
 70
    16
  9
$PINSBASE
 10
0.0
 20
0.0
 30
0.0
  9
$PLIMCHECK
 70
     0
  9
$PEXTMIN
 10
1.000000E+20
 20
1.000000E+20
 30
1.000000E+20
  9
$PEXTMAX
 10
-1.000000E+20
 20
-1.000000E+20
 30
-1.000000E+20
  9
$PLIMMIN
 10
0.0
 20
0.0
  9
$PLIMMAX
 10
420.0
 20
297.0
  9
$UNITMODE
 70
     0
  9
$VISRETAIN
 70
     0
  9
$PLINEGEN
 70
     0
  9
$PSLTSCALE
 70
     1
  9
$TREEDEPTH
 70
  3020
  9
$DWGCODEPAGE
  3
iso8859-1
  0
ENDSEC
  0
SECTION
  2
TABLES
  0
TABLE
  2
VPORT
 70
     2
  0
VPORT
  2
*ACTIVE
 70
     0
 10
0.0
 20
0.0
 11
1.0
 21
1.0
 12
1046.023142
 22
351.073838
 13
0.0
 23
0.0
 14
1.0
 24
1.0
 15
0.0
 25
0.0
 16
0.0
 26
0.0
 36
1.0
 17
0.0
 27
0.0
 37
0.0
 40
302.67701
 41
1.748359
 42
50.0
 43
0.0
 44
0.0
 50
0.0
 51
0.0
 71
     0
 72
   100
 73
     1
 74
     0
 75
     0
 76
     0
 77
     0
 78
     0
  0
ENDTAB
  0
TABLE
  2
LTYPE
 70
     1
  0
LTYPE
  2
CONTINUOUS
 70
    64
  3
Solid line
 72
    65
 73
     0
 40
0.0
  0
ENDTAB
  0
TABLE
  2
LAYER
 70
     1
  0
LAYER
  2
0
 70
    64
 62
     7
  6
CONTINUOUS
  0
ENDTAB
  0
TABLE
  2
STYLE
 70
     1
  0
STYLE
  2
STANDARD
 70
     0
 40
0.0
 41
1.0
 50
0.0
 71
     0
 42
3.5
  3
txt
  4

  0
ENDTAB
  0
TABLE
  2
VIEW
 70
     0
  0
ENDTAB
  0
TABLE
  2
UCS
 70
     0
  0
ENDTAB
  0
TABLE
  2
APPID
 70
     1
  0
APPID
  2
ACAD
 70
    64
  0
ENDTAB
  0
TABLE
  2
DIMSTYLE
 70
     0
  0
ENDTAB
  0
ENDSEC
  0
SECTION
  2
BLOCKS
  0
BLOCK
  8
0
  2
73830
 70
    64
 10
440.848374
 20
1407.449189
 30
0.0
  3
73830
  0
ENDBLK
  8
0
  0
BLOCK
  8
0
  2
DF
 70
    64
 10
922.739764
 20
276.264907
 30
0.0
  3
DF
  0
ENDBLK
  8
0
  0
BLOCK
  8
0
  2
IU
 70
    64
 10
924.839764
 20
266.864907
 30
0.0
  3
IU
  0
ENDBLK
  8
0
  0
ENDSEC
  0
SECTION
  2
ENTITIES
  0
LINE
  8
0
 10
922.739764
 20
332.896311
 30
0.0
 11
920.528826
 21
334.172925
 31
0.0
  0
LINE
  8
0
 10
922.778662
 20
330.75296
 30
0.0
 11
920.528826
 21
329.453886
 31
0.0
  0
LINE
  8
0
 10
884.768536
 20
333.644625
 30
0.0
 11
880.210797
 21
338.200575
 31
0.0
  0
LINE
  8
0
 10
880.210797
 20
338.200575
 30
0.0
 11
884.768536
 21
333.644625
 31
0.0
  0
LINE
  8
0
 10
894.300773
 20
330.317599
 30
0.0
 11
894.298786
 21
330.317599
 31
0.0
  0
LINE
  8
0
 10
894.298786
 20
330.317599
 30
0.0
 11
894.212375
 21
330.321374
 31
0.0
  0
LINE
  8
0
 10
894.212375
 20
330.321374
 30
0.0
 11
894.125964
 21
330.332895
 31
0.0
  0
LINE
  8
0
 10
894.125964
 20
330.332895
 30
0.0
 11
894.041539
 21
330.350177
 31
0.0
  0
LINE
  8
0
 10
894.041539
 20
330.350177
 30
0.0
 11
894.125964
 21
330.332895
 31
0.0
  0
LINE
  8
0
 10
894.125964
 20
330.332895
 30
0.0
 11
894.212375
 21
330.321374
 31
0.0
  0
LINE
  8
0
 10
894.212375
 20
330.321374
 30
0.0
 11
894.300773
 21
330.317599
 31
0.0
  0
LINE
  8
0
 10
894.041539
 20
330.350177
 30
0.0
 11
893.959101
 21
330.376995
 31
0.0
  0
LINE
  8
0
 10
893.959101
 20
330.376995
 30
0.0
 11
894.041539
 21
330.350177
 31
0.0
  0
LINE
  8
0
 10
893.959101
 20
330.376995
 30
0.0
 11
893.878451
 21
330.409573
 31
0.0
  0
LINE
  8
0
 10
893.878451
 20
330.409573
 30
0.0
 11
893.959101
 21
330.376995
 31
0.0
  0
LINE
  8
0
 10
893.878451
 20
330.409573
 30
0.0
 11
893.801773
 21
330.449898
 31
0.0
  0
LINE
  8
0
 10
893.801773
 20
330.449898
 30
0.0
 11
893.878451
 21
330.409573
 31
0.0
  0
LINE
  8
0
 10
893.801773
 20
330.449898
 30
0.0
 11
893.726884
 21
330.49797
 31
0.0
  0
LINE
  8
0
 10
893.726884
 20
330.49797
 30
0.0
 11
893.801773
 21
330.449898
 31
0.0
  0
LINE
  8
0
 10
893.726884
 20
330.49797
 30
0.0
 11
893.657755
 21
330.549618
 31
0.0
  0
LINE
  8
0
 10
893.657755
 20
330.549618
 30
0.0
 11
893.726884
 21
330.49797
 31
0.0
  0
LINE
  8
0
 10
893.657755
 20
330.549618
 30
0.0
 11
893.594387
 21
330.609212
 31
0.0
  0
LINE
  8
0
 10
893.594387
 20
330.609212
 30
0.0
 11
893.657755
 21
330.549618
 31
0.0
  0
LINE
  8
0
 10
893.594387
 20
330.609212
 30
0.0
 11
893.534992
 21
330.67258
 31
0.0
  0
LINE
  8
0
 10
893.534992
 20
330.67258
 30
0.0
 11
893.594387
 21
330.609212
 31
0.0
  0
LINE
  8
0
 10
893.534992
 20
330.67258
 30
0.0
 11
893.483145
 21
330.741709
 31
0.0
  0
LINE
  8
0
 10
893.483145
 20
330.741709
 30
0.0
 11
893.534992
 21
330.67258
 31
0.0
  0
LINE
  8
0
 10
893.483145
 20
330.741709
 30
0.0
 11
893.435271
 21
330.8164
 31
0.0
  0
LINE
  8
0
 10
893.435271
 20
330.8164
 30
0.0
 11
893.483145
 21
330.741709
 31
0.0
  0
LINE
  8
0
 10
893.435271
 20
330.8164
 30
0.0
 11
893.394946
 21
330.893276
 31
0.0
  0
LINE
  8
0
 10
893.394946
 20
330.893276
 30
0.0
 11
893.435271
 21
330.8164
 31
0.0
  0
LINE
  8
0
 10
893.394946
 20
330.893276
 30
0.0
 11
893.362169
 21
330.973926
 31
0.0
  0
LINE
  8
0
 10
893.362169
 20
330.973926
 30
0.0
 11
893.394946
 21
330.893276
 31
0.0
  0
LINE
  8
0
 10
893.362169
 20
330.973926
 30
0.0
 11
893.335352
 21
331.056365
 31
0.0
  0
LINE
  8
0
 10
893.335352
 20
331.056365
 30
0.0
 11
893.362169
 21
330.973926
 31
0.0
  0
LINE
  8
0
 10
893.335352
 20
331.056365
 30
0.0
 11
893.31807
 21
331.140789
 31
0.0
  0
LINE
  8
0
 10
893.31807
 20
331.140789
 30
0.0
 11
893.335352
 21
331.056365
 31
0.0
  0
LINE
  8
0
 10
893.31807
 20
331.140789
 30
0.0
 11
893.306549
 21
331.2272
 31
0.0
  0
LINE
  8
0
 10
893.306549
 20
331.2272
 30
0.0
 11
893.31807
 21
331.140789
 31
0.0
  0
LINE
  8
0
 10
893.306549
 20
331.2272
 30
0.0
 11
893.302774
 21
331.313413
 31
0.0
  0
LINE
  8
0
 10
893.302774
 20
331.313413
 30
0.0
 11
893.302774
 21
331.315399
 31
0.0
  0
LINE
  8
0
 10
893.302774
 20
331.315399
 30
0.0
 11
893.306549
 21
331.2272
 31
0.0
  0
LINE
  8
0
 10
893.302774
 20
332.311411
 30
0.0
 11
893.306549
 21
332.399809
 31
0.0
  0
LINE
  8
0
 10
893.306549
 20
332.399809
 30
0.0
 11
893.302774
 21
332.313398
 31
0.0
  0
LINE
  8
0
 10
893.306549
 20
332.399809
 30
0.0
 11
893.31807
 21
332.486021
 31
0.0
  0
LINE
  8
0
 10
893.31807
 20
332.486021
 30
0.0
 11
893.306549
 21
332.399809
 31
0.0
  0
LINE
  8
0
 10
893.31807
 20
332.486021
 30
0.0
 11
893.335352
 21
332.570446
 31
0.0
  0
LINE
  8
0
 10
893.335352
 20
332.570446
 30
0.0
 11
893.31807
 21
332.486021
 31
0.0
  0
LINE
  8
0
 10
893.335352
 20
332.570446
 30
0.0
 11
893.362169
 21
332.653083
 31
0.0
  0
LINE
  8
0
 10
893.362169
 20
332.653083
 30
0.0
 11
893.335352
 21
332.570446
 31
0.0
  0
LINE
  8
0
 10
893.362169
 20
332.653083
 30
0.0
 11
893.394946
 21
332.733733
 31
0.0
  0
LINE
  8
0
 10
893.394946
 20
332.733733
 30
0.0
 11
893.362169
 21
332.653083
 31
0.0
  0
LINE
  8
0
 10
893.394946
 20
332.733733
 30
0.0
 11
893.435271
 21
332.810411
 31
0.0
  0
LINE
  8
0
 10
893.435271
 20
332.810411
 30
0.0
 11
893.394946
 21
332.733733
 31
0.0
  0
LINE
  8
0
 10
893.435271
 20
332.810411
 30
0.0
 11
893.483145
 21
332.8853
 31
0.0
  0
LINE
  8
0
 10
893.483145
 20
332.8853
 30
0.0
 11
893.435271
 21
332.810411
 31
0.0
  0
LINE
  8
0
 10
893.483145
 20
332.8853
 30
0.0
 11
893.534992
 21
332.95423
 31
0.0
  0
LINE
  8
0
 10
893.534992
 20
332.95423
 30
0.0
 11
893.483145
 21
332.8853
 31
0.0
  0
LINE
  8
0
 10
893.534992
 20
332.95423
 30
0.0
 11
893.594387
 21
333.017599
 31
0.0
  0
LINE
  8
0
 10
893.594387
 20
333.017599
 30
0.0
 11
893.534992
 21
332.95423
 31
0.0
  0
LINE
  8
0
 10
893.594387
 20
333.017599
 30
0.0
 11
893.657755
 21
333.077192
 31
0.0
  0
LINE
  8
0
 10
893.657755
 20
333.077192
 30
0.0
 11
893.594387
 21
333.017599
 31
0.0
  0
LINE
  8
0
 10
893.657755
 20
333.077192
 30
0.0
 11
893.726884
 21
333.129039
 31
0.0
  0
LINE
  8
0
 10
893.726884
 20
333.129039
 30
0.0
 11
893.657755
 21
333.077192
 31
0.0
  0
LINE
  8
0
 10
893.726884
 20
333.129039
 30
0.0
 11
893.801773
 21
333.176913
 31
0.0
  0
LINE
  8
0
 10
893.801773
 20
333.176913
 30
0.0
 11
893.726884
 21
333.129039
 31
0.0
  0
LINE
  8
0
 10
893.801773
 20
333.176913
 30
0.0
 11
893.878451
 21
333.217238
 31
0.0
  0
LINE
  8
0
 10
893.878451
 20
333.217238
 30
0.0
 11
893.801773
 21
333.176913
 31
0.0
  0
LINE
  8
0
 10
893.878451
 20
333.217238
 30
0.0
 11
893.959101
 21
333.249816
 31
0.0
  0
LINE
  8
0
 10
893.959101
 20
333.249816
 30
0.0
 11
893.878451
 21
333.217238
 31
0.0
  0
LINE
  8
0
 10
893.959101
 20
333.249816
 30
0.0
 11
894.041539
 21
333.276832
 31
0.0
  0
LINE
  8
0
 10
894.041539
 20
333.276832
 30
0.0
 11
893.959101
 21
333.249816
 31
0.0
  0
LINE
  8
0
 10
894.041539
 20
333.276832
 30
0.0
 11
894.125964
 21
333.293915
 31
0.0
  0
LINE
  8
0
 10
894.125964
 20
333.293915
 30
0.0
 11
894.041539
 21
333.276832
 31
0.0
  0
LINE
  8
0
 10
894.125964
 20
333.293915
 30
0.0
 11
894.212375
 21
333.305437
 31
0.0
  0
LINE
  8
0
 10
894.212375
 20
333.305437
 30
0.0
 11
894.125964
 21
333.293915
 31
0.0
  0
LINE
  8
0
 10
894.212375
 20
333.305437
 30
0.0
 11
894.300773
 21
333.30941
 31
0.0
  0
LINE
  8
0
 10
894.300773
 20
333.30941
 30
0.0
 11
894.212375
 21
333.305437
 31
0.0
  0
LINE
  8
0
 10
894.300773
 20
333.30941
 30
0.0
 11
920.029827
 21
333.30941
 31
0.0
  0
LINE
  8
0
 10
920.029827
 20
333.30941
 30
0.0
 11
894.300773
 21
333.30941
 31
0.0
  0
LINE
  8
0
 10
893.302774
 20
332.311411
 30
0.0
 11
893.302774
 21
331.315399
 31
0.0
  0
LINE
  8
0
 10
893.302774
 20
331.315399
 30
0.0
 11
893.302774
 21
332.311411
 31
0.0
  0
LINE
  8
0
 10
892.170491
 20
332.311411
 30
0.0
 11
892.124405
 21
332.386301
 31
0.0
  0
LINE
  8
0
 10
892.124405
 20
332.386301
 30
0.0
 11
892.07077
 21
332.45543
 31
0.0
  0
LINE
  8
0
 10
892.07077
 20
332.45543
 30
0.0
 11
892.013163
 21
332.518798
 31
0.0
  0
LINE
  8
0
 10
892.013163
 20
332.518798
 30
0.0
 11
891.947808
 21
332.578193
 31
0.0
  0
LINE
  8
0
 10
891.947808
 20
332.578193
 30
0.0
 11
891.878878
 21
332.63004
 31
0.0
  0
LINE
  8
0
 10
891.878878
 20
332.63004
 30
0.0
 11
891.805975
 21
332.677914
 31
0.0
  0
LINE
  8
0
 10
891.805975
 20
332.677914
 30
0.0
 11
891.729099
 21
332.718239
 31
0.0
  0
LINE
  8
0
 10
891.729099
 20
332.718239
 30
0.0
 11
891.648449
 21
332.750817
 31
0.0
  0
LINE
  8
0
 10
891.648449
 20
332.750817
 30
0.0
 11
891.56601
 21
332.777833
 31
0.0
  0
LINE
  8
0
 10
891.56601
 20
332.777833
 30
0.0
 11
891.479599
 21
332.795115
 31
0.0
  0
LINE
  8
0
 10
891.479599
 20
332.795115
 30
0.0
 11
891.393188
 21
332.806636
 31
0.0
  0
LINE
  8
0
 10
891.393188
 20
332.806636
 30
0.0
 11
891.306976
 21
332.810411
 31
0.0
  0
LINE
  8
0
 10
892.170491
 20
332.311411
 30
0.0
 11
892.210816
 21
332.234734
 31
0.0
  0
LINE
  8
0
 10
892.210816
 20
332.234734
 30
0.0
 11
892.243394
 21
332.154084
 31
0.0
  0
LINE
  8
0
 10
892.243394
 20
332.154084
 30
0.0
 11
892.270211
 21
332.071645
 31
0.0
  0
LINE
  8
0
 10
892.270211
 20
332.071645
 30
0.0
 11
892.28948
 21
331.987022
 31
0.0
  0
LINE
  8
0
 10
892.28948
 20
331.987022
 30
0.0
 11
892.301001
 21
331.90081
 31
0.0
  0
LINE
  8
0
 10
892.301001
 20
331.90081
 30
0.0
 11
892.304776
 21
331.814399
 31
0.0
  0
LINE
  8
0
 10
892.304776
 20
331.814399
 30
0.0
 11
892.301001
 21
331.7262
 31
0.0
  0
LINE
  8
0
 10
892.301001
 20
331.7262
 30
0.0
 11
892.28948
 21
331.639789
 31
0.0
  0
LINE
  8
0
 10
892.28948
 20
331.639789
 30
0.0
 11
892.301001
 21
331.7262
 31
0.0
  0
LINE
  8
0
 10
892.301001
 20
331.7262
 30
0.0
 11
892.304776
 21
331.814399
 31
0.0
  0
LINE
  8
0
 10
892.304776
 20
331.814399
 30
0.0
 11
892.301001
 21
331.90081
 31
0.0
  0
LINE
  8
0
 10
892.301001
 20
331.90081
 30
0.0
 11
892.28948
 21
331.987022
 31
0.0
  0
LINE
  8
0
 10
892.28948
 20
331.987022
 30
0.0
 11
892.270211
 21
332.071645
 31
0.0
  0
LINE
  8
0
 10
892.270211
 20
332.071645
 30
0.0
 11
892.243394
 21
332.154084
 31
0.0
  0
LINE
  8
0
 10
892.243394
 20
332.154084
 30
0.0
 11
892.210816
 21
332.234734
 31
0.0
  0
LINE
  8
0
 10
892.210816
 20
332.234734
 30
0.0
 11
892.170491
 21
332.311411
 31
0.0
  0
LINE
  8
0
 10
892.170491
 20
332.311411
 30
0.0
 11
892.124405
 21
332.386301
 31
0.0
  0
LINE
  8
0
 10
892.124405
 20
332.386301
 30
0.0
 11
892.07077
 21
332.45543
 31
0.0
  0
LINE
  8
0
 10
892.07077
 20
332.45543
 30
0.0
 11
892.013163
 21
332.518798
 31
0.0
  0
LINE
  8
0
 10
892.013163
 20
332.518798
 30
0.0
 11
891.947808
 21
332.578193
 31
0.0
  0
LINE
  8
0
 10
891.947808
 20
332.578193
 30
0.0
 11
891.878878
 21
332.63004
 31
0.0
  0
LINE
  8
0
 10
891.878878
 20
332.63004
 30
0.0
 11
891.805975
 21
332.677914
 31
0.0
  0
LINE
  8
0
 10
891.805975
 20
332.677914
 30
0.0
 11
891.729099
 21
332.718239
 31
0.0
  0
LINE
  8
0
 10
891.729099
 20
332.718239
 30
0.0
 11
891.648449
 21
332.750817
 31
0.0
  0
LINE
  8
0
 10
891.648449
 20
332.750817
 30
0.0
 11
891.56601
 21
332.777833
 31
0.0
  0
LINE
  8
0
 10
891.56601
 20
332.777833
 30
0.0
 11
891.479599
 21
332.795115
 31
0.0
  0
LINE
  8
0
 10
891.479599
 20
332.795115
 30
0.0
 11
891.393188
 21
332.806636
 31
0.0
  0
LINE
  8
0
 10
891.393188
 20
332.806636
 30
0.0
 11
891.306976
 21
332.810411
 31
0.0
  0
LINE
  8
0
 10
892.28948
 20
331.639789
 30
0.0
 11
892.270211
 21
331.555364
 31
0.0
  0
LINE
  8
0
 10
892.270211
 20
331.555364
 30
0.0
 11
892.28948
 21
331.639789
 31
0.0
  0
LINE
  8
0
 10
892.270211
 20
331.555364
 30
0.0
 11
892.243394
 21
331.472727
 31
0.0
  0
LINE
  8
0
 10
892.243394
 20
331.472727
 30
0.0
 11
892.270211
 21
331.555364
 31
0.0
  0
LINE
  8
0
 10
892.243394
 20
331.472727
 30
0.0
 11
892.210816
 21
331.392275
 31
0.0
  0
LINE
  8
0
 10
892.210816
 20
331.392275
 30
0.0
 11
892.243394
 21
331.472727
 31
0.0
  0
LINE
  8
0
 10
892.210816
 20
331.392275
 30
0.0
 11
892.170491
 21
331.315399
 31
0.0
  0
LINE
  8
0
 10
892.170491
 20
331.315399
 30
0.0
 11
892.210816
 21
331.392275
 31
0.0
  0
LINE
  8
0
 10
892.170491
 20
331.315399
 30
0.0
 11
892.124405
 21
331.24051
 31
0.0
  0
LINE
  8
0
 10
892.124405
 20
331.24051
 30
0.0
 11
892.170491
 21
331.315399
 31
0.0
  0
LINE
  8
0
 10
892.124405
 20
331.24051
 30
0.0
 11
892.07077
 21
331.171579
 31
0.0
  0
LINE
  8
0
 10
892.07077
 20
331.171579
 30
0.0
 11
892.124405
 21
331.24051
 31
0.0
  0
LINE
  8
0
 10
892.07077
 20
331.171579
 30
0.0
 11
892.013163
 21
331.108211
 31
0.0
  0
LINE
  8
0
 10
892.013163
 20
331.108211
 30
0.0
 11
892.07077
 21
331.171579
 31
0.0
  0
LINE
  8
0
 10
892.013163
 20
331.108211
 30
0.0
 11
891.947808
 21
331.048617
 31
0.0
  0
LINE
  8
0
 10
891.947808
 20
331.048617
 30
0.0
 11
892.013163
 21
331.108211
 31
0.0
  0
LINE
  8
0
 10
891.947808
 20
331.048617
 30
0.0
 11
891.878878
 21
330.996771
 31
0.0
  0
LINE
  8
0
 10
891.878878
 20
330.996771
 30
0.0
 11
891.947808
 21
331.048617
 31
0.0
  0
LINE
  8
0
 10
891.878878
 20
330.996771
 30
0.0
 11
891.805975
 21
330.948897
 31
0.0
  0
LINE
  8
0
 10
891.805975
 20
330.948897
 30
0.0
 11
891.878878
 21
330.996771
 31
0.0
  0
LINE
  8
0
 10
891.805975
 20
330.948897
 30
0.0
 11
891.729099
 21
330.908572
 31
0.0
  0
LINE
  8
0
 10
891.729099
 20
330.908572
 30
0.0
 11
891.805975
 21
330.948897
 31
0.0
  0
LINE
  8
0
 10
891.729099
 20
330.908572
 30
0.0
 11
891.648449
 21
330.875994
 31
0.0
  0
LINE
  8
0
 10
891.648449
 20
330.875994
 30
0.0
 11
891.729099
 21
330.908572
 31
0.0
  0
LINE
  8
0
 10
891.648449
 20
330.875994
 30
0.0
 11
891.56601
 21
330.849177
 31
0.0
  0
LINE
  8
0
 10
891.56601
 20
330.849177
 30
0.0
 11
891.648449
 21
330.875994
 31
0.0
  0
LINE
  8
0
 10
891.56601
 20
330.849177
 30
0.0
 11
891.479599
 21
330.831894
 31
0.0
  0
LINE
  8
0
 10
891.479599
 20
330.831894
 30
0.0
 11
891.56601
 21
330.849177
 31
0.0
  0
LINE
  8
0
 10
891.479599
 20
330.831894
 30
0.0
 11
891.393188
 21
330.820373
 31
0.0
  0
LINE
  8
0
 10
891.393188
 20
330.820373
 30
0.0
 11
891.479599
 21
330.831894
 31
0.0
  0
LINE
  8
0
 10
891.393188
 20
330.820373
 30
0.0
 11
891.306976
 21
330.8164
 31
0.0
  0
LINE
  8
0
 10
891.306976
 20
330.8164
 30
0.0
 11
891.393188
 21
330.820373
 31
0.0
  0
LINE
  8
0
 10
894.300773
 20
330.317599
 30
0.0
 11
920.029827
 21
330.317599
 31
0.0
  0
LINE
  8
0
 10
920.029827
 20
330.317599
 30
0.0
 11
922.620571
 21
331.814399
 31
0.0
  0
LINE
  8
0
 10
922.620571
 20
331.814399
 30
0.0
 11
920.029827
 21
333.30941
 31
0.0
  0
LINE
  8
0
 10
920.029827
 20
333.30941
 30
0.0
 11
922.620571
 21
331.814399
 31
0.0
  0
LINE
  8
0
 10
922.620571
 20
331.814399
 30
0.0
 11
920.029827
 21
330.317599
 31
0.0
  0
LINE
  8
0
 10
920.029827
 20
330.317599
 30
0.0
 11
894.300773
 21
330.317599
 31
0.0
  0
LINE
  8
0
 10
886.507286
 20
334.414676
 30
0.0
 11
886.634022
 21
334.359419
 31
0.0
  0
LINE
  8
0
 10
886.634022
 20
334.359419
 30
0.0
 11
886.762546
 21
334.307738
 31
0.0
  0
LINE
  8
0
 10
886.762546
 20
334.307738
 30
0.0
 11
886.891071
 21
334.290456
 31
0.0
  0
LINE
  8
0
 10
886.891071
 20
334.290456
 30
0.0
 11
887.021581
 21
334.295947
 31
0.0
  0
LINE
  8
0
 10
887.021581
 20
334.295947
 30
0.0
 11
887.152092
 21
334.291974
 31
0.0
  0
LINE
  8
0
 10
887.152092
 20
334.291974
 30
0.0
 11
887.021581
 21
334.295947
 31
0.0
  0
LINE
  8
0
 10
887.021581
 20
334.295947
 30
0.0
 11
886.891071
 21
334.290456
 31
0.0
  0
LINE
  8
0
 10
886.891071
 20
334.290456
 30
0.0
 11
886.762546
 21
334.307738
 31
0.0
  0
LINE
  8
0
 10
886.762546
 20
334.307738
 30
0.0
 11
886.634022
 21
334.359419
 31
0.0
  0
LINE
  8
0
 10
886.634022
 20
334.359419
 30
0.0
 11
886.507286
 21
334.414676
 31
0.0
  0
LINE
  8
0
 10
886.507286
 20
334.414676
 30
0.0
 11
886.38055
 21
334.479865
 31
0.0
  0
LINE
  8
0
 10
886.38055
 20
334.479865
 30
0.0
 11
886.507286
 21
334.414676
 31
0.0
  0
LINE
  8
0
 10
886.38055
 20
334.479865
 30
0.0
 11
886.257786
 21
334.54863
 31
0.0
  0
LINE
  8
0
 10
886.257786
 20
334.54863
 30
0.0
 11
886.38055
 21
334.479865
 31
0.0
  0
LINE
  8
0
 10
886.257786
 20
334.54863
 30
0.0
 11
886.136811
 21
334.59849
 31
0.0
  0
LINE
  8
0
 10
886.136811
 20
334.59849
 30
0.0
 11
886.257786
 21
334.54863
 31
0.0
  0
LINE
  8
0
 10
886.136811
 20
334.59849
 30
0.0
 11
886.019808
 21
334.656098
 31
0.0
  0
LINE
  8
0
 10
886.019808
 20
334.656098
 30
0.0
 11
886.136811
 21
334.59849
 31
0.0
  0
LINE
  8
0
 10
886.019808
 20
334.656098
 30
0.0
 11
885.904594
 21
334.744131
 31
0.0
  0
LINE
  8
0
 10
885.904594
 20
334.744131
 30
0.0
 11
886.019808
 21
334.656098
 31
0.0
  0
LINE
  8
0
 10
885.904594
 20
334.744131
 30
0.0
 11
885.793352
 21
334.81326
 31
0.0
  0
LINE
  8
0
 10
885.793352
 20
334.81326
 30
0.0
 11
885.904594
 21
334.744131
 31
0.0
  0
LINE
  8
0
 10
885.793352
 20
334.81326
 30
0.0
 11
885.685884
 21
334.886163
 31
0.0
  0
LINE
  8
0
 10
885.685884
 20
334.886163
 30
0.0
 11
885.793352
 21
334.81326
 31
0.0
  0
LINE
  8
0
 10
885.685884
 20
334.886163
 30
0.0
 11
885.582191
 21
334.966814
 31
0.0
  0
LINE
  8
0
 10
885.582191
 20
334.966814
 30
0.0
 11
885.685884
 21
334.886163
 31
0.0
  0
LINE
  8
0
 10
885.582191
 20
334.966814
 30
0.0
 11
885.48247
 21
335.051238
 31
0.0
  0
LINE
  8
0
 10
885.48247
 20
335.051238
 30
0.0
 11
885.582191
 21
334.966814
 31
0.0
  0
LINE
  8
0
 10
885.48247
 20
335.051238
 30
0.0
 11
885.388511
 21
335.141424
 31
0.0
  0
LINE
  8
0
 10
885.388511
 20
335.141424
 30
0.0
 11
885.48247
 21
335.051238
 31
0.0
  0
LINE
  8
0
 10
877.355059
 20
325.354821
 30
0.0
 11
877.343538
 21
325.441034
 31
0.0
  0
LINE
  8
0
 10
877.343538
 20
325.441034
 30
0.0
 11
877.339764
 21
325.529431
 31
0.0
  0
LINE
  8
0
 10
877.355059
 20
325.354821
 30
0.0
 11
877.372342
 21
325.270397
 31
0.0
  0
LINE
  8
0
 10
877.372342
 20
325.270397
 30
0.0
 11
877.399358
 21
325.18776
 31
0.0
  0
LINE
  8
0
 10
877.399358
 20
325.18776
 30
0.0
 11
877.431935
 21
325.107109
 31
0.0
  0
LINE
  8
0
 10
877.431935
 20
325.107109
 30
0.0
 11
877.472261
 21
325.030432
 31
0.0
  0
LINE
  8
0
 10
877.472261
 20
325.030432
 30
0.0
 11
877.520134
 21
324.955542
 31
0.0
  0
LINE
  8
0
 10
877.520134
 20
324.955542
 30
0.0
 11
877.571981
 21
324.886413
 31
0.0
  0
LINE
  8
0
 10
877.571981
 20
324.886413
 30
0.0
 11
877.631575
 21
324.823244
 31
0.0
  0
LINE
  8
0
 10
877.631575
 20
324.823244
 30
0.0
 11
877.694744
 21
324.76365
 31
0.0
  0
LINE
  8
0
 10
877.694744
 20
324.76365
 30
0.0
 11
877.763873
 21
324.711803
 31
0.0
  0
LINE
  8
0
 10
877.763873
 20
324.711803
 30
0.0
 11
877.838763
 21
324.66393
 31
0.0
  0
LINE
  8
0
 10
877.838763
 20
324.66393
 30
0.0
 11
877.91544
 21
324.623604
 31
0.0
  0
LINE
  8
0
 10
877.91544
 20
324.623604
 30
0.0
 11
877.996091
 21
324.591026
 31
0.0
  0
LINE
  8
0
 10
877.996091
 20
324.591026
 30
0.0
 11
878.078728
 21
324.564011
 31
0.0
  0
LINE
  8
0
 10
878.078728
 20
324.564011
 30
0.0
 11
878.163152
 21
324.546728
 31
0.0
  0
LINE
  8
0
 10
878.163152
 20
324.546728
 30
0.0
 11
878.249365
 21
324.535207
 31
0.0
  0
LINE
  8
0
 10
878.249365
 20
324.535207
 30
0.0
 11
878.337762
 21
324.531433
 31
0.0
  0
LINE
  8
0
 10
877.343538
 20
325.441034
 30
0.0
 11
877.339764
 21
325.529431
 31
0.0
  0
LINE
  8
0
 10
877.343538
 20
325.441034
 30
0.0
 11
877.355059
 21
325.354821
 31
0.0
  0
LINE
  8
0
 10
877.355059
 20
325.354821
 30
0.0
 11
877.372342
 21
325.270397
 31
0.0
  0
LINE
  8
0
 10
877.372342
 20
325.270397
 30
0.0
 11
877.399358
 21
325.18776
 31
0.0
  0
LINE
  8
0
 10
877.399358
 20
325.18776
 30
0.0
 11
877.431935
 21
325.107109
 31
0.0
  0
LINE
  8
0
 10
877.431935
 20
325.107109
 30
0.0
 11
877.472261
 21
325.030432
 31
0.0
  0
LINE
  8
0
 10
877.472261
 20
325.030432
 30
0.0
 11
877.520134
 21
324.955542
 31
0.0
  0
LINE
  8
0
 10
877.520134
 20
324.955542
 30
0.0
 11
877.571981
 21
324.886413
 31
0.0
  0
LINE
  8
0
 10
877.571981
 20
324.886413
 30
0.0
 11
877.631575
 21
324.823244
 31
0.0
  0
LINE
  8
0
 10
877.631575
 20
324.823244
 30
0.0
 11
877.694744
 21
324.76365
 31
0.0
  0
LINE
  8
0
 10
877.694744
 20
324.76365
 30
0.0
 11
877.763873
 21
324.711803
 31
0.0
  0
LINE
  8
0
 10
877.763873
 20
324.711803
 30
0.0
 11
877.838763
 21
324.66393
 31
0.0
  0
LINE
  8
0
 10
877.838763
 20
324.66393
 30
0.0
 11
877.91544
 21
324.623604
 31
0.0
  0
LINE
  8
0
 10
877.91544
 20
324.623604
 30
0.0
 11
877.996091
 21
324.591026
 31
0.0
  0
LINE
  8
0
 10
877.996091
 20
324.591026
 30
0.0
 11
878.078728
 21
324.564011
 31
0.0
  0
LINE
  8
0
 10
878.078728
 20
324.564011
 30
0.0
 11
878.163152
 21
324.546728
 31
0.0
  0
LINE
  8
0
 10
878.163152
 20
324.546728
 30
0.0
 11
878.249365
 21
324.535207
 31
0.0
  0
LINE
  8
0
 10
878.249365
 20
324.535207
 30
0.0
 11
878.337762
 21
324.531433
 31
0.0
  0
LINE
  8
0
 10
880.916985
 20
324.531433
 30
0.0
 11
881.003396
 21
324.535207
 31
0.0
  0
LINE
  8
0
 10
881.003396
 20
324.535207
 30
0.0
 11
881.089608
 21
324.546728
 31
0.0
  0
LINE
  8
0
 10
881.089608
 20
324.546728
 30
0.0
 11
881.174231
 21
324.564011
 31
0.0
  0
LINE
  8
0
 10
881.174231
 20
324.564011
 30
0.0
 11
881.258656
 21
324.591026
 31
0.0
  0
LINE
  8
0
 10
881.258656
 20
324.591026
 30
0.0
 11
881.339108
 21
324.623604
 31
0.0
  0
LINE
  8
0
 10
881.339108
 20
324.623604
 30
0.0
 11
881.415984
 21
324.66393
 31
0.0
  0
LINE
  8
0
 10
881.415984
 20
324.66393
 30
0.0
 11
881.488887
 21
324.711803
 31
0.0
  0
LINE
  8
0
 10
881.488887
 20
324.711803
 30
0.0
 11
881.558016
 21
324.76365
 31
0.0
  0
LINE
  8
0
 10
881.558016
 20
324.76365
 30
0.0
 11
881.623172
 21
324.823244
 31
0.0
  0
LINE
  8
0
 10
881.003396
 20
324.535207
 30
0.0
 11
880.916985
 21
324.531433
 31
0.0
  0
LINE
  8
0
 10
881.003396
 20
324.535207
 30
0.0
 11
881.089608
 21
324.546728
 31
0.0
  0
LINE
  8
0
 10
881.089608
 20
324.546728
 30
0.0
 11
881.174231
 21
324.564011
 31
0.0
  0
LINE
  8
0
 10
881.174231
 20
324.564011
 30
0.0
 11
881.258656
 21
324.591026
 31
0.0
  0
LINE
  8
0
 10
881.258656
 20
324.591026
 30
0.0
 11
881.339108
 21
324.623604
 31
0.0
  0
LINE
  8
0
 10
881.339108
 20
324.623604
 30
0.0
 11
881.415984
 21
324.66393
 31
0.0
  0
LINE
  8
0
 10
881.415984
 20
324.66393
 30
0.0
 11
881.488887
 21
324.711803
 31
0.0
  0
LINE
  8
0
 10
881.488887
 20
324.711803
 30
0.0
 11
881.558016
 21
324.76365
 31
0.0
  0
LINE
  8
0
 10
881.558016
 20
324.76365
 30
0.0
 11
881.623172
 21
324.823244
 31
0.0
  0
LINE
  8
0
 10
885.388511
 20
328.588384
 30
0.0
 11
885.48247
 21
328.678569
 31
0.0
  0
LINE
  8
0
 10
885.48247
 20
328.678569
 30
0.0
 11
885.388511
 21
328.588384
 31
0.0
  0
LINE
  8
0
 10
885.48247
 20
328.678569
 30
0.0
 11
885.582191
 21
328.762994
 31
0.0
  0
LINE
  8
0
 10
885.582191
 20
328.762994
 30
0.0
 11
885.48247
 21
328.678569
 31
0.0
  0
LINE
  8
0
 10
885.582191
 20
328.762994
 30
0.0
 11
885.685884
 21
328.843644
 31
0.0
  0
LINE
  8
0
 10
885.685884
 20
328.843644
 30
0.0
 11
885.582191
 21
328.762994
 31
0.0
  0
LINE
  8
0
 10
885.685884
 20
328.843644
 30
0.0
 11
885.793352
 21
328.916548
 31
0.0
  0
LINE
  8
0
 10
885.793352
 20
328.916548
 30
0.0
 11
885.685884
 21
328.843644
 31
0.0
  0
LINE
  8
0
 10
885.793352
 20
328.916548
 30
0.0
 11
885.904594
 21
328.985677
 31
0.0
  0
LINE
  8
0
 10
885.904594
 20
328.985677
 30
0.0
 11
885.793352
 21
328.916548
 31
0.0
  0
LINE
  8
0
 10
885.904594
 20
328.985677
 30
0.0
 11
886.019808
 21
329.047058
 31
0.0
  0
LINE
  8
0
 10
886.019808
 20
329.047058
 30
0.0
 11
885.904594
 21
328.985677
 31
0.0
  0
LINE
  8
0
 10
886.019808
 20
329.047058
 30
0.0
 11
886.136811
 21
329.104666
 31
0.0
  0
LINE
  8
0
 10
886.136811
 20
329.104666
 30
0.0
 11
886.019808
 21
329.047058
 31
0.0
  0
LINE
  8
0
 10
886.136811
 20
329.104666
 30
0.0
 11
886.257786
 21
329.154526
 31
0.0
  0
LINE
  8
0
 10
886.257786
 20
329.154526
 30
0.0
 11
886.136811
 21
329.104666
 31
0.0
  0
LINE
  8
0
 10
886.257786
 20
329.154526
 30
0.0
 11
886.38055
 21
329.196837
 31
0.0
  0
LINE
  8
0
 10
886.38055
 20
329.196837
 30
0.0
 11
886.257786
 21
329.154526
 31
0.0
  0
LINE
  8
0
 10
886.38055
 20
329.196837
 30
0.0
 11
886.507286
 21
329.235176
 31
0.0
  0
LINE
  8
0
 10
886.507286
 20
329.235176
 30
0.0
 11
886.38055
 21
329.196837
 31
0.0
  0
LINE
  8
0
 10
886.507286
 20
329.235176
 30
0.0
 11
886.634022
 21
329.265768
 31
0.0
  0
LINE
  8
0
 10
886.634022
 20
329.265768
 30
0.0
 11
886.507286
 21
329.235176
 31
0.0
  0
LINE
  8
0
 10
886.634022
 20
329.265768
 30
0.0
 11
886.762546
 21
329.288811
 31
0.0
  0
LINE
  8
0
 10
886.762546
 20
329.288811
 30
0.0
 11
886.634022
 21
329.265768
 31
0.0
  0
LINE
  8
0
 10
886.762546
 20
329.288811
 30
0.0
 11
886.891071
 21
329.306093
 31
0.0
  0
LINE
  8
0
 10
886.891071
 20
329.306093
 30
0.0
 11
886.762546
 21
329.288811
 31
0.0
  0
LINE
  8
0
 10
886.891071
 20
329.306093
 30
0.0
 11
887.021581
 21
329.315827
 31
0.0
  0
LINE
  8
0
 10
887.021581
 20
329.315827
 30
0.0
 11
886.891071
 21
329.306093
 31
0.0
  0
LINE
  8
0
 10
887.021581
 20
329.315827
 30
0.0
 11
887.152092
 21
329.319601
 31
0.0
  0
LINE
  8
0
 10
887.152092
 20
329.319601
 30
0.0
 11
887.021581
 21
329.315827
 31
0.0
  0
LINE
  8
0
 10
920.029827
 20
329.319601
 30
0.0
 11
920.116238
 21
329.323375
 31
0.0
  0
LINE
  8
0
 10
920.116238
 20
329.323375
 30
0.0
 11
920.202649
 21
329.334897
 31
0.0
  0
LINE
  8
0
 10
920.202649
 20
329.334897
 30
0.0
 11
920.287074
 21
329.354165
 31
0.0
  0
LINE
  8
0
 10
920.287074
 20
329.354165
 30
0.0
 11
920.369512
 21
329.378996
 31
0.0
  0
LINE
  8
0
 10
920.369512
 20
329.378996
 30
0.0
 11
920.450162
 21
329.41356
 31
0.0
  0
LINE
  8
0
 10
920.450162
 20
329.41356
 30
0.0
 11
920.528826
 21
329.453886
 31
0.0
  0
LINE
  8
0
 10
920.528826
 20
329.453886
 30
0.0
 11
920.450162
 21
329.41356
 31
0.0
  0
LINE
  8
0
 10
920.450162
 20
329.41356
 30
0.0
 11
920.369512
 21
329.378996
 31
0.0
  0
LINE
  8
0
 10
920.369512
 20
329.378996
 30
0.0
 11
920.287074
 21
329.354165
 31
0.0
  0
LINE
  8
0
 10
920.287074
 20
329.354165
 30
0.0
 11
920.202649
 21
329.334897
 31
0.0
  0
LINE
  8
0
 10
920.202649
 20
329.334897
 30
0.0
 11
920.116238
 21
329.323375
 31
0.0
  0
LINE
  8
0
 10
920.116238
 20
329.323375
 30
0.0
 11
920.029827
 21
329.319601
 31
0.0
  0
LINE
  8
0
 10
920.528826
 20
334.172925
 30
0.0
 11
920.450162
 21
334.21325
 31
0.0
  0
LINE
  8
0
 10
920.450162
 20
334.21325
 30
0.0
 11
920.369512
 21
334.247815
 31
0.0
  0
LINE
  8
0
 10
920.369512
 20
334.247815
 30
0.0
 11
920.287074
 21
334.272645
 31
0.0
  0
LINE
  8
0
 10
920.287074
 20
334.272645
 30
0.0
 11
920.202649
 21
334.291914
 31
0.0
  0
LINE
  8
0
 10
920.202649
 20
334.291914
 30
0.0
 11
920.116238
 21
334.303436
 31
0.0
  0
LINE
  8
0
 10
920.116238
 20
334.303436
 30
0.0
 11
920.029827
 21
334.30721
 31
0.0
  0
LINE
  8
0
 10
920.029827
 20
334.30721
 30
0.0
 11
920.116238
 21
334.303436
 31
0.0
  0
LINE
  8
0
 10
920.116238
 20
334.303436
 30
0.0
 11
920.202649
 21
334.291914
 31
0.0
  0
LINE
  8
0
 10
920.202649
 20
334.291914
 30
0.0
 11
920.287074
 21
334.272645
 31
0.0
  0
LINE
  8
0
 10
920.287074
 20
334.272645
 30
0.0
 11
920.369512
 21
334.247815
 31
0.0
  0
LINE
  8
0
 10
920.369512
 20
334.247815
 30
0.0
 11
920.450162
 21
334.21325
 31
0.0
  0
LINE
  8
0
 10
920.450162
 20
334.21325
 30
0.0
 11
920.528826
 21
334.172925
 31
0.0
  0
LINE
  8
0
 10
879.540962
 20
336.298737
 30
0.0
 11
879.477594
 21
336.239143
 31
0.0
  0
LINE
  8
0
 10
879.477594
 20
336.239143
 30
0.0
 11
879.540962
 21
336.298737
 31
0.0
  0
LINE
  8
0
 10
879.477594
 20
336.239143
 30
0.0
 11
879.408664
 21
336.187296
 31
0.0
  0
LINE
  8
0
 10
879.408664
 20
336.187296
 30
0.0
 11
879.477594
 21
336.239143
 31
0.0
  0
LINE
  8
0
 10
879.408664
 20
336.187296
 30
0.0
 11
879.333774
 21
336.139422
 31
0.0
  0
LINE
  8
0
 10
879.333774
 20
336.139422
 30
0.0
 11
879.408664
 21
336.187296
 31
0.0
  0
LINE
  8
0
 10
879.333774
 20
336.139422
 30
0.0
 11
879.256898
 21
336.101084
 31
0.0
  0
LINE
  8
0
 10
879.256898
 20
336.101084
 30
0.0
 11
879.333774
 21
336.139422
 31
0.0
  0
LINE
  8
0
 10
879.256898
 20
336.101084
 30
0.0
 11
879.176446
 21
336.066519
 31
0.0
  0
LINE
  8
0
 10
879.176446
 20
336.066519
 30
0.0
 11
879.256898
 21
336.101084
 31
0.0
  0
LINE
  8
0
 10
879.176446
 20
336.066519
 30
0.0
 11
879.09381
 21
336.04149
 31
0.0
  0
LINE
  8
0
 10
879.09381
 20
336.04149
 30
0.0
 11
879.176446
 21
336.066519
 31
0.0
  0
LINE
  8
0
 10
879.09381
 20
336.04149
 30
0.0
 11
879.009385
 21
336.02242
 31
0.0
  0
LINE
  8
0
 10
879.009385
 20
336.02242
 30
0.0
 11
879.09381
 21
336.04149
 31
0.0
  0
LINE
  8
0
 10
879.009385
 20
336.02242
 30
0.0
 11
878.922974
 21
336.010898
 31
0.0
  0
LINE
  8
0
 10
878.922974
 20
336.010898
 30
0.0
 11
879.009385
 21
336.02242
 31
0.0
  0
LINE
  8
0
 10
878.922974
 20
336.010898
 30
0.0
 11
878.836761
 21
336.006925
 31
0.0
  0
LINE
  8
0
 10
878.836761
 20
336.006925
 30
0.0
 11
878.922974
 21
336.010898
 31
0.0
  0
LINE
  8
0
 10
878.836761
 20
336.006925
 30
0.0
 11
878.748364
 21
336.010898
 31
0.0
  0
LINE
  8
0
 10
878.748364
 20
336.010898
 30
0.0
 11
878.836761
 21
336.006925
 31
0.0
  0
LINE
  8
0
 10
878.748364
 20
336.010898
 30
0.0
 11
878.661953
 21
336.02242
 31
0.0
  0
LINE
  8
0
 10
878.661953
 20
336.02242
 30
0.0
 11
878.748364
 21
336.010898
 31
0.0
  0
LINE
  8
0
 10
878.661953
 20
336.02242
 30
0.0
 11
878.577528
 21
336.04149
 31
0.0
  0
LINE
  8
0
 10
878.577528
 20
336.04149
 30
0.0
 11
878.661953
 21
336.02242
 31
0.0
  0
LINE
  8
0
 10
878.577528
 20
336.04149
 30
0.0
 11
878.49509
 21
336.066519
 31
0.0
  0
LINE
  8
0
 10
878.49509
 20
336.066519
 30
0.0
 11
878.577528
 21
336.04149
 31
0.0
  0
LINE
  8
0
 10
878.49509
 20
336.066519
 30
0.0
 11
878.41444
 21
336.101084
 31
0.0
  0
LINE
  8
0
 10
878.41444
 20
336.101084
 30
0.0
 11
878.49509
 21
336.066519
 31
0.0
  0
LINE
  8
0
 10
878.41444
 20
336.101084
 30
0.0
 11
878.337762
 21
336.139422
 31
0.0
  0
LINE
  8
0
 10
878.337762
 20
336.139422
 30
0.0
 11
878.41444
 21
336.101084
 31
0.0
  0
LINE
  8
0
 10
878.337762
 20
336.139422
 30
0.0
 11
878.262873
 21
336.187296
 31
0.0
  0
LINE
  8
0
 10
878.262873
 20
336.187296
 30
0.0
 11
878.337762
 21
336.139422
 31
0.0
  0
LINE
  8
0
 10
878.262873
 20
336.187296
 30
0.0
 11
878.193744
 21
336.239143
 31
0.0
  0
LINE
  8
0
 10
878.193744
 20
336.239143
 30
0.0
 11
878.262873
 21
336.187296
 31
0.0
  0
LINE
  8
0
 10
878.193744
 20
336.239143
 30
0.0
 11
878.130376
 21
336.298737
 31
0.0
  0
LINE
  8
0
 10
878.130376
 20
336.298737
 30
0.0
 11
878.193744
 21
336.239143
 31
0.0
  0
LINE
  8
0
 10
877.339764
 20
338.200575
 30
0.0
 11
877.343538
 21
338.288774
 31
0.0
  0
LINE
  8
0
 10
877.343538
 20
338.288774
 30
0.0
 11
877.339764
 21
338.200575
 31
0.0
  0
LINE
  8
0
 10
877.343538
 20
338.288774
 30
0.0
 11
877.355059
 21
338.375185
 31
0.0
  0
LINE
  8
0
 10
877.355059
 20
338.375185
 30
0.0
 11
877.343538
 21
338.288774
 31
0.0
  0
LINE
  8
0
 10
877.355059
 20
338.375185
 30
0.0
 11
877.372342
 21
338.45961
 31
0.0
  0
LINE
  8
0
 10
877.372342
 20
338.45961
 30
0.0
 11
877.355059
 21
338.375185
 31
0.0
  0
LINE
  8
0
 10
877.372342
 20
338.45961
 30
0.0
 11
877.399358
 21
338.542048
 31
0.0
  0
LINE
  8
0
 10
877.399358
 20
338.542048
 30
0.0
 11
877.372342
 21
338.45961
 31
0.0
  0
LINE
  8
0
 10
877.399358
 20
338.542048
 30
0.0
 11
877.431935
 21
338.622699
 31
0.0
  0
LINE
  8
0
 10
877.431935
 20
338.622699
 30
0.0
 11
877.399358
 21
338.542048
 31
0.0
  0
LINE
  8
0
 10
877.431935
 20
338.622699
 30
0.0
 11
877.472261
 21
338.699376
 31
0.0
  0
LINE
  8
0
 10
877.472261
 20
338.699376
 30
0.0
 11
877.431935
 21
338.622699
 31
0.0
  0
LINE
  8
0
 10
877.472261
 20
338.699376
 30
0.0
 11
877.520134
 21
338.774266
 31
0.0
  0
LINE
  8
0
 10
877.520134
 20
338.774266
 30
0.0
 11
877.472261
 21
338.699376
 31
0.0
  0
LINE
  8
0
 10
877.520134
 20
338.774266
 30
0.0
 11
877.571981
 21
338.843394
 31
0.0
  0
LINE
  8
0
 10
877.571981
 20
338.843394
 30
0.0
 11
877.520134
 21
338.774266
 31
0.0
  0
LINE
  8
0
 10
877.571981
 20
338.843394
 30
0.0
 11
877.631575
 21
338.906763
 31
0.0
  0
LINE
  8
0
 10
877.631575
 20
338.906763
 30
0.0
 11
877.571981
 21
338.843394
 31
0.0
  0
LINE
  8
0
 10
877.631575
 20
338.906763
 30
0.0
 11
877.694744
 21
338.966158
 31
0.0
  0
LINE
  8
0
 10
877.694744
 20
338.966158
 30
0.0
 11
877.631575
 21
338.906763
 31
0.0
  0
LINE
  8
0
 10
877.694744
 20
338.966158
 30
0.0
 11
877.763873
 21
339.018005
 31
0.0
  0
LINE
  8
0
 10
877.763873
 20
339.018005
 30
0.0
 11
877.694744
 21
338.966158
 31
0.0
  0
LINE
  8
0
 10
877.763873
 20
339.018005
 30
0.0
 11
877.838763
 21
339.066077
 31
0.0
  0
LINE
  8
0
 10
877.838763
 20
339.066077
 30
0.0
 11
877.763873
 21
339.018005
 31
0.0
  0
LINE
  8
0
 10
877.838763
 20
339.066077
 30
0.0
 11
877.91544
 21
339.106203
 31
0.0
  0
LINE
  8
0
 10
877.91544
 20
339.106203
 30
0.0
 11
877.838763
 21
339.066077
 31
0.0
  0
LINE
  8
0
 10
877.91544
 20
339.106203
 30
0.0
 11
877.996091
 21
339.13898
 31
0.0
  0
LINE
  8
0
 10
877.996091
 20
339.13898
 30
0.0
 11
877.91544
 21
339.106203
 31
0.0
  0
LINE
  8
0
 10
877.996091
 20
339.13898
 30
0.0
 11
878.078728
 21
339.165797
 31
0.0
  0
LINE
  8
0
 10
878.078728
 20
339.165797
 30
0.0
 11
877.996091
 21
339.13898
 31
0.0
  0
LINE
  8
0
 10
878.078728
 20
339.165797
 30
0.0
 11
878.163152
 21
339.18308
 31
0.0
  0
LINE
  8
0
 10
878.163152
 20
339.18308
 30
0.0
 11
878.078728
 21
339.165797
 31
0.0
  0
LINE
  8
0
 10
878.163152
 20
339.18308
 30
0.0
 11
878.249365
 21
339.194601
 31
0.0
  0
LINE
  8
0
 10
878.249365
 20
339.194601
 30
0.0
 11
878.163152
 21
339.18308
 31
0.0
  0
LINE
  8
0
 10
878.249365
 20
339.194601
 30
0.0
 11
878.337762
 21
339.198375
 31
0.0
  0
LINE
  8
0
 10
878.337762
 20
339.198375
 30
0.0
 11
878.249365
 21
339.194601
 31
0.0
  0
LINE
  8
0
 10
880.916985
 20
339.198375
 30
0.0
 11
881.003396
 21
339.194601
 31
0.0
  0
LINE
  8
0
 10
881.003396
 20
339.194601
 30
0.0
 11
880.916985
 21
339.198375
 31
0.0
  0
LINE
  8
0
 10
881.003396
 20
339.194601
 30
0.0
 11
881.089608
 21
339.18308
 31
0.0
  0
LINE
  8
0
 10
881.089608
 20
339.18308
 30
0.0
 11
881.003396
 21
339.194601
 31
0.0
  0
LINE
  8
0
 10
881.089608
 20
339.18308
 30
0.0
 11
881.174231
 21
339.165797
 31
0.0
  0
LINE
  8
0
 10
881.174231
 20
339.165797
 30
0.0
 11
881.089608
 21
339.18308
 31
0.0
  0
LINE
  8
0
 10
881.174231
 20
339.165797
 30
0.0
 11
881.258656
 21
339.13898
 31
0.0
  0
LINE
  8
0
 10
881.258656
 20
339.13898
 30
0.0
 11
881.174231
 21
339.165797
 31
0.0
  0
LINE
  8
0
 10
881.258656
 20
339.13898
 30
0.0
 11
881.339108
 21
339.106203
 31
0.0
  0
LINE
  8
0
 10
881.339108
 20
339.106203
 30
0.0
 11
881.258656
 21
339.13898
 31
0.0
  0
LINE
  8
0
 10
881.339108
 20
339.106203
 30
0.0
 11
881.415984
 21
339.066077
 31
0.0
  0
LINE
  8
0
 10
881.415984
 20
339.066077
 30
0.0
 11
881.339108
 21
339.106203
 31
0.0
  0
LINE
  8
0
 10
881.415984
 20
339.066077
 30
0.0
 11
881.488887
 21
339.018005
 31
0.0
  0
LINE
  8
0
 10
881.488887
 20
339.018005
 30
0.0
 11
881.415984
 21
339.066077
 31
0.0
  0
LINE
  8
0
 10
881.488887
 20
339.018005
 30
0.0
 11
881.558016
 21
338.966158
 31
0.0
  0
LINE
  8
0
 10
881.558016
 20
338.966158
 30
0.0
 11
881.488887
 21
339.018005
 31
0.0
  0
LINE
  8
0
 10
881.558016
 20
338.966158
 30
0.0
 11
881.623172
 21
338.906763
 31
0.0
  0
LINE
  8
0
 10
881.623172
 20
338.906763
 30
0.0
 11
881.558016
 21
338.966158
 31
0.0
  0
LINE
  8
0
 10
880.404676
 20
337.866651
 30
0.0
 11
880.35859
 21
337.906778
 31
0.0
  0
LINE
  8
0
 10
880.35859
 20
337.906778
 30
0.0
 11
880.310518
 21
337.941342
 31
0.0
  0
LINE
  8
0
 10
880.310518
 20
337.941342
 30
0.0
 11
880.256883
 21
337.970146
 31
0.0
  0
LINE
  8
0
 10
880.256883
 20
337.970146
 30
0.0
 11
880.199276
 21
337.991202
 31
0.0
  0
LINE
  8
0
 10
880.199276
 20
337.991202
 30
0.0
 11
880.141668
 21
338.00471
 31
0.0
  0
LINE
  8
0
 10
880.141668
 20
338.00471
 30
0.0
 11
880.082273
 21
338.012457
 31
0.0
  0
LINE
  8
0
 10
880.082273
 20
338.012457
 30
0.0
 11
880.020693
 21
338.012457
 31
0.0
  0
LINE
  8
0
 10
880.020693
 20
338.012457
 30
0.0
 11
879.961298
 21
338.00471
 31
0.0
  0
LINE
  8
0
 10
879.961298
 20
338.00471
 30
0.0
 11
879.90369
 21
337.991202
 31
0.0
  0
LINE
  8
0
 10
879.90369
 20
337.991202
 30
0.0
 11
879.846083
 21
337.970146
 31
0.0
  0
LINE
  8
0
 10
879.846083
 20
337.970146
 30
0.0
 11
879.794236
 21
337.941342
 31
0.0
  0
LINE
  8
0
 10
879.794236
 20
337.941342
 30
0.0
 11
879.744376
 21
337.906778
 31
0.0
  0
LINE
  8
0
 10
879.744376
 20
337.906778
 30
0.0
 11
879.69829
 21
337.866651
 31
0.0
  0
LINE
  8
0
 10
879.69829
 20
337.866651
 30
0.0
 11
879.744376
 21
337.906778
 31
0.0
  0
LINE
  8
0
 10
879.744376
 20
337.906778
 30
0.0
 11
879.794236
 21
337.941342
 31
0.0
  0
LINE
  8
0
 10
879.794236
 20
337.941342
 30
0.0
 11
879.846083
 21
337.970146
 31
0.0
  0
LINE
  8
0
 10
879.846083
 20
337.970146
 30
0.0
 11
879.90369
 21
337.991202
 31
0.0
  0
LINE
  8
0
 10
879.90369
 20
337.991202
 30
0.0
 11
879.961298
 21
338.00471
 31
0.0
  0
LINE
  8
0
 10
879.961298
 20
338.00471
 30
0.0
 11
880.020693
 21
338.012457
 31
0.0
  0
LINE
  8
0
 10
880.020693
 20
338.012457
 30
0.0
 11
880.082273
 21
338.012457
 31
0.0
  0
LINE
  8
0
 10
880.082273
 20
338.012457
 30
0.0
 11
880.141668
 21
338.00471
 31
0.0
  0
LINE
  8
0
 10
880.141668
 20
338.00471
 30
0.0
 11
880.199276
 21
337.991202
 31
0.0
  0
LINE
  8
0
 10
880.199276
 20
337.991202
 30
0.0
 11
880.256883
 21
337.970146
 31
0.0
  0
LINE
  8
0
 10
880.256883
 20
337.970146
 30
0.0
 11
880.310518
 21
337.941342
 31
0.0
  0
LINE
  8
0
 10
880.310518
 20
337.941342
 30
0.0
 11
880.35859
 21
337.906778
 31
0.0
  0
LINE
  8
0
 10
880.35859
 20
337.906778
 30
0.0
 11
880.404676
 21
337.866651
 31
0.0
  0
LINE
  8
0
 10
880.404676
 20
337.866651
 30
0.0
 11
880.444803
 21
337.822353
 31
0.0
  0
LINE
  8
0
 10
880.444803
 20
337.822353
 30
0.0
 11
880.404676
 21
337.866651
 31
0.0
  0
LINE
  8
0
 10
880.444803
 20
337.822353
 30
0.0
 11
880.479367
 21
337.772493
 31
0.0
  0
LINE
  8
0
 10
880.479367
 20
337.772493
 30
0.0
 11
880.444803
 21
337.822353
 31
0.0
  0
LINE
  8
0
 10
880.479367
 20
337.772493
 30
0.0
 11
880.506383
 21
337.718858
 31
0.0
  0
LINE
  8
0
 10
880.506383
 20
337.718858
 30
0.0
 11
880.479367
 21
337.772493
 31
0.0
  0
LINE
  8
0
 10
880.506383
 20
337.718858
 30
0.0
 11
880.527439
 21
337.663039
 31
0.0
  0
LINE
  8
0
 10
880.527439
 20
337.663039
 30
0.0
 11
880.506383
 21
337.718858
 31
0.0
  0
LINE
  8
0
 10
880.527439
 20
337.663039
 30
0.0
 11
880.542735
 21
337.603644
 31
0.0
  0
LINE
  8
0
 10
880.542735
 20
337.603644
 30
0.0
 11
880.527439
 21
337.663039
 31
0.0
  0
LINE
  8
0
 10
880.542735
 20
337.603644
 30
0.0
 11
880.550482
 21
337.544248
 31
0.0
  0
LINE
  8
0
 10
880.550482
 20
337.544248
 30
0.0
 11
880.542735
 21
337.603644
 31
0.0
  0
LINE
  8
0
 10
880.550482
 20
337.544248
 30
0.0
 11
880.550482
 21
337.484654
 31
0.0
  0
LINE
  8
0
 10
880.550482
 20
337.484654
 30
0.0
 11
880.550482
 21
337.544248
 31
0.0
  0
LINE
  8
0
 10
880.550482
 20
337.484654
 30
0.0
 11
880.542735
 21
337.425259
 31
0.0
  0
LINE
  8
0
 10
880.542735
 20
337.425259
 30
0.0
 11
880.550482
 21
337.484654
 31
0.0
  0
LINE
  8
0
 10
880.542735
 20
337.425259
 30
0.0
 11
880.527439
 21
337.365665
 31
0.0
  0
LINE
  8
0
 10
880.527439
 20
337.365665
 30
0.0
 11
880.542735
 21
337.425259
 31
0.0
  0
LINE
  8
0
 10
880.527439
 20
337.365665
 30
0.0
 11
880.506383
 21
337.310044
 31
0.0
  0
LINE
  8
0
 10
880.506383
 20
337.310044
 30
0.0
 11
880.527439
 21
337.365665
 31
0.0
  0
LINE
  8
0
 10
880.506383
 20
337.310044
 30
0.0
 11
880.479367
 21
337.256211
 31
0.0
  0
LINE
  8
0
 10
880.479367
 20
337.256211
 30
0.0
 11
880.506383
 21
337.310044
 31
0.0
  0
LINE
  8
0
 10
880.479367
 20
337.256211
 30
0.0
 11
880.444803
 21
337.206351
 31
0.0
  0
LINE
  8
0
 10
880.444803
 20
337.206351
 30
0.0
 11
880.479367
 21
337.256211
 31
0.0
  0
LINE
  8
0
 10
880.444803
 20
337.206351
 30
0.0
 11
880.404676
 21
337.162252
 31
0.0
  0
LINE
  8
0
 10
880.404676
 20
337.162252
 30
0.0
 11
880.444803
 21
337.206351
 31
0.0
  0
LINE
  8
0
 10
884.768536
 20
333.644625
 30
0.0
 11
884.862694
 21
333.566704
 31
0.0
  0
LINE
  8
0
 10
884.862694
 20
333.566704
 30
0.0
 11
884.962415
 21
333.486087
 31
0.0
  0
LINE
  8
0
 10
884.962415
 20
333.486087
 30
0.0
 11
885.066108
 21
333.40901
 31
0.0
  0
LINE
  8
0
 10
885.066108
 20
333.40901
 30
0.0
 11
885.173575
 21
333.33576
 31
0.0
  0
LINE
  8
0
 10
885.173575
 20
333.33576
 30
0.0
 11
885.284817
 21
333.266475
 31
0.0
  0
LINE
  8
0
 10
885.284817
 20
333.266475
 30
0.0
 11
885.400032
 21
333.201204
 31
0.0
  0
LINE
  8
0
 10
885.400032
 20
333.201204
 30
0.0
 11
885.517035
 21
333.141216
 31
0.0
  0
LINE
  8
0
 10
885.517035
 20
333.141216
 30
0.0
 11
885.63801
 21
333.085447
 31
0.0
  0
LINE
  8
0
 10
885.63801
 20
333.085447
 30
0.0
 11
885.760774
 21
333.034989
 31
0.0
  0
LINE
  8
0
 10
885.760774
 20
333.034989
 30
0.0
 11
885.887311
 21
332.98912
 31
0.0
  0
LINE
  8
0
 10
885.887311
 20
332.98912
 30
0.0
 11
886.014048
 21
332.949148
 31
0.0
  0
LINE
  8
0
 10
886.014048
 20
332.949148
 30
0.0
 11
886.142572
 21
332.914474
 31
0.0
  0
LINE
  8
0
 10
886.142572
 20
332.914474
 30
0.0
 11
886.271294
 21
332.885465
 31
0.0
  0
LINE
  8
0
 10
886.271294
 20
332.885465
 30
0.0
 11
886.401805
 21
332.854423
 31
0.0
  0
LINE
  8
0
 10
886.401805
 20
332.854423
 30
0.0
 11
886.532316
 21
332.821827
 31
0.0
  0
LINE
  8
0
 10
886.532316
 20
332.821827
 30
0.0
 11
886.401805
 21
332.854423
 31
0.0
  0
LINE
  8
0
 10
886.401805
 20
332.854423
 30
0.0
 11
886.271294
 21
332.885465
 31
0.0
  0
LINE
  8
0
 10
886.271294
 20
332.885465
 30
0.0
 11
886.142572
 21
332.914474
 31
0.0
  0
LINE
  8
0
 10
886.142572
 20
332.914474
 30
0.0
 11
886.014048
 21
332.949148
 31
0.0
  0
LINE
  8
0
 10
886.014048
 20
332.949148
 30
0.0
 11
885.887311
 21
332.98912
 31
0.0
  0
LINE
  8
0
 10
885.887311
 20
332.98912
 30
0.0
 11
885.760774
 21
333.034989
 31
0.0
  0
LINE
  8
0
 10
885.760774
 20
333.034989
 30
0.0
 11
885.63801
 21
333.085447
 31
0.0
  0
LINE
  8
0
 10
885.63801
 20
333.085447
 30
0.0
 11
885.517035
 21
333.141216
 31
0.0
  0
LINE
  8
0
 10
885.517035
 20
333.141216
 30
0.0
 11
885.400032
 21
333.201204
 31
0.0
  0
LINE
  8
0
 10
885.400032
 20
333.201204
 30
0.0
 11
885.284817
 21
333.266475
 31
0.0
  0
LINE
  8
0
 10
885.284817
 20
333.266475
 30
0.0
 11
885.173575
 21
333.33576
 31
0.0
  0
LINE
  8
0
 10
885.173575
 20
333.33576
 30
0.0
 11
885.066108
 21
333.40901
 31
0.0
  0
LINE
  8
0
 10
885.066108
 20
333.40901
 30
0.0
 11
884.962415
 21
333.486087
 31
0.0
  0
LINE
  8
0
 10
884.962415
 20
333.486087
 30
0.0
 11
884.862694
 21
333.566704
 31
0.0
  0
LINE
  8
0
 10
884.862694
 20
333.566704
 30
0.0
 11
884.768536
 21
333.644625
 31
0.0
  0
LINE
  8
0
 10
884.768536
 20
330.085382
 30
0.0
 11
884.862694
 21
330.175567
 31
0.0
  0
LINE
  8
0
 10
884.862694
 20
330.175567
 30
0.0
 11
884.768536
 21
330.085382
 31
0.0
  0
LINE
  8
0
 10
884.862694
 20
330.175567
 30
0.0
 11
884.962415
 21
330.259992
 31
0.0
  0
LINE
  8
0
 10
884.962415
 20
330.259992
 30
0.0
 11
884.862694
 21
330.175567
 31
0.0
  0
LINE
  8
0
 10
884.962415
 20
330.259992
 30
0.0
 11
885.066108
 21
330.338656
 31
0.0
  0
LINE
  8
0
 10
885.066108
 20
330.338656
 30
0.0
 11
884.962415
 21
330.259992
 31
0.0
  0
LINE
  8
0
 10
885.066108
 20
330.338656
 30
0.0
 11
885.173575
 21
330.413545
 31
0.0
  0
LINE
  8
0
 10
885.173575
 20
330.413545
 30
0.0
 11
885.066108
 21
330.338656
 31
0.0
  0
LINE
  8
0
 10
885.173575
 20
330.413545
 30
0.0
 11
885.284817
 21
330.482476
 31
0.0
  0
LINE
  8
0
 10
885.284817
 20
330.482476
 30
0.0
 11
885.173575
 21
330.413545
 31
0.0
  0
LINE
  8
0
 10
885.284817
 20
330.482476
 30
0.0
 11
885.400032
 21
330.544056
 31
0.0
  0
LINE
  8
0
 10
885.400032
 20
330.544056
 30
0.0
 11
885.284817
 21
330.482476
 31
0.0
  0
LINE
  8
0
 10
885.400032
 20
330.544056
 30
0.0
 11
885.517035
 21
330.599677
 31
0.0
  0
LINE
  8
0
 10
885.517035
 20
330.599677
 30
0.0
 11
885.400032
 21
330.544056
 31
0.0
  0
LINE
  8
0
 10
885.517035
 20
330.599677
 30
0.0
 11
885.63801
 21
330.649537
 31
0.0
  0
LINE
  8
0
 10
885.63801
 20
330.649537
 30
0.0
 11
885.517035
 21
330.599677
 31
0.0
  0
LINE
  8
0
 10
885.63801
 20
330.649537
 30
0.0
 11
885.760774
 21
330.693637
 31
0.0
  0
LINE
  8
0
 10
885.760774
 20
330.693637
 30
0.0
 11
885.63801
 21
330.649537
 31
0.0
  0
LINE
  8
0
 10
885.760774
 20
330.693637
 30
0.0
 11
885.887311
 21
330.730188
 31
0.0
  0
LINE
  8
0
 10
885.887311
 20
330.730188
 30
0.0
 11
885.760774
 21
330.693637
 31
0.0
  0
LINE
  8
0
 10
885.887311
 20
330.730188
 30
0.0
 11
886.014048
 21
330.760779
 31
0.0
  0
LINE
  8
0
 10
886.014048
 20
330.760779
 30
0.0
 11
885.887311
 21
330.730188
 31
0.0
  0
LINE
  8
0
 10
886.014048
 20
330.760779
 30
0.0
 11
886.142572
 21
330.785808
 31
0.0
  0
LINE
  8
0
 10
886.142572
 20
330.785808
 30
0.0
 11
886.014048
 21
330.760779
 31
0.0
  0
LINE
  8
0
 10
886.142572
 20
330.785808
 30
0.0
 11
886.271294
 21
330.803091
 31
0.0
  0
LINE
  8
0
 10
886.271294
 20
330.803091
 30
0.0
 11
886.142572
 21
330.785808
 31
0.0
  0
LINE
  8
0
 10
886.271294
 20
330.803091
 30
0.0
 11
886.401805
 21
330.812626
 31
0.0
  0
LINE
  8
0
 10
886.401805
 20
330.812626
 30
0.0
 11
886.271294
 21
330.803091
 31
0.0
  0
LINE
  8
0
 10
886.401805
 20
330.812626
 30
0.0
 11
886.532316
 21
330.8164
 31
0.0
  0
LINE
  8
0
 10
886.532316
 20
330.8164
 30
0.0
 11
886.401805
 21
330.812626
 31
0.0
  0
LINE
  8
0
 10
880.404676
 20
326.567556
 30
0.0
 11
880.444803
 21
326.523457
 31
0.0
  0
LINE
  8
0
 10
880.444803
 20
326.523457
 30
0.0
 11
880.404676
 21
326.567556
 31
0.0
  0
LINE
  8
0
 10
880.404676
 20
326.567556
 30
0.0
 11
879.540962
 21
327.43127
 31
0.0
  0
LINE
  8
0
 10
879.540962
 20
327.43127
 30
0.0
 11
879.477594
 21
327.490665
 31
0.0
  0
LINE
  8
0
 10
879.477594
 20
327.490665
 30
0.0
 11
879.408664
 21
327.542512
 31
0.0
  0
LINE
  8
0
 10
879.408664
 20
327.542512
 30
0.0
 11
879.333774
 21
327.590584
 31
0.0
  0
LINE
  8
0
 10
879.333774
 20
327.590584
 30
0.0
 11
879.256898
 21
327.628923
 31
0.0
  0
LINE
  8
0
 10
879.256898
 20
327.628923
 30
0.0
 11
879.176446
 21
327.663487
 31
0.0
  0
LINE
  8
0
 10
879.176446
 20
327.663487
 30
0.0
 11
879.09381
 21
327.688318
 31
0.0
  0
LINE
  8
0
 10
879.09381
 20
327.688318
 30
0.0
 11
879.009385
 21
327.707587
 31
0.0
  0
LINE
  8
0
 10
879.009385
 20
327.707587
 30
0.0
 11
878.922974
 21
327.719108
 31
0.0
  0
LINE
  8
0
 10
878.922974
 20
327.719108
 30
0.0
 11
878.836761
 21
327.722883
 31
0.0
  0
LINE
  8
0
 10
878.836761
 20
327.722883
 30
0.0
 11
878.748364
 21
327.719108
 31
0.0
  0
LINE
  8
0
 10
878.748364
 20
327.719108
 30
0.0
 11
878.661953
 21
327.707587
 31
0.0
  0
LINE
  8
0
 10
878.661953
 20
327.707587
 30
0.0
 11
878.577528
 21
327.688318
 31
0.0
  0
LINE
  8
0
 10
878.577528
 20
327.688318
 30
0.0
 11
878.49509
 21
327.663487
 31
0.0
  0
LINE
  8
0
 10
878.49509
 20
327.663487
 30
0.0
 11
878.41444
 21
327.628923
 31
0.0
  0
LINE
  8
0
 10
878.41444
 20
327.628923
 30
0.0
 11
878.337762
 21
327.590584
 31
0.0
  0
LINE
  8
0
 10
878.337762
 20
327.590584
 30
0.0
 11
878.262873
 21
327.542512
 31
0.0
  0
LINE
  8
0
 10
878.262873
 20
327.542512
 30
0.0
 11
878.193744
 21
327.490665
 31
0.0
  0
LINE
  8
0
 10
878.193744
 20
327.490665
 30
0.0
 11
878.130376
 21
327.43127
 31
0.0
  0
LINE
  8
0
 10
878.130376
 20
327.43127
 30
0.0
 11
877.339764
 21
326.640459
 31
0.0
  0
LINE
  8
0
 10
877.339764
 20
326.640459
 30
0.0
 11
878.130376
 21
327.43127
 31
0.0
  0
LINE
  8
0
 10
878.130376
 20
327.43127
 30
0.0
 11
878.193744
 21
327.490665
 31
0.0
  0
LINE
  8
0
 10
878.193744
 20
327.490665
 30
0.0
 11
878.262873
 21
327.542512
 31
0.0
  0
LINE
  8
0
 10
878.262873
 20
327.542512
 30
0.0
 11
878.337762
 21
327.590584
 31
0.0
  0
LINE
  8
0
 10
878.337762
 20
327.590584
 30
0.0
 11
878.41444
 21
327.628923
 31
0.0
  0
LINE
  8
0
 10
878.41444
 20
327.628923
 30
0.0
 11
878.49509
 21
327.663487
 31
0.0
  0
LINE
  8
0
 10
878.49509
 20
327.663487
 30
0.0
 11
878.577528
 21
327.688318
 31
0.0
  0
LINE
  8
0
 10
878.577528
 20
327.688318
 30
0.0
 11
878.661953
 21
327.707587
 31
0.0
  0
LINE
  8
0
 10
878.661953
 20
327.707587
 30
0.0
 11
878.748364
 21
327.719108
 31
0.0
  0
LINE
  8
0
 10
878.748364
 20
327.719108
 30
0.0
 11
878.836761
 21
327.722883
 31
0.0
  0
LINE
  8
0
 10
878.836761
 20
327.722883
 30
0.0
 11
878.922974
 21
327.719108
 31
0.0
  0
LINE
  8
0
 10
878.922974
 20
327.719108
 30
0.0
 11
879.009385
 21
327.707587
 31
0.0
  0
LINE
  8
0
 10
879.009385
 20
327.707587
 30
0.0
 11
879.09381
 21
327.688318
 31
0.0
  0
LINE
  8
0
 10
879.09381
 20
327.688318
 30
0.0
 11
879.176446
 21
327.663487
 31
0.0
  0
LINE
  8
0
 10
879.176446
 20
327.663487
 30
0.0
 11
879.256898
 21
327.628923
 31
0.0
  0
LINE
  8
0
 10
879.256898
 20
327.628923
 30
0.0
 11
879.333774
 21
327.590584
 31
0.0
  0
LINE
  8
0
 10
879.333774
 20
327.590584
 30
0.0
 11
879.408664
 21
327.542512
 31
0.0
  0
LINE
  8
0
 10
879.408664
 20
327.542512
 30
0.0
 11
879.477594
 21
327.490665
 31
0.0
  0
LINE
  8
0
 10
879.477594
 20
327.490665
 30
0.0
 11
879.540962
 21
327.43127
 31
0.0
  0
LINE
  8
0
 10
879.540962
 20
327.43127
 30
0.0
 11
880.404676
 21
326.567556
 31
0.0
  0
LINE
  8
0
 10
880.444803
 20
326.523457
 30
0.0
 11
880.479367
 21
326.473597
 31
0.0
  0
LINE
  8
0
 10
880.479367
 20
326.473597
 30
0.0
 11
880.444803
 21
326.523457
 31
0.0
  0
LINE
  8
0
 10
880.479367
 20
326.473597
 30
0.0
 11
880.506383
 21
326.419763
 31
0.0
  0
LINE
  8
0
 10
880.506383
 20
326.419763
 30
0.0
 11
880.479367
 21
326.473597
 31
0.0
  0
LINE
  8
0
 10
880.506383
 20
326.419763
 30
0.0
 11
880.527439
 21
326.364143
 31
0.0
  0
LINE
  8
0
 10
880.527439
 20
326.364143
 30
0.0
 11
880.506383
 21
326.419763
 31
0.0
  0
LINE
  8
0
 10
880.527439
 20
326.364143
 30
0.0
 11
880.542735
 21
326.304747
 31
0.0
  0
LINE
  8
0
 10
880.542735
 20
326.304747
 30
0.0
 11
880.527439
 21
326.364143
 31
0.0
  0
LINE
  8
0
 10
880.542735
 20
326.304747
 30
0.0
 11
880.550482
 21
326.245153
 31
0.0
  0
LINE
  8
0
 10
880.550482
 20
326.245153
 30
0.0
 11
880.542735
 21
326.304747
 31
0.0
  0
LINE
  8
0
 10
880.550482
 20
326.245153
 30
0.0
 11
880.550482
 21
326.185758
 31
0.0
  0
LINE
  8
0
 10
880.550482
 20
326.185758
 30
0.0
 11
880.550482
 21
326.245153
 31
0.0
  0
LINE
  8
0
 10
880.550482
 20
326.185758
 30
0.0
 11
880.542735
 21
326.126164
 31
0.0
  0
LINE
  8
0
 10
880.542735
 20
326.126164
 30
0.0
 11
880.550482
 21
326.185758
 31
0.0
  0
LINE
  8
0
 10
880.542735
 20
326.126164
 30
0.0
 11
880.527439
 21
326.066769
 31
0.0
  0
LINE
  8
0
 10
880.527439
 20
326.066769
 30
0.0
 11
880.542735
 21
326.126164
 31
0.0
  0
LINE
  8
0
 10
880.527439
 20
326.066769
 30
0.0
 11
880.506383
 21
326.011148
 31
0.0
  0
LINE
  8
0
 10
880.506383
 20
326.011148
 30
0.0
 11
880.527439
 21
326.066769
 31
0.0
  0
LINE
  8
0
 10
880.506383
 20
326.011148
 30
0.0
 11
880.479367
 21
325.957315
 31
0.0
  0
LINE
  8
0
 10
880.479367
 20
325.957315
 30
0.0
 11
880.506383
 21
326.011148
 31
0.0
  0
LINE
  8
0
 10
880.479367
 20
325.957315
 30
0.0
 11
880.444803
 21
325.907455
 31
0.0
  0
LINE
  8
0
 10
880.444803
 20
325.907455
 30
0.0
 11
880.479367
 21
325.957315
 31
0.0
  0
LINE
  8
0
 10
880.444803
 20
325.907455
 30
0.0
 11
880.404676
 21
325.863355
 31
0.0
  0
LINE
  8
0
 10
880.404676
 20
325.863355
 30
0.0
 11
880.444803
 21
325.907455
 31
0.0
  0
LINE
  8
0
 10
880.404676
 20
325.863355
 30
0.0
 11
880.35859
 21
325.82303
 31
0.0
  0
LINE
  8
0
 10
880.35859
 20
325.82303
 30
0.0
 11
880.404676
 21
325.863355
 31
0.0
  0
LINE
  8
0
 10
880.35859
 20
325.82303
 30
0.0
 11
880.310518
 21
325.788466
 31
0.0
  0
LINE
  8
0
 10
880.310518
 20
325.788466
 30
0.0
 11
880.35859
 21
325.82303
 31
0.0
  0
LINE
  8
0
 10
880.310518
 20
325.788466
 30
0.0
 11
880.256883
 21
325.759662
 31
0.0
  0
LINE
  8
0
 10
880.256883
 20
325.759662
 30
0.0
 11
880.310518
 21
325.788466
 31
0.0
  0
LINE
  8
0
 10
880.256883
 20
325.759662
 30
0.0
 11
880.199276
 21
325.738606
 31
0.0
  0
LINE
  8
0
 10
880.199276
 20
325.738606
 30
0.0
 11
880.256883
 21
325.759662
 31
0.0
  0
LINE
  8
0
 10
880.199276
 20
325.738606
 30
0.0
 11
880.141668
 21
325.725098
 31
0.0
  0
LINE
  8
0
 10
880.141668
 20
325.725098
 30
0.0
 11
880.199276
 21
325.738606
 31
0.0
  0
LINE
  8
0
 10
880.141668
 20
325.725098
 30
0.0
 11
880.082273
 21
325.71735
 31
0.0
  0
LINE
  8
0
 10
880.082273
 20
325.71735
 30
0.0
 11
880.141668
 21
325.725098
 31
0.0
  0
LINE
  8
0
 10
880.082273
 20
325.71735
 30
0.0
 11
880.020693
 21
325.71735
 31
0.0
  0
LINE
  8
0
 10
880.020693
 20
325.71735
 30
0.0
 11
880.082273
 21
325.71735
 31
0.0
  0
LINE
  8
0
 10
880.020693
 20
325.71735
 30
0.0
 11
879.961298
 21
325.725098
 31
0.0
  0
LINE
  8
0
 10
879.961298
 20
325.725098
 30
0.0
 11
880.020693
 21
325.71735
 31
0.0
  0
LINE
  8
0
 10
879.961298
 20
325.725098
 30
0.0
 11
879.90369
 21
325.738606
 31
0.0
  0
LINE
  8
0
 10
879.90369
 20
325.738606
 30
0.0
 11
879.961298
 21
325.725098
 31
0.0
  0
LINE
  8
0
 10
879.90369
 20
325.738606
 30
0.0
 11
879.846083
 21
325.759662
 31
0.0
  0
LINE
  8
0
 10
879.846083
 20
325.759662
 30
0.0
 11
879.90369
 21
325.738606
 31
0.0
  0
LINE
  8
0
 10
879.846083
 20
325.759662
 30
0.0
 11
879.794236
 21
325.788466
 31
0.0
  0
LINE
  8
0
 10
879.794236
 20
325.788466
 30
0.0
 11
879.846083
 21
325.759662
 31
0.0
  0
LINE
  8
0
 10
879.794236
 20
325.788466
 30
0.0
 11
879.744376
 21
325.82303
 31
0.0
  0
LINE
  8
0
 10
879.744376
 20
325.82303
 30
0.0
 11
879.794236
 21
325.788466
 31
0.0
  0
LINE
  8
0
 10
879.744376
 20
325.82303
 30
0.0
 11
879.69829
 21
325.863355
 31
0.0
  0
LINE
  8
0
 10
879.69829
 20
325.863355
 30
0.0
 11
879.744376
 21
325.82303
 31
0.0
  0
LINE
  8
0
 10
879.69829
 20
325.863355
 30
0.0
 11
878.836761
 21
326.724884
 31
0.0
  0
LINE
  8
0
 10
878.836761
 20
326.724884
 30
0.0
 11
879.69829
 21
325.863355
 31
0.0
  0
LINE
  8
0
 10
880.210797
 20
325.529431
 30
0.0
 11
878.337762
 21
325.529431
 31
0.0
  0
LINE
  8
0
 10
878.337762
 20
325.529431
 30
0.0
 11
878.337762
 21
326.226083
 31
0.0
  0
LINE
  8
0
 10
878.337762
 20
326.226083
 30
0.0
 11
878.836761
 21
326.724884
 31
0.0
  0
LINE
  8
0
 10
878.836761
 20
326.724884
 30
0.0
 11
878.337762
 21
326.226083
 31
0.0
  0
LINE
  8
0
 10
878.337762
 20
326.226083
 30
0.0
 11
878.337762
 21
325.529431
 31
0.0
  0
LINE
  8
0
 10
878.337762
 20
325.529431
 30
0.0
 11
880.210797
 21
325.529431
 31
0.0
  0
LINE
  8
0
 10
880.210797
 20
325.529431
 30
0.0
 11
884.768536
 21
330.085382
 31
0.0
  0
LINE
  8
0
 10
884.768536
 20
330.085382
 30
0.0
 11
880.210797
 21
325.529431
 31
0.0
  0
LINE
  8
0
 10
880.916985
 20
324.531433
 30
0.0
 11
878.337762
 21
324.531433
 31
0.0
  0
LINE
  8
0
 10
878.337762
 20
324.531433
 30
0.0
 11
880.916985
 21
324.531433
 31
0.0
  0
LINE
  8
0
 10
881.623172
 20
324.823244
 30
0.0
 11
885.388511
 21
328.588384
 31
0.0
  0
LINE
  8
0
 10
885.388511
 20
328.588384
 30
0.0
 11
881.623172
 21
324.823244
 31
0.0
  0
LINE
  8
0
 10
877.339764
 20
325.529431
 30
0.0
 11
877.339764
 21
326.640459
 31
0.0
  0
LINE
  8
0
 10
877.339764
 20
326.640459
 30
0.0
 11
877.339764
 21
325.529431
 31
0.0
  0
LINE
  8
0
 10
877.339764
 20
337.089348
 30
0.0
 11
878.130376
 21
336.298737
 31
0.0
  0
LINE
  8
0
 10
878.130376
 20
336.298737
 30
0.0
 11
877.339764
 21
337.089348
 31
0.0
  0
LINE
  8
0
 10
877.339764
 20
337.089348
 30
0.0
 11
877.339764
 21
338.200575
 31
0.0
  0
LINE
  8
0
 10
877.339764
 20
338.200575
 30
0.0
 11
877.339764
 21
337.089348
 31
0.0
  0
LINE
  8
0
 10
878.337762
 20
337.503923
 30
0.0
 11
878.337762
 21
338.200575
 31
0.0
  0
LINE
  8
0
 10
878.337762
 20
338.200575
 30
0.0
 11
880.210797
 21
338.200575
 31
0.0
  0
LINE
  8
0
 10
880.210797
 20
338.200575
 30
0.0
 11
884.768536
 21
333.644625
 31
0.0
  0
LINE
  8
0
 10
880.210797
 20
338.200575
 30
0.0
 11
878.337762
 21
338.200575
 31
0.0
  0
LINE
  8
0
 10
878.337762
 20
338.200575
 30
0.0
 11
878.337762
 21
337.503923
 31
0.0
  0
LINE
  8
0
 10
878.337762
 20
337.503923
 30
0.0
 11
878.836761
 21
337.004924
 31
0.0
  0
LINE
  8
0
 10
878.836761
 20
337.004924
 30
0.0
 11
878.337762
 21
337.503923
 31
0.0
  0
LINE
  8
0
 10
878.836761
 20
337.004924
 30
0.0
 11
879.69829
 21
337.866651
 31
0.0
  0
LINE
  8
0
 10
879.69829
 20
337.866651
 30
0.0
 11
878.836761
 21
337.004924
 31
0.0
  0
LINE
  8
0
 10
879.540962
 20
336.298737
 30
0.0
 11
880.404676
 21
337.162252
 31
0.0
  0
LINE
  8
0
 10
880.404676
 20
337.162252
 30
0.0
 11
879.540962
 21
336.298737
 31
0.0
  0
LINE
  8
0
 10
878.337762
 20
339.198375
 30
0.0
 11
880.916985
 21
339.198375
 31
0.0
  0
LINE
  8
0
 10
880.916985
 20
339.198375
 30
0.0
 11
878.337762
 21
339.198375
 31
0.0
  0
LINE
  8
0
 10
881.623172
 20
338.906763
 30
0.0
 11
885.388511
 21
335.141424
 31
0.0
  0
LINE
  8
0
 10
885.388511
 20
335.141424
 30
0.0
 11
881.623172
 21
338.906763
 31
0.0
  0
LINE
  8
0
 10
887.152092
 20
334.291974
 30
0.0
 11
920.029827
 21
334.30721
 31
0.0
  0
LINE
  8
0
 10
920.029827
 20
334.30721
 30
0.0
 11
887.152092
 21
334.291974
 31
0.0
  0
LINE
  8
0
 10
886.532316
 20
332.821827
 30
0.0
 11
891.306976
 21
332.810411
 31
0.0
  0
LINE
  8
0
 10
891.306976
 20
332.810411
 30
0.0
 11
886.532316
 21
332.821827
 31
0.0
  0
LINE
  8
0
 10
886.532316
 20
330.8164
 30
0.0
 11
891.306976
 21
330.8164
 31
0.0
  0
LINE
  8
0
 10
891.306976
 20
330.8164
 30
0.0
 11
886.532316
 21
330.8164
 31
0.0
  0
LINE
  8
0
 10
887.152092
 20
329.319601
 30
0.0
 11
920.029827
 21
329.319601
 31
0.0
  0
LINE
  8
0
 10
920.029827
 20
329.319601
 30
0.0
 11
887.152092
 21
329.319601
 31
0.0
  0
LINE
  8
0
 10
923.157909
 20
330.97194
 30
0.0
 11
923.157716
 21
330.971829
 31
0.0
  0
LINE
  8
0
 10
923.157716
 20
330.971829
 30
0.0
 11
923.157909
 21
330.97194
 31
0.0
  0
LINE
  8
0
 10
929.639764
 20
387.490674
 30
0.0
 11
928.296481
 21
387.727531
 31
0.0
  0
LINE
  8
0
 10
931.039764
 20
276.782136
 30
0.0
 11
931.500236
 21
276.863329
 31
0.0
  0
LINE
  8
0
 10
929.639764
 20
278.562457
 30
0.0
 11
927.866115
 21
278.249715
 31
0.0
  0
LINE
  8
0
 10
932.739764
 20
296.864907
 30
0.0
 11
924.239764
 21
296.864907
 31
0.0
  0
LINE
  8
0
 10
932.739764
 20
319.364907
 30
0.0
 11
931.239764
 21
319.312526
 31
0.0
  0
LINE
  8
0
 10
931.239764
 20
320.417289
 30
0.0
 11
932.739764
 21
320.364907
 31
0.0
  0
LINE
  8
0
 10
932.739764
 20
320.364907
 30
0.0
 11
932.739764
 21
319.364907
 31
0.0
  0
LINE
  8
0
 10
931.239764
 20
319.312526
 30
0.0
 11
927.739764
 21
319.190304
 31
0.0
  0
LINE
  8
0
 10
927.739764
 20
320.539511
 30
0.0
 11
931.239764
 21
320.417289
 31
0.0
  0
LINE
  8
0
 10
927.739764
 20
319.190304
 30
0.0
 11
924.669965
 21
319.083104
 31
0.0
  0
LINE
  8
0
 10
922.739764
 20
331.864907
 30
0.0
 11
922.739764
 21
322.645493
 31
0.0
  0
LINE
  8
0
 10
927.739764
 20
320.539511
 30
0.0
 11
927.739764
 21
319.190304
 31
0.0
  0
LINE
  8
0
 10
924.669965
 20
320.646711
 30
0.0
 11
927.739764
 21
320.539511
 31
0.0
  0
LINE
  8
0
 10
931.239764
 20
343.312526
 30
0.0
 11
931.239764
 21
320.417289
 31
0.0
  0
LINE
  8
0
 10
931.239764
 20
344.417289
 30
0.0
 11
932.739764
 21
344.364907
 31
0.0
  0
LINE
  8
0
 10
932.739764
 20
344.364907
 30
0.0
 11
932.739764
 21
343.364907
 31
0.0
  0
LINE
  8
0
 10
932.739764
 20
343.364907
 30
0.0
 11
931.239764
 21
343.312526
 31
0.0
  0
LINE
  8
0
 10
932.739764
 20
320.364907
 30
0.0
 11
932.739764
 21
343.364907
 31
0.0
  0
LINE
  8
0
 10
927.739764
 20
344.539511
 30
0.0
 11
931.239764
 21
344.417289
 31
0.0
  0
LINE
  8
0
 10
931.239764
 20
343.312526
 30
0.0
 11
927.739764
 21
343.190304
 31
0.0
  0
LINE
  8
0
 10
922.739764
 20
341.084322
 30
0.0
 11
922.739764
 21
331.864907
 31
0.0
  0
LINE
  8
0
 10
924.669965
 20
344.646711
 30
0.0
 11
927.739764
 21
344.539511
 31
0.0
  0
LINE
  8
0
 10
927.739764
 20
344.539511
 30
0.0
 11
927.739764
 21
343.190304
 31
0.0
  0
LINE
  8
0
 10
927.739764
 20
343.190304
 30
0.0
 11
924.669965
 21
343.083104
 31
0.0
  0
LINE
  8
0
 10
922.739764
 20
362.584322
 30
0.0
 11
922.739764
 21
346.645493
 31
0.0
  0
LINE
  8
0
 10
924.739764
 20
365.763625
 30
0.0
 11
924.739764
 21
365.203716
 31
0.0
  0
LINE
  8
0
 10
924.839764
 20
365.030511
 30
0.0
 11
925.560813
 21
364.614213
 31
0.0
  0
LINE
  8
0
 10
925.560813
 20
364.614213
 30
0.0
 11
924.669965
 21
364.583104
 31
0.0
  0
LINE
  8
0
 10
925.761859
 20
366.457063
 30
0.0
 11
927.739764
 21
365.927085
 31
0.0
  0
LINE
  8
0
 10
932.739764
 20
344.364907
 30
0.0
 11
932.739764
 21
364.864907
 31
0.0
  0
LINE
  8
0
 10
932.739764
 20
364.864907
 30
0.0
 11
931.239764
 21
364.812526
 31
0.0
  0
LINE
  8
0
 10
931.239764
 20
364.812526
 30
0.0
 11
931.239764
 21
344.417289
 31
0.0
  0
LINE
  8
0
 10
931.239764
 20
364.812526
 30
0.0
 11
924.669965
 21
364.583104
 31
0.0
  0
LINE
  8
0
 10
932.739764
 20
365.927085
 30
0.0
 11
927.739764
 21
365.927085
 31
0.0
  0
LINE
  8
0
 10
932.739764
 20
365.927085
 30
0.0
 11
932.739764
 21
361.864907
 31
0.0
  0
LINE
  8
0
 10
932.739764
 20
366.864907
 30
0.0
 11
932.739764
 21
365.927085
 31
0.0
  0
LINE
  8
0
 10
924.239764
 20
366.864907
 30
0.0
 11
925.761859
 21
366.457063
 31
0.0
  0
LINE
  8
0
 10
924.239764
 20
366.864907
 30
0.0
 11
932.739764
 21
366.864907
 31
0.0
  0
LINE
  8
0
 10
924.239764
 20
368.641187
 30
0.0
 11
924.239764
 21
366.864907
 31
0.0
  0
LINE
  8
0
 10
926.639764
 20
381.464907
 30
0.0
 11
926.639764
 21
368.641187
 31
0.0
  0
LINE
  8
0
 10
924.239764
 20
381.464907
 30
0.0
 11
924.239764
 21
368.641187
 31
0.0
  0
LINE
  8
0
 10
930.739764
 20
382.664907
 30
0.0
 11
925.439764
 21
382.664907
 31
0.0
  0
LINE
  8
0
 10
931.039764
 20
382.964907
 30
0.0
 11
931.039764
 21
384.66877
 31
0.0
  0
LINE
  8
0
 10
932.739764
 20
385.685411
 30
0.0
 11
932.739764
 21
366.864907
 31
0.0
  0
LINE
  8
0
 10
931.500236
 20
387.162623
 30
0.0
 11
931.039764
 21
387.243817
 31
0.0
  0
LINE
  8
0
 10
927.866115
 20
385.776237
 30
0.0
 11
929.639764
 21
385.463495
 31
0.0
  0
LINE
  8
0
 10
922.739764
 20
317.084322
 30
0.0
 11
922.739764
 21
301.145493
 31
0.0
  0
LINE
  8
0
 10
932.739764
 20
298.864907
 30
0.0
 11
932.739764
 21
319.364907
 31
0.0
  0
LINE
  8
0
 10
931.239764
 20
319.312526
 30
0.0
 11
931.239764
 21
298.917289
 31
0.0
  0
LINE
  8
0
 10
932.739764
 20
301.864907
 30
0.0
 11
932.739764
 21
297.80273
 31
0.0
  0
LINE
  8
0
 10
932.739764
 20
297.80273
 30
0.0
 11
932.739764
 21
296.864907
 31
0.0
  0
LINE
  8
0
 10
931.239764
 20
298.917289
 30
0.0
 11
932.739764
 21
298.864907
 31
0.0
  0
LINE
  8
0
 10
927.739764
 20
297.80273
 30
0.0
 11
932.739764
 21
297.80273
 31
0.0
  0
LINE
  8
0
 10
924.669965
 20
299.146711
 30
0.0
 11
931.239764
 21
298.917289
 31
0.0
  0
LINE
  8
0
 10
924.739764
 20
298.526099
 30
0.0
 11
924.739764
 21
297.96619
 31
0.0
  0
LINE
  8
0
 10
925.560813
 20
299.115602
 30
0.0
 11
924.839764
 21
298.699304
 31
0.0
  0
LINE
  8
0
 10
924.669965
 20
299.146711
 30
0.0
 11
925.560813
 21
299.115602
 31
0.0
  0
LINE
  8
0
 10
927.739764
 20
297.80273
 30
0.0
 11
925.761859
 21
297.272752
 31
0.0
  0
LINE
  8
0
 10
926.639764
 20
295.088628
 30
0.0
 11
926.639764
 21
282.264907
 31
0.0
  0
LINE
  8
0
 10
924.239764
 20
295.088628
 30
0.0
 11
924.239764
 21
282.264907
 31
0.0
  0
LINE
  8
0
 10
924.239764
 20
296.864907
 30
0.0
 11
924.239764
 21
295.088628
 31
0.0
  0
LINE
  8
0
 10
925.761859
 20
297.272752
 30
0.0
 11
924.239764
 21
296.864907
 31
0.0
  0
LINE
  8
0
 10
925.439764
 20
281.064907
 30
0.0
 11
930.739764
 21
281.064907
 31
0.0
  0
LINE
  8
0
 10
931.039764
 20
279.061045
 30
0.0
 11
931.039764
 21
280.764907
 31
0.0
  0
LINE
  8
0
 10
932.739764
 20
296.864907
 30
0.0
 11
932.739764
 21
278.340541
 31
0.0
  0
LINE
  8
0
 10
928.296481
 20
276.298421
 30
0.0
 11
929.639764
 21
276.535278
 31
0.0
  0
LINE
  8
0
 10
928.514893
 20
395.164907
 30
0.0
 11
931.839764
 21
395.164907
 31
0.0
  0
LINE
  8
0
 10
933.339764
 20
393.664907
 30
0.0
 11
933.339764
 21
331.864907
 31
0.0
  0
LINE
  8
0
 10
935.039764
 20
331.864907
 30
0.0
 11
935.039764
 21
394.864907
 31
0.0
  0
LINE
  8
0
 10
933.039764
 20
396.864907
 30
0.0
 11
926.539764
 21
396.864907
 31
0.0
  0
LINE
  8
0
 10
925.06752
 20
394.314907
 30
0.0
 11
925.500533
 21
393.564907
 31
0.0
  0
LINE
  8
0
 10
926.886174
 20
393.564907
 30
0.0
 11
927.736174
 21
395.037151
 31
0.0
  0
LINE
  8
0
 10
926.870148
 20
395.537151
 30
0.0
 11
926.366559
 21
394.664907
 31
0.0
  0
LINE
  8
0
 10
926.020148
 20
394.664907
 30
0.0
 11
925.933546
 21
394.814907
 31
0.0
  0
LINE
  8
0
 10
926.539764
 20
395.864907
 30
0.0
 11
927.302457
 21
395.864907
 31
0.0
  0
LINE
  8
0
 10
927.302457
 20
395.864907
 30
0.0
 11
928.514893
 21
395.164907
 31
0.0
  0
LINE
  8
0
 10
931.839764
 20
268.564907
 30
0.0
 11
928.514893
 21
268.564907
 31
0.0
  0
LINE
  8
0
 10
933.339764
 20
331.864907
 30
0.0
 11
933.339764
 21
270.064907
 31
0.0
  0
LINE
  8
0
 10
935.039764
 20
268.864907
 30
0.0
 11
935.039764
 21
331.864907
 31
0.0
  0
LINE
  8
0
 10
926.539764
 20
266.864907
 30
0.0
 11
933.039764
 21
266.864907
 31
0.0
  0
LINE
  8
0
 10
927.736174
 20
268.692664
 30
0.0
 11
926.886174
 21
270.164907
 31
0.0
  0
LINE
  8
0
 10
926.366559
 20
269.064907
 30
0.0
 11
926.870148
 21
268.192664
 31
0.0
  0
LINE
  8
0
 10
925.933546
 20
268.914907
 30
0.0
 11
926.020148
 21
269.064907
 31
0.0
  0
LINE
  8
0
 10
927.302457
 20
267.864907
 30
0.0
 11
926.539764
 21
267.864907
 31
0.0
  0
LINE
  8
0
 10
928.514893
 20
268.564907
 30
0.0
 11
927.302457
 21
267.864907
 31
0.0
  0
LINE
  8
0
 10
835.039764
 20
436.864907
 30
0.0
 11
855.039764
 21
436.864907
 31
0.0
  0
LINE
  8
0
 10
929.139764
 20
389.464907
 30
0.0
 11
926.939764
 21
389.464907
 31
0.0
  0
LINE
  8
0
 10
929.639764
 20
385.064907
 30
0.0
 11
929.639764
 21
388.964907
 31
0.0
  0
LINE
  8
0
 10
929.639764
 20
278.562457
 30
0.0
 11
929.639764
 21
276.535278
 31
0.0
  0
LINE
  8
0
 10
931.039764
 20
278.764907
 30
0.0
 11
931.039764
 21
276.782136
 31
0.0
  0
LINE
  8
0
 10
929.639764
 20
278.562457
 30
0.0
 11
929.639764
 21
278.664907
 31
0.0
  0
LINE
  8
0
 10
877.339764
 20
298.364907
 30
0.0
 11
877.339764
 21
271.164907
 31
0.0
  0
LINE
  8
0
 10
877.339764
 20
328.364907
 30
0.0
 11
877.339764
 21
305.364907
 31
0.0
  0
LINE
  8
0
 10
877.339764
 20
358.364907
 30
0.0
 11
877.339764
 21
335.364907
 31
0.0
  0
LINE
  8
0
 10
877.339764
 20
392.564907
 30
0.0
 11
877.339764
 21
365.364907
 31
0.0
  0
LINE
  8
0
 10
878.339764
 20
359.364907
 30
0.0
 11
882.349814
 21
359.364907
 31
0.0
  0
LINE
  8
0
 10
878.239764
 20
360.964907
 30
0.0
 11
882.02555
 21
360.964907
 31
0.0
  0
LINE
  8
0
 10
883.08621
 20
358.404247
 30
0.0
 11
881.193317
 21
356.511354
 31
0.0
  0
LINE
  8
0
 10
880.339764
 20
356.864907
 30
0.0
 11
880.339764
 21
358.864907
 31
0.0
  0
LINE
  8
0
 10
881.193317
 20
359.218461
 30
0.0
 11
881.698342
 21
358.713436
 31
0.0
  0
LINE
  8
0
 10
881.698342
 20
358.713436
 30
0.0
 11
882.349814
 21
359.364907
 31
0.0
  0
LINE
  8
0
 10
882.349814
 20
364.364907
 30
0.0
 11
878.339764
 21
364.364907
 31
0.0
  0
LINE
  8
0
 10
882.02555
 20
362.764907
 30
0.0
 11
878.239764
 21
362.764907
 31
0.0
  0
LINE
  8
0
 10
881.193317
 20
367.218461
 30
0.0
 11
883.08621
 21
365.325568
 31
0.0
  0
LINE
  8
0
 10
880.339764
 20
364.864907
 30
0.0
 11
880.339764
 21
366.864907
 31
0.0
  0
LINE
  8
0
 10
881.698342
 20
365.016379
 30
0.0
 11
881.193317
 21
364.511354
 31
0.0
  0
LINE
  8
0
 10
882.349814
 20
364.364907
 30
0.0
 11
881.698342
 21
365.016379
 31
0.0
  0
LINE
  8
0
 10
878.339764
 20
299.364907
 30
0.0
 11
882.349814
 21
299.364907
 31
0.0
  0
LINE
  8
0
 10
878.239764
 20
300.964907
 30
0.0
 11
882.02555
 21
300.964907
 31
0.0
  0
LINE
  8
0
 10
883.08621
 20
298.404247
 30
0.0
 11
881.193317
 21
296.511354
 31
0.0
  0
LINE
  8
0
 10
880.339764
 20
296.864907
 30
0.0
 11
880.339764
 21
298.864907
 31
0.0
  0
LINE
  8
0
 10
881.193317
 20
299.218461
 30
0.0
 11
881.698342
 21
298.713436
 31
0.0
  0
LINE
  8
0
 10
881.698342
 20
298.713436
 30
0.0
 11
882.349814
 21
299.364907
 31
0.0
  0
LINE
  8
0
 10
882.349814
 20
304.364907
 30
0.0
 11
878.339764
 21
304.364907
 31
0.0
  0
LINE
  8
0
 10
882.02555
 20
302.764907
 30
0.0
 11
878.239764
 21
302.764907
 31
0.0
  0
LINE
  8
0
 10
881.193317
 20
307.218461
 30
0.0
 11
883.08621
 21
305.325568
 31
0.0
  0
LINE
  8
0
 10
880.339764
 20
304.864907
 30
0.0
 11
880.339764
 21
306.864907
 31
0.0
  0
LINE
  8
0
 10
881.698342
 20
305.016379
 30
0.0
 11
881.193317
 21
304.511354
 31
0.0
  0
LINE
  8
0
 10
882.349814
 20
304.364907
 30
0.0
 11
881.698342
 21
305.016379
 31
0.0
  0
LINE
  8
0
 10
875.039764
 20
268.864907
 30
0.0
 11
875.039764
 21
394.864907
 31
0.0
  0
LINE
  8
0
 10
922.385063
 20
266.864907
 30
0.0
 11
877.039764
 21
266.864907
 31
0.0
  0
LINE
  8
0
 10
925.039764
 20
389.666831
 30
0.0
 11
925.039764
 21
384.164907
 31
0.0
  0
LINE
  8
0
 10
922.789208
 20
393.564907
 30
0.0
 11
925.039764
 21
389.666831
 31
0.0
  0
LINE
  8
0
 10
925.039764
 20
274.062984
 30
0.0
 11
925.039764
 21
279.564907
 31
0.0
  0
LINE
  8
0
 10
922.789208
 20
270.164907
 30
0.0
 11
925.039764
 21
274.062984
 31
0.0
  0
LINE
  8
0
 10
926.71519
 20
391.364907
 30
0.0
 11
924.117114
 21
395.864907
 31
0.0
  0
LINE
  8
0
 10
927.588434
 20
390.864907
 30
0.0
 11
927.581216
 21
390.864907
 31
0.0
  0
LINE
  8
0
 10
924.117114
 20
267.864907
 30
0.0
 11
926.71519
 21
272.364907
 31
0.0
  0
LINE
  8
0
 10
931.039764
 20
278.764907
 30
0.0
 11
931.039764
 21
279.564907
 31
0.0
  0
LINE
  8
0
 10
931.039764
 20
384.164907
 30
0.0
 11
931.039764
 21
388.964907
 31
0.0
  0
LINE
  8
0
 10
926.439764
 20
388.964907
 30
0.0
 11
926.439764
 21
385.064907
 31
0.0
  0
LINE
  8
0
 10
926.939764
 20
384.564907
 30
0.0
 11
929.139764
 21
384.564907
 31
0.0
  0
LINE
  8
0
 10
926.039764
 20
383.164907
 30
0.0
 11
930.039764
 21
383.164907
 31
0.0
  0
LINE
  8
0
 10
927.588434
 20
390.864907
 30
0.0
 11
931.139764
 21
390.864907
 31
0.0
  0
LINE
  8
0
 10
931.639764
 20
391.364907
 30
0.0
 11
931.639764
 21
391.664907
 31
0.0
  0
LINE
  8
0
 10
933.039764
 20
391.664907
 30
0.0
 11
933.039764
 21
389.964907
 31
0.0
  0
LINE
  8
0
 10
932.539764
 20
389.464907
 30
0.0
 11
931.539764
 21
389.464907
 31
0.0
  0
LINE
  8
0
 10
879.339764
 20
394.564907
 30
0.0
 11
921.057157
 21
394.564907
 31
0.0
  0
LINE
  8
0
 10
877.039764
 20
396.864907
 30
0.0
 11
922.385063
 21
396.864907
 31
0.0
  0
LINE
  8
0
 10
926.439764
 20
274.764907
 30
0.0
 11
926.439764
 21
278.664907
 31
0.0
  0
LINE
  8
0
 10
929.139764
 20
279.164907
 30
0.0
 11
926.939764
 21
279.164907
 31
0.0
  0
LINE
  8
0
 10
929.639764
 20
274.764907
 30
0.0
 11
929.639764
 21
276.535278
 31
0.0
  0
LINE
  8
0
 10
930.039764
 20
280.564907
 30
0.0
 11
926.039764
 21
280.564907
 31
0.0
  0
LINE
  8
0
 10
931.039764
 20
274.764907
 30
0.0
 11
931.039764
 21
276.782136
 31
0.0
  0
LINE
  8
0
 10
931.139764
 20
272.864907
 30
0.0
 11
927.581216
 21
272.864907
 31
0.0
  0
LINE
  8
0
 10
931.639764
 20
272.064907
 30
0.0
 11
931.639764
 21
272.364907
 31
0.0
  0
LINE
  8
0
 10
929.539764
 20
268.564907
 30
0.0
 11
928.939764
 21
268.564907
 31
0.0
  0
LINE
  8
0
 10
933.039764
 20
273.764907
 30
0.0
 11
933.039764
 21
272.064907
 31
0.0
  0
LINE
  8
0
 10
931.539764
 20
274.264907
 30
0.0
 11
932.539764
 21
274.264907
 31
0.0
  0
LINE
  8
0
 10
929.139764
 20
274.264907
 30
0.0
 11
926.939764
 21
274.264907
 31
0.0
  0
LINE
  8
0
 10
878.339764
 20
329.364907
 30
0.0
 11
882.349814
 21
329.364907
 31
0.0
  0
LINE
  8
0
 10
878.239764
 20
330.964907
 30
0.0
 11
882.02555
 21
330.964907
 31
0.0
  0
LINE
  8
0
 10
883.08621
 20
328.404247
 30
0.0
 11
881.193317
 21
326.511354
 31
0.0
  0
LINE
  8
0
 10
880.339764
 20
326.864907
 30
0.0
 11
880.339764
 21
328.864907
 31
0.0
  0
LINE
  8
0
 10
881.193317
 20
329.218461
 30
0.0
 11
881.698342
 21
328.713436
 31
0.0
  0
LINE
  8
0
 10
881.698342
 20
328.713436
 30
0.0
 11
882.349814
 21
329.364907
 31
0.0
  0
LINE
  8
0
 10
882.349814
 20
334.364907
 30
0.0
 11
878.339764
 21
334.364907
 31
0.0
  0
LINE
  8
0
 10
882.02555
 20
332.764907
 30
0.0
 11
878.239764
 21
332.764907
 31
0.0
  0
LINE
  8
0
 10
881.193317
 20
337.218461
 30
0.0
 11
883.08621
 21
335.325568
 31
0.0
  0
LINE
  8
0
 10
880.339764
 20
334.864907
 30
0.0
 11
880.339764
 21
336.864907
 31
0.0
  0
LINE
  8
0
 10
881.698342
 20
335.016379
 30
0.0
 11
881.193317
 21
334.511354
 31
0.0
  0
LINE
  8
0
 10
882.349814
 20
334.364907
 30
0.0
 11
881.698342
 21
335.016379
 31
0.0
  0
LINE
  8
0
 10
879.339764
 20
269.164907
 30
0.0
 11
921.057157
 21
269.164907
 31
0.0
  0
LINE
  8
0
 10
929.539764
 20
269.964907
 30
0.0
 11
928.939764
 21
269.964907
 31
0.0
  0
LINE
  8
0
 10
929.539764
 20
395.164907
 30
0.0
 11
928.939764
 21
395.164907
 31
0.0
  0
LINE
  8
0
 10
929.539764
 20
393.764907
 30
0.0
 11
928.939764
 21
393.764907
 31
0.0
  0
LINE
  8
0
 10
925.500533
 20
270.164907
 30
0.0
 11
925.06752
 21
269.414907
 31
0.0
  0
LINE
  8
0
 10
935.039764
 20
436.864907
 30
0.0
 11
935.039764
 21
416.864907
 31
0.0
  0
LINE
  8
0
 10
935.039764
 20
436.864907
 30
0.0
 11
955.039764
 21
436.864907
 31
0.0
  0
LINE
  8
0
 10
935.039764
 20
416.864907
 30
0.0
 11
875.039764
 21
416.864907
 31
0.0
  0
LINE
  8
0
 10
875.039764
 20
416.864907
 30
0.0
 11
875.039764
 21
262.764907
 31
0.0
  0
LINE
  8
0
 10
875.039764
 20
262.764907
 30
0.0
 11
855.039764
 21
262.764907
 31
0.0
  0
LINE
  8
0
 10
855.039764
 20
262.764907
 30
0.0
 11
855.039764
 21
436.864907
 31
0.0
  0
LINE
  8
0
 10
855.039764
 20
436.864907
 30
0.0
 11
935.039764
 21
436.864907
 31
0.0
  0
ARC
  8
0
 10
927.739764
 20
361.864907
 30
0.0
 40
5.0
 50
113.302207
 51
125.685335
  0
ARC
  8
0
 10
925.439764
 20
368.641187
 30
0.0
 40
1.2
 50
270.0
 51
0.0
  0
ARC
  8
0
 10
925.439764
 20
381.464907
 30
0.0
 40
1.2
 50
90.0
 51
180.0
  0
ARC
  8
0
 10
925.439764
 20
381.464907
 30
0.0
 40
1.2
 50
0.0
 51
90.0
  0
ARC
  8
0
 10
928.039764
 20
386.761045
 30
0.0
 40
1.0
 50
75.124638
 51
260.0
  0
ARC
  8
0
 10
928.039764
 20
386.761045
 30
0.0
 40
1.0
 50
260.0
 51
75.124638
  0
ARC
  8
0
 10
927.739764
 20
301.864907
 30
0.0
 40
5.0
 50
234.314665
 51
246.697793
  0
ARC
  8
0
 10
925.439764
 20
295.088628
 30
0.0
 40
1.2
 50
0.0
 51
90.0
  0
ARC
  8
0
 10
925.439764
 20
282.264907
 30
0.0
 40
1.2
 50
270.0
 51
0.0
  0
ARC
  8
0
 10
925.439764
 20
282.264907
 30
0.0
 40
1.2
 50
180.0
 51
270.0
  0
ARC
  8
0
 10
928.039764
 20
277.264907
 30
0.0
 40
1.0
 50
100.0
 51
284.875362
  0
ARC
  8
0
 10
928.039764
 20
277.264907
 30
0.0
 40
1.0
 50
284.875362
 51
100.0
  0
ARC
  8
0
 10
926.539764
 20
395.164907
 30
0.0
 40
1.7
 50
90.0
 51
210.0
  0
ARC
  8
0
 10
926.193353
 20
393.964907
 30
0.0
 40
0.8
 50
210.0
 51
330.0
  0
ARC
  8
0
 10
927.303161
 20
395.287151
 30
0.0
 40
0.5
 50
330.0
 51
150.0
  0
ARC
  8
0
 10
926.193353
 20
394.764907
 30
0.0
 40
0.2
 50
210.0
 51
330.0
  0
ARC
  8
0
 10
926.539764
 20
395.164907
 30
0.0
 40
0.7
 50
90.0
 51
210.0
  0
ARC
  8
0
 10
926.539764
 20
268.564907
 30
0.0
 40
1.7
 50
150.0
 51
270.0
  0
ARC
  8
0
 10
926.193353
 20
269.764907
 30
0.0
 40
0.8
 50
30.0
 51
150.0
  0
ARC
  8
0
 10
927.303161
 20
268.442664
 30
0.0
 40
0.5
 50
210.0
 51
30.0
  0
ARC
  8
0
 10
926.193353
 20
268.964907
 30
0.0
 40
0.2
 50
30.0
 51
150.0
  0
ARC
  8
0
 10
926.539764
 20
268.564907
 30
0.0
 40
0.7
 50
150.0
 51
270.0
  0
ARC
  8
0
 10
882.02555
 20
359.464907
 30
0.0
 40
1.5
 50
315.0
 51
90.0
  0
ARC
  8
0
 10
880.839764
 20
356.864907
 30
0.0
 40
0.5
 50
270.0
 51
315.0
  0
ARC
  8
0
 10
880.839764
 20
358.864907
 30
0.0
 40
0.5
 50
45.0
 51
180.0
  0
ARC
  8
0
 10
882.02555
 20
364.264907
 30
0.0
 40
1.5
 50
270.0
 51
45.0
  0
ARC
  8
0
 10
880.839764
 20
366.864907
 30
0.0
 40
0.5
 50
90.0
 51
180.0
  0
ARC
  8
0
 10
880.839764
 20
364.864907
 30
0.0
 40
0.5
 50
180.0
 51
315.0
  0
ARC
  8
0
 10
880.839764
 20
366.864907
 30
0.0
 40
0.5
 50
45.0
 51
90.0
  0
ARC
  8
0
 10
880.839764
 20
356.864907
 30
0.0
 40
0.5
 50
180.0
 51
270.0
  0
ARC
  8
0
 10
882.02555
 20
299.464907
 30
0.0
 40
1.5
 50
315.0
 51
90.0
  0
ARC
  8
0
 10
880.839764
 20
296.864907
 30
0.0
 40
0.5
 50
270.0
 51
315.0
  0
ARC
  8
0
 10
880.839764
 20
298.864907
 30
0.0
 40
0.5
 50
45.0
 51
180.0
  0
ARC
  8
0
 10
882.02555
 20
304.264907
 30
0.0
 40
1.5
 50
270.0
 51
45.0
  0
ARC
  8
0
 10
880.839764
 20
306.864907
 30
0.0
 40
0.5
 50
90.0
 51
180.0
  0
ARC
  8
0
 10
880.839764
 20
304.864907
 30
0.0
 40
0.5
 50
180.0
 51
315.0
  0
ARC
  8
0
 10
880.839764
 20
306.864907
 30
0.0
 40
0.5
 50
45.0
 51
90.0
  0
ARC
  8
0
 10
880.839764
 20
296.864907
 30
0.0
 40
0.5
 50
180.0
 51
270.0
  0
ARC
  8
0
 10
882.02555
 20
329.464907
 30
0.0
 40
1.5
 50
315.0
 51
90.0
  0
ARC
  8
0
 10
880.839764
 20
326.864907
 30
0.0
 40
0.5
 50
270.0
 51
315.0
  0
ARC
  8
0
 10
880.839764
 20
328.864907
 30
0.0
 40
0.5
 50
45.0
 51
180.0
  0
ARC
  8
0
 10
882.02555
 20
334.264907
 30
0.0
 40
1.5
 50
270.0
 51
45.0
  0
ARC
  8
0
 10
880.839764
 20
336.864907
 30
0.0
 40
0.5
 50
90.0
 51
180.0
  0
ARC
  8
0
 10
880.839764
 20
334.864907
 30
0.0
 40
0.5
 50
180.0
 51
315.0
  0
ARC
  8
0
 10
880.839764
 20
336.864907
 30
0.0
 40
0.5
 50
45.0
 51
90.0
  0
ARC
  8
0
 10
880.839764
 20
326.864907
 30
0.0
 40
0.5
 50
180.0
 51
270.0
  0
ARC
  8
0
 10
924.739764
 20
317.084322
 30
0.0
 40
2.0
 50
92.0
 51
180.0
  0
ARC
  8
0
 10
924.739764
 20
322.645493
 30
0.0
 40
2.0
 50
180.0
 51
268.0
  0
ARC
  8
0
 10
924.739764
 20
346.645493
 30
0.0
 40
2.0
 50
180.0
 51
268.0
  0
ARC
  8
0
 10
924.739764
 20
341.084322
 30
0.0
 40
2.0
 50
92.0
 51
180.0
  0
ARC
  8
0
 10
924.739764
 20
362.584322
 30
0.0
 40
2.0
 50
92.0
 51
180.0
  0
ARC
  8
0
 10
924.739764
 20
362.584322
 30
0.0
 40
2.0
 50
92.0
 51
180.0
  0
ARC
  8
0
 10
924.939764
 20
365.763625
 30
0.0
 40
0.2
 50
125.685335
 51
180.0
  0
ARC
  8
0
 10
924.939764
 20
365.203716
 30
0.0
 40
0.2
 50
180.0
 51
240.0
  0
ARC
  8
0
 10
925.439764
 20
368.641187
 30
0.0
 40
1.2
 50
180.0
 51
270.0
  0
ARC
  8
0
 10
930.739764
 20
382.964907
 30
0.0
 40
0.3
 50
270.0
 51
0.0
  0
ARC
  8
0
 10
931.239764
 20
385.685411
 30
0.0
 40
1.5
 50
0.0
 51
80.0
  0
ARC
  8
0
 10
924.739764
 20
301.145493
 30
0.0
 40
2.0
 50
180.0
 51
268.0
  0
ARC
  8
0
 10
924.739764
 20
301.145493
 30
0.0
 40
2.0
 50
180.0
 51
268.0
  0
ARC
  8
0
 10
924.939764
 20
297.96619
 30
0.0
 40
0.2
 50
180.0
 51
234.314665
  0
ARC
  8
0
 10
924.939764
 20
298.526099
 30
0.0
 40
0.2
 50
120.0
 51
180.0
  0
ARC
  8
0
 10
925.439764
 20
295.088628
 30
0.0
 40
1.2
 50
90.0
 51
180.0
  0
ARC
  8
0
 10
930.739764
 20
280.764907
 30
0.0
 40
0.3
 50
0.0
 51
90.0
  0
ARC
  8
0
 10
931.239764
 20
278.340541
 30
0.0
 40
1.5
 50
280.0
 51
0.0
  0
ARC
  8
0
 10
931.839764
 20
393.664907
 30
0.0
 40
1.5
 50
0.0
 51
90.0
  0
ARC
  8
0
 10
933.039764
 20
394.864907
 30
0.0
 40
2.0
 50
0.0
 51
90.0
  0
ARC
  8
0
 10
931.839764
 20
270.064907
 30
0.0
 40
1.5
 50
270.0
 51
0.0
  0
ARC
  8
0
 10
933.039764
 20
268.864907
 30
0.0
 40
2.0
 50
270.0
 51
0.0
  0
ARC
  8
0
 10
929.139764
 20
388.964907
 30
0.0
 40
0.5
 50
0.0
 51
90.0
  0
ARC
  8
0
 10
878.239764
 20
361.864907
 30
0.0
 40
0.9
 50
90.0
 51
270.0
  0
ARC
  8
0
 10
878.339764
 20
365.364907
 30
0.0
 40
1.0
 50
180.0
 51
270.0
  0
ARC
  8
0
 10
878.339764
 20
358.364907
 30
0.0
 40
1.0
 50
90.0
 51
180.0
  0
ARC
  8
0
 10
878.239764
 20
301.864907
 30
0.0
 40
0.9
 50
90.0
 51
270.0
  0
ARC
  8
0
 10
878.339764
 20
305.364907
 30
0.0
 40
1.0
 50
180.0
 51
270.0
  0
ARC
  8
0
 10
878.339764
 20
298.364907
 30
0.0
 40
1.0
 50
90.0
 51
180.0
  0
ARC
  8
0
 10
877.039764
 20
268.864907
 30
0.0
 40
2.0
 50
180.0
 51
270.0
  0
ARC
  8
0
 10
877.039764
 20
394.864907
 30
0.0
 40
2.0
 50
90.0
 51
180.0
  0
ARC
  8
0
 10
921.057157
 20
392.564907
 30
0.0
 40
2.0
 50
30.0
 51
90.0
  0
ARC
  8
0
 10
921.057157
 20
271.164907
 30
0.0
 40
2.0
 50
270.0
 51
330.0
  0
ARC
  8
0
 10
927.581216
 20
391.864907
 30
0.0
 40
1.0
 50
210.0
 51
270.0
  0
ARC
  8
0
 10
922.385063
 20
394.864907
 30
0.0
 40
2.0
 50
30.0
 51
90.0
  0
ARC
  8
0
 10
927.581216
 20
271.864907
 30
0.0
 40
1.0
 50
90.0
 51
150.0
  0
ARC
  8
0
 10
922.385063
 20
268.864907
 30
0.0
 40
2.0
 50
270.0
 51
330.0
  0
ARC
  8
0
 10
926.939764
 20
385.064907
 30
0.0
 40
0.5
 50
180.0
 51
270.0
  0
ARC
  8
0
 10
929.139764
 20
385.064907
 30
0.0
 40
0.5
 50
270.0
 51
0.0
  0
ARC
  8
0
 10
926.939764
 20
278.664907
 30
0.0
 40
0.5
 50
90.0
 51
180.0
  0
ARC
  8
0
 10
929.139764
 20
278.664907
 30
0.0
 40
0.5
 50
0.0
 51
90.0
  0
ARC
  8
0
 10
928.939764
 20
394.464907
 30
0.0
 40
0.7
 50
180.0
 51
270.0
  0
ARC
  8
0
 10
928.939764
 20
394.464907
 30
0.0
 40
0.7
 50
90.0
 51
180.0
  0
ARC
  8
0
 10
931.139764
 20
391.364907
 30
0.0
 40
0.5
 50
270.0
 51
0.0
  0
ARC
  8
0
 10
929.539764
 20
391.664907
 30
0.0
 40
2.1
 50
0.0
 51
90.0
  0
ARC
  8
0
 10
929.539764
 20
391.664907
 30
0.0
 40
3.5
 50
0.0
 51
90.0
  0
ARC
  8
0
 10
930.039764
 20
384.164907
 30
0.0
 40
1.0
 50
270.0
 51
0.0
  0
ARC
  8
0
 10
926.039764
 20
384.164907
 30
0.0
 40
1.0
 50
180.0
 51
270.0
  0
ARC
  8
0
 10
932.539764
 20
389.964907
 30
0.0
 40
0.5
 50
270.0
 51
0.0
  0
ARC
  8
0
 10
931.539764
 20
388.964907
 30
0.0
 40
0.5
 50
90.0
 51
180.0
  0
ARC
  8
0
 10
926.939764
 20
388.964907
 30
0.0
 40
0.5
 50
90.0
 51
180.0
  0
ARC
  8
0
 10
879.339764
 20
392.564907
 30
0.0
 40
2.0
 50
90.0
 51
180.0
  0
ARC
  8
0
 10
928.939764
 20
269.264907
 30
0.0
 40
0.7
 50
90.0
 51
180.0
  0
ARC
  8
0
 10
928.939764
 20
269.264907
 30
0.0
 40
0.7
 50
180.0
 51
270.0
  0
ARC
  8
0
 10
931.139764
 20
272.364907
 30
0.0
 40
0.5
 50
0.0
 51
90.0
  0
ARC
  8
0
 10
929.539764
 20
272.064907
 30
0.0
 40
2.1
 50
270.0
 51
0.0
  0
ARC
  8
0
 10
929.539764
 20
272.064907
 30
0.0
 40
3.5
 50
270.0
 51
0.0
  0
ARC
  8
0
 10
930.039764
 20
279.564907
 30
0.0
 40
1.0
 50
0.0
 51
90.0
  0
ARC
  8
0
 10
926.039764
 20
279.564907
 30
0.0
 40
1.0
 50
90.0
 51
180.0
  0
ARC
  8
0
 10
932.539764
 20
273.764907
 30
0.0
 40
0.5
 50
0.0
 51
90.0
  0
ARC
  8
0
 10
931.539764
 20
274.764907
 30
0.0
 40
0.5
 50
180.0
 51
270.0
  0
ARC
  8
0
 10
929.139764
 20
274.764907
 30
0.0
 40
0.5
 50
270.0
 51
0.0
  0
ARC
  8
0
 10
926.939764
 20
274.764907
 30
0.0
 40
0.5
 50
180.0
 51
270.0
  0
ARC
  8
0
 10
878.239764
 20
331.864907
 30
0.0
 40
0.9
 50
90.0
 51
270.0
  0
ARC
  8
0
 10
878.339764
 20
335.364907
 30
0.0
 40
1.0
 50
180.0
 51
270.0
  0
ARC
  8
0
 10
878.339764
 20
328.364907
 30
0.0
 40
1.0
 50
90.0
 51
180.0
  0
ARC
  8
0
 10
879.339764
 20
271.164907
 30
0.0
 40
2.0
 50
180.0
 51
270.0
  0
INSERT
  8
0
  2
73830
 10
440.848374
 20
1407.449189
 30
0.0
  0
INSERT
  8
0
  2
DF
 10
922.739764
 20
276.264907
 30
0.0
  0
INSERT
  8
0
  2
IU
 10
924.839764
 20
266.864907
 30
0.0
  0
LINE
  8
0
 10
835.039764
 20
453.202102
 30
0.0
 11
838.702569
 21
456.864907
 31
0.0
  0
LINE
  8
0
 10
835.039764
 20
446.131034
 30
0.0
 11
845.773637
 21
456.864907
 31
0.0
  0
LINE
  8
0
 10
835.039764
 20
439.059966
 30
0.0
 11
852.844705
 21
456.864907
 31
0.0
  0
LINE
  8
0
 10
839.915773
 20
436.864907
 30
0.0
 11
859.915773
 21
456.864907
 31
0.0
  0
LINE
  8
0
 10
846.986841
 20
436.864907
 30
0.0
 11
866.986841
 21
456.864907
 31
0.0
  0
LINE
  8
0
 10
854.057908
 20
436.864907
 30
0.0
 11
874.057908
 21
456.864907
 31
0.0
  0
LINE
  8
0
 10
861.128976
 20
436.864907
 30
0.0
 11
881.128976
 21
456.864907
 31
0.0
  0
LINE
  8
0
 10
868.200044
 20
436.864907
 30
0.0
 11
888.200044
 21
456.864907
 31
0.0
  0
LINE
  8
0
 10
875.271112
 20
436.864907
 30
0.0
 11
895.271112
 21
456.864907
 31
0.0
  0
LINE
  8
0
 10
882.34218
 20
436.864907
 30
0.0
 11
902.34218
 21
456.864907
 31
0.0
  0
LINE
  8
0
 10
889.413247
 20
436.864907
 30
0.0
 11
909.413247
 21
456.864907
 31
0.0
  0
LINE
  8
0
 10
896.484315
 20
436.864907
 30
0.0
 11
916.484315
 21
456.864907
 31
0.0
  0
LINE
  8
0
 10
903.555383
 20
436.864907
 30
0.0
 11
923.555383
 21
456.864907
 31
0.0
  0
LINE
  8
0
 10
910.626451
 20
436.864907
 30
0.0
 11
930.626451
 21
456.864907
 31
0.0
  0
LINE
  8
0
 10
917.697519
 20
436.864907
 30
0.0
 11
937.697519
 21
456.864907
 31
0.0
  0
LINE
  8
0
 10
924.768587
 20
436.864907
 30
0.0
 11
944.768587
 21
456.864907
 31
0.0
  0
LINE
  8
0
 10
931.839654
 20
436.864907
 30
0.0
 11
951.839654
 21
456.864907
 31
0.0
  0
LINE
  8
0
 10
938.910722
 20
436.864907
 30
0.0
 11
955.039764
 21
452.993949
 31
0.0
  0
LINE
  8
0
 10
945.98179
 20
436.864907
 30
0.0
 11
955.039764
 21
445.922881
 31
0.0
  0
LINE
  8
0
 10
953.052858
 20
436.864907
 30
0.0
 11
955.039764
 21
438.851813
 31
0.0
  0
ENDSEC
  0
EOF
