  0
SECTION
  2
HEADER
  9
$ACADVER
  1
AC1009
  9
$INSBASE
 10
0.0
 20
0.0
 30
0.0
  9
$EXTMIN
 10
835.039764
 20
262.764907
 30
0.0
  9
$EXTMAX
 10
955.039764
 20
456.864907
 30
0.0
  9
$LIMMIN
 10
835.039764
 20
262.764907
  9
$LIMMAX
 10
955.039764
 20
456.864907
  9
$ORTHOMODE
 70
     0
  9
$REGENMODE
 70
     1
  9
$FILLMODE
 70
     1
  9
$QTEXTMODE
 70
     0
  9
$MIRRTEXT
 70
     1
  9
$DRAGMODE
 70
     2
  9
$LTSCALE
 40
1.0
  9
$OSMODE
 70
     0
  9
$ATTMODE
 70
     1
  9
$TEXTSIZE
 40
3.5
  9
$TRACEWID
 40
0.5
  9
$TEXTSTYLE
  7
STANDARD
  9
$CLAYER
  8
0
  9
$CELTYPE
  6
BYLAYER
  9
$CECOLOR
 62
   256
  9
$DIMSCALE
 40
1.0
  9
$DIMASZ
 40
0.18
  9
$DIMEXO
 40
0.0625
  9
$DIMDLI
 40
0.38
  9
$DIMRND
 40
0.0
  9
$DIMDLE
 40
0.0
  9
$DIMEXE
 40
0.18
  9
$DIMTP
 40
0.0
  9
$DIMTM
 40
0.0
  9
$DIMTXT
 40
0.18
  9
$DIMCEN
 40
0.09
  9
$DIMTSZ
 40
0.0
  9
$DIMTOL
 70
     0
  9
$DIMLIM
 70
     0
  9
$DIMTIH
 70
     1
  9
$DIMTOH
 70
     1
  9
$DIMSE1
 70
     0
  9
$DIMSE2
 70
     0
  9
$DIMTAD
 70
     0
  9
$DIMZIN
 70
     0
  9
$DIMBLK
  1

  9
$DIMASO
 70
     1
  9
$DIMSHO
 70
     1
  9
$DIMPOST
  1

  9
$DIMAPOST
  1

  9
$DIMALT
 70
     0
  9
$DIMALTD
 70
     2
  9
$DIMALTF
 40
25.4
  9
$DIMLFAC
 40
1.0
  9
$DIMTOFL
 70
     0
  9
$DIMTVP
 40
0.0
  9
$DIMTIX
 70
     0
  9
$DIMSOXD
 70
     0
  9
$DIMSAH
 70
     0
  9
$DIMBLK1
  1

  9
$DIMBLK2
  1

  9
$DIMSTYLE
  2
*UNNAMED
  9
$DIMCLRD
 70
     0
  9
$DIMCLRE
 70
     0
  9
$DIMCLRT
 70
     0
  9
$DIMTFAC
 40
1.0
  9
$DIMGAP
 40
0.09
  9
$LUNITS
 70
     2
  9
$LUPREC
 70
     4
  9
$SKETCHINC
 40
0.1
  9
$FILLETRAD
 40
2.0
  9
$AUNITS
 70
     0
  9
$AUPREC
 70
     0
  9
$MENU
  1
ACAD
  9
$ELEVATION
 40
0.0
  9
$PELEVATION
 40
0.0
  9
$THICKNESS
 40
0.0
  9
$LIMCHECK
 70
     0
  9
$BLIPMODE
 70
     1
  9
$CHAMFERA
 40
0.0
  9
$CHAMFERB
 40
0.0
  9
$SKPOLY
 70
     0
  9
$TDCREATE
 40
2450952.558014930
  9
$TDUPDATE
 40
2450952.558858564
  9
$TDINDWG
 40
0.0002466435
  9
$TDUSRTIMER
 40
0.0002466435
  9
$USRTIMER
 70
     1
  9
$ANGBASE
 50
0.0
  9
$ANGDIR
 70
     0
  9
$PDMODE
 70
     0
  9
$PDSIZE
 40
0.0
  9
$PLINEWID
 40
0.0
  9
$COORDS
 70
     2
  9
$SPLFRAME
 70
     0
  9
$SPLINETYPE
 70
     6
  9
$SPLINESEGS
 70
     8
  9
$ATTDIA
 70
     0
  9
$ATTREQ
 70
     1
  9
$HANDLING
 70
     0
  9
$HANDSEED
  5
0
  9
$SURFTAB1
 70
     6
  9
$SURFTAB2
 70
     6
  9
$SURFTYPE
 70
     6
  9
$SURFU
 70
     6
  9
$SURFV
 70
     6
  9
$UCSNAME
  2

  9
$UCSORG
 10
0.0
 20
0.0
 30
0.0
  9
$UCSXDIR
 10
1.0
 20
0.0
 30
0.0
  9
$UCSYDIR
 10
0.0
 20
1.0
 30
0.0
  9
$PUCSNAME
  2

  9
$PUCSORG
 10
0.0
 20
0.0
 30
0.0
  9
$PUCSXDIR
 10
1.0
 20
0.0
 30
0.0
  9
$PUCSYDIR
 10
0.0
 20
1.0
 30
0.0
  9
$USERI1
 70
     0
  9
$USERI2
 70
     0
  9
$USERI3
 70
     0
  9
$USERI4
 70
     0
  9
$USERI5
 70
     0
  9
$USERR1
 40
0.0
  9
$USERR2
 40
0.0
  9
$USERR3
 40
0.0
  9
$USERR4
 40
0.0
  9
$USERR5
 40
0.0
  9
$WORLDVIEW
 70
     1
  9
$SHADEDGE
 70
     3
  9
$SHADEDIF
 70
    70
  9
$TILEMODE
 70
     1
  9
$MAXACTVP
 70
    16
  9
$PINSBASE
 10
0.0
 20
0.0
 30
0.0
  9
$PLIMCHECK
 70
     0
  9
$PEXTMIN
 10
1.000000E+20
 20
1.000000E+20
 30
1.000000E+20
  9
$PEXTMAX
 10
-1.000000E+20
 20
-1.000000E+20
 30
-1.000000E+20
  9
$PLIMMIN
 10
0.0
 20
0.0
  9
$PLIMMAX
 10
420.0
 20
297.0
  9
$UNITMODE
 70
     0
  9
$VISRETAIN
 70
     0
  9
$PLINEGEN
 70
     0
  9
$PSLTSCALE
 70
     1
  9
$TREEDEPTH
 70
  3020
  9
$DWGCODEPAGE
  3
iso8859-1
  0
ENDSEC
  0
SECTION
  2
TABLES
  0
TABLE
  2
VPORT
 70
     2
  0
VPORT
  2
*ACTIVE
 70
     0
 10
0.0
 20
0.0
 11
1.0
 21
1.0
 12
989.432357
 22
361.041976
 13
0.0
 23
0.0
 14
1.0
 24
1.0
 15
0.0
 25
0.0
 16
0.0
 26
0.0
 36
1.0
 17
0.0
 27
0.0
 37
0.0
 40
238.869424
 41
1.748359
 42
50.0
 43
0.0
 44
0.0
 50
0.0
 51
0.0
 71
     0
 72
   100
 73
     1
 74
     0
 75
     0
 76
     0
 77
     0
 78
     0
  0
ENDTAB
  0
TABLE
  2
LTYPE
 70
     1
  0
LTYPE
  2
CONTINUOUS
 70
    64
  3
Solid line
 72
    65
 73
     0
 40
0.0
  0
ENDTAB
  0
TABLE
  2
LAYER
 70
     1
  0
LAYER
  2
0
 70
    64
 62
     7
  6
CONTINUOUS
  0
ENDTAB
  0
TABLE
  2
STYLE
 70
     1
  0
STYLE
  2
STANDARD
 70
     0
 40
0.0
 41
1.0
 50
0.0
 71
     0
 42
3.5
  3
txt
  4

  0
ENDTAB
  0
TABLE
  2
VIEW
 70
     0
  0
ENDTAB
  0
TABLE
  2
UCS
 70
     0
  0
ENDTAB
  0
TABLE
  2
APPID
 70
     1
  0
APPID
  2
ACAD
 70
    64
  0
ENDTAB
  0
TABLE
  2
DIMSTYLE
 70
     0
  0
ENDTAB
  0
ENDSEC
  0
SECTION
  2
BLOCKS
  0
ENDSEC
  0
SECTION
  2
ENTITIES
  0
LINE
  8
0
 10
855.039764
 20
436.864907
 30
0.0
 11
935.039764
 21
436.864907
 31
0.0
  0
LINE
  8
0
 10
855.039764
 20
262.764907
 30
0.0
 11
855.039764
 21
436.864907
 31
0.0
  0
LINE
  8
0
 10
875.039764
 20
262.764907
 30
0.0
 11
855.039764
 21
262.764907
 31
0.0
  0
LINE
  8
0
 10
875.039764
 20
416.864907
 30
0.0
 11
875.039764
 21
262.764907
 31
0.0
  0
LINE
  8
0
 10
935.039764
 20
416.864907
 30
0.0
 11
875.039764
 21
416.864907
 31
0.0
  0
LINE
  8
0
 10
935.039764
 20
436.864907
 30
0.0
 11
955.039764
 21
436.864907
 31
0.0
  0
LINE
  8
0
 10
935.039764
 20
436.864907
 30
0.0
 11
935.039764
 21
416.864907
 31
0.0
  0
LINE
  8
0
 10
925.500533
 20
270.164907
 30
0.0
 11
925.06752
 21
269.414907
 31
0.0
  0
LINE
  8
0
 10
929.539764
 20
393.764907
 30
0.0
 11
928.939764
 21
393.764907
 31
0.0
  0
LINE
  8
0
 10
929.539764
 20
395.164907
 30
0.0
 11
928.939764
 21
395.164907
 31
0.0
  0
LINE
  8
0
 10
929.539764
 20
269.964907
 30
0.0
 11
928.939764
 21
269.964907
 31
0.0
  0
LINE
  8
0
 10
879.339764
 20
269.164907
 30
0.0
 11
921.057157
 21
269.164907
 31
0.0
  0
LINE
  8
0
 10
882.349814
 20
334.364907
 30
0.0
 11
881.698342
 21
335.016379
 31
0.0
  0
LINE
  8
0
 10
881.698342
 20
335.016379
 30
0.0
 11
881.193317
 21
334.511354
 31
0.0
  0
LINE
  8
0
 10
880.339764
 20
334.864907
 30
0.0
 11
880.339764
 21
336.864907
 31
0.0
  0
LINE
  8
0
 10
881.193317
 20
337.218461
 30
0.0
 11
883.08621
 21
335.325568
 31
0.0
  0
LINE
  8
0
 10
882.02555
 20
332.764907
 30
0.0
 11
878.239764
 21
332.764907
 31
0.0
  0
LINE
  8
0
 10
882.349814
 20
334.364907
 30
0.0
 11
878.339764
 21
334.364907
 31
0.0
  0
LINE
  8
0
 10
881.698342
 20
328.713436
 30
0.0
 11
882.349814
 21
329.364907
 31
0.0
  0
LINE
  8
0
 10
881.193317
 20
329.218461
 30
0.0
 11
881.698342
 21
328.713436
 31
0.0
  0
LINE
  8
0
 10
880.339764
 20
326.864907
 30
0.0
 11
880.339764
 21
328.864907
 31
0.0
  0
LINE
  8
0
 10
883.08621
 20
328.404247
 30
0.0
 11
881.193317
 21
326.511354
 31
0.0
  0
LINE
  8
0
 10
878.239764
 20
330.964907
 30
0.0
 11
882.02555
 21
330.964907
 31
0.0
  0
LINE
  8
0
 10
878.339764
 20
329.364907
 30
0.0
 11
882.349814
 21
329.364907
 31
0.0
  0
LINE
  8
0
 10
929.139764
 20
274.264907
 30
0.0
 11
926.939764
 21
274.264907
 31
0.0
  0
LINE
  8
0
 10
931.539764
 20
274.264907
 30
0.0
 11
932.539764
 21
274.264907
 31
0.0
  0
LINE
  8
0
 10
933.039764
 20
273.764907
 30
0.0
 11
933.039764
 21
272.064907
 31
0.0
  0
LINE
  8
0
 10
929.539764
 20
268.564907
 30
0.0
 11
928.939764
 21
268.564907
 31
0.0
  0
LINE
  8
0
 10
931.639764
 20
272.064907
 30
0.0
 11
931.639764
 21
272.364907
 31
0.0
  0
LINE
  8
0
 10
931.139764
 20
272.864907
 30
0.0
 11
927.581216
 21
272.864907
 31
0.0
  0
LINE
  8
0
 10
931.039764
 20
274.764907
 30
0.0
 11
931.039764
 21
276.782136
 31
0.0
  0
LINE
  8
0
 10
930.039764
 20
280.564907
 30
0.0
 11
926.039764
 21
280.564907
 31
0.0
  0
LINE
  8
0
 10
929.639764
 20
274.764907
 30
0.0
 11
929.639764
 21
276.535278
 31
0.0
  0
LINE
  8
0
 10
929.139764
 20
279.164907
 30
0.0
 11
926.939764
 21
279.164907
 31
0.0
  0
LINE
  8
0
 10
926.439764
 20
274.764907
 30
0.0
 11
926.439764
 21
278.664907
 31
0.0
  0
LINE
  8
0
 10
877.039764
 20
396.864907
 30
0.0
 11
922.385063
 21
396.864907
 31
0.0
  0
LINE
  8
0
 10
879.339764
 20
394.564907
 30
0.0
 11
921.057157
 21
394.564907
 31
0.0
  0
LINE
  8
0
 10
932.539764
 20
389.464907
 30
0.0
 11
931.539764
 21
389.464907
 31
0.0
  0
LINE
  8
0
 10
933.039764
 20
391.664907
 30
0.0
 11
933.039764
 21
389.964907
 31
0.0
  0
LINE
  8
0
 10
931.639764
 20
391.364907
 30
0.0
 11
931.639764
 21
391.664907
 31
0.0
  0
LINE
  8
0
 10
927.588434
 20
390.864907
 30
0.0
 11
931.139764
 21
390.864907
 31
0.0
  0
LINE
  8
0
 10
926.039764
 20
383.164907
 30
0.0
 11
930.039764
 21
383.164907
 31
0.0
  0
LINE
  8
0
 10
926.939764
 20
384.564907
 30
0.0
 11
929.139764
 21
384.564907
 31
0.0
  0
LINE
  8
0
 10
926.439764
 20
388.964907
 30
0.0
 11
926.439764
 21
385.064907
 31
0.0
  0
LINE
  8
0
 10
931.039764
 20
384.164907
 30
0.0
 11
931.039764
 21
388.964907
 31
0.0
  0
LINE
  8
0
 10
931.039764
 20
278.764907
 30
0.0
 11
931.039764
 21
279.564907
 31
0.0
  0
LINE
  8
0
 10
924.117114
 20
267.864907
 30
0.0
 11
926.71519
 21
272.364907
 31
0.0
  0
LINE
  8
0
 10
927.588434
 20
390.864907
 30
0.0
 11
927.581216
 21
390.864907
 31
0.0
  0
LINE
  8
0
 10
926.71519
 20
391.364907
 30
0.0
 11
924.117114
 21
395.864907
 31
0.0
  0
LINE
  8
0
 10
922.789208
 20
270.164907
 30
0.0
 11
925.039764
 21
274.062984
 31
0.0
  0
LINE
  8
0
 10
925.039764
 20
274.062984
 30
0.0
 11
925.039764
 21
279.564907
 31
0.0
  0
LINE
  8
0
 10
922.789208
 20
393.564907
 30
0.0
 11
925.039764
 21
389.666831
 31
0.0
  0
LINE
  8
0
 10
925.039764
 20
389.666831
 30
0.0
 11
925.039764
 21
384.164907
 31
0.0
  0
LINE
  8
0
 10
922.385063
 20
266.864907
 30
0.0
 11
877.039764
 21
266.864907
 31
0.0
  0
LINE
  8
0
 10
875.039764
 20
268.864907
 30
0.0
 11
875.039764
 21
394.864907
 31
0.0
  0
LINE
  8
0
 10
882.349814
 20
304.364907
 30
0.0
 11
881.698342
 21
305.016379
 31
0.0
  0
LINE
  8
0
 10
881.698342
 20
305.016379
 30
0.0
 11
881.193317
 21
304.511354
 31
0.0
  0
LINE
  8
0
 10
880.339764
 20
304.864907
 30
0.0
 11
880.339764
 21
306.864907
 31
0.0
  0
LINE
  8
0
 10
881.193317
 20
307.218461
 30
0.0
 11
883.08621
 21
305.325568
 31
0.0
  0
LINE
  8
0
 10
882.02555
 20
302.764907
 30
0.0
 11
878.239764
 21
302.764907
 31
0.0
  0
LINE
  8
0
 10
882.349814
 20
304.364907
 30
0.0
 11
878.339764
 21
304.364907
 31
0.0
  0
LINE
  8
0
 10
881.698342
 20
298.713436
 30
0.0
 11
882.349814
 21
299.364907
 31
0.0
  0
LINE
  8
0
 10
881.193317
 20
299.218461
 30
0.0
 11
881.698342
 21
298.713436
 31
0.0
  0
LINE
  8
0
 10
880.339764
 20
296.864907
 30
0.0
 11
880.339764
 21
298.864907
 31
0.0
  0
LINE
  8
0
 10
883.08621
 20
298.404247
 30
0.0
 11
881.193317
 21
296.511354
 31
0.0
  0
LINE
  8
0
 10
878.239764
 20
300.964907
 30
0.0
 11
882.02555
 21
300.964907
 31
0.0
  0
LINE
  8
0
 10
878.339764
 20
299.364907
 30
0.0
 11
882.349814
 21
299.364907
 31
0.0
  0
LINE
  8
0
 10
882.349814
 20
364.364907
 30
0.0
 11
881.698342
 21
365.016379
 31
0.0
  0
LINE
  8
0
 10
881.698342
 20
365.016379
 30
0.0
 11
881.193317
 21
364.511354
 31
0.0
  0
LINE
  8
0
 10
880.339764
 20
364.864907
 30
0.0
 11
880.339764
 21
366.864907
 31
0.0
  0
LINE
  8
0
 10
881.193317
 20
367.218461
 30
0.0
 11
883.08621
 21
365.325568
 31
0.0
  0
LINE
  8
0
 10
882.02555
 20
362.764907
 30
0.0
 11
878.239764
 21
362.764907
 31
0.0
  0
LINE
  8
0
 10
882.349814
 20
364.364907
 30
0.0
 11
878.339764
 21
364.364907
 31
0.0
  0
LINE
  8
0
 10
881.698342
 20
358.713436
 30
0.0
 11
882.349814
 21
359.364907
 31
0.0
  0
LINE
  8
0
 10
881.193317
 20
359.218461
 30
0.0
 11
881.698342
 21
358.713436
 31
0.0
  0
LINE
  8
0
 10
880.339764
 20
356.864907
 30
0.0
 11
880.339764
 21
358.864907
 31
0.0
  0
LINE
  8
0
 10
883.08621
 20
358.404247
 30
0.0
 11
881.193317
 21
356.511354
 31
0.0
  0
LINE
  8
0
 10
878.239764
 20
360.964907
 30
0.0
 11
882.02555
 21
360.964907
 31
0.0
  0
LINE
  8
0
 10
878.339764
 20
359.364907
 30
0.0
 11
882.349814
 21
359.364907
 31
0.0
  0
LINE
  8
0
 10
877.339764
 20
392.564907
 30
0.0
 11
877.339764
 21
365.364907
 31
0.0
  0
LINE
  8
0
 10
877.339764
 20
358.364907
 30
0.0
 11
877.339764
 21
335.364907
 31
0.0
  0
LINE
  8
0
 10
877.339764
 20
328.364907
 30
0.0
 11
877.339764
 21
305.364907
 31
0.0
  0
LINE
  8
0
 10
877.339764
 20
298.364907
 30
0.0
 11
877.339764
 21
271.164907
 31
0.0
  0
LINE
  8
0
 10
929.639764
 20
278.562457
 30
0.0
 11
929.639764
 21
278.664907
 31
0.0
  0
LINE
  8
0
 10
931.039764
 20
278.764907
 30
0.0
 11
931.039764
 21
276.782136
 31
0.0
  0
LINE
  8
0
 10
929.639764
 20
278.562457
 30
0.0
 11
929.639764
 21
276.535278
 31
0.0
  0
LINE
  8
0
 10
929.639764
 20
385.064907
 30
0.0
 11
929.639764
 21
388.964907
 31
0.0
  0
LINE
  8
0
 10
929.139764
 20
389.464907
 30
0.0
 11
926.939764
 21
389.464907
 31
0.0
  0
LINE
  8
0
 10
835.039764
 20
436.864907
 30
0.0
 11
855.039764
 21
436.864907
 31
0.0
  0
ARC
  8
0
 10
880.839764
 20
326.864907
 30
0.0
 40
0.5
 50
180.0
 51
270.0
  0
ARC
  8
0
 10
880.839764
 20
336.864907
 30
0.0
 40
0.5
 50
45.0
 51
90.0
  0
ARC
  8
0
 10
880.839764
 20
334.864907
 30
0.0
 40
0.5
 50
180.0
 51
315.0
  0
ARC
  8
0
 10
880.839764
 20
336.864907
 30
0.0
 40
0.5
 50
90.0
 51
180.0
  0
ARC
  8
0
 10
882.02555
 20
334.264907
 30
0.0
 40
1.5
 50
270.0
 51
45.0
  0
ARC
  8
0
 10
880.839764
 20
328.864907
 30
0.0
 40
0.5
 50
45.0
 51
180.0
  0
ARC
  8
0
 10
880.839764
 20
326.864907
 30
0.0
 40
0.5
 50
270.0
 51
315.0
  0
ARC
  8
0
 10
882.02555
 20
329.464907
 30
0.0
 40
1.5
 50
315.0
 51
90.0
  0
ARC
  8
0
 10
880.839764
 20
296.864907
 30
0.0
 40
0.5
 50
180.0
 51
270.0
  0
ARC
  8
0
 10
880.839764
 20
306.864907
 30
0.0
 40
0.5
 50
45.0
 51
90.0
  0
ARC
  8
0
 10
880.839764
 20
304.864907
 30
0.0
 40
0.5
 50
180.0
 51
315.0
  0
ARC
  8
0
 10
880.839764
 20
306.864907
 30
0.0
 40
0.5
 50
90.0
 51
180.0
  0
ARC
  8
0
 10
882.02555
 20
304.264907
 30
0.0
 40
1.5
 50
270.0
 51
45.0
  0
ARC
  8
0
 10
880.839764
 20
298.864907
 30
0.0
 40
0.5
 50
45.0
 51
180.0
  0
ARC
  8
0
 10
880.839764
 20
296.864907
 30
0.0
 40
0.5
 50
270.0
 51
315.0
  0
ARC
  8
0
 10
882.02555
 20
299.464907
 30
0.0
 40
1.5
 50
315.0
 51
90.0
  0
ARC
  8
0
 10
880.839764
 20
356.864907
 30
0.0
 40
0.5
 50
180.0
 51
270.0
  0
ARC
  8
0
 10
880.839764
 20
366.864907
 30
0.0
 40
0.5
 50
45.0
 51
90.0
  0
ARC
  8
0
 10
880.839764
 20
364.864907
 30
0.0
 40
0.5
 50
180.0
 51
315.0
  0
ARC
  8
0
 10
880.839764
 20
366.864907
 30
0.0
 40
0.5
 50
90.0
 51
180.0
  0
ARC
  8
0
 10
882.02555
 20
364.264907
 30
0.0
 40
1.5
 50
270.0
 51
45.0
  0
ARC
  8
0
 10
880.839764
 20
358.864907
 30
0.0
 40
0.5
 50
45.0
 51
180.0
  0
ARC
  8
0
 10
880.839764
 20
356.864907
 30
0.0
 40
0.5
 50
270.0
 51
315.0
  0
ARC
  8
0
 10
882.02555
 20
359.464907
 30
0.0
 40
1.5
 50
315.0
 51
90.0
  0
ARC
  8
0
 10
879.339764
 20
271.164907
 30
0.0
 40
2.0
 50
180.0
 51
270.0
  0
ARC
  8
0
 10
878.339764
 20
328.364907
 30
0.0
 40
1.0
 50
90.0
 51
180.0
  0
ARC
  8
0
 10
878.339764
 20
335.364907
 30
0.0
 40
1.0
 50
180.0
 51
270.0
  0
ARC
  8
0
 10
878.239764
 20
331.864907
 30
0.0
 40
0.9
 50
90.0
 51
270.0
  0
ARC
  8
0
 10
926.939764
 20
274.764907
 30
0.0
 40
0.5
 50
180.0
 51
270.0
  0
ARC
  8
0
 10
929.139764
 20
274.764907
 30
0.0
 40
0.5
 50
270.0
 51
0.0
  0
ARC
  8
0
 10
931.539764
 20
274.764907
 30
0.0
 40
0.5
 50
180.0
 51
270.0
  0
ARC
  8
0
 10
932.539764
 20
273.764907
 30
0.0
 40
0.5
 50
0.0
 51
90.0
  0
ARC
  8
0
 10
926.039764
 20
279.564907
 30
0.0
 40
1.0
 50
90.0
 51
180.0
  0
ARC
  8
0
 10
930.039764
 20
279.564907
 30
0.0
 40
1.0
 50
0.0
 51
90.0
  0
ARC
  8
0
 10
929.539764
 20
272.064907
 30
0.0
 40
3.5
 50
270.0
 51
0.0
  0
ARC
  8
0
 10
929.539764
 20
272.064907
 30
0.0
 40
2.1
 50
270.0
 51
0.0
  0
ARC
  8
0
 10
931.139764
 20
272.364907
 30
0.0
 40
0.5
 50
0.0
 51
90.0
  0
ARC
  8
0
 10
928.939764
 20
269.264907
 30
0.0
 40
0.7
 50
180.0
 51
270.0
  0
ARC
  8
0
 10
928.939764
 20
269.264907
 30
0.0
 40
0.7
 50
90.0
 51
180.0
  0
ARC
  8
0
 10
879.339764
 20
392.564907
 30
0.0
 40
2.0
 50
90.0
 51
180.0
  0
ARC
  8
0
 10
926.939764
 20
388.964907
 30
0.0
 40
0.5
 50
90.0
 51
180.0
  0
ARC
  8
0
 10
931.539764
 20
388.964907
 30
0.0
 40
0.5
 50
90.0
 51
180.0
  0
ARC
  8
0
 10
932.539764
 20
389.964907
 30
0.0
 40
0.5
 50
270.0
 51
0.0
  0
ARC
  8
0
 10
926.039764
 20
384.164907
 30
0.0
 40
1.0
 50
180.0
 51
270.0
  0
ARC
  8
0
 10
930.039764
 20
384.164907
 30
0.0
 40
1.0
 50
270.0
 51
0.0
  0
ARC
  8
0
 10
929.539764
 20
391.664907
 30
0.0
 40
3.5
 50
0.0
 51
90.0
  0
ARC
  8
0
 10
929.539764
 20
391.664907
 30
0.0
 40
2.1
 50
0.0
 51
90.0
  0
ARC
  8
0
 10
931.139764
 20
391.364907
 30
0.0
 40
0.5
 50
270.0
 51
0.0
  0
ARC
  8
0
 10
928.939764
 20
394.464907
 30
0.0
 40
0.7
 50
90.0
 51
180.0
  0
ARC
  8
0
 10
928.939764
 20
394.464907
 30
0.0
 40
0.7
 50
180.0
 51
270.0
  0
ARC
  8
0
 10
929.139764
 20
278.664907
 30
0.0
 40
0.5
 50
0.0
 51
90.0
  0
ARC
  8
0
 10
926.939764
 20
278.664907
 30
0.0
 40
0.5
 50
90.0
 51
180.0
  0
ARC
  8
0
 10
929.139764
 20
385.064907
 30
0.0
 40
0.5
 50
270.0
 51
0.0
  0
ARC
  8
0
 10
926.939764
 20
385.064907
 30
0.0
 40
0.5
 50
180.0
 51
270.0
  0
ARC
  8
0
 10
922.385063
 20
268.864907
 30
0.0
 40
2.0
 50
270.0
 51
330.0
  0
ARC
  8
0
 10
927.581216
 20
271.864907
 30
0.0
 40
1.0
 50
90.0
 51
150.0
  0
ARC
  8
0
 10
922.385063
 20
394.864907
 30
0.0
 40
2.0
 50
30.0
 51
90.0
  0
ARC
  8
0
 10
927.581216
 20
391.864907
 30
0.0
 40
1.0
 50
210.0
 51
270.0
  0
ARC
  8
0
 10
921.057157
 20
271.164907
 30
0.0
 40
2.0
 50
270.0
 51
330.0
  0
ARC
  8
0
 10
921.057157
 20
392.564907
 30
0.0
 40
2.0
 50
30.0
 51
90.0
  0
ARC
  8
0
 10
877.039764
 20
394.864907
 30
0.0
 40
2.0
 50
90.0
 51
180.0
  0
ARC
  8
0
 10
877.039764
 20
268.864907
 30
0.0
 40
2.0
 50
180.0
 51
270.0
  0
ARC
  8
0
 10
878.339764
 20
298.364907
 30
0.0
 40
1.0
 50
90.0
 51
180.0
  0
ARC
  8
0
 10
878.339764
 20
305.364907
 30
0.0
 40
1.0
 50
180.0
 51
270.0
  0
ARC
  8
0
 10
878.239764
 20
301.864907
 30
0.0
 40
0.9
 50
90.0
 51
270.0
  0
ARC
  8
0
 10
878.339764
 20
358.364907
 30
0.0
 40
1.0
 50
90.0
 51
180.0
  0
ARC
  8
0
 10
878.339764
 20
365.364907
 30
0.0
 40
1.0
 50
180.0
 51
270.0
  0
ARC
  8
0
 10
878.239764
 20
361.864907
 30
0.0
 40
0.9
 50
90.0
 51
270.0
  0
ARC
  8
0
 10
929.139764
 20
388.964907
 30
0.0
 40
0.5
 50
0.0
 51
90.0
  0
LINE
  8
0
 10
835.039764
 20
453.202102
 30
0.0
 11
838.702569
 21
456.864907
 31
0.0
  0
LINE
  8
0
 10
835.039764
 20
446.131034
 30
0.0
 11
845.773637
 21
456.864907
 31
0.0
  0
LINE
  8
0
 10
835.039764
 20
439.059966
 30
0.0
 11
852.844705
 21
456.864907
 31
0.0
  0
LINE
  8
0
 10
839.915773
 20
436.864907
 30
0.0
 11
859.915773
 21
456.864907
 31
0.0
  0
LINE
  8
0
 10
846.986841
 20
436.864907
 30
0.0
 11
866.986841
 21
456.864907
 31
0.0
  0
LINE
  8
0
 10
854.057908
 20
436.864907
 30
0.0
 11
874.057908
 21
456.864907
 31
0.0
  0
LINE
  8
0
 10
861.128976
 20
436.864907
 30
0.0
 11
881.128976
 21
456.864907
 31
0.0
  0
LINE
  8
0
 10
868.200044
 20
436.864907
 30
0.0
 11
888.200044
 21
456.864907
 31
0.0
  0
LINE
  8
0
 10
875.271112
 20
436.864907
 30
0.0
 11
895.271112
 21
456.864907
 31
0.0
  0
LINE
  8
0
 10
882.34218
 20
436.864907
 30
0.0
 11
902.34218
 21
456.864907
 31
0.0
  0
LINE
  8
0
 10
889.413247
 20
436.864907
 30
0.0
 11
909.413247
 21
456.864907
 31
0.0
  0
LINE
  8
0
 10
896.484315
 20
436.864907
 30
0.0
 11
916.484315
 21
456.864907
 31
0.0
  0
LINE
  8
0
 10
903.555383
 20
436.864907
 30
0.0
 11
923.555383
 21
456.864907
 31
0.0
  0
LINE
  8
0
 10
910.626451
 20
436.864907
 30
0.0
 11
930.626451
 21
456.864907
 31
0.0
  0
LINE
  8
0
 10
917.697519
 20
436.864907
 30
0.0
 11
937.697519
 21
456.864907
 31
0.0
  0
LINE
  8
0
 10
924.768587
 20
436.864907
 30
0.0
 11
944.768587
 21
456.864907
 31
0.0
  0
LINE
  8
0
 10
931.839654
 20
436.864907
 30
0.0
 11
951.839654
 21
456.864907
 31
0.0
  0
LINE
  8
0
 10
938.910722
 20
436.864907
 30
0.0
 11
955.039764
 21
452.993949
 31
0.0
  0
LINE
  8
0
 10
945.98179
 20
436.864907
 30
0.0
 11
955.039764
 21
445.922881
 31
0.0
  0
LINE
  8
0
 10
953.052858
 20
436.864907
 30
0.0
 11
955.039764
 21
438.851813
 31
0.0
  0
LINE
  8
0
 10
928.296481
 20
276.298421
 30
0.0
 11
929.639764
 21
276.535278
 31
0.0
  0
LINE
  8
0
 10
932.739764
 20
296.864907
 30
0.0
 11
932.739764
 21
278.340541
 31
0.0
  0
LINE
  8
0
 10
931.039764
 20
279.061045
 30
0.0
 11
931.039764
 21
280.764907
 31
0.0
  0
LINE
  8
0
 10
925.439764
 20
281.064907
 30
0.0
 11
930.739764
 21
281.064907
 31
0.0
  0
LINE
  8
0
 10
925.761859
 20
297.272752
 30
0.0
 11
924.239764
 21
296.864907
 31
0.0
  0
LINE
  8
0
 10
924.239764
 20
296.864907
 30
0.0
 11
924.239764
 21
295.088628
 31
0.0
  0
LINE
  8
0
 10
924.239764
 20
295.088628
 30
0.0
 11
924.239764
 21
282.264907
 31
0.0
  0
LINE
  8
0
 10
926.639764
 20
295.088628
 30
0.0
 11
926.639764
 21
282.264907
 31
0.0
  0
LINE
  8
0
 10
927.739764
 20
297.80273
 30
0.0
 11
925.761859
 21
297.272752
 31
0.0
  0
LINE
  8
0
 10
924.669965
 20
299.146711
 30
0.0
 11
925.560813
 21
299.115602
 31
0.0
  0
LINE
  8
0
 10
925.560813
 20
299.115602
 30
0.0
 11
924.839764
 21
298.699304
 31
0.0
  0
LINE
  8
0
 10
924.739764
 20
298.526099
 30
0.0
 11
924.739764
 21
297.96619
 31
0.0
  0
LINE
  8
0
 10
924.669965
 20
299.146711
 30
0.0
 11
931.239764
 21
298.917289
 31
0.0
  0
LINE
  8
0
 10
927.739764
 20
297.80273
 30
0.0
 11
932.739764
 21
297.80273
 31
0.0
  0
LINE
  8
0
 10
931.239764
 20
298.917289
 30
0.0
 11
932.739764
 21
298.864907
 31
0.0
  0
LINE
  8
0
 10
932.739764
 20
297.80273
 30
0.0
 11
932.739764
 21
296.864907
 31
0.0
  0
LINE
  8
0
 10
932.739764
 20
301.864907
 30
0.0
 11
932.739764
 21
297.80273
 31
0.0
  0
LINE
  8
0
 10
931.239764
 20
319.312526
 30
0.0
 11
931.239764
 21
298.917289
 31
0.0
  0
LINE
  8
0
 10
932.739764
 20
298.864907
 30
0.0
 11
932.739764
 21
319.364907
 31
0.0
  0
LINE
  8
0
 10
922.739764
 20
317.084322
 30
0.0
 11
922.739764
 21
301.145493
 31
0.0
  0
LINE
  8
0
 10
927.866115
 20
385.776237
 30
0.0
 11
929.639764
 21
385.463495
 31
0.0
  0
LINE
  8
0
 10
931.500236
 20
387.162623
 30
0.0
 11
931.039764
 21
387.243817
 31
0.0
  0
LINE
  8
0
 10
932.739764
 20
385.685411
 30
0.0
 11
932.739764
 21
366.864907
 31
0.0
  0
LINE
  8
0
 10
931.039764
 20
382.964907
 30
0.0
 11
931.039764
 21
384.66877
 31
0.0
  0
LINE
  8
0
 10
930.739764
 20
382.664907
 30
0.0
 11
925.439764
 21
382.664907
 31
0.0
  0
LINE
  8
0
 10
924.239764
 20
381.464907
 30
0.0
 11
924.239764
 21
368.641187
 31
0.0
  0
LINE
  8
0
 10
926.639764
 20
381.464907
 30
0.0
 11
926.639764
 21
368.641187
 31
0.0
  0
LINE
  8
0
 10
924.239764
 20
368.641187
 30
0.0
 11
924.239764
 21
366.864907
 31
0.0
  0
LINE
  8
0
 10
924.239764
 20
366.864907
 30
0.0
 11
932.739764
 21
366.864907
 31
0.0
  0
LINE
  8
0
 10
924.239764
 20
366.864907
 30
0.0
 11
925.761859
 21
366.457063
 31
0.0
  0
LINE
  8
0
 10
932.739764
 20
366.864907
 30
0.0
 11
932.739764
 21
365.927085
 31
0.0
  0
LINE
  8
0
 10
932.739764
 20
365.927085
 30
0.0
 11
932.739764
 21
361.864907
 31
0.0
  0
LINE
  8
0
 10
932.739764
 20
365.927085
 30
0.0
 11
927.739764
 21
365.927085
 31
0.0
  0
LINE
  8
0
 10
931.239764
 20
364.812526
 30
0.0
 11
924.669965
 21
364.583104
 31
0.0
  0
LINE
  8
0
 10
931.239764
 20
364.812526
 30
0.0
 11
931.239764
 21
344.417289
 31
0.0
  0
LINE
  8
0
 10
932.739764
 20
364.864907
 30
0.0
 11
931.239764
 21
364.812526
 31
0.0
  0
LINE
  8
0
 10
932.739764
 20
344.364907
 30
0.0
 11
932.739764
 21
364.864907
 31
0.0
  0
LINE
  8
0
 10
925.761859
 20
366.457063
 30
0.0
 11
927.739764
 21
365.927085
 31
0.0
  0
LINE
  8
0
 10
925.560813
 20
364.614213
 30
0.0
 11
924.669965
 21
364.583104
 31
0.0
  0
LINE
  8
0
 10
924.839764
 20
365.030511
 30
0.0
 11
925.560813
 21
364.614213
 31
0.0
  0
LINE
  8
0
 10
924.739764
 20
365.763625
 30
0.0
 11
924.739764
 21
365.203716
 31
0.0
  0
LINE
  8
0
 10
922.739764
 20
362.584322
 30
0.0
 11
922.739764
 21
346.645493
 31
0.0
  0
LINE
  8
0
 10
927.739764
 20
343.190304
 30
0.0
 11
924.669965
 21
343.083104
 31
0.0
  0
LINE
  8
0
 10
927.739764
 20
344.539511
 30
0.0
 11
927.739764
 21
343.190304
 31
0.0
  0
LINE
  8
0
 10
924.669965
 20
344.646711
 30
0.0
 11
927.739764
 21
344.539511
 31
0.0
  0
LINE
  8
0
 10
922.739764
 20
341.084322
 30
0.0
 11
922.739764
 21
331.864907
 31
0.0
  0
LINE
  8
0
 10
931.239764
 20
343.312526
 30
0.0
 11
927.739764
 21
343.190304
 31
0.0
  0
LINE
  8
0
 10
927.739764
 20
344.539511
 30
0.0
 11
931.239764
 21
344.417289
 31
0.0
  0
LINE
  8
0
 10
932.739764
 20
320.364907
 30
0.0
 11
932.739764
 21
343.364907
 31
0.0
  0
LINE
  8
0
 10
932.739764
 20
343.364907
 30
0.0
 11
931.239764
 21
343.312526
 31
0.0
  0
LINE
  8
0
 10
932.739764
 20
344.364907
 30
0.0
 11
932.739764
 21
343.364907
 31
0.0
  0
LINE
  8
0
 10
931.239764
 20
344.417289
 30
0.0
 11
932.739764
 21
344.364907
 31
0.0
  0
LINE
  8
0
 10
931.239764
 20
343.312526
 30
0.0
 11
931.239764
 21
320.417289
 31
0.0
  0
LINE
  8
0
 10
924.669965
 20
320.646711
 30
0.0
 11
927.739764
 21
320.539511
 31
0.0
  0
LINE
  8
0
 10
927.739764
 20
320.539511
 30
0.0
 11
927.739764
 21
319.190304
 31
0.0
  0
LINE
  8
0
 10
922.739764
 20
331.864907
 30
0.0
 11
922.739764
 21
322.645493
 31
0.0
  0
LINE
  8
0
 10
927.739764
 20
319.190304
 30
0.0
 11
924.669965
 21
319.083104
 31
0.0
  0
LINE
  8
0
 10
927.739764
 20
320.539511
 30
0.0
 11
931.239764
 21
320.417289
 31
0.0
  0
LINE
  8
0
 10
931.239764
 20
319.312526
 30
0.0
 11
927.739764
 21
319.190304
 31
0.0
  0
LINE
  8
0
 10
932.739764
 20
320.364907
 30
0.0
 11
932.739764
 21
319.364907
 31
0.0
  0
LINE
  8
0
 10
931.239764
 20
320.417289
 30
0.0
 11
932.739764
 21
320.364907
 31
0.0
  0
LINE
  8
0
 10
932.739764
 20
319.364907
 30
0.0
 11
931.239764
 21
319.312526
 31
0.0
  0
LINE
  8
0
 10
932.739764
 20
296.864907
 30
0.0
 11
924.239764
 21
296.864907
 31
0.0
  0
LINE
  8
0
 10
929.639764
 20
278.562457
 30
0.0
 11
927.866115
 21
278.249715
 31
0.0
  0
LINE
  8
0
 10
931.039764
 20
276.782136
 30
0.0
 11
931.500236
 21
276.863329
 31
0.0
  0
LINE
  8
0
 10
929.639764
 20
387.490674
 30
0.0
 11
928.296481
 21
387.727531
 31
0.0
  0
ARC
  8
0
 10
928.039764
 20
277.264907
 30
0.0
 40
1.0
 50
284.875362
 51
100.0
  0
ARC
  8
0
 10
928.039764
 20
277.264907
 30
0.0
 40
1.0
 50
100.0
 51
284.875362
  0
ARC
  8
0
 10
925.439764
 20
282.264907
 30
0.0
 40
1.2
 50
180.0
 51
270.0
  0
ARC
  8
0
 10
925.439764
 20
282.264907
 30
0.0
 40
1.2
 50
270.0
 51
0.0
  0
ARC
  8
0
 10
925.439764
 20
295.088628
 30
0.0
 40
1.2
 50
0.0
 51
90.0
  0
ARC
  8
0
 10
927.739764
 20
301.864907
 30
0.0
 40
5.0
 50
234.314665
 51
246.697793
  0
ARC
  8
0
 10
928.039764
 20
386.761045
 30
0.0
 40
1.0
 50
260.0
 51
75.124638
  0
ARC
  8
0
 10
928.039764
 20
386.761045
 30
0.0
 40
1.0
 50
75.124638
 51
260.0
  0
ARC
  8
0
 10
925.439764
 20
381.464907
 30
0.0
 40
1.2
 50
0.0
 51
90.0
  0
ARC
  8
0
 10
925.439764
 20
381.464907
 30
0.0
 40
1.2
 50
90.0
 51
180.0
  0
ARC
  8
0
 10
925.439764
 20
368.641187
 30
0.0
 40
1.2
 50
270.0
 51
0.0
  0
ARC
  8
0
 10
927.739764
 20
361.864907
 30
0.0
 40
5.0
 50
113.302207
 51
125.685335
  0
ARC
  8
0
 10
931.239764
 20
278.340541
 30
0.0
 40
1.5
 50
280.0
 51
0.0
  0
ARC
  8
0
 10
930.739764
 20
280.764907
 30
0.0
 40
0.3
 50
0.0
 51
90.0
  0
ARC
  8
0
 10
925.439764
 20
295.088628
 30
0.0
 40
1.2
 50
90.0
 51
180.0
  0
ARC
  8
0
 10
924.939764
 20
298.526099
 30
0.0
 40
0.2
 50
120.0
 51
180.0
  0
ARC
  8
0
 10
924.939764
 20
297.96619
 30
0.0
 40
0.2
 50
180.0
 51
234.314665
  0
ARC
  8
0
 10
924.739764
 20
301.145493
 30
0.0
 40
2.0
 50
180.0
 51
268.0
  0
ARC
  8
0
 10
924.739764
 20
301.145493
 30
0.0
 40
2.0
 50
180.0
 51
268.0
  0
ARC
  8
0
 10
931.239764
 20
385.685411
 30
0.0
 40
1.5
 50
0.0
 51
80.0
  0
ARC
  8
0
 10
930.739764
 20
382.964907
 30
0.0
 40
0.3
 50
270.0
 51
0.0
  0
ARC
  8
0
 10
925.439764
 20
368.641187
 30
0.0
 40
1.2
 50
180.0
 51
270.0
  0
ARC
  8
0
 10
924.939764
 20
365.203716
 30
0.0
 40
0.2
 50
180.0
 51
240.0
  0
ARC
  8
0
 10
924.939764
 20
365.763625
 30
0.0
 40
0.2
 50
125.685335
 51
180.0
  0
ARC
  8
0
 10
924.739764
 20
362.584322
 30
0.0
 40
2.0
 50
92.0
 51
180.0
  0
ARC
  8
0
 10
924.739764
 20
362.584322
 30
0.0
 40
2.0
 50
92.0
 51
180.0
  0
ARC
  8
0
 10
924.739764
 20
341.084322
 30
0.0
 40
2.0
 50
92.0
 51
180.0
  0
ARC
  8
0
 10
924.739764
 20
346.645493
 30
0.0
 40
2.0
 50
180.0
 51
268.0
  0
ARC
  8
0
 10
924.739764
 20
322.645493
 30
0.0
 40
2.0
 50
180.0
 51
268.0
  0
ARC
  8
0
 10
924.739764
 20
317.084322
 30
0.0
 40
2.0
 50
92.0
 51
180.0
  0
LINE
  8
0
 10
928.514893
 20
268.564907
 30
0.0
 11
927.302457
 21
267.864907
 31
0.0
  0
LINE
  8
0
 10
927.302457
 20
267.864907
 30
0.0
 11
926.539764
 21
267.864907
 31
0.0
  0
LINE
  8
0
 10
925.933546
 20
268.914907
 30
0.0
 11
926.020148
 21
269.064907
 31
0.0
  0
LINE
  8
0
 10
926.366559
 20
269.064907
 30
0.0
 11
926.870148
 21
268.192664
 31
0.0
  0
LINE
  8
0
 10
927.736174
 20
268.692664
 30
0.0
 11
926.886174
 21
270.164907
 31
0.0
  0
LINE
  8
0
 10
926.539764
 20
266.864907
 30
0.0
 11
933.039764
 21
266.864907
 31
0.0
  0
LINE
  8
0
 10
935.039764
 20
268.864907
 30
0.0
 11
935.039764
 21
331.864907
 31
0.0
  0
LINE
  8
0
 10
933.339764
 20
331.864907
 30
0.0
 11
933.339764
 21
270.064907
 31
0.0
  0
LINE
  8
0
 10
931.839764
 20
268.564907
 30
0.0
 11
928.514893
 21
268.564907
 31
0.0
  0
LINE
  8
0
 10
927.302457
 20
395.864907
 30
0.0
 11
928.514893
 21
395.164907
 31
0.0
  0
LINE
  8
0
 10
926.539764
 20
395.864907
 30
0.0
 11
927.302457
 21
395.864907
 31
0.0
  0
LINE
  8
0
 10
926.020148
 20
394.664907
 30
0.0
 11
925.933546
 21
394.814907
 31
0.0
  0
LINE
  8
0
 10
926.870148
 20
395.537151
 30
0.0
 11
926.366559
 21
394.664907
 31
0.0
  0
LINE
  8
0
 10
926.886174
 20
393.564907
 30
0.0
 11
927.736174
 21
395.037151
 31
0.0
  0
LINE
  8
0
 10
925.06752
 20
394.314907
 30
0.0
 11
925.500533
 21
393.564907
 31
0.0
  0
LINE
  8
0
 10
933.039764
 20
396.864907
 30
0.0
 11
926.539764
 21
396.864907
 31
0.0
  0
LINE
  8
0
 10
935.039764
 20
331.864907
 30
0.0
 11
935.039764
 21
394.864907
 31
0.0
  0
LINE
  8
0
 10
933.339764
 20
393.664907
 30
0.0
 11
933.339764
 21
331.864907
 31
0.0
  0
LINE
  8
0
 10
928.514893
 20
395.164907
 30
0.0
 11
931.839764
 21
395.164907
 31
0.0
  0
ARC
  8
0
 10
926.539764
 20
268.564907
 30
0.0
 40
0.7
 50
150.0
 51
270.0
  0
ARC
  8
0
 10
926.193353
 20
268.964907
 30
0.0
 40
0.2
 50
30.0
 51
150.0
  0
ARC
  8
0
 10
927.303161
 20
268.442664
 30
0.0
 40
0.5
 50
210.0
 51
30.0
  0
ARC
  8
0
 10
926.193353
 20
269.764907
 30
0.0
 40
0.8
 50
30.0
 51
150.0
  0
ARC
  8
0
 10
926.539764
 20
268.564907
 30
0.0
 40
1.7
 50
150.0
 51
270.0
  0
ARC
  8
0
 10
926.539764
 20
395.164907
 30
0.0
 40
0.7
 50
90.0
 51
210.0
  0
ARC
  8
0
 10
926.193353
 20
394.764907
 30
0.0
 40
0.2
 50
210.0
 51
330.0
  0
ARC
  8
0
 10
927.303161
 20
395.287151
 30
0.0
 40
0.5
 50
330.0
 51
150.0
  0
ARC
  8
0
 10
926.193353
 20
393.964907
 30
0.0
 40
0.8
 50
210.0
 51
330.0
  0
ARC
  8
0
 10
926.539764
 20
395.164907
 30
0.0
 40
1.7
 50
90.0
 51
210.0
  0
ARC
  8
0
 10
933.039764
 20
268.864907
 30
0.0
 40
2.0
 50
270.0
 51
0.0
  0
ARC
  8
0
 10
931.839764
 20
270.064907
 30
0.0
 40
1.5
 50
270.0
 51
0.0
  0
ARC
  8
0
 10
933.039764
 20
394.864907
 30
0.0
 40
2.0
 50
0.0
 51
90.0
  0
ARC
  8
0
 10
931.839764
 20
393.664907
 30
0.0
 40
1.5
 50
0.0
 51
90.0
  0
ENDSEC
  0
EOF
