  0
SECTION
  2
HEADER
  9
$ACADVER
  1
AC1009
  9
$INSBASE
 10
0.0
 20
0.0
 30
0.0
  9
$EXTMIN
 10
855.039764
 20
246.864907
 30
0.0
  9
$EXTMAX
 10
995.039764
 20
456.864907
 30
0.0
  9
$LIMMIN
 10
855.039764
 20
246.864907
  9
$LIMMAX
 10
995.039764
 20
456.864907
  9
$ORTHOMODE
 70
     0
  9
$REGENMODE
 70
     1
  9
$FILLMODE
 70
     1
  9
$QTEXTMODE
 70
     0
  9
$MIRRTEXT
 70
     1
  9
$DRAGMODE
 70
     2
  9
$LTSCALE
 40
1.0
  9
$OSMODE
 70
     0
  9
$ATTMODE
 70
     1
  9
$TEXTSIZE
 40
3.5
  9
$TRACEWID
 40
0.5
  9
$TEXTSTYLE
  7
STANDARD
  9
$CLAYER
  8
0
  9
$CELTYPE
  6
BYLAYER
  9
$CECOLOR
 62
   256
  9
$DIMSCALE
 40
1.0
  9
$DIMASZ
 40
0.18
  9
$DIMEXO
 40
0.0625
  9
$DIMDLI
 40
0.38
  9
$DIMRND
 40
0.0
  9
$DIMDLE
 40
0.0
  9
$DIMEXE
 40
0.18
  9
$DIMTP
 40
0.0
  9
$DIMTM
 40
0.0
  9
$DIMTXT
 40
0.18
  9
$DIMCEN
 40
0.09
  9
$DIMTSZ
 40
0.0
  9
$DIMTOL
 70
     0
  9
$DIMLIM
 70
     0
  9
$DIMTIH
 70
     1
  9
$DIMTOH
 70
     1
  9
$DIMSE1
 70
     0
  9
$DIMSE2
 70
     0
  9
$DIMTAD
 70
     0
  9
$DIMZIN
 70
     0
  9
$DIMBLK
  1

  9
$DIMASO
 70
     1
  9
$DIMSHO
 70
     1
  9
$DIMPOST
  1

  9
$DIMAPOST
  1

  9
$DIMALT
 70
     0
  9
$DIMALTD
 70
     2
  9
$DIMALTF
 40
25.4
  9
$DIMLFAC
 40
1.0
  9
$DIMTOFL
 70
     0
  9
$DIMTVP
 40
0.0
  9
$DIMTIX
 70
     0
  9
$DIMSOXD
 70
     0
  9
$DIMSAH
 70
     0
  9
$DIMBLK1
  1

  9
$DIMBLK2
  1

  9
$DIMSTYLE
  2
*UNNAMED
  9
$DIMCLRD
 70
     0
  9
$DIMCLRE
 70
     0
  9
$DIMCLRT
 70
     0
  9
$DIMTFAC
 40
1.0
  9
$DIMGAP
 40
0.09
  9
$LUNITS
 70
     2
  9
$LUPREC
 70
     4
  9
$SKETCHINC
 40
0.1
  9
$FILLETRAD
 40
2.0
  9
$AUNITS
 70
     0
  9
$AUPREC
 70
     0
  9
$MENU
  1
ACAD
  9
$ELEVATION
 40
0.0
  9
$PELEVATION
 40
0.0
  9
$THICKNESS
 40
0.0
  9
$LIMCHECK
 70
     0
  9
$BLIPMODE
 70
     1
  9
$CHAMFERA
 40
0.0
  9
$CHAMFERB
 40
0.0
  9
$SKPOLY
 70
     0
  9
$TDCREATE
 40
2450952.550231366
  9
$TDUPDATE
 40
2450952.550842245
  9
$TDINDWG
 40
0.0003349537
  9
$TDUSRTIMER
 40
0.0003349537
  9
$USRTIMER
 70
     1
  9
$ANGBASE
 50
0.0
  9
$ANGDIR
 70
     0
  9
$PDMODE
 70
     0
  9
$PDSIZE
 40
0.0
  9
$PLINEWID
 40
0.0
  9
$COORDS
 70
     2
  9
$SPLFRAME
 70
     0
  9
$SPLINETYPE
 70
     6
  9
$SPLINESEGS
 70
     8
  9
$ATTDIA
 70
     0
  9
$ATTREQ
 70
     1
  9
$HANDLING
 70
     0
  9
$HANDSEED
  5
0
  9
$SURFTAB1
 70
     6
  9
$SURFTAB2
 70
     6
  9
$SURFTYPE
 70
     6
  9
$SURFU
 70
     6
  9
$SURFV
 70
     6
  9
$UCSNAME
  2

  9
$UCSORG
 10
0.0
 20
0.0
 30
0.0
  9
$UCSXDIR
 10
1.0
 20
0.0
 30
0.0
  9
$UCSYDIR
 10
0.0
 20
1.0
 30
0.0
  9
$PUCSNAME
  2

  9
$PUCSORG
 10
0.0
 20
0.0
 30
0.0
  9
$PUCSXDIR
 10
1.0
 20
0.0
 30
0.0
  9
$PUCSYDIR
 10
0.0
 20
1.0
 30
0.0
  9
$USERI1
 70
     0
  9
$USERI2
 70
     0
  9
$USERI3
 70
     0
  9
$USERI4
 70
     0
  9
$USERI5
 70
     0
  9
$USERR1
 40
0.0
  9
$USERR2
 40
0.0
  9
$USERR3
 40
0.0
  9
$USERR4
 40
0.0
  9
$USERR5
 40
0.0
  9
$WORLDVIEW
 70
     1
  9
$SHADEDGE
 70
     3
  9
$SHADEDIF
 70
    70
  9
$TILEMODE
 70
     1
  9
$MAXACTVP
 70
    16
  9
$PINSBASE
 10
0.0
 20
0.0
 30
0.0
  9
$PLIMCHECK
 70
     0
  9
$PEXTMIN
 10
1.000000E+20
 20
1.000000E+20
 30
1.000000E+20
  9
$PEXTMAX
 10
-1.000000E+20
 20
-1.000000E+20
 30
-1.000000E+20
  9
$PLIMMIN
 10
0.0
 20
0.0
  9
$PLIMMAX
 10
420.0
 20
297.0
  9
$UNITMODE
 70
     0
  9
$VISRETAIN
 70
     0
  9
$PLINEGEN
 70
     0
  9
$PSLTSCALE
 70
     1
  9
$TREEDEPTH
 70
  3020
  9
$DWGCODEPAGE
  3
iso8859-1
  0
ENDSEC
  0
SECTION
  2
TABLES
  0
TABLE
  2
VPORT
 70
     2
  0
VPORT
  2
*ACTIVE
 70
     0
 10
0.0
 20
0.0
 11
1.0
 21
1.0
 12
1001.514866
 22
334.695556
 13
0.0
 23
0.0
 14
1.0
 24
1.0
 15
0.0
 25
0.0
 16
0.0
 26
0.0
 36
1.0
 17
0.0
 27
0.0
 37
0.0
 40
334.551722
 41
1.748359
 42
50.0
 43
0.0
 44
0.0
 50
0.0
 51
0.0
 71
     0
 72
   100
 73
     1
 74
     0
 75
     0
 76
     0
 77
     0
 78
     0
  0
ENDTAB
  0
TABLE
  2
LTYPE
 70
     1
  0
LTYPE
  2
CONTINUOUS
 70
    64
  3
Solid line
 72
    65
 73
     0
 40
0.0
  0
ENDTAB
  0
TABLE
  2
LAYER
 70
     1
  0
LAYER
  2
0
 70
    64
 62
     7
  6
CONTINUOUS
  0
ENDTAB
  0
TABLE
  2
STYLE
 70
     1
  0
STYLE
  2
STANDARD
 70
     0
 40
0.0
 41
1.0
 50
0.0
 71
     0
 42
3.5
  3
txt
  4

  0
ENDTAB
  0
TABLE
  2
VIEW
 70
     0
  0
ENDTAB
  0
TABLE
  2
UCS
 70
     0
  0
ENDTAB
  0
TABLE
  2
APPID
 70
     1
  0
APPID
  2
ACAD
 70
    64
  0
ENDTAB
  0
TABLE
  2
DIMSTYLE
 70
     0
  0
ENDTAB
  0
ENDSEC
  0
SECTION
  2
BLOCKS
  0
ENDSEC
  0
SECTION
  2
ENTITIES
  0
LINE
  8
0
 10
875.039764
 20
266.864907
 30
0.0
 11
875.039764
 21
288.864907
 31
0.0
  0
LINE
  8
0
 10
975.039764
 20
266.864907
 30
0.0
 11
875.039764
 21
266.864907
 31
0.0
  0
LINE
  8
0
 10
975.039764
 20
436.864907
 30
0.0
 11
975.039764
 21
266.864907
 31
0.0
  0
LINE
  8
0
 10
875.039764
 20
436.864907
 30
0.0
 11
975.039764
 21
436.864907
 31
0.0
  0
LINE
  8
0
 10
875.039764
 20
414.864907
 30
0.0
 11
875.039764
 21
436.864907
 31
0.0
  0
LINE
  8
0
 10
929.139764
 20
409.464907
 30
0.0
 11
926.939764
 21
409.464907
 31
0.0
  0
LINE
  8
0
 10
929.639764
 20
405.064907
 30
0.0
 11
929.639764
 21
408.964907
 31
0.0
  0
LINE
  8
0
 10
929.639764
 20
298.562457
 30
0.0
 11
929.639764
 21
296.535278
 31
0.0
  0
LINE
  8
0
 10
931.039764
 20
298.764907
 30
0.0
 11
931.039764
 21
296.782136
 31
0.0
  0
LINE
  8
0
 10
929.639764
 20
298.562457
 30
0.0
 11
929.639764
 21
298.664907
 31
0.0
  0
LINE
  8
0
 10
877.339764
 20
318.364907
 30
0.0
 11
877.339764
 21
291.164907
 31
0.0
  0
LINE
  8
0
 10
877.339764
 20
348.364907
 30
0.0
 11
877.339764
 21
325.364907
 31
0.0
  0
LINE
  8
0
 10
877.339764
 20
378.364907
 30
0.0
 11
877.339764
 21
355.364907
 31
0.0
  0
LINE
  8
0
 10
877.339764
 20
412.564907
 30
0.0
 11
877.339764
 21
385.364907
 31
0.0
  0
LINE
  8
0
 10
878.339764
 20
379.364907
 30
0.0
 11
882.349814
 21
379.364907
 31
0.0
  0
LINE
  8
0
 10
878.239764
 20
380.964907
 30
0.0
 11
882.02555
 21
380.964907
 31
0.0
  0
LINE
  8
0
 10
883.08621
 20
378.404247
 30
0.0
 11
881.193317
 21
376.511354
 31
0.0
  0
LINE
  8
0
 10
880.339764
 20
376.864907
 30
0.0
 11
880.339764
 21
378.864907
 31
0.0
  0
LINE
  8
0
 10
881.193317
 20
379.218461
 30
0.0
 11
881.698342
 21
378.713436
 31
0.0
  0
LINE
  8
0
 10
881.698342
 20
378.713436
 30
0.0
 11
882.349814
 21
379.364907
 31
0.0
  0
LINE
  8
0
 10
882.349814
 20
384.364907
 30
0.0
 11
878.339764
 21
384.364907
 31
0.0
  0
LINE
  8
0
 10
882.02555
 20
382.764907
 30
0.0
 11
878.239764
 21
382.764907
 31
0.0
  0
LINE
  8
0
 10
881.193317
 20
387.218461
 30
0.0
 11
883.08621
 21
385.325568
 31
0.0
  0
LINE
  8
0
 10
880.339764
 20
384.864907
 30
0.0
 11
880.339764
 21
386.864907
 31
0.0
  0
LINE
  8
0
 10
881.698342
 20
385.016379
 30
0.0
 11
881.193317
 21
384.511354
 31
0.0
  0
LINE
  8
0
 10
882.349814
 20
384.364907
 30
0.0
 11
881.698342
 21
385.016379
 31
0.0
  0
LINE
  8
0
 10
878.339764
 20
319.364907
 30
0.0
 11
882.349814
 21
319.364907
 31
0.0
  0
LINE
  8
0
 10
878.239764
 20
320.964907
 30
0.0
 11
882.02555
 21
320.964907
 31
0.0
  0
LINE
  8
0
 10
883.08621
 20
318.404247
 30
0.0
 11
881.193317
 21
316.511354
 31
0.0
  0
LINE
  8
0
 10
880.339764
 20
316.864907
 30
0.0
 11
880.339764
 21
318.864907
 31
0.0
  0
LINE
  8
0
 10
881.193317
 20
319.218461
 30
0.0
 11
881.698342
 21
318.713436
 31
0.0
  0
LINE
  8
0
 10
881.698342
 20
318.713436
 30
0.0
 11
882.349814
 21
319.364907
 31
0.0
  0
LINE
  8
0
 10
882.349814
 20
324.364907
 30
0.0
 11
878.339764
 21
324.364907
 31
0.0
  0
LINE
  8
0
 10
882.02555
 20
322.764907
 30
0.0
 11
878.239764
 21
322.764907
 31
0.0
  0
LINE
  8
0
 10
881.193317
 20
327.218461
 30
0.0
 11
883.08621
 21
325.325568
 31
0.0
  0
LINE
  8
0
 10
880.339764
 20
324.864907
 30
0.0
 11
880.339764
 21
326.864907
 31
0.0
  0
LINE
  8
0
 10
881.698342
 20
325.016379
 30
0.0
 11
881.193317
 21
324.511354
 31
0.0
  0
LINE
  8
0
 10
882.349814
 20
324.364907
 30
0.0
 11
881.698342
 21
325.016379
 31
0.0
  0
LINE
  8
0
 10
875.039764
 20
288.864907
 30
0.0
 11
875.039764
 21
414.864907
 31
0.0
  0
LINE
  8
0
 10
922.385063
 20
286.864907
 30
0.0
 11
877.039764
 21
286.864907
 31
0.0
  0
LINE
  8
0
 10
925.039764
 20
409.666831
 30
0.0
 11
925.039764
 21
404.164907
 31
0.0
  0
LINE
  8
0
 10
922.789208
 20
413.564907
 30
0.0
 11
925.039764
 21
409.666831
 31
0.0
  0
LINE
  8
0
 10
925.039764
 20
294.062984
 30
0.0
 11
925.039764
 21
299.564907
 31
0.0
  0
LINE
  8
0
 10
922.789208
 20
290.164907
 30
0.0
 11
925.039764
 21
294.062984
 31
0.0
  0
LINE
  8
0
 10
926.71519
 20
411.364907
 30
0.0
 11
924.117114
 21
415.864907
 31
0.0
  0
LINE
  8
0
 10
927.588434
 20
410.864907
 30
0.0
 11
927.581216
 21
410.864907
 31
0.0
  0
LINE
  8
0
 10
924.117114
 20
287.864907
 30
0.0
 11
926.71519
 21
292.364907
 31
0.0
  0
LINE
  8
0
 10
931.039764
 20
298.764907
 30
0.0
 11
931.039764
 21
299.564907
 31
0.0
  0
LINE
  8
0
 10
931.039764
 20
404.164907
 30
0.0
 11
931.039764
 21
408.964907
 31
0.0
  0
LINE
  8
0
 10
926.439764
 20
408.964907
 30
0.0
 11
926.439764
 21
405.064907
 31
0.0
  0
LINE
  8
0
 10
926.939764
 20
404.564907
 30
0.0
 11
929.139764
 21
404.564907
 31
0.0
  0
LINE
  8
0
 10
926.039764
 20
403.164907
 30
0.0
 11
930.039764
 21
403.164907
 31
0.0
  0
LINE
  8
0
 10
927.588434
 20
410.864907
 30
0.0
 11
931.139764
 21
410.864907
 31
0.0
  0
LINE
  8
0
 10
931.639764
 20
411.364907
 30
0.0
 11
931.639764
 21
411.664907
 31
0.0
  0
LINE
  8
0
 10
933.039764
 20
411.664907
 30
0.0
 11
933.039764
 21
409.964907
 31
0.0
  0
LINE
  8
0
 10
932.539764
 20
409.464907
 30
0.0
 11
931.539764
 21
409.464907
 31
0.0
  0
LINE
  8
0
 10
879.339764
 20
414.564907
 30
0.0
 11
921.057157
 21
414.564907
 31
0.0
  0
LINE
  8
0
 10
877.039764
 20
416.864907
 30
0.0
 11
922.385063
 21
416.864907
 31
0.0
  0
LINE
  8
0
 10
926.439764
 20
294.764907
 30
0.0
 11
926.439764
 21
298.664907
 31
0.0
  0
LINE
  8
0
 10
929.139764
 20
299.164907
 30
0.0
 11
926.939764
 21
299.164907
 31
0.0
  0
LINE
  8
0
 10
929.639764
 20
294.764907
 30
0.0
 11
929.639764
 21
296.535278
 31
0.0
  0
LINE
  8
0
 10
930.039764
 20
300.564907
 30
0.0
 11
926.039764
 21
300.564907
 31
0.0
  0
LINE
  8
0
 10
931.039764
 20
294.764907
 30
0.0
 11
931.039764
 21
296.782136
 31
0.0
  0
LINE
  8
0
 10
931.139764
 20
292.864907
 30
0.0
 11
927.581216
 21
292.864907
 31
0.0
  0
LINE
  8
0
 10
931.639764
 20
292.064907
 30
0.0
 11
931.639764
 21
292.364907
 31
0.0
  0
LINE
  8
0
 10
929.539764
 20
288.564907
 30
0.0
 11
928.939764
 21
288.564907
 31
0.0
  0
LINE
  8
0
 10
933.039764
 20
293.764907
 30
0.0
 11
933.039764
 21
292.064907
 31
0.0
  0
LINE
  8
0
 10
931.539764
 20
294.264907
 30
0.0
 11
932.539764
 21
294.264907
 31
0.0
  0
LINE
  8
0
 10
929.139764
 20
294.264907
 30
0.0
 11
926.939764
 21
294.264907
 31
0.0
  0
LINE
  8
0
 10
878.339764
 20
349.364907
 30
0.0
 11
882.349814
 21
349.364907
 31
0.0
  0
LINE
  8
0
 10
878.239764
 20
350.964907
 30
0.0
 11
882.02555
 21
350.964907
 31
0.0
  0
LINE
  8
0
 10
883.08621
 20
348.404247
 30
0.0
 11
881.193317
 21
346.511354
 31
0.0
  0
LINE
  8
0
 10
880.339764
 20
346.864907
 30
0.0
 11
880.339764
 21
348.864907
 31
0.0
  0
LINE
  8
0
 10
881.193317
 20
349.218461
 30
0.0
 11
881.698342
 21
348.713436
 31
0.0
  0
LINE
  8
0
 10
881.698342
 20
348.713436
 30
0.0
 11
882.349814
 21
349.364907
 31
0.0
  0
LINE
  8
0
 10
882.349814
 20
354.364907
 30
0.0
 11
878.339764
 21
354.364907
 31
0.0
  0
LINE
  8
0
 10
882.02555
 20
352.764907
 30
0.0
 11
878.239764
 21
352.764907
 31
0.0
  0
LINE
  8
0
 10
881.193317
 20
357.218461
 30
0.0
 11
883.08621
 21
355.325568
 31
0.0
  0
LINE
  8
0
 10
880.339764
 20
354.864907
 30
0.0
 11
880.339764
 21
356.864907
 31
0.0
  0
LINE
  8
0
 10
881.698342
 20
355.016379
 30
0.0
 11
881.193317
 21
354.511354
 31
0.0
  0
LINE
  8
0
 10
882.349814
 20
354.364907
 30
0.0
 11
881.698342
 21
355.016379
 31
0.0
  0
LINE
  8
0
 10
879.339764
 20
289.164907
 30
0.0
 11
921.057157
 21
289.164907
 31
0.0
  0
LINE
  8
0
 10
929.539764
 20
289.964907
 30
0.0
 11
928.939764
 21
289.964907
 31
0.0
  0
LINE
  8
0
 10
929.539764
 20
415.164907
 30
0.0
 11
928.939764
 21
415.164907
 31
0.0
  0
LINE
  8
0
 10
929.539764
 20
413.764907
 30
0.0
 11
928.939764
 21
413.764907
 31
0.0
  0
LINE
  8
0
 10
925.500533
 20
290.164907
 30
0.0
 11
925.06752
 21
289.414907
 31
0.0
  0
ARC
  8
0
 10
882.02555
 20
379.464907
 30
0.0
 40
1.5
 50
315.0
 51
90.0
  0
ARC
  8
0
 10
880.839764
 20
376.864907
 30
0.0
 40
0.5
 50
270.0
 51
315.0
  0
ARC
  8
0
 10
880.839764
 20
378.864907
 30
0.0
 40
0.5
 50
45.0
 51
180.0
  0
ARC
  8
0
 10
882.02555
 20
384.264907
 30
0.0
 40
1.5
 50
270.0
 51
45.0
  0
ARC
  8
0
 10
880.839764
 20
386.864907
 30
0.0
 40
0.5
 50
90.0
 51
180.0
  0
ARC
  8
0
 10
880.839764
 20
384.864907
 30
0.0
 40
0.5
 50
180.0
 51
315.0
  0
ARC
  8
0
 10
880.839764
 20
386.864907
 30
0.0
 40
0.5
 50
45.0
 51
90.0
  0
ARC
  8
0
 10
880.839764
 20
376.864907
 30
0.0
 40
0.5
 50
180.0
 51
270.0
  0
ARC
  8
0
 10
882.02555
 20
319.464907
 30
0.0
 40
1.5
 50
315.0
 51
90.0
  0
ARC
  8
0
 10
880.839764
 20
316.864907
 30
0.0
 40
0.5
 50
270.0
 51
315.0
  0
ARC
  8
0
 10
880.839764
 20
318.864907
 30
0.0
 40
0.5
 50
45.0
 51
180.0
  0
ARC
  8
0
 10
882.02555
 20
324.264907
 30
0.0
 40
1.5
 50
270.0
 51
45.0
  0
ARC
  8
0
 10
880.839764
 20
326.864907
 30
0.0
 40
0.5
 50
90.0
 51
180.0
  0
ARC
  8
0
 10
880.839764
 20
324.864907
 30
0.0
 40
0.5
 50
180.0
 51
315.0
  0
ARC
  8
0
 10
880.839764
 20
326.864907
 30
0.0
 40
0.5
 50
45.0
 51
90.0
  0
ARC
  8
0
 10
880.839764
 20
316.864907
 30
0.0
 40
0.5
 50
180.0
 51
270.0
  0
ARC
  8
0
 10
882.02555
 20
349.464907
 30
0.0
 40
1.5
 50
315.0
 51
90.0
  0
ARC
  8
0
 10
880.839764
 20
346.864907
 30
0.0
 40
0.5
 50
270.0
 51
315.0
  0
ARC
  8
0
 10
880.839764
 20
348.864907
 30
0.0
 40
0.5
 50
45.0
 51
180.0
  0
ARC
  8
0
 10
882.02555
 20
354.264907
 30
0.0
 40
1.5
 50
270.0
 51
45.0
  0
ARC
  8
0
 10
880.839764
 20
356.864907
 30
0.0
 40
0.5
 50
90.0
 51
180.0
  0
ARC
  8
0
 10
880.839764
 20
354.864907
 30
0.0
 40
0.5
 50
180.0
 51
315.0
  0
ARC
  8
0
 10
880.839764
 20
356.864907
 30
0.0
 40
0.5
 50
45.0
 51
90.0
  0
ARC
  8
0
 10
880.839764
 20
346.864907
 30
0.0
 40
0.5
 50
180.0
 51
270.0
  0
ARC
  8
0
 10
929.139764
 20
408.964907
 30
0.0
 40
0.5
 50
0.0
 51
90.0
  0
ARC
  8
0
 10
878.239764
 20
381.864907
 30
0.0
 40
0.9
 50
90.0
 51
270.0
  0
ARC
  8
0
 10
878.339764
 20
385.364907
 30
0.0
 40
1.0
 50
180.0
 51
270.0
  0
ARC
  8
0
 10
878.339764
 20
378.364907
 30
0.0
 40
1.0
 50
90.0
 51
180.0
  0
ARC
  8
0
 10
878.239764
 20
321.864907
 30
0.0
 40
0.9
 50
90.0
 51
270.0
  0
ARC
  8
0
 10
878.339764
 20
325.364907
 30
0.0
 40
1.0
 50
180.0
 51
270.0
  0
ARC
  8
0
 10
878.339764
 20
318.364907
 30
0.0
 40
1.0
 50
90.0
 51
180.0
  0
ARC
  8
0
 10
877.039764
 20
288.864907
 30
0.0
 40
2.0
 50
180.0
 51
270.0
  0
ARC
  8
0
 10
877.039764
 20
414.864907
 30
0.0
 40
2.0
 50
90.0
 51
180.0
  0
ARC
  8
0
 10
921.057157
 20
412.564907
 30
0.0
 40
2.0
 50
30.0
 51
90.0
  0
ARC
  8
0
 10
921.057157
 20
291.164907
 30
0.0
 40
2.0
 50
270.0
 51
330.0
  0
ARC
  8
0
 10
927.581216
 20
411.864907
 30
0.0
 40
1.0
 50
210.0
 51
270.0
  0
ARC
  8
0
 10
922.385063
 20
414.864907
 30
0.0
 40
2.0
 50
30.0
 51
90.0
  0
ARC
  8
0
 10
927.581216
 20
291.864907
 30
0.0
 40
1.0
 50
90.0
 51
150.0
  0
ARC
  8
0
 10
922.385063
 20
288.864907
 30
0.0
 40
2.0
 50
270.0
 51
330.0
  0
ARC
  8
0
 10
926.939764
 20
405.064907
 30
0.0
 40
0.5
 50
180.0
 51
270.0
  0
ARC
  8
0
 10
929.139764
 20
405.064907
 30
0.0
 40
0.5
 50
270.0
 51
0.0
  0
ARC
  8
0
 10
926.939764
 20
298.664907
 30
0.0
 40
0.5
 50
90.0
 51
180.0
  0
ARC
  8
0
 10
929.139764
 20
298.664907
 30
0.0
 40
0.5
 50
0.0
 51
90.0
  0
ARC
  8
0
 10
928.939764
 20
414.464907
 30
0.0
 40
0.7
 50
180.0
 51
270.0
  0
ARC
  8
0
 10
928.939764
 20
414.464907
 30
0.0
 40
0.7
 50
90.0
 51
180.0
  0
ARC
  8
0
 10
931.139764
 20
411.364907
 30
0.0
 40
0.5
 50
270.0
 51
0.0
  0
ARC
  8
0
 10
929.539764
 20
411.664907
 30
0.0
 40
2.1
 50
0.0
 51
90.0
  0
ARC
  8
0
 10
929.539764
 20
411.664907
 30
0.0
 40
3.5
 50
0.0
 51
90.0
  0
ARC
  8
0
 10
930.039764
 20
404.164907
 30
0.0
 40
1.0
 50
270.0
 51
0.0
  0
ARC
  8
0
 10
926.039764
 20
404.164907
 30
0.0
 40
1.0
 50
180.0
 51
270.0
  0
ARC
  8
0
 10
932.539764
 20
409.964907
 30
0.0
 40
0.5
 50
270.0
 51
0.0
  0
ARC
  8
0
 10
931.539764
 20
408.964907
 30
0.0
 40
0.5
 50
90.0
 51
180.0
  0
ARC
  8
0
 10
926.939764
 20
408.964907
 30
0.0
 40
0.5
 50
90.0
 51
180.0
  0
ARC
  8
0
 10
879.339764
 20
412.564907
 30
0.0
 40
2.0
 50
90.0
 51
180.0
  0
ARC
  8
0
 10
928.939764
 20
289.264907
 30
0.0
 40
0.7
 50
90.0
 51
180.0
  0
ARC
  8
0
 10
928.939764
 20
289.264907
 30
0.0
 40
0.7
 50
180.0
 51
270.0
  0
ARC
  8
0
 10
931.139764
 20
292.364907
 30
0.0
 40
0.5
 50
0.0
 51
90.0
  0
ARC
  8
0
 10
929.539764
 20
292.064907
 30
0.0
 40
2.1
 50
270.0
 51
0.0
  0
ARC
  8
0
 10
929.539764
 20
292.064907
 30
0.0
 40
3.5
 50
270.0
 51
0.0
  0
ARC
  8
0
 10
930.039764
 20
299.564907
 30
0.0
 40
1.0
 50
0.0
 51
90.0
  0
ARC
  8
0
 10
926.039764
 20
299.564907
 30
0.0
 40
1.0
 50
90.0
 51
180.0
  0
ARC
  8
0
 10
932.539764
 20
293.764907
 30
0.0
 40
0.5
 50
0.0
 51
90.0
  0
ARC
  8
0
 10
931.539764
 20
294.764907
 30
0.0
 40
0.5
 50
180.0
 51
270.0
  0
ARC
  8
0
 10
929.139764
 20
294.764907
 30
0.0
 40
0.5
 50
270.0
 51
0.0
  0
ARC
  8
0
 10
926.939764
 20
294.764907
 30
0.0
 40
0.5
 50
180.0
 51
270.0
  0
ARC
  8
0
 10
878.239764
 20
351.864907
 30
0.0
 40
0.9
 50
90.0
 51
270.0
  0
ARC
  8
0
 10
878.339764
 20
355.364907
 30
0.0
 40
1.0
 50
180.0
 51
270.0
  0
ARC
  8
0
 10
878.339764
 20
348.364907
 30
0.0
 40
1.0
 50
90.0
 51
180.0
  0
ARC
  8
0
 10
879.339764
 20
291.164907
 30
0.0
 40
2.0
 50
180.0
 51
270.0
  0
LINE
  8
0
 10
928.514893
 20
415.164907
 30
0.0
 11
931.839764
 21
415.164907
 31
0.0
  0
LINE
  8
0
 10
933.339764
 20
413.664907
 30
0.0
 11
933.339764
 21
351.864907
 31
0.0
  0
LINE
  8
0
 10
935.039764
 20
351.864907
 30
0.0
 11
935.039764
 21
414.864907
 31
0.0
  0
LINE
  8
0
 10
933.039764
 20
416.864907
 30
0.0
 11
926.539764
 21
416.864907
 31
0.0
  0
LINE
  8
0
 10
925.06752
 20
414.314907
 30
0.0
 11
925.500533
 21
413.564907
 31
0.0
  0
LINE
  8
0
 10
926.886174
 20
413.564907
 30
0.0
 11
927.736174
 21
415.037151
 31
0.0
  0
LINE
  8
0
 10
926.870148
 20
415.537151
 30
0.0
 11
926.366559
 21
414.664907
 31
0.0
  0
LINE
  8
0
 10
926.020148
 20
414.664907
 30
0.0
 11
925.933546
 21
414.814907
 31
0.0
  0
LINE
  8
0
 10
926.539764
 20
415.864907
 30
0.0
 11
927.302457
 21
415.864907
 31
0.0
  0
LINE
  8
0
 10
927.302457
 20
415.864907
 30
0.0
 11
928.514893
 21
415.164907
 31
0.0
  0
LINE
  8
0
 10
931.839764
 20
288.564907
 30
0.0
 11
928.514893
 21
288.564907
 31
0.0
  0
LINE
  8
0
 10
933.339764
 20
351.864907
 30
0.0
 11
933.339764
 21
290.064907
 31
0.0
  0
LINE
  8
0
 10
935.039764
 20
288.864907
 30
0.0
 11
935.039764
 21
351.864907
 31
0.0
  0
LINE
  8
0
 10
926.539764
 20
286.864907
 30
0.0
 11
933.039764
 21
286.864907
 31
0.0
  0
LINE
  8
0
 10
927.736174
 20
288.692664
 30
0.0
 11
926.886174
 21
290.164907
 31
0.0
  0
LINE
  8
0
 10
926.366559
 20
289.064907
 30
0.0
 11
926.870148
 21
288.192664
 31
0.0
  0
LINE
  8
0
 10
925.933546
 20
288.914907
 30
0.0
 11
926.020148
 21
289.064907
 31
0.0
  0
LINE
  8
0
 10
927.302457
 20
287.864907
 30
0.0
 11
926.539764
 21
287.864907
 31
0.0
  0
LINE
  8
0
 10
928.514893
 20
288.564907
 30
0.0
 11
927.302457
 21
287.864907
 31
0.0
  0
ARC
  8
0
 10
926.539764
 20
415.164907
 30
0.0
 40
1.7
 50
90.0
 51
210.0
  0
ARC
  8
0
 10
926.193353
 20
413.964907
 30
0.0
 40
0.8
 50
210.0
 51
330.0
  0
ARC
  8
0
 10
927.303161
 20
415.287151
 30
0.0
 40
0.5
 50
330.0
 51
150.0
  0
ARC
  8
0
 10
926.193353
 20
414.764907
 30
0.0
 40
0.2
 50
210.0
 51
330.0
  0
ARC
  8
0
 10
926.539764
 20
415.164907
 30
0.0
 40
0.7
 50
90.0
 51
210.0
  0
ARC
  8
0
 10
926.539764
 20
288.564907
 30
0.0
 40
1.7
 50
150.0
 51
270.0
  0
ARC
  8
0
 10
926.193353
 20
289.764907
 30
0.0
 40
0.8
 50
30.0
 51
150.0
  0
ARC
  8
0
 10
927.303161
 20
288.442664
 30
0.0
 40
0.5
 50
210.0
 51
30.0
  0
ARC
  8
0
 10
926.193353
 20
288.964907
 30
0.0
 40
0.2
 50
30.0
 51
150.0
  0
ARC
  8
0
 10
926.539764
 20
288.564907
 30
0.0
 40
0.7
 50
150.0
 51
270.0
  0
ARC
  8
0
 10
931.839764
 20
413.664907
 30
0.0
 40
1.5
 50
0.0
 51
90.0
  0
ARC
  8
0
 10
933.039764
 20
414.864907
 30
0.0
 40
2.0
 50
0.0
 51
90.0
  0
ARC
  8
0
 10
931.839764
 20
290.064907
 30
0.0
 40
1.5
 50
270.0
 51
0.0
  0
ARC
  8
0
 10
933.039764
 20
288.864907
 30
0.0
 40
2.0
 50
270.0
 51
0.0
  0
LINE
  8
0
 10
929.639764
 20
407.490674
 30
0.0
 11
928.296481
 21
407.727531
 31
0.0
  0
LINE
  8
0
 10
931.039764
 20
296.782136
 30
0.0
 11
931.500236
 21
296.863329
 31
0.0
  0
LINE
  8
0
 10
929.639764
 20
298.562457
 30
0.0
 11
927.866115
 21
298.249715
 31
0.0
  0
LINE
  8
0
 10
932.739764
 20
316.864907
 30
0.0
 11
924.239764
 21
316.864907
 31
0.0
  0
LINE
  8
0
 10
932.739764
 20
339.364907
 30
0.0
 11
931.239764
 21
339.312526
 31
0.0
  0
LINE
  8
0
 10
931.239764
 20
340.417289
 30
0.0
 11
932.739764
 21
340.364907
 31
0.0
  0
LINE
  8
0
 10
932.739764
 20
340.364907
 30
0.0
 11
932.739764
 21
339.364907
 31
0.0
  0
LINE
  8
0
 10
931.239764
 20
339.312526
 30
0.0
 11
927.739764
 21
339.190304
 31
0.0
  0
LINE
  8
0
 10
927.739764
 20
340.539511
 30
0.0
 11
931.239764
 21
340.417289
 31
0.0
  0
LINE
  8
0
 10
927.739764
 20
339.190304
 30
0.0
 11
924.669965
 21
339.083104
 31
0.0
  0
LINE
  8
0
 10
922.739764
 20
351.864907
 30
0.0
 11
922.739764
 21
342.645493
 31
0.0
  0
LINE
  8
0
 10
927.739764
 20
340.539511
 30
0.0
 11
927.739764
 21
339.190304
 31
0.0
  0
LINE
  8
0
 10
924.669965
 20
340.646711
 30
0.0
 11
927.739764
 21
340.539511
 31
0.0
  0
LINE
  8
0
 10
931.239764
 20
363.312526
 30
0.0
 11
931.239764
 21
340.417289
 31
0.0
  0
LINE
  8
0
 10
931.239764
 20
364.417289
 30
0.0
 11
932.739764
 21
364.364907
 31
0.0
  0
LINE
  8
0
 10
932.739764
 20
364.364907
 30
0.0
 11
932.739764
 21
363.364907
 31
0.0
  0
LINE
  8
0
 10
932.739764
 20
363.364907
 30
0.0
 11
931.239764
 21
363.312526
 31
0.0
  0
LINE
  8
0
 10
932.739764
 20
340.364907
 30
0.0
 11
932.739764
 21
363.364907
 31
0.0
  0
LINE
  8
0
 10
927.739764
 20
364.539511
 30
0.0
 11
931.239764
 21
364.417289
 31
0.0
  0
LINE
  8
0
 10
931.239764
 20
363.312526
 30
0.0
 11
927.739764
 21
363.190304
 31
0.0
  0
LINE
  8
0
 10
922.739764
 20
361.084322
 30
0.0
 11
922.739764
 21
351.864907
 31
0.0
  0
LINE
  8
0
 10
924.669965
 20
364.646711
 30
0.0
 11
927.739764
 21
364.539511
 31
0.0
  0
LINE
  8
0
 10
927.739764
 20
364.539511
 30
0.0
 11
927.739764
 21
363.190304
 31
0.0
  0
LINE
  8
0
 10
927.739764
 20
363.190304
 30
0.0
 11
924.669965
 21
363.083104
 31
0.0
  0
LINE
  8
0
 10
922.739764
 20
382.584322
 30
0.0
 11
922.739764
 21
366.645493
 31
0.0
  0
LINE
  8
0
 10
924.739764
 20
385.763625
 30
0.0
 11
924.739764
 21
385.203716
 31
0.0
  0
LINE
  8
0
 10
924.839764
 20
385.030511
 30
0.0
 11
925.560813
 21
384.614213
 31
0.0
  0
LINE
  8
0
 10
925.560813
 20
384.614213
 30
0.0
 11
924.669965
 21
384.583104
 31
0.0
  0
LINE
  8
0
 10
925.761859
 20
386.457063
 30
0.0
 11
927.739764
 21
385.927085
 31
0.0
  0
LINE
  8
0
 10
932.739764
 20
364.364907
 30
0.0
 11
932.739764
 21
384.864907
 31
0.0
  0
LINE
  8
0
 10
932.739764
 20
384.864907
 30
0.0
 11
931.239764
 21
384.812526
 31
0.0
  0
LINE
  8
0
 10
931.239764
 20
384.812526
 30
0.0
 11
931.239764
 21
364.417289
 31
0.0
  0
LINE
  8
0
 10
931.239764
 20
384.812526
 30
0.0
 11
924.669965
 21
384.583104
 31
0.0
  0
LINE
  8
0
 10
932.739764
 20
385.927085
 30
0.0
 11
927.739764
 21
385.927085
 31
0.0
  0
LINE
  8
0
 10
932.739764
 20
385.927085
 30
0.0
 11
932.739764
 21
381.864907
 31
0.0
  0
LINE
  8
0
 10
932.739764
 20
386.864907
 30
0.0
 11
932.739764
 21
385.927085
 31
0.0
  0
LINE
  8
0
 10
924.239764
 20
386.864907
 30
0.0
 11
925.761859
 21
386.457063
 31
0.0
  0
LINE
  8
0
 10
924.239764
 20
386.864907
 30
0.0
 11
932.739764
 21
386.864907
 31
0.0
  0
LINE
  8
0
 10
924.239764
 20
388.641187
 30
0.0
 11
924.239764
 21
386.864907
 31
0.0
  0
LINE
  8
0
 10
926.639764
 20
401.464907
 30
0.0
 11
926.639764
 21
388.641187
 31
0.0
  0
LINE
  8
0
 10
924.239764
 20
401.464907
 30
0.0
 11
924.239764
 21
388.641187
 31
0.0
  0
LINE
  8
0
 10
930.739764
 20
402.664907
 30
0.0
 11
925.439764
 21
402.664907
 31
0.0
  0
LINE
  8
0
 10
931.039764
 20
402.964907
 30
0.0
 11
931.039764
 21
404.66877
 31
0.0
  0
LINE
  8
0
 10
932.739764
 20
405.685411
 30
0.0
 11
932.739764
 21
386.864907
 31
0.0
  0
LINE
  8
0
 10
931.500236
 20
407.162623
 30
0.0
 11
931.039764
 21
407.243817
 31
0.0
  0
LINE
  8
0
 10
927.866115
 20
405.776237
 30
0.0
 11
929.639764
 21
405.463495
 31
0.0
  0
LINE
  8
0
 10
922.739764
 20
337.084322
 30
0.0
 11
922.739764
 21
321.145493
 31
0.0
  0
LINE
  8
0
 10
932.739764
 20
318.864907
 30
0.0
 11
932.739764
 21
339.364907
 31
0.0
  0
LINE
  8
0
 10
931.239764
 20
339.312526
 30
0.0
 11
931.239764
 21
318.917289
 31
0.0
  0
LINE
  8
0
 10
932.739764
 20
321.864907
 30
0.0
 11
932.739764
 21
317.80273
 31
0.0
  0
LINE
  8
0
 10
932.739764
 20
317.80273
 30
0.0
 11
932.739764
 21
316.864907
 31
0.0
  0
LINE
  8
0
 10
931.239764
 20
318.917289
 30
0.0
 11
932.739764
 21
318.864907
 31
0.0
  0
LINE
  8
0
 10
927.739764
 20
317.80273
 30
0.0
 11
932.739764
 21
317.80273
 31
0.0
  0
LINE
  8
0
 10
924.669965
 20
319.146711
 30
0.0
 11
931.239764
 21
318.917289
 31
0.0
  0
LINE
  8
0
 10
924.739764
 20
318.526099
 30
0.0
 11
924.739764
 21
317.96619
 31
0.0
  0
LINE
  8
0
 10
925.560813
 20
319.115602
 30
0.0
 11
924.839764
 21
318.699304
 31
0.0
  0
LINE
  8
0
 10
924.669965
 20
319.146711
 30
0.0
 11
925.560813
 21
319.115602
 31
0.0
  0
LINE
  8
0
 10
927.739764
 20
317.80273
 30
0.0
 11
925.761859
 21
317.272752
 31
0.0
  0
LINE
  8
0
 10
926.639764
 20
315.088628
 30
0.0
 11
926.639764
 21
302.264907
 31
0.0
  0
LINE
  8
0
 10
924.239764
 20
315.088628
 30
0.0
 11
924.239764
 21
302.264907
 31
0.0
  0
LINE
  8
0
 10
924.239764
 20
316.864907
 30
0.0
 11
924.239764
 21
315.088628
 31
0.0
  0
LINE
  8
0
 10
925.761859
 20
317.272752
 30
0.0
 11
924.239764
 21
316.864907
 31
0.0
  0
LINE
  8
0
 10
925.439764
 20
301.064907
 30
0.0
 11
930.739764
 21
301.064907
 31
0.0
  0
LINE
  8
0
 10
931.039764
 20
299.061045
 30
0.0
 11
931.039764
 21
300.764907
 31
0.0
  0
LINE
  8
0
 10
932.739764
 20
316.864907
 30
0.0
 11
932.739764
 21
298.340541
 31
0.0
  0
LINE
  8
0
 10
928.296481
 20
296.298421
 30
0.0
 11
929.639764
 21
296.535278
 31
0.0
  0
ARC
  8
0
 10
927.739764
 20
381.864907
 30
0.0
 40
5.0
 50
113.302207
 51
125.685335
  0
ARC
  8
0
 10
925.439764
 20
388.641187
 30
0.0
 40
1.2
 50
270.0
 51
0.0
  0
ARC
  8
0
 10
925.439764
 20
401.464907
 30
0.0
 40
1.2
 50
90.0
 51
180.0
  0
ARC
  8
0
 10
925.439764
 20
401.464907
 30
0.0
 40
1.2
 50
0.0
 51
90.0
  0
ARC
  8
0
 10
928.039764
 20
406.761045
 30
0.0
 40
1.0
 50
75.124638
 51
260.0
  0
ARC
  8
0
 10
928.039764
 20
406.761045
 30
0.0
 40
1.0
 50
260.0
 51
75.124638
  0
ARC
  8
0
 10
927.739764
 20
321.864907
 30
0.0
 40
5.0
 50
234.314665
 51
246.697793
  0
ARC
  8
0
 10
925.439764
 20
315.088628
 30
0.0
 40
1.2
 50
0.0
 51
90.0
  0
ARC
  8
0
 10
925.439764
 20
302.264907
 30
0.0
 40
1.2
 50
270.0
 51
0.0
  0
ARC
  8
0
 10
925.439764
 20
302.264907
 30
0.0
 40
1.2
 50
180.0
 51
270.0
  0
ARC
  8
0
 10
928.039764
 20
297.264907
 30
0.0
 40
1.0
 50
100.0
 51
284.875362
  0
ARC
  8
0
 10
928.039764
 20
297.264907
 30
0.0
 40
1.0
 50
284.875362
 51
100.0
  0
ARC
  8
0
 10
924.739764
 20
337.084322
 30
0.0
 40
2.0
 50
92.0
 51
180.0
  0
ARC
  8
0
 10
924.739764
 20
342.645493
 30
0.0
 40
2.0
 50
180.0
 51
268.0
  0
ARC
  8
0
 10
924.739764
 20
366.645493
 30
0.0
 40
2.0
 50
180.0
 51
268.0
  0
ARC
  8
0
 10
924.739764
 20
361.084322
 30
0.0
 40
2.0
 50
92.0
 51
180.0
  0
ARC
  8
0
 10
924.739764
 20
382.584322
 30
0.0
 40
2.0
 50
92.0
 51
180.0
  0
ARC
  8
0
 10
924.739764
 20
382.584322
 30
0.0
 40
2.0
 50
92.0
 51
180.0
  0
ARC
  8
0
 10
924.939764
 20
385.763625
 30
0.0
 40
0.2
 50
125.685335
 51
180.0
  0
ARC
  8
0
 10
924.939764
 20
385.203716
 30
0.0
 40
0.2
 50
180.0
 51
240.0
  0
ARC
  8
0
 10
925.439764
 20
388.641187
 30
0.0
 40
1.2
 50
180.0
 51
270.0
  0
ARC
  8
0
 10
930.739764
 20
402.964907
 30
0.0
 40
0.3
 50
270.0
 51
0.0
  0
ARC
  8
0
 10
931.239764
 20
405.685411
 30
0.0
 40
1.5
 50
0.0
 51
80.0
  0
ARC
  8
0
 10
924.739764
 20
321.145493
 30
0.0
 40
2.0
 50
180.0
 51
268.0
  0
ARC
  8
0
 10
924.739764
 20
321.145493
 30
0.0
 40
2.0
 50
180.0
 51
268.0
  0
ARC
  8
0
 10
924.939764
 20
317.96619
 30
0.0
 40
0.2
 50
180.0
 51
234.314665
  0
ARC
  8
0
 10
924.939764
 20
318.526099
 30
0.0
 40
0.2
 50
120.0
 51
180.0
  0
ARC
  8
0
 10
925.439764
 20
315.088628
 30
0.0
 40
1.2
 50
90.0
 51
180.0
  0
ARC
  8
0
 10
930.739764
 20
300.764907
 30
0.0
 40
0.3
 50
0.0
 51
90.0
  0
ARC
  8
0
 10
931.239764
 20
298.340541
 30
0.0
 40
1.5
 50
280.0
 51
0.0
  0
LINE
  8
0
 10
857.477768
 20
454.426903
 30
0.0
 11
859.915773
 21
456.864907
 31
0.0
  0
LINE
  8
0
 10
861.013302
 20
450.891369
 30
0.0
 11
866.986841
 21
456.864907
 31
0.0
  0
LINE
  8
0
 10
864.548836
 20
447.355835
 30
0.0
 11
874.057908
 21
456.864907
 31
0.0
  0
LINE
  8
0
 10
868.08437
 20
443.820301
 30
0.0
 11
881.128976
 21
456.864907
 31
0.0
  0
LINE
  8
0
 10
871.619904
 20
440.284767
 30
0.0
 11
888.200044
 21
456.864907
 31
0.0
  0
LINE
  8
0
 10
875.271112
 20
436.864907
 30
0.0
 11
895.271112
 21
456.864907
 31
0.0
  0
LINE
  8
0
 10
882.34218
 20
436.864907
 30
0.0
 11
902.34218
 21
456.864907
 31
0.0
  0
LINE
  8
0
 10
889.413247
 20
436.864907
 30
0.0
 11
909.413247
 21
456.864907
 31
0.0
  0
LINE
  8
0
 10
896.484315
 20
436.864907
 30
0.0
 11
916.484315
 21
456.864907
 31
0.0
  0
LINE
  8
0
 10
903.555383
 20
436.864907
 30
0.0
 11
923.555383
 21
456.864907
 31
0.0
  0
LINE
  8
0
 10
910.626451
 20
436.864907
 30
0.0
 11
930.626451
 21
456.864907
 31
0.0
  0
LINE
  8
0
 10
917.697519
 20
436.864907
 30
0.0
 11
937.697519
 21
456.864907
 31
0.0
  0
LINE
  8
0
 10
924.768587
 20
436.864907
 30
0.0
 11
944.768587
 21
456.864907
 31
0.0
  0
LINE
  8
0
 10
931.839654
 20
436.864907
 30
0.0
 11
951.839654
 21
456.864907
 31
0.0
  0
LINE
  8
0
 10
938.910722
 20
436.864907
 30
0.0
 11
958.910722
 21
456.864907
 31
0.0
  0
LINE
  8
0
 10
945.98179
 20
436.864907
 30
0.0
 11
965.98179
 21
456.864907
 31
0.0
  0
LINE
  8
0
 10
953.052858
 20
436.864907
 30
0.0
 11
973.052858
 21
456.864907
 31
0.0
  0
LINE
  8
0
 10
960.123926
 20
436.864907
 30
0.0
 11
980.123926
 21
456.864907
 31
0.0
  0
LINE
  8
0
 10
967.194993
 20
436.864907
 30
0.0
 11
987.194993
 21
456.864907
 31
0.0
  0
LINE
  8
0
 10
974.266061
 20
436.864907
 30
0.0
 11
994.266061
 21
456.864907
 31
0.0
  0
LINE
  8
0
 10
975.039764
 20
430.567542
 30
0.0
 11
995.039764
 21
450.567542
 31
0.0
  0
LINE
  8
0
 10
975.039764
 20
423.496474
 30
0.0
 11
995.039764
 21
443.496474
 31
0.0
  0
LINE
  8
0
 10
975.039764
 20
416.425407
 30
0.0
 11
995.039764
 21
436.425407
 31
0.0
  0
LINE
  8
0
 10
975.039764
 20
409.354339
 30
0.0
 11
995.039764
 21
429.354339
 31
0.0
  0
LINE
  8
0
 10
975.039764
 20
402.283271
 30
0.0
 11
995.039764
 21
422.283271
 31
0.0
  0
LINE
  8
0
 10
975.039764
 20
395.212203
 30
0.0
 11
995.039764
 21
415.212203
 31
0.0
  0
LINE
  8
0
 10
975.039764
 20
388.141135
 30
0.0
 11
995.039764
 21
408.141135
 31
0.0
  0
LINE
  8
0
 10
975.039764
 20
381.070067
 30
0.0
 11
995.039764
 21
401.070067
 31
0.0
  0
LINE
  8
0
 10
975.039764
 20
373.999
 30
0.0
 11
995.039764
 21
393.999
 31
0.0
  0
LINE
  8
0
 10
975.039764
 20
366.927932
 30
0.0
 11
995.039764
 21
386.927932
 31
0.0
  0
LINE
  8
0
 10
975.039764
 20
359.856864
 30
0.0
 11
995.039764
 21
379.856864
 31
0.0
  0
LINE
  8
0
 10
862.047807
 20
246.864907
 30
0.0
 11
882.047807
 21
266.864907
 31
0.0
  0
LINE
  8
0
 10
975.039764
 20
352.785796
 30
0.0
 11
995.039764
 21
372.785796
 31
0.0
  0
LINE
  8
0
 10
869.118875
 20
246.864907
 30
0.0
 11
889.118875
 21
266.864907
 31
0.0
  0
LINE
  8
0
 10
975.039764
 20
345.714728
 30
0.0
 11
995.039764
 21
365.714728
 31
0.0
  0
LINE
  8
0
 10
876.189943
 20
246.864907
 30
0.0
 11
896.189943
 21
266.864907
 31
0.0
  0
LINE
  8
0
 10
975.039764
 20
338.643661
 30
0.0
 11
995.039764
 21
358.643661
 31
0.0
  0
LINE
  8
0
 10
883.261011
 20
246.864907
 30
0.0
 11
903.261011
 21
266.864907
 31
0.0
  0
LINE
  8
0
 10
975.039764
 20
331.572593
 30
0.0
 11
995.039764
 21
351.572593
 31
0.0
  0
LINE
  8
0
 10
890.332078
 20
246.864907
 30
0.0
 11
910.332078
 21
266.864907
 31
0.0
  0
LINE
  8
0
 10
975.039764
 20
324.501525
 30
0.0
 11
995.039764
 21
344.501525
 31
0.0
  0
LINE
  8
0
 10
897.403146
 20
246.864907
 30
0.0
 11
917.403146
 21
266.864907
 31
0.0
  0
LINE
  8
0
 10
975.039764
 20
317.430457
 30
0.0
 11
995.039764
 21
337.430457
 31
0.0
  0
LINE
  8
0
 10
904.474214
 20
246.864907
 30
0.0
 11
924.474214
 21
266.864907
 31
0.0
  0
LINE
  8
0
 10
975.039764
 20
310.359389
 30
0.0
 11
995.039764
 21
330.359389
 31
0.0
  0
LINE
  8
0
 10
911.545282
 20
246.864907
 30
0.0
 11
931.545282
 21
266.864907
 31
0.0
  0
LINE
  8
0
 10
975.039764
 20
303.288322
 30
0.0
 11
995.039764
 21
323.288322
 31
0.0
  0
LINE
  8
0
 10
918.61635
 20
246.864907
 30
0.0
 11
938.61635
 21
266.864907
 31
0.0
  0
LINE
  8
0
 10
975.039764
 20
296.217254
 30
0.0
 11
995.039764
 21
316.217254
 31
0.0
  0
LINE
  8
0
 10
925.687417
 20
246.864907
 30
0.0
 11
945.687417
 21
266.864907
 31
0.0
  0
LINE
  8
0
 10
975.039764
 20
289.146186
 30
0.0
 11
995.039764
 21
309.146186
 31
0.0
  0
LINE
  8
0
 10
932.758485
 20
246.864907
 30
0.0
 11
952.758485
 21
266.864907
 31
0.0
  0
LINE
  8
0
 10
975.039764
 20
282.075118
 30
0.0
 11
995.039764
 21
302.075118
 31
0.0
  0
LINE
  8
0
 10
939.829553
 20
246.864907
 30
0.0
 11
959.829553
 21
266.864907
 31
0.0
  0
LINE
  8
0
 10
975.039764
 20
275.00405
 30
0.0
 11
995.039764
 21
295.00405
 31
0.0
  0
LINE
  8
0
 10
946.900621
 20
246.864907
 30
0.0
 11
966.900621
 21
266.864907
 31
0.0
  0
LINE
  8
0
 10
975.039764
 20
267.932982
 30
0.0
 11
995.039764
 21
287.932982
 31
0.0
  0
LINE
  8
0
 10
953.971689
 20
246.864907
 30
0.0
 11
973.971689
 21
266.864907
 31
0.0
  0
LINE
  8
0
 10
961.042756
 20
246.864907
 30
0.0
 11
995.039764
 21
280.861915
 31
0.0
  0
LINE
  8
0
 10
968.113824
 20
246.864907
 30
0.0
 11
995.039764
 21
273.790847
 31
0.0
  0
LINE
  8
0
 10
975.184892
 20
246.864907
 30
0.0
 11
995.039764
 21
266.719779
 31
0.0
  0
LINE
  8
0
 10
982.25596
 20
246.864907
 30
0.0
 11
995.039764
 21
259.648711
 31
0.0
  0
LINE
  8
0
 10
989.327028
 20
246.864907
 30
0.0
 11
995.039764
 21
252.577643
 31
0.0
  0
LINE
  8
0
 10
922.762242
 20
352.883105
 30
0.0
 11
920.528826
 21
354.172698
 31
0.0
  0
LINE
  8
0
 10
922.739764
 20
350.730272
 30
0.0
 11
920.528826
 21
349.453658
 31
0.0
  0
LINE
  8
0
 10
884.768536
 20
353.644397
 30
0.0
 11
880.210797
 21
358.200348
 31
0.0
  0
LINE
  8
0
 10
880.210797
 20
358.200348
 30
0.0
 11
884.768536
 21
353.644397
 31
0.0
  0
LINE
  8
0
 10
894.300773
 20
350.317372
 30
0.0
 11
894.298786
 21
350.317372
 31
0.0
  0
LINE
  8
0
 10
894.298786
 20
350.317372
 30
0.0
 11
894.212375
 21
350.321146
 31
0.0
  0
LINE
  8
0
 10
894.212375
 20
350.321146
 30
0.0
 11
894.125964
 21
350.332668
 31
0.0
  0
LINE
  8
0
 10
894.125964
 20
350.332668
 30
0.0
 11
894.041539
 21
350.34995
 31
0.0
  0
LINE
  8
0
 10
894.041539
 20
350.34995
 30
0.0
 11
894.125964
 21
350.332668
 31
0.0
  0
LINE
  8
0
 10
894.125964
 20
350.332668
 30
0.0
 11
894.212375
 21
350.321146
 31
0.0
  0
LINE
  8
0
 10
894.212375
 20
350.321146
 30
0.0
 11
894.300773
 21
350.317372
 31
0.0
  0
LINE
  8
0
 10
894.041539
 20
350.34995
 30
0.0
 11
893.959101
 21
350.376767
 31
0.0
  0
LINE
  8
0
 10
893.959101
 20
350.376767
 30
0.0
 11
894.041539
 21
350.34995
 31
0.0
  0
LINE
  8
0
 10
893.959101
 20
350.376767
 30
0.0
 11
893.878451
 21
350.409345
 31
0.0
  0
LINE
  8
0
 10
893.878451
 20
350.409345
 30
0.0
 11
893.959101
 21
350.376767
 31
0.0
  0
LINE
  8
0
 10
893.878451
 20
350.409345
 30
0.0
 11
893.801773
 21
350.44967
 31
0.0
  0
LINE
  8
0
 10
893.801773
 20
350.44967
 30
0.0
 11
893.878451
 21
350.409345
 31
0.0
  0
LINE
  8
0
 10
893.801773
 20
350.44967
 30
0.0
 11
893.726884
 21
350.497743
 31
0.0
  0
LINE
  8
0
 10
893.726884
 20
350.497743
 30
0.0
 11
893.801773
 21
350.44967
 31
0.0
  0
LINE
  8
0
 10
893.726884
 20
350.497743
 30
0.0
 11
893.657755
 21
350.549391
 31
0.0
  0
LINE
  8
0
 10
893.657755
 20
350.549391
 30
0.0
 11
893.726884
 21
350.497743
 31
0.0
  0
LINE
  8
0
 10
893.657755
 20
350.549391
 30
0.0
 11
893.594387
 21
350.608985
 31
0.0
  0
LINE
  8
0
 10
893.594387
 20
350.608985
 30
0.0
 11
893.657755
 21
350.549391
 31
0.0
  0
LINE
  8
0
 10
893.594387
 20
350.608985
 30
0.0
 11
893.534992
 21
350.672353
 31
0.0
  0
LINE
  8
0
 10
893.534992
 20
350.672353
 30
0.0
 11
893.594387
 21
350.608985
 31
0.0
  0
LINE
  8
0
 10
893.534992
 20
350.672353
 30
0.0
 11
893.483145
 21
350.741482
 31
0.0
  0
LINE
  8
0
 10
893.483145
 20
350.741482
 30
0.0
 11
893.534992
 21
350.672353
 31
0.0
  0
LINE
  8
0
 10
893.483145
 20
350.741482
 30
0.0
 11
893.435271
 21
350.816173
 31
0.0
  0
LINE
  8
0
 10
893.435271
 20
350.816173
 30
0.0
 11
893.483145
 21
350.741482
 31
0.0
  0
LINE
  8
0
 10
893.435271
 20
350.816173
 30
0.0
 11
893.394946
 21
350.893049
 31
0.0
  0
LINE
  8
0
 10
893.394946
 20
350.893049
 30
0.0
 11
893.435271
 21
350.816173
 31
0.0
  0
LINE
  8
0
 10
893.394946
 20
350.893049
 30
0.0
 11
893.362169
 21
350.973699
 31
0.0
  0
LINE
  8
0
 10
893.362169
 20
350.973699
 30
0.0
 11
893.394946
 21
350.893049
 31
0.0
  0
LINE
  8
0
 10
893.362169
 20
350.973699
 30
0.0
 11
893.335352
 21
351.056137
 31
0.0
  0
LINE
  8
0
 10
893.335352
 20
351.056137
 30
0.0
 11
893.362169
 21
350.973699
 31
0.0
  0
LINE
  8
0
 10
893.335352
 20
351.056137
 30
0.0
 11
893.31807
 21
351.140562
 31
0.0
  0
LINE
  8
0
 10
893.31807
 20
351.140562
 30
0.0
 11
893.335352
 21
351.056137
 31
0.0
  0
LINE
  8
0
 10
893.31807
 20
351.140562
 30
0.0
 11
893.306549
 21
351.226973
 31
0.0
  0
LINE
  8
0
 10
893.306549
 20
351.226973
 30
0.0
 11
893.31807
 21
351.140562
 31
0.0
  0
LINE
  8
0
 10
893.306549
 20
351.226973
 30
0.0
 11
893.302774
 21
351.313185
 31
0.0
  0
LINE
  8
0
 10
893.302774
 20
351.313185
 30
0.0
 11
893.302774
 21
351.315172
 31
0.0
  0
LINE
  8
0
 10
893.302774
 20
351.315172
 30
0.0
 11
893.306549
 21
351.226973
 31
0.0
  0
LINE
  8
0
 10
893.302774
 20
352.311184
 30
0.0
 11
893.306549
 21
352.399581
 31
0.0
  0
LINE
  8
0
 10
893.306549
 20
352.399581
 30
0.0
 11
893.302774
 21
352.31317
 31
0.0
  0
LINE
  8
0
 10
893.306549
 20
352.399581
 30
0.0
 11
893.31807
 21
352.485794
 31
0.0
  0
LINE
  8
0
 10
893.31807
 20
352.485794
 30
0.0
 11
893.306549
 21
352.399581
 31
0.0
  0
LINE
  8
0
 10
893.31807
 20
352.485794
 30
0.0
 11
893.335352
 21
352.570219
 31
0.0
  0
LINE
  8
0
 10
893.335352
 20
352.570219
 30
0.0
 11
893.31807
 21
352.485794
 31
0.0
  0
LINE
  8
0
 10
893.335352
 20
352.570219
 30
0.0
 11
893.362169
 21
352.652855
 31
0.0
  0
LINE
  8
0
 10
893.362169
 20
352.652855
 30
0.0
 11
893.335352
 21
352.570219
 31
0.0
  0
LINE
  8
0
 10
893.362169
 20
352.652855
 30
0.0
 11
893.394946
 21
352.733506
 31
0.0
  0
LINE
  8
0
 10
893.394946
 20
352.733506
 30
0.0
 11
893.362169
 21
352.652855
 31
0.0
  0
LINE
  8
0
 10
893.394946
 20
352.733506
 30
0.0
 11
893.435271
 21
352.810183
 31
0.0
  0
LINE
  8
0
 10
893.435271
 20
352.810183
 30
0.0
 11
893.394946
 21
352.733506
 31
0.0
  0
LINE
  8
0
 10
893.435271
 20
352.810183
 30
0.0
 11
893.483145
 21
352.885073
 31
0.0
  0
LINE
  8
0
 10
893.483145
 20
352.885073
 30
0.0
 11
893.435271
 21
352.810183
 31
0.0
  0
LINE
  8
0
 10
893.483145
 20
352.885073
 30
0.0
 11
893.534992
 21
352.954003
 31
0.0
  0
LINE
  8
0
 10
893.534992
 20
352.954003
 30
0.0
 11
893.483145
 21
352.885073
 31
0.0
  0
LINE
  8
0
 10
893.534992
 20
352.954003
 30
0.0
 11
893.594387
 21
353.017371
 31
0.0
  0
LINE
  8
0
 10
893.594387
 20
353.017371
 30
0.0
 11
893.534992
 21
352.954003
 31
0.0
  0
LINE
  8
0
 10
893.594387
 20
353.017371
 30
0.0
 11
893.657755
 21
353.076965
 31
0.0
  0
LINE
  8
0
 10
893.657755
 20
353.076965
 30
0.0
 11
893.594387
 21
353.017371
 31
0.0
  0
LINE
  8
0
 10
893.657755
 20
353.076965
 30
0.0
 11
893.726884
 21
353.128812
 31
0.0
  0
LINE
  8
0
 10
893.726884
 20
353.128812
 30
0.0
 11
893.657755
 21
353.076965
 31
0.0
  0
LINE
  8
0
 10
893.726884
 20
353.128812
 30
0.0
 11
893.801773
 21
353.176685
 31
0.0
  0
LINE
  8
0
 10
893.801773
 20
353.176685
 30
0.0
 11
893.726884
 21
353.128812
 31
0.0
  0
LINE
  8
0
 10
893.801773
 20
353.176685
 30
0.0
 11
893.878451
 21
353.217011
 31
0.0
  0
LINE
  8
0
 10
893.878451
 20
353.217011
 30
0.0
 11
893.801773
 21
353.176685
 31
0.0
  0
LINE
  8
0
 10
893.878451
 20
353.217011
 30
0.0
 11
893.959101
 21
353.249589
 31
0.0
  0
LINE
  8
0
 10
893.959101
 20
353.249589
 30
0.0
 11
893.878451
 21
353.217011
 31
0.0
  0
LINE
  8
0
 10
893.959101
 20
353.249589
 30
0.0
 11
894.041539
 21
353.276604
 31
0.0
  0
LINE
  8
0
 10
894.041539
 20
353.276604
 30
0.0
 11
893.959101
 21
353.249589
 31
0.0
  0
LINE
  8
0
 10
894.041539
 20
353.276604
 30
0.0
 11
894.125964
 21
353.293688
 31
0.0
  0
LINE
  8
0
 10
894.125964
 20
353.293688
 30
0.0
 11
894.041539
 21
353.276604
 31
0.0
  0
LINE
  8
0
 10
894.125964
 20
353.293688
 30
0.0
 11
894.212375
 21
353.30521
 31
0.0
  0
LINE
  8
0
 10
894.212375
 20
353.30521
 30
0.0
 11
894.125964
 21
353.293688
 31
0.0
  0
LINE
  8
0
 10
894.212375
 20
353.30521
 30
0.0
 11
894.300773
 21
353.309182
 31
0.0
  0
LINE
  8
0
 10
894.300773
 20
353.309182
 30
0.0
 11
894.212375
 21
353.30521
 31
0.0
  0
LINE
  8
0
 10
894.300773
 20
353.309182
 30
0.0
 11
920.029827
 21
353.309182
 31
0.0
  0
LINE
  8
0
 10
893.302774
 20
352.311184
 30
0.0
 11
893.302774
 21
351.315172
 31
0.0
  0
LINE
  8
0
 10
893.302774
 20
351.315172
 30
0.0
 11
893.302774
 21
352.311184
 31
0.0
  0
LINE
  8
0
 10
892.170491
 20
352.311184
 30
0.0
 11
892.124405
 21
352.386074
 31
0.0
  0
LINE
  8
0
 10
892.124405
 20
352.386074
 30
0.0
 11
892.07077
 21
352.455202
 31
0.0
  0
LINE
  8
0
 10
892.07077
 20
352.455202
 30
0.0
 11
892.013163
 21
352.518571
 31
0.0
  0
LINE
  8
0
 10
892.013163
 20
352.518571
 30
0.0
 11
891.947808
 21
352.577966
 31
0.0
  0
LINE
  8
0
 10
891.947808
 20
352.577966
 30
0.0
 11
891.878878
 21
352.629812
 31
0.0
  0
LINE
  8
0
 10
891.878878
 20
352.629812
 30
0.0
 11
891.805975
 21
352.677686
 31
0.0
  0
LINE
  8
0
 10
891.805975
 20
352.677686
 30
0.0
 11
891.729099
 21
352.718011
 31
0.0
  0
LINE
  8
0
 10
891.729099
 20
352.718011
 30
0.0
 11
891.648449
 21
352.750589
 31
0.0
  0
LINE
  8
0
 10
891.648449
 20
352.750589
 30
0.0
 11
891.56601
 21
352.777605
 31
0.0
  0
LINE
  8
0
 10
891.56601
 20
352.777605
 30
0.0
 11
891.479599
 21
352.794887
 31
0.0
  0
LINE
  8
0
 10
891.479599
 20
352.794887
 30
0.0
 11
891.393188
 21
352.806409
 31
0.0
  0
LINE
  8
0
 10
891.393188
 20
352.806409
 30
0.0
 11
891.306976
 21
352.810183
 31
0.0
  0
LINE
  8
0
 10
892.170491
 20
352.311184
 30
0.0
 11
892.210816
 21
352.234506
 31
0.0
  0
LINE
  8
0
 10
892.210816
 20
352.234506
 30
0.0
 11
892.243394
 21
352.153856
 31
0.0
  0
LINE
  8
0
 10
892.243394
 20
352.153856
 30
0.0
 11
892.270211
 21
352.071418
 31
0.0
  0
LINE
  8
0
 10
892.270211
 20
352.071418
 30
0.0
 11
892.28948
 21
351.986795
 31
0.0
  0
LINE
  8
0
 10
892.28948
 20
351.986795
 30
0.0
 11
892.301001
 21
351.900582
 31
0.0
  0
LINE
  8
0
 10
892.301001
 20
351.900582
 30
0.0
 11
892.304776
 21
351.814171
 31
0.0
  0
LINE
  8
0
 10
892.304776
 20
351.814171
 30
0.0
 11
892.301001
 21
351.725972
 31
0.0
  0
LINE
  8
0
 10
892.301001
 20
351.725972
 30
0.0
 11
892.28948
 21
351.639561
 31
0.0
  0
LINE
  8
0
 10
892.28948
 20
351.639561
 30
0.0
 11
892.301001
 21
351.725972
 31
0.0
  0
LINE
  8
0
 10
892.301001
 20
351.725972
 30
0.0
 11
892.304776
 21
351.814171
 31
0.0
  0
LINE
  8
0
 10
892.304776
 20
351.814171
 30
0.0
 11
892.301001
 21
351.900582
 31
0.0
  0
LINE
  8
0
 10
892.301001
 20
351.900582
 30
0.0
 11
892.28948
 21
351.986795
 31
0.0
  0
LINE
  8
0
 10
892.28948
 20
351.986795
 30
0.0
 11
892.270211
 21
352.071418
 31
0.0
  0
LINE
  8
0
 10
892.270211
 20
352.071418
 30
0.0
 11
892.243394
 21
352.153856
 31
0.0
  0
LINE
  8
0
 10
892.243394
 20
352.153856
 30
0.0
 11
892.210816
 21
352.234506
 31
0.0
  0
LINE
  8
0
 10
892.210816
 20
352.234506
 30
0.0
 11
892.170491
 21
352.311184
 31
0.0
  0
LINE
  8
0
 10
892.170491
 20
352.311184
 30
0.0
 11
892.124405
 21
352.386074
 31
0.0
  0
LINE
  8
0
 10
892.124405
 20
352.386074
 30
0.0
 11
892.07077
 21
352.455202
 31
0.0
  0
LINE
  8
0
 10
892.07077
 20
352.455202
 30
0.0
 11
892.013163
 21
352.518571
 31
0.0
  0
LINE
  8
0
 10
892.013163
 20
352.518571
 30
0.0
 11
891.947808
 21
352.577966
 31
0.0
  0
LINE
  8
0
 10
891.947808
 20
352.577966
 30
0.0
 11
891.878878
 21
352.629812
 31
0.0
  0
LINE
  8
0
 10
891.878878
 20
352.629812
 30
0.0
 11
891.805975
 21
352.677686
 31
0.0
  0
LINE
  8
0
 10
891.805975
 20
352.677686
 30
0.0
 11
891.729099
 21
352.718011
 31
0.0
  0
LINE
  8
0
 10
891.729099
 20
352.718011
 30
0.0
 11
891.648449
 21
352.750589
 31
0.0
  0
LINE
  8
0
 10
891.648449
 20
352.750589
 30
0.0
 11
891.56601
 21
352.777605
 31
0.0
  0
LINE
  8
0
 10
891.56601
 20
352.777605
 30
0.0
 11
891.479599
 21
352.794887
 31
0.0
  0
LINE
  8
0
 10
891.479599
 20
352.794887
 30
0.0
 11
891.393188
 21
352.806409
 31
0.0
  0
LINE
  8
0
 10
891.393188
 20
352.806409
 30
0.0
 11
891.306976
 21
352.810183
 31
0.0
  0
LINE
  8
0
 10
892.28948
 20
351.639561
 30
0.0
 11
892.270211
 21
351.555136
 31
0.0
  0
LINE
  8
0
 10
892.270211
 20
351.555136
 30
0.0
 11
892.28948
 21
351.639561
 31
0.0
  0
LINE
  8
0
 10
892.270211
 20
351.555136
 30
0.0
 11
892.243394
 21
351.4725
 31
0.0
  0
LINE
  8
0
 10
892.243394
 20
351.4725
 30
0.0
 11
892.270211
 21
351.555136
 31
0.0
  0
LINE
  8
0
 10
892.243394
 20
351.4725
 30
0.0
 11
892.210816
 21
351.392048
 31
0.0
  0
LINE
  8
0
 10
892.210816
 20
351.392048
 30
0.0
 11
892.243394
 21
351.4725
 31
0.0
  0
LINE
  8
0
 10
892.210816
 20
351.392048
 30
0.0
 11
892.170491
 21
351.315172
 31
0.0
  0
LINE
  8
0
 10
892.170491
 20
351.315172
 30
0.0
 11
892.210816
 21
351.392048
 31
0.0
  0
LINE
  8
0
 10
892.170491
 20
351.315172
 30
0.0
 11
892.124405
 21
351.240282
 31
0.0
  0
LINE
  8
0
 10
892.124405
 20
351.240282
 30
0.0
 11
892.170491
 21
351.315172
 31
0.0
  0
LINE
  8
0
 10
892.124405
 20
351.240282
 30
0.0
 11
892.07077
 21
351.171352
 31
0.0
  0
LINE
  8
0
 10
892.07077
 20
351.171352
 30
0.0
 11
892.124405
 21
351.240282
 31
0.0
  0
LINE
  8
0
 10
892.07077
 20
351.171352
 30
0.0
 11
892.013163
 21
351.107984
 31
0.0
  0
LINE
  8
0
 10
892.013163
 20
351.107984
 30
0.0
 11
892.07077
 21
351.171352
 31
0.0
  0
LINE
  8
0
 10
892.013163
 20
351.107984
 30
0.0
 11
891.947808
 21
351.04839
 31
0.0
  0
LINE
  8
0
 10
891.947808
 20
351.04839
 30
0.0
 11
892.013163
 21
351.107984
 31
0.0
  0
LINE
  8
0
 10
891.947808
 20
351.04839
 30
0.0
 11
891.878878
 21
350.996543
 31
0.0
  0
LINE
  8
0
 10
891.878878
 20
350.996543
 30
0.0
 11
891.947808
 21
351.04839
 31
0.0
  0
LINE
  8
0
 10
891.878878
 20
350.996543
 30
0.0
 11
891.805975
 21
350.94867
 31
0.0
  0
LINE
  8
0
 10
891.805975
 20
350.94867
 30
0.0
 11
891.878878
 21
350.996543
 31
0.0
  0
LINE
  8
0
 10
891.805975
 20
350.94867
 30
0.0
 11
891.729099
 21
350.908344
 31
0.0
  0
LINE
  8
0
 10
891.729099
 20
350.908344
 30
0.0
 11
891.805975
 21
350.94867
 31
0.0
  0
LINE
  8
0
 10
891.729099
 20
350.908344
 30
0.0
 11
891.648449
 21
350.875766
 31
0.0
  0
LINE
  8
0
 10
891.648449
 20
350.875766
 30
0.0
 11
891.729099
 21
350.908344
 31
0.0
  0
LINE
  8
0
 10
891.648449
 20
350.875766
 30
0.0
 11
891.56601
 21
350.848949
 31
0.0
  0
LINE
  8
0
 10
891.56601
 20
350.848949
 30
0.0
 11
891.648449
 21
350.875766
 31
0.0
  0
LINE
  8
0
 10
891.56601
 20
350.848949
 30
0.0
 11
891.479599
 21
350.831667
 31
0.0
  0
LINE
  8
0
 10
891.479599
 20
350.831667
 30
0.0
 11
891.56601
 21
350.848949
 31
0.0
  0
LINE
  8
0
 10
891.479599
 20
350.831667
 30
0.0
 11
891.393188
 21
350.820145
 31
0.0
  0
LINE
  8
0
 10
891.393188
 20
350.820145
 30
0.0
 11
891.479599
 21
350.831667
 31
0.0
  0
LINE
  8
0
 10
891.393188
 20
350.820145
 30
0.0
 11
891.306976
 21
350.816173
 31
0.0
  0
LINE
  8
0
 10
891.306976
 20
350.816173
 30
0.0
 11
891.393188
 21
350.820145
 31
0.0
  0
LINE
  8
0
 10
894.300773
 20
350.317372
 30
0.0
 11
920.029827
 21
350.317372
 31
0.0
  0
LINE
  8
0
 10
920.029827
 20
350.317372
 30
0.0
 11
922.620571
 21
351.814171
 31
0.0
  0
LINE
  8
0
 10
922.620571
 20
351.814171
 30
0.0
 11
920.029827
 21
353.309182
 31
0.0
  0
LINE
  8
0
 10
886.507286
 20
354.414449
 30
0.0
 11
886.634022
 21
354.359192
 31
0.0
  0
LINE
  8
0
 10
886.634022
 20
354.359192
 30
0.0
 11
886.762546
 21
354.30751
 31
0.0
  0
LINE
  8
0
 10
886.762546
 20
354.30751
 30
0.0
 11
886.891071
 21
354.290228
 31
0.0
  0
LINE
  8
0
 10
886.891071
 20
354.290228
 30
0.0
 11
887.021581
 21
354.295719
 31
0.0
  0
LINE
  8
0
 10
887.021581
 20
354.295719
 30
0.0
 11
887.152092
 21
354.291747
 31
0.0
  0
LINE
  8
0
 10
887.152092
 20
354.291747
 30
0.0
 11
887.021581
 21
354.295719
 31
0.0
  0
LINE
  8
0
 10
887.021581
 20
354.295719
 30
0.0
 11
886.891071
 21
354.290228
 31
0.0
  0
LINE
  8
0
 10
886.891071
 20
354.290228
 30
0.0
 11
886.762546
 21
354.30751
 31
0.0
  0
LINE
  8
0
 10
886.762546
 20
354.30751
 30
0.0
 11
886.634022
 21
354.359192
 31
0.0
  0
LINE
  8
0
 10
886.634022
 20
354.359192
 30
0.0
 11
886.507286
 21
354.414449
 31
0.0
  0
LINE
  8
0
 10
886.507286
 20
354.414449
 30
0.0
 11
886.38055
 21
354.479638
 31
0.0
  0
LINE
  8
0
 10
886.38055
 20
354.479638
 30
0.0
 11
886.507286
 21
354.414449
 31
0.0
  0
LINE
  8
0
 10
886.38055
 20
354.479638
 30
0.0
 11
886.257786
 21
354.548403
 31
0.0
  0
LINE
  8
0
 10
886.257786
 20
354.548403
 30
0.0
 11
886.38055
 21
354.479638
 31
0.0
  0
LINE
  8
0
 10
886.257786
 20
354.548403
 30
0.0
 11
886.136811
 21
354.598263
 31
0.0
  0
LINE
  8
0
 10
886.136811
 20
354.598263
 30
0.0
 11
886.257786
 21
354.548403
 31
0.0
  0
LINE
  8
0
 10
886.136811
 20
354.598263
 30
0.0
 11
886.019808
 21
354.65587
 31
0.0
  0
LINE
  8
0
 10
886.019808
 20
354.65587
 30
0.0
 11
886.136811
 21
354.598263
 31
0.0
  0
LINE
  8
0
 10
886.019808
 20
354.65587
 30
0.0
 11
885.904594
 21
354.743904
 31
0.0
  0
LINE
  8
0
 10
885.904594
 20
354.743904
 30
0.0
 11
886.019808
 21
354.65587
 31
0.0
  0
LINE
  8
0
 10
885.904594
 20
354.743904
 30
0.0
 11
885.793352
 21
354.813033
 31
0.0
  0
LINE
  8
0
 10
885.793352
 20
354.813033
 30
0.0
 11
885.904594
 21
354.743904
 31
0.0
  0
LINE
  8
0
 10
885.793352
 20
354.813033
 30
0.0
 11
885.685884
 21
354.885936
 31
0.0
  0
LINE
  8
0
 10
885.685884
 20
354.885936
 30
0.0
 11
885.793352
 21
354.813033
 31
0.0
  0
LINE
  8
0
 10
885.685884
 20
354.885936
 30
0.0
 11
885.582191
 21
354.966586
 31
0.0
  0
LINE
  8
0
 10
885.582191
 20
354.966586
 30
0.0
 11
885.685884
 21
354.885936
 31
0.0
  0
LINE
  8
0
 10
885.582191
 20
354.966586
 30
0.0
 11
885.48247
 21
355.051011
 31
0.0
  0
LINE
  8
0
 10
885.48247
 20
355.051011
 30
0.0
 11
885.582191
 21
354.966586
 31
0.0
  0
LINE
  8
0
 10
885.48247
 20
355.051011
 30
0.0
 11
885.388511
 21
355.141196
 31
0.0
  0
LINE
  8
0
 10
885.388511
 20
355.141196
 30
0.0
 11
885.48247
 21
355.051011
 31
0.0
  0
LINE
  8
0
 10
877.355059
 20
345.354594
 30
0.0
 11
877.343538
 21
345.440806
 31
0.0
  0
LINE
  8
0
 10
877.343538
 20
345.440806
 30
0.0
 11
877.339764
 21
345.529204
 31
0.0
  0
LINE
  8
0
 10
877.355059
 20
345.354594
 30
0.0
 11
877.372342
 21
345.270169
 31
0.0
  0
LINE
  8
0
 10
877.372342
 20
345.270169
 30
0.0
 11
877.399358
 21
345.187532
 31
0.0
  0
LINE
  8
0
 10
877.399358
 20
345.187532
 30
0.0
 11
877.431935
 21
345.106882
 31
0.0
  0
LINE
  8
0
 10
877.431935
 20
345.106882
 30
0.0
 11
877.472261
 21
345.030204
 31
0.0
  0
LINE
  8
0
 10
877.472261
 20
345.030204
 30
0.0
 11
877.520134
 21
344.955315
 31
0.0
  0
LINE
  8
0
 10
877.520134
 20
344.955315
 30
0.0
 11
877.571981
 21
344.886186
 31
0.0
  0
LINE
  8
0
 10
877.571981
 20
344.886186
 30
0.0
 11
877.631575
 21
344.823016
 31
0.0
  0
LINE
  8
0
 10
877.631575
 20
344.823016
 30
0.0
 11
877.694744
 21
344.763423
 31
0.0
  0
LINE
  8
0
 10
877.694744
 20
344.763423
 30
0.0
 11
877.763873
 21
344.711576
 31
0.0
  0
LINE
  8
0
 10
877.763873
 20
344.711576
 30
0.0
 11
877.838763
 21
344.663702
 31
0.0
  0
LINE
  8
0
 10
877.838763
 20
344.663702
 30
0.0
 11
877.91544
 21
344.623377
 31
0.0
  0
LINE
  8
0
 10
877.91544
 20
344.623377
 30
0.0
 11
877.996091
 21
344.590799
 31
0.0
  0
LINE
  8
0
 10
877.996091
 20
344.590799
 30
0.0
 11
878.078728
 21
344.563783
 31
0.0
  0
LINE
  8
0
 10
878.078728
 20
344.563783
 30
0.0
 11
878.163152
 21
344.546501
 31
0.0
  0
LINE
  8
0
 10
878.163152
 20
344.546501
 30
0.0
 11
878.249365
 21
344.534979
 31
0.0
  0
LINE
  8
0
 10
878.249365
 20
344.534979
 30
0.0
 11
878.337762
 21
344.531205
 31
0.0
  0
LINE
  8
0
 10
877.343538
 20
345.440806
 30
0.0
 11
877.339764
 21
345.529204
 31
0.0
  0
LINE
  8
0
 10
877.343538
 20
345.440806
 30
0.0
 11
877.355059
 21
345.354594
 31
0.0
  0
LINE
  8
0
 10
877.355059
 20
345.354594
 30
0.0
 11
877.372342
 21
345.270169
 31
0.0
  0
LINE
  8
0
 10
877.372342
 20
345.270169
 30
0.0
 11
877.399358
 21
345.187532
 31
0.0
  0
LINE
  8
0
 10
877.399358
 20
345.187532
 30
0.0
 11
877.431935
 21
345.106882
 31
0.0
  0
LINE
  8
0
 10
877.431935
 20
345.106882
 30
0.0
 11
877.472261
 21
345.030204
 31
0.0
  0
LINE
  8
0
 10
877.472261
 20
345.030204
 30
0.0
 11
877.520134
 21
344.955315
 31
0.0
  0
LINE
  8
0
 10
877.520134
 20
344.955315
 30
0.0
 11
877.571981
 21
344.886186
 31
0.0
  0
LINE
  8
0
 10
877.571981
 20
344.886186
 30
0.0
 11
877.631575
 21
344.823016
 31
0.0
  0
LINE
  8
0
 10
877.631575
 20
344.823016
 30
0.0
 11
877.694744
 21
344.763423
 31
0.0
  0
LINE
  8
0
 10
877.694744
 20
344.763423
 30
0.0
 11
877.763873
 21
344.711576
 31
0.0
  0
LINE
  8
0
 10
877.763873
 20
344.711576
 30
0.0
 11
877.838763
 21
344.663702
 31
0.0
  0
LINE
  8
0
 10
877.838763
 20
344.663702
 30
0.0
 11
877.91544
 21
344.623377
 31
0.0
  0
LINE
  8
0
 10
877.91544
 20
344.623377
 30
0.0
 11
877.996091
 21
344.590799
 31
0.0
  0
LINE
  8
0
 10
877.996091
 20
344.590799
 30
0.0
 11
878.078728
 21
344.563783
 31
0.0
  0
LINE
  8
0
 10
878.078728
 20
344.563783
 30
0.0
 11
878.163152
 21
344.546501
 31
0.0
  0
LINE
  8
0
 10
878.163152
 20
344.546501
 30
0.0
 11
878.249365
 21
344.534979
 31
0.0
  0
LINE
  8
0
 10
878.249365
 20
344.534979
 30
0.0
 11
878.337762
 21
344.531205
 31
0.0
  0
LINE
  8
0
 10
880.916985
 20
344.531205
 30
0.0
 11
881.003396
 21
344.534979
 31
0.0
  0
LINE
  8
0
 10
881.003396
 20
344.534979
 30
0.0
 11
881.089608
 21
344.546501
 31
0.0
  0
LINE
  8
0
 10
881.089608
 20
344.546501
 30
0.0
 11
881.174231
 21
344.563783
 31
0.0
  0
LINE
  8
0
 10
881.174231
 20
344.563783
 30
0.0
 11
881.258656
 21
344.590799
 31
0.0
  0
LINE
  8
0
 10
881.258656
 20
344.590799
 30
0.0
 11
881.339108
 21
344.623377
 31
0.0
  0
LINE
  8
0
 10
881.339108
 20
344.623377
 30
0.0
 11
881.415984
 21
344.663702
 31
0.0
  0
LINE
  8
0
 10
881.415984
 20
344.663702
 30
0.0
 11
881.488887
 21
344.711576
 31
0.0
  0
LINE
  8
0
 10
881.488887
 20
344.711576
 30
0.0
 11
881.558016
 21
344.763423
 31
0.0
  0
LINE
  8
0
 10
881.558016
 20
344.763423
 30
0.0
 11
881.623172
 21
344.823016
 31
0.0
  0
LINE
  8
0
 10
881.003396
 20
344.534979
 30
0.0
 11
880.916985
 21
344.531205
 31
0.0
  0
LINE
  8
0
 10
881.003396
 20
344.534979
 30
0.0
 11
881.089608
 21
344.546501
 31
0.0
  0
LINE
  8
0
 10
881.089608
 20
344.546501
 30
0.0
 11
881.174231
 21
344.563783
 31
0.0
  0
LINE
  8
0
 10
881.174231
 20
344.563783
 30
0.0
 11
881.258656
 21
344.590799
 31
0.0
  0
LINE
  8
0
 10
881.258656
 20
344.590799
 30
0.0
 11
881.339108
 21
344.623377
 31
0.0
  0
LINE
  8
0
 10
881.339108
 20
344.623377
 30
0.0
 11
881.415984
 21
344.663702
 31
0.0
  0
LINE
  8
0
 10
881.415984
 20
344.663702
 30
0.0
 11
881.488887
 21
344.711576
 31
0.0
  0
LINE
  8
0
 10
881.488887
 20
344.711576
 30
0.0
 11
881.558016
 21
344.763423
 31
0.0
  0
LINE
  8
0
 10
881.558016
 20
344.763423
 30
0.0
 11
881.623172
 21
344.823016
 31
0.0
  0
LINE
  8
0
 10
885.388511
 20
348.588157
 30
0.0
 11
885.48247
 21
348.678342
 31
0.0
  0
LINE
  8
0
 10
885.48247
 20
348.678342
 30
0.0
 11
885.388511
 21
348.588157
 31
0.0
  0
LINE
  8
0
 10
885.48247
 20
348.678342
 30
0.0
 11
885.582191
 21
348.762767
 31
0.0
  0
LINE
  8
0
 10
885.582191
 20
348.762767
 30
0.0
 11
885.48247
 21
348.678342
 31
0.0
  0
LINE
  8
0
 10
885.582191
 20
348.762767
 30
0.0
 11
885.685884
 21
348.843417
 31
0.0
  0
LINE
  8
0
 10
885.685884
 20
348.843417
 30
0.0
 11
885.582191
 21
348.762767
 31
0.0
  0
LINE
  8
0
 10
885.685884
 20
348.843417
 30
0.0
 11
885.793352
 21
348.91632
 31
0.0
  0
LINE
  8
0
 10
885.793352
 20
348.91632
 30
0.0
 11
885.685884
 21
348.843417
 31
0.0
  0
LINE
  8
0
 10
885.793352
 20
348.91632
 30
0.0
 11
885.904594
 21
348.985449
 31
0.0
  0
LINE
  8
0
 10
885.904594
 20
348.985449
 30
0.0
 11
885.793352
 21
348.91632
 31
0.0
  0
LINE
  8
0
 10
885.904594
 20
348.985449
 30
0.0
 11
886.019808
 21
349.046831
 31
0.0
  0
LINE
  8
0
 10
886.019808
 20
349.046831
 30
0.0
 11
885.904594
 21
348.985449
 31
0.0
  0
LINE
  8
0
 10
886.019808
 20
349.046831
 30
0.0
 11
886.136811
 21
349.104438
 31
0.0
  0
LINE
  8
0
 10
886.136811
 20
349.104438
 30
0.0
 11
886.019808
 21
349.046831
 31
0.0
  0
LINE
  8
0
 10
886.136811
 20
349.104438
 30
0.0
 11
886.257786
 21
349.154298
 31
0.0
  0
LINE
  8
0
 10
886.257786
 20
349.154298
 30
0.0
 11
886.136811
 21
349.104438
 31
0.0
  0
LINE
  8
0
 10
886.257786
 20
349.154298
 30
0.0
 11
886.38055
 21
349.19661
 31
0.0
  0
LINE
  8
0
 10
886.38055
 20
349.19661
 30
0.0
 11
886.257786
 21
349.154298
 31
0.0
  0
LINE
  8
0
 10
886.38055
 20
349.19661
 30
0.0
 11
886.507286
 21
349.234949
 31
0.0
  0
LINE
  8
0
 10
886.507286
 20
349.234949
 30
0.0
 11
886.38055
 21
349.19661
 31
0.0
  0
LINE
  8
0
 10
886.507286
 20
349.234949
 30
0.0
 11
886.634022
 21
349.26554
 31
0.0
  0
LINE
  8
0
 10
886.634022
 20
349.26554
 30
0.0
 11
886.507286
 21
349.234949
 31
0.0
  0
LINE
  8
0
 10
886.634022
 20
349.26554
 30
0.0
 11
886.762546
 21
349.288583
 31
0.0
  0
LINE
  8
0
 10
886.762546
 20
349.288583
 30
0.0
 11
886.634022
 21
349.26554
 31
0.0
  0
LINE
  8
0
 10
886.762546
 20
349.288583
 30
0.0
 11
886.891071
 21
349.305865
 31
0.0
  0
LINE
  8
0
 10
886.891071
 20
349.305865
 30
0.0
 11
886.762546
 21
349.288583
 31
0.0
  0
LINE
  8
0
 10
886.891071
 20
349.305865
 30
0.0
 11
887.021581
 21
349.315599
 31
0.0
  0
LINE
  8
0
 10
887.021581
 20
349.315599
 30
0.0
 11
886.891071
 21
349.305865
 31
0.0
  0
LINE
  8
0
 10
887.021581
 20
349.315599
 30
0.0
 11
887.152092
 21
349.319373
 31
0.0
  0
LINE
  8
0
 10
887.152092
 20
349.319373
 30
0.0
 11
887.021581
 21
349.315599
 31
0.0
  0
LINE
  8
0
 10
920.029827
 20
349.319373
 30
0.0
 11
920.116238
 21
349.323148
 31
0.0
  0
LINE
  8
0
 10
920.116238
 20
349.323148
 30
0.0
 11
920.202649
 21
349.334669
 31
0.0
  0
LINE
  8
0
 10
920.202649
 20
349.334669
 30
0.0
 11
920.287074
 21
349.353938
 31
0.0
  0
LINE
  8
0
 10
920.287074
 20
349.353938
 30
0.0
 11
920.369512
 21
349.378769
 31
0.0
  0
LINE
  8
0
 10
920.369512
 20
349.378769
 30
0.0
 11
920.450162
 21
349.413333
 31
0.0
  0
LINE
  8
0
 10
920.450162
 20
349.413333
 30
0.0
 11
920.528826
 21
349.453658
 31
0.0
  0
LINE
  8
0
 10
920.528826
 20
349.453658
 30
0.0
 11
920.450162
 21
349.413333
 31
0.0
  0
LINE
  8
0
 10
920.450162
 20
349.413333
 30
0.0
 11
920.369512
 21
349.378769
 31
0.0
  0
LINE
  8
0
 10
920.369512
 20
349.378769
 30
0.0
 11
920.287074
 21
349.353938
 31
0.0
  0
LINE
  8
0
 10
920.287074
 20
349.353938
 30
0.0
 11
920.202649
 21
349.334669
 31
0.0
  0
LINE
  8
0
 10
920.202649
 20
349.334669
 30
0.0
 11
920.116238
 21
349.323148
 31
0.0
  0
LINE
  8
0
 10
920.116238
 20
349.323148
 30
0.0
 11
920.029827
 21
349.319373
 31
0.0
  0
LINE
  8
0
 10
920.528826
 20
354.172698
 30
0.0
 11
920.450162
 21
354.213023
 31
0.0
  0
LINE
  8
0
 10
920.450162
 20
354.213023
 30
0.0
 11
920.369512
 21
354.247587
 31
0.0
  0
LINE
  8
0
 10
920.369512
 20
354.247587
 30
0.0
 11
920.287074
 21
354.272418
 31
0.0
  0
LINE
  8
0
 10
920.287074
 20
354.272418
 30
0.0
 11
920.202649
 21
354.291687
 31
0.0
  0
LINE
  8
0
 10
920.202649
 20
354.291687
 30
0.0
 11
920.116238
 21
354.303208
 31
0.0
  0
LINE
  8
0
 10
920.116238
 20
354.303208
 30
0.0
 11
920.029827
 21
354.306982
 31
0.0
  0
LINE
  8
0
 10
920.029827
 20
354.306982
 30
0.0
 11
920.116238
 21
354.303208
 31
0.0
  0
LINE
  8
0
 10
920.116238
 20
354.303208
 30
0.0
 11
920.202649
 21
354.291687
 31
0.0
  0
LINE
  8
0
 10
920.202649
 20
354.291687
 30
0.0
 11
920.287074
 21
354.272418
 31
0.0
  0
LINE
  8
0
 10
920.287074
 20
354.272418
 30
0.0
 11
920.369512
 21
354.247587
 31
0.0
  0
LINE
  8
0
 10
920.369512
 20
354.247587
 30
0.0
 11
920.450162
 21
354.213023
 31
0.0
  0
LINE
  8
0
 10
920.450162
 20
354.213023
 30
0.0
 11
920.528826
 21
354.172698
 31
0.0
  0
LINE
  8
0
 10
879.540962
 20
356.298509
 30
0.0
 11
879.477594
 21
356.238915
 31
0.0
  0
LINE
  8
0
 10
879.477594
 20
356.238915
 30
0.0
 11
879.540962
 21
356.298509
 31
0.0
  0
LINE
  8
0
 10
879.477594
 20
356.238915
 30
0.0
 11
879.408664
 21
356.187069
 31
0.0
  0
LINE
  8
0
 10
879.408664
 20
356.187069
 30
0.0
 11
879.477594
 21
356.238915
 31
0.0
  0
LINE
  8
0
 10
879.408664
 20
356.187069
 30
0.0
 11
879.333774
 21
356.139195
 31
0.0
  0
LINE
  8
0
 10
879.333774
 20
356.139195
 30
0.0
 11
879.408664
 21
356.187069
 31
0.0
  0
LINE
  8
0
 10
879.333774
 20
356.139195
 30
0.0
 11
879.256898
 21
356.100856
 31
0.0
  0
LINE
  8
0
 10
879.256898
 20
356.100856
 30
0.0
 11
879.333774
 21
356.139195
 31
0.0
  0
LINE
  8
0
 10
879.256898
 20
356.100856
 30
0.0
 11
879.176446
 21
356.066292
 31
0.0
  0
LINE
  8
0
 10
879.176446
 20
356.066292
 30
0.0
 11
879.256898
 21
356.100856
 31
0.0
  0
LINE
  8
0
 10
879.176446
 20
356.066292
 30
0.0
 11
879.09381
 21
356.041262
 31
0.0
  0
LINE
  8
0
 10
879.09381
 20
356.041262
 30
0.0
 11
879.176446
 21
356.066292
 31
0.0
  0
LINE
  8
0
 10
879.09381
 20
356.041262
 30
0.0
 11
879.009385
 21
356.022192
 31
0.0
  0
LINE
  8
0
 10
879.009385
 20
356.022192
 30
0.0
 11
879.09381
 21
356.041262
 31
0.0
  0
LINE
  8
0
 10
879.009385
 20
356.022192
 30
0.0
 11
878.922974
 21
356.010671
 31
0.0
  0
LINE
  8
0
 10
878.922974
 20
356.010671
 30
0.0
 11
879.009385
 21
356.022192
 31
0.0
  0
LINE
  8
0
 10
878.922974
 20
356.010671
 30
0.0
 11
878.836761
 21
356.006698
 31
0.0
  0
LINE
  8
0
 10
878.836761
 20
356.006698
 30
0.0
 11
878.922974
 21
356.010671
 31
0.0
  0
LINE
  8
0
 10
878.836761
 20
356.006698
 30
0.0
 11
878.748364
 21
356.010671
 31
0.0
  0
LINE
  8
0
 10
878.748364
 20
356.010671
 30
0.0
 11
878.836761
 21
356.006698
 31
0.0
  0
LINE
  8
0
 10
878.748364
 20
356.010671
 30
0.0
 11
878.661953
 21
356.022192
 31
0.0
  0
LINE
  8
0
 10
878.661953
 20
356.022192
 30
0.0
 11
878.748364
 21
356.010671
 31
0.0
  0
LINE
  8
0
 10
878.661953
 20
356.022192
 30
0.0
 11
878.577528
 21
356.041262
 31
0.0
  0
LINE
  8
0
 10
878.577528
 20
356.041262
 30
0.0
 11
878.661953
 21
356.022192
 31
0.0
  0
LINE
  8
0
 10
878.577528
 20
356.041262
 30
0.0
 11
878.49509
 21
356.066292
 31
0.0
  0
LINE
  8
0
 10
878.49509
 20
356.066292
 30
0.0
 11
878.577528
 21
356.041262
 31
0.0
  0
LINE
  8
0
 10
878.49509
 20
356.066292
 30
0.0
 11
878.41444
 21
356.100856
 31
0.0
  0
LINE
  8
0
 10
878.41444
 20
356.100856
 30
0.0
 11
878.49509
 21
356.066292
 31
0.0
  0
LINE
  8
0
 10
878.41444
 20
356.100856
 30
0.0
 11
878.337762
 21
356.139195
 31
0.0
  0
LINE
  8
0
 10
878.337762
 20
356.139195
 30
0.0
 11
878.41444
 21
356.100856
 31
0.0
  0
LINE
  8
0
 10
878.337762
 20
356.139195
 30
0.0
 11
878.262873
 21
356.187069
 31
0.0
  0
LINE
  8
0
 10
878.262873
 20
356.187069
 30
0.0
 11
878.337762
 21
356.139195
 31
0.0
  0
LINE
  8
0
 10
878.262873
 20
356.187069
 30
0.0
 11
878.193744
 21
356.238915
 31
0.0
  0
LINE
  8
0
 10
878.193744
 20
356.238915
 30
0.0
 11
878.262873
 21
356.187069
 31
0.0
  0
LINE
  8
0
 10
878.193744
 20
356.238915
 30
0.0
 11
878.130376
 21
356.298509
 31
0.0
  0
LINE
  8
0
 10
878.130376
 20
356.298509
 30
0.0
 11
878.193744
 21
356.238915
 31
0.0
  0
LINE
  8
0
 10
877.339764
 20
358.200348
 30
0.0
 11
877.343538
 21
358.288547
 31
0.0
  0
LINE
  8
0
 10
877.343538
 20
358.288547
 30
0.0
 11
877.339764
 21
358.200348
 31
0.0
  0
LINE
  8
0
 10
877.343538
 20
358.288547
 30
0.0
 11
877.355059
 21
358.374958
 31
0.0
  0
LINE
  8
0
 10
877.355059
 20
358.374958
 30
0.0
 11
877.343538
 21
358.288547
 31
0.0
  0
LINE
  8
0
 10
877.355059
 20
358.374958
 30
0.0
 11
877.372342
 21
358.459383
 31
0.0
  0
LINE
  8
0
 10
877.372342
 20
358.459383
 30
0.0
 11
877.355059
 21
358.374958
 31
0.0
  0
LINE
  8
0
 10
877.372342
 20
358.459383
 30
0.0
 11
877.399358
 21
358.541821
 31
0.0
  0
LINE
  8
0
 10
877.399358
 20
358.541821
 30
0.0
 11
877.372342
 21
358.459383
 31
0.0
  0
LINE
  8
0
 10
877.399358
 20
358.541821
 30
0.0
 11
877.431935
 21
358.622471
 31
0.0
  0
LINE
  8
0
 10
877.431935
 20
358.622471
 30
0.0
 11
877.399358
 21
358.541821
 31
0.0
  0
LINE
  8
0
 10
877.431935
 20
358.622471
 30
0.0
 11
877.472261
 21
358.699149
 31
0.0
  0
LINE
  8
0
 10
877.472261
 20
358.699149
 30
0.0
 11
877.431935
 21
358.622471
 31
0.0
  0
LINE
  8
0
 10
877.472261
 20
358.699149
 30
0.0
 11
877.520134
 21
358.774038
 31
0.0
  0
LINE
  8
0
 10
877.520134
 20
358.774038
 30
0.0
 11
877.472261
 21
358.699149
 31
0.0
  0
LINE
  8
0
 10
877.520134
 20
358.774038
 30
0.0
 11
877.571981
 21
358.843167
 31
0.0
  0
LINE
  8
0
 10
877.571981
 20
358.843167
 30
0.0
 11
877.520134
 21
358.774038
 31
0.0
  0
LINE
  8
0
 10
877.571981
 20
358.843167
 30
0.0
 11
877.631575
 21
358.906535
 31
0.0
  0
LINE
  8
0
 10
877.631575
 20
358.906535
 30
0.0
 11
877.571981
 21
358.843167
 31
0.0
  0
LINE
  8
0
 10
877.631575
 20
358.906535
 30
0.0
 11
877.694744
 21
358.96593
 31
0.0
  0
LINE
  8
0
 10
877.694744
 20
358.96593
 30
0.0
 11
877.631575
 21
358.906535
 31
0.0
  0
LINE
  8
0
 10
877.694744
 20
358.96593
 30
0.0
 11
877.763873
 21
359.017777
 31
0.0
  0
LINE
  8
0
 10
877.763873
 20
359.017777
 30
0.0
 11
877.694744
 21
358.96593
 31
0.0
  0
LINE
  8
0
 10
877.763873
 20
359.017777
 30
0.0
 11
877.838763
 21
359.065849
 31
0.0
  0
LINE
  8
0
 10
877.838763
 20
359.065849
 30
0.0
 11
877.763873
 21
359.017777
 31
0.0
  0
LINE
  8
0
 10
877.838763
 20
359.065849
 30
0.0
 11
877.91544
 21
359.105976
 31
0.0
  0
LINE
  8
0
 10
877.91544
 20
359.105976
 30
0.0
 11
877.838763
 21
359.065849
 31
0.0
  0
LINE
  8
0
 10
877.91544
 20
359.105976
 30
0.0
 11
877.996091
 21
359.138753
 31
0.0
  0
LINE
  8
0
 10
877.996091
 20
359.138753
 30
0.0
 11
877.91544
 21
359.105976
 31
0.0
  0
LINE
  8
0
 10
877.996091
 20
359.138753
 30
0.0
 11
878.078728
 21
359.16557
 31
0.0
  0
LINE
  8
0
 10
878.078728
 20
359.16557
 30
0.0
 11
877.996091
 21
359.138753
 31
0.0
  0
LINE
  8
0
 10
878.078728
 20
359.16557
 30
0.0
 11
878.163152
 21
359.182852
 31
0.0
  0
LINE
  8
0
 10
878.163152
 20
359.182852
 30
0.0
 11
878.078728
 21
359.16557
 31
0.0
  0
LINE
  8
0
 10
878.163152
 20
359.182852
 30
0.0
 11
878.249365
 21
359.194374
 31
0.0
  0
LINE
  8
0
 10
878.249365
 20
359.194374
 30
0.0
 11
878.163152
 21
359.182852
 31
0.0
  0
LINE
  8
0
 10
878.249365
 20
359.194374
 30
0.0
 11
878.337762
 21
359.198148
 31
0.0
  0
LINE
  8
0
 10
878.337762
 20
359.198148
 30
0.0
 11
878.249365
 21
359.194374
 31
0.0
  0
LINE
  8
0
 10
880.916985
 20
359.198148
 30
0.0
 11
881.003396
 21
359.194374
 31
0.0
  0
LINE
  8
0
 10
881.003396
 20
359.194374
 30
0.0
 11
880.916985
 21
359.198148
 31
0.0
  0
LINE
  8
0
 10
881.003396
 20
359.194374
 30
0.0
 11
881.089608
 21
359.182852
 31
0.0
  0
LINE
  8
0
 10
881.089608
 20
359.182852
 30
0.0
 11
881.003396
 21
359.194374
 31
0.0
  0
LINE
  8
0
 10
881.089608
 20
359.182852
 30
0.0
 11
881.174231
 21
359.16557
 31
0.0
  0
LINE
  8
0
 10
881.174231
 20
359.16557
 30
0.0
 11
881.089608
 21
359.182852
 31
0.0
  0
LINE
  8
0
 10
881.174231
 20
359.16557
 30
0.0
 11
881.258656
 21
359.138753
 31
0.0
  0
LINE
  8
0
 10
881.258656
 20
359.138753
 30
0.0
 11
881.174231
 21
359.16557
 31
0.0
  0
LINE
  8
0
 10
881.258656
 20
359.138753
 30
0.0
 11
881.339108
 21
359.105976
 31
0.0
  0
LINE
  8
0
 10
881.339108
 20
359.105976
 30
0.0
 11
881.258656
 21
359.138753
 31
0.0
  0
LINE
  8
0
 10
881.339108
 20
359.105976
 30
0.0
 11
881.415984
 21
359.065849
 31
0.0
  0
LINE
  8
0
 10
881.415984
 20
359.065849
 30
0.0
 11
881.339108
 21
359.105976
 31
0.0
  0
LINE
  8
0
 10
881.415984
 20
359.065849
 30
0.0
 11
881.488887
 21
359.017777
 31
0.0
  0
LINE
  8
0
 10
881.488887
 20
359.017777
 30
0.0
 11
881.415984
 21
359.065849
 31
0.0
  0
LINE
  8
0
 10
881.488887
 20
359.017777
 30
0.0
 11
881.558016
 21
358.96593
 31
0.0
  0
LINE
  8
0
 10
881.558016
 20
358.96593
 30
0.0
 11
881.488887
 21
359.017777
 31
0.0
  0
LINE
  8
0
 10
881.558016
 20
358.96593
 30
0.0
 11
881.623172
 21
358.906535
 31
0.0
  0
LINE
  8
0
 10
881.623172
 20
358.906535
 30
0.0
 11
881.558016
 21
358.96593
 31
0.0
  0
LINE
  8
0
 10
880.404676
 20
357.866424
 30
0.0
 11
880.35859
 21
357.90655
 31
0.0
  0
LINE
  8
0
 10
880.35859
 20
357.90655
 30
0.0
 11
880.310518
 21
357.941115
 31
0.0
  0
LINE
  8
0
 10
880.310518
 20
357.941115
 30
0.0
 11
880.256883
 21
357.969918
 31
0.0
  0
LINE
  8
0
 10
880.256883
 20
357.969918
 30
0.0
 11
880.199276
 21
357.990975
 31
0.0
  0
LINE
  8
0
 10
880.199276
 20
357.990975
 30
0.0
 11
880.141668
 21
358.004483
 31
0.0
  0
LINE
  8
0
 10
880.141668
 20
358.004483
 30
0.0
 11
880.082273
 21
358.01223
 31
0.0
  0
LINE
  8
0
 10
880.082273
 20
358.01223
 30
0.0
 11
880.020693
 21
358.01223
 31
0.0
  0
LINE
  8
0
 10
880.020693
 20
358.01223
 30
0.0
 11
879.961298
 21
358.004483
 31
0.0
  0
LINE
  8
0
 10
879.961298
 20
358.004483
 30
0.0
 11
879.90369
 21
357.990975
 31
0.0
  0
LINE
  8
0
 10
879.90369
 20
357.990975
 30
0.0
 11
879.846083
 21
357.969918
 31
0.0
  0
LINE
  8
0
 10
879.846083
 20
357.969918
 30
0.0
 11
879.794236
 21
357.941115
 31
0.0
  0
LINE
  8
0
 10
879.794236
 20
357.941115
 30
0.0
 11
879.744376
 21
357.90655
 31
0.0
  0
LINE
  8
0
 10
879.744376
 20
357.90655
 30
0.0
 11
879.69829
 21
357.866424
 31
0.0
  0
LINE
  8
0
 10
879.69829
 20
357.866424
 30
0.0
 11
879.744376
 21
357.90655
 31
0.0
  0
LINE
  8
0
 10
879.744376
 20
357.90655
 30
0.0
 11
879.794236
 21
357.941115
 31
0.0
  0
LINE
  8
0
 10
879.794236
 20
357.941115
 30
0.0
 11
879.846083
 21
357.969918
 31
0.0
  0
LINE
  8
0
 10
879.846083
 20
357.969918
 30
0.0
 11
879.90369
 21
357.990975
 31
0.0
  0
LINE
  8
0
 10
879.90369
 20
357.990975
 30
0.0
 11
879.961298
 21
358.004483
 31
0.0
  0
LINE
  8
0
 10
879.961298
 20
358.004483
 30
0.0
 11
880.020693
 21
358.01223
 31
0.0
  0
LINE
  8
0
 10
880.020693
 20
358.01223
 30
0.0
 11
880.082273
 21
358.01223
 31
0.0
  0
LINE
  8
0
 10
880.082273
 20
358.01223
 30
0.0
 11
880.141668
 21
358.004483
 31
0.0
  0
LINE
  8
0
 10
880.141668
 20
358.004483
 30
0.0
 11
880.199276
 21
357.990975
 31
0.0
  0
LINE
  8
0
 10
880.199276
 20
357.990975
 30
0.0
 11
880.256883
 21
357.969918
 31
0.0
  0
LINE
  8
0
 10
880.256883
 20
357.969918
 30
0.0
 11
880.310518
 21
357.941115
 31
0.0
  0
LINE
  8
0
 10
880.310518
 20
357.941115
 30
0.0
 11
880.35859
 21
357.90655
 31
0.0
  0
LINE
  8
0
 10
880.35859
 20
357.90655
 30
0.0
 11
880.404676
 21
357.866424
 31
0.0
  0
LINE
  8
0
 10
880.404676
 20
357.866424
 30
0.0
 11
880.444803
 21
357.822126
 31
0.0
  0
LINE
  8
0
 10
880.444803
 20
357.822126
 30
0.0
 11
880.404676
 21
357.866424
 31
0.0
  0
LINE
  8
0
 10
880.444803
 20
357.822126
 30
0.0
 11
880.479367
 21
357.772265
 31
0.0
  0
LINE
  8
0
 10
880.479367
 20
357.772265
 30
0.0
 11
880.444803
 21
357.822126
 31
0.0
  0
LINE
  8
0
 10
880.479367
 20
357.772265
 30
0.0
 11
880.506383
 21
357.718631
 31
0.0
  0
LINE
  8
0
 10
880.506383
 20
357.718631
 30
0.0
 11
880.479367
 21
357.772265
 31
0.0
  0
LINE
  8
0
 10
880.506383
 20
357.718631
 30
0.0
 11
880.527439
 21
357.662811
 31
0.0
  0
LINE
  8
0
 10
880.527439
 20
357.662811
 30
0.0
 11
880.506383
 21
357.718631
 31
0.0
  0
LINE
  8
0
 10
880.527439
 20
357.662811
 30
0.0
 11
880.542735
 21
357.603416
 31
0.0
  0
LINE
  8
0
 10
880.542735
 20
357.603416
 30
0.0
 11
880.527439
 21
357.662811
 31
0.0
  0
LINE
  8
0
 10
880.542735
 20
357.603416
 30
0.0
 11
880.550482
 21
357.544021
 31
0.0
  0
LINE
  8
0
 10
880.550482
 20
357.544021
 30
0.0
 11
880.542735
 21
357.603416
 31
0.0
  0
LINE
  8
0
 10
880.550482
 20
357.544021
 30
0.0
 11
880.550482
 21
357.484427
 31
0.0
  0
LINE
  8
0
 10
880.550482
 20
357.484427
 30
0.0
 11
880.550482
 21
357.544021
 31
0.0
  0
LINE
  8
0
 10
880.550482
 20
357.484427
 30
0.0
 11
880.542735
 21
357.425032
 31
0.0
  0
LINE
  8
0
 10
880.542735
 20
357.425032
 30
0.0
 11
880.550482
 21
357.484427
 31
0.0
  0
LINE
  8
0
 10
880.542735
 20
357.425032
 30
0.0
 11
880.527439
 21
357.365438
 31
0.0
  0
LINE
  8
0
 10
880.527439
 20
357.365438
 30
0.0
 11
880.542735
 21
357.425032
 31
0.0
  0
LINE
  8
0
 10
880.527439
 20
357.365438
 30
0.0
 11
880.506383
 21
357.309817
 31
0.0
  0
LINE
  8
0
 10
880.506383
 20
357.309817
 30
0.0
 11
880.527439
 21
357.365438
 31
0.0
  0
LINE
  8
0
 10
880.506383
 20
357.309817
 30
0.0
 11
880.479367
 21
357.255984
 31
0.0
  0
LINE
  8
0
 10
880.479367
 20
357.255984
 30
0.0
 11
880.506383
 21
357.309817
 31
0.0
  0
LINE
  8
0
 10
880.479367
 20
357.255984
 30
0.0
 11
880.444803
 21
357.206124
 31
0.0
  0
LINE
  8
0
 10
880.444803
 20
357.206124
 30
0.0
 11
880.479367
 21
357.255984
 31
0.0
  0
LINE
  8
0
 10
880.444803
 20
357.206124
 30
0.0
 11
880.404676
 21
357.162024
 31
0.0
  0
LINE
  8
0
 10
880.404676
 20
357.162024
 30
0.0
 11
880.444803
 21
357.206124
 31
0.0
  0
LINE
  8
0
 10
884.768536
 20
353.644397
 30
0.0
 11
884.862694
 21
353.566476
 31
0.0
  0
LINE
  8
0
 10
884.862694
 20
353.566476
 30
0.0
 11
884.962415
 21
353.485859
 31
0.0
  0
LINE
  8
0
 10
884.962415
 20
353.485859
 30
0.0
 11
885.066108
 21
353.408783
 31
0.0
  0
LINE
  8
0
 10
885.066108
 20
353.408783
 30
0.0
 11
885.173575
 21
353.335533
 31
0.0
  0
LINE
  8
0
 10
885.173575
 20
353.335533
 30
0.0
 11
885.284817
 21
353.266248
 31
0.0
  0
LINE
  8
0
 10
885.284817
 20
353.266248
 30
0.0
 11
885.400032
 21
353.200977
 31
0.0
  0
LINE
  8
0
 10
885.400032
 20
353.200977
 30
0.0
 11
885.517035
 21
353.140989
 31
0.0
  0
LINE
  8
0
 10
885.517035
 20
353.140989
 30
0.0
 11
885.63801
 21
353.085219
 31
0.0
  0
LINE
  8
0
 10
885.63801
 20
353.085219
 30
0.0
 11
885.760774
 21
353.034761
 31
0.0
  0
LINE
  8
0
 10
885.760774
 20
353.034761
 30
0.0
 11
885.887311
 21
352.988893
 31
0.0
  0
LINE
  8
0
 10
885.887311
 20
352.988893
 30
0.0
 11
886.014048
 21
352.948921
 31
0.0
  0
LINE
  8
0
 10
886.014048
 20
352.948921
 30
0.0
 11
886.142572
 21
352.914247
 31
0.0
  0
LINE
  8
0
 10
886.142572
 20
352.914247
 30
0.0
 11
886.271294
 21
352.885238
 31
0.0
  0
LINE
  8
0
 10
886.271294
 20
352.885238
 30
0.0
 11
886.401805
 21
352.854195
 31
0.0
  0
LINE
  8
0
 10
886.401805
 20
352.854195
 30
0.0
 11
886.532316
 21
352.821599
 31
0.0
  0
LINE
  8
0
 10
886.532316
 20
352.821599
 30
0.0
 11
886.401805
 21
352.854195
 31
0.0
  0
LINE
  8
0
 10
886.401805
 20
352.854195
 30
0.0
 11
886.271294
 21
352.885238
 31
0.0
  0
LINE
  8
0
 10
886.271294
 20
352.885238
 30
0.0
 11
886.142572
 21
352.914247
 31
0.0
  0
LINE
  8
0
 10
886.142572
 20
352.914247
 30
0.0
 11
886.014048
 21
352.948921
 31
0.0
  0
LINE
  8
0
 10
886.014048
 20
352.948921
 30
0.0
 11
885.887311
 21
352.988893
 31
0.0
  0
LINE
  8
0
 10
885.887311
 20
352.988893
 30
0.0
 11
885.760774
 21
353.034761
 31
0.0
  0
LINE
  8
0
 10
885.760774
 20
353.034761
 30
0.0
 11
885.63801
 21
353.085219
 31
0.0
  0
LINE
  8
0
 10
885.63801
 20
353.085219
 30
0.0
 11
885.517035
 21
353.140989
 31
0.0
  0
LINE
  8
0
 10
885.517035
 20
353.140989
 30
0.0
 11
885.400032
 21
353.200977
 31
0.0
  0
LINE
  8
0
 10
885.400032
 20
353.200977
 30
0.0
 11
885.284817
 21
353.266248
 31
0.0
  0
LINE
  8
0
 10
885.284817
 20
353.266248
 30
0.0
 11
885.173575
 21
353.335533
 31
0.0
  0
LINE
  8
0
 10
885.173575
 20
353.335533
 30
0.0
 11
885.066108
 21
353.408783
 31
0.0
  0
LINE
  8
0
 10
885.066108
 20
353.408783
 30
0.0
 11
884.962415
 21
353.485859
 31
0.0
  0
LINE
  8
0
 10
884.962415
 20
353.485859
 30
0.0
 11
884.862694
 21
353.566476
 31
0.0
  0
LINE
  8
0
 10
884.862694
 20
353.566476
 30
0.0
 11
884.768536
 21
353.644397
 31
0.0
  0
LINE
  8
0
 10
884.768536
 20
350.085154
 30
0.0
 11
884.862694
 21
350.17534
 31
0.0
  0
LINE
  8
0
 10
884.862694
 20
350.17534
 30
0.0
 11
884.768536
 21
350.085154
 31
0.0
  0
LINE
  8
0
 10
884.862694
 20
350.17534
 30
0.0
 11
884.962415
 21
350.259765
 31
0.0
  0
LINE
  8
0
 10
884.962415
 20
350.259765
 30
0.0
 11
884.862694
 21
350.17534
 31
0.0
  0
LINE
  8
0
 10
884.962415
 20
350.259765
 30
0.0
 11
885.066108
 21
350.338428
 31
0.0
  0
LINE
  8
0
 10
885.066108
 20
350.338428
 30
0.0
 11
884.962415
 21
350.259765
 31
0.0
  0
LINE
  8
0
 10
885.066108
 20
350.338428
 30
0.0
 11
885.173575
 21
350.413318
 31
0.0
  0
LINE
  8
0
 10
885.173575
 20
350.413318
 30
0.0
 11
885.066108
 21
350.338428
 31
0.0
  0
LINE
  8
0
 10
885.173575
 20
350.413318
 30
0.0
 11
885.284817
 21
350.482248
 31
0.0
  0
LINE
  8
0
 10
885.284817
 20
350.482248
 30
0.0
 11
885.173575
 21
350.413318
 31
0.0
  0
LINE
  8
0
 10
885.284817
 20
350.482248
 30
0.0
 11
885.400032
 21
350.543829
 31
0.0
  0
LINE
  8
0
 10
885.400032
 20
350.543829
 30
0.0
 11
885.284817
 21
350.482248
 31
0.0
  0
LINE
  8
0
 10
885.400032
 20
350.543829
 30
0.0
 11
885.517035
 21
350.59945
 31
0.0
  0
LINE
  8
0
 10
885.517035
 20
350.59945
 30
0.0
 11
885.400032
 21
350.543829
 31
0.0
  0
LINE
  8
0
 10
885.517035
 20
350.59945
 30
0.0
 11
885.63801
 21
350.64931
 31
0.0
  0
LINE
  8
0
 10
885.63801
 20
350.64931
 30
0.0
 11
885.517035
 21
350.59945
 31
0.0
  0
LINE
  8
0
 10
885.63801
 20
350.64931
 30
0.0
 11
885.760774
 21
350.693409
 31
0.0
  0
LINE
  8
0
 10
885.760774
 20
350.693409
 30
0.0
 11
885.63801
 21
350.64931
 31
0.0
  0
LINE
  8
0
 10
885.760774
 20
350.693409
 30
0.0
 11
885.887311
 21
350.72996
 31
0.0
  0
LINE
  8
0
 10
885.887311
 20
350.72996
 30
0.0
 11
885.760774
 21
350.693409
 31
0.0
  0
LINE
  8
0
 10
885.887311
 20
350.72996
 30
0.0
 11
886.014048
 21
350.760552
 31
0.0
  0
LINE
  8
0
 10
886.014048
 20
350.760552
 30
0.0
 11
885.887311
 21
350.72996
 31
0.0
  0
LINE
  8
0
 10
886.014048
 20
350.760552
 30
0.0
 11
886.142572
 21
350.785581
 31
0.0
  0
LINE
  8
0
 10
886.142572
 20
350.785581
 30
0.0
 11
886.014048
 21
350.760552
 31
0.0
  0
LINE
  8
0
 10
886.142572
 20
350.785581
 30
0.0
 11
886.271294
 21
350.802863
 31
0.0
  0
LINE
  8
0
 10
886.271294
 20
350.802863
 30
0.0
 11
886.142572
 21
350.785581
 31
0.0
  0
LINE
  8
0
 10
886.271294
 20
350.802863
 30
0.0
 11
886.401805
 21
350.812398
 31
0.0
  0
LINE
  8
0
 10
886.401805
 20
350.812398
 30
0.0
 11
886.271294
 21
350.802863
 31
0.0
  0
LINE
  8
0
 10
886.401805
 20
350.812398
 30
0.0
 11
886.532316
 21
350.816173
 31
0.0
  0
LINE
  8
0
 10
886.532316
 20
350.816173
 30
0.0
 11
886.401805
 21
350.812398
 31
0.0
  0
LINE
  8
0
 10
880.404676
 20
346.567329
 30
0.0
 11
880.444803
 21
346.523229
 31
0.0
  0
LINE
  8
0
 10
880.444803
 20
346.523229
 30
0.0
 11
880.404676
 21
346.567329
 31
0.0
  0
LINE
  8
0
 10
880.404676
 20
346.567329
 30
0.0
 11
879.540962
 21
347.431043
 31
0.0
  0
LINE
  8
0
 10
879.540962
 20
347.431043
 30
0.0
 11
879.477594
 21
347.490438
 31
0.0
  0
LINE
  8
0
 10
879.477594
 20
347.490438
 30
0.0
 11
879.408664
 21
347.542284
 31
0.0
  0
LINE
  8
0
 10
879.408664
 20
347.542284
 30
0.0
 11
879.333774
 21
347.590357
 31
0.0
  0
LINE
  8
0
 10
879.333774
 20
347.590357
 30
0.0
 11
879.256898
 21
347.628695
 31
0.0
  0
LINE
  8
0
 10
879.256898
 20
347.628695
 30
0.0
 11
879.176446
 21
347.66326
 31
0.0
  0
LINE
  8
0
 10
879.176446
 20
347.66326
 30
0.0
 11
879.09381
 21
347.688091
 31
0.0
  0
LINE
  8
0
 10
879.09381
 20
347.688091
 30
0.0
 11
879.009385
 21
347.707359
 31
0.0
  0
LINE
  8
0
 10
879.009385
 20
347.707359
 30
0.0
 11
878.922974
 21
347.718881
 31
0.0
  0
LINE
  8
0
 10
878.922974
 20
347.718881
 30
0.0
 11
878.836761
 21
347.722655
 31
0.0
  0
LINE
  8
0
 10
878.836761
 20
347.722655
 30
0.0
 11
878.748364
 21
347.718881
 31
0.0
  0
LINE
  8
0
 10
878.748364
 20
347.718881
 30
0.0
 11
878.661953
 21
347.707359
 31
0.0
  0
LINE
  8
0
 10
878.661953
 20
347.707359
 30
0.0
 11
878.577528
 21
347.688091
 31
0.0
  0
LINE
  8
0
 10
878.577528
 20
347.688091
 30
0.0
 11
878.49509
 21
347.66326
 31
0.0
  0
LINE
  8
0
 10
878.49509
 20
347.66326
 30
0.0
 11
878.41444
 21
347.628695
 31
0.0
  0
LINE
  8
0
 10
878.41444
 20
347.628695
 30
0.0
 11
878.337762
 21
347.590357
 31
0.0
  0
LINE
  8
0
 10
878.337762
 20
347.590357
 30
0.0
 11
878.262873
 21
347.542284
 31
0.0
  0
LINE
  8
0
 10
878.262873
 20
347.542284
 30
0.0
 11
878.193744
 21
347.490438
 31
0.0
  0
LINE
  8
0
 10
878.193744
 20
347.490438
 30
0.0
 11
878.130376
 21
347.431043
 31
0.0
  0
LINE
  8
0
 10
878.130376
 20
347.431043
 30
0.0
 11
877.339764
 21
346.640232
 31
0.0
  0
LINE
  8
0
 10
877.339764
 20
346.640232
 30
0.0
 11
878.130376
 21
347.431043
 31
0.0
  0
LINE
  8
0
 10
878.130376
 20
347.431043
 30
0.0
 11
878.193744
 21
347.490438
 31
0.0
  0
LINE
  8
0
 10
878.193744
 20
347.490438
 30
0.0
 11
878.262873
 21
347.542284
 31
0.0
  0
LINE
  8
0
 10
878.262873
 20
347.542284
 30
0.0
 11
878.337762
 21
347.590357
 31
0.0
  0
LINE
  8
0
 10
878.337762
 20
347.590357
 30
0.0
 11
878.41444
 21
347.628695
 31
0.0
  0
LINE
  8
0
 10
878.41444
 20
347.628695
 30
0.0
 11
878.49509
 21
347.66326
 31
0.0
  0
LINE
  8
0
 10
878.49509
 20
347.66326
 30
0.0
 11
878.577528
 21
347.688091
 31
0.0
  0
LINE
  8
0
 10
878.577528
 20
347.688091
 30
0.0
 11
878.661953
 21
347.707359
 31
0.0
  0
LINE
  8
0
 10
878.661953
 20
347.707359
 30
0.0
 11
878.748364
 21
347.718881
 31
0.0
  0
LINE
  8
0
 10
878.748364
 20
347.718881
 30
0.0
 11
878.836761
 21
347.722655
 31
0.0
  0
LINE
  8
0
 10
878.836761
 20
347.722655
 30
0.0
 11
878.922974
 21
347.718881
 31
0.0
  0
LINE
  8
0
 10
878.922974
 20
347.718881
 30
0.0
 11
879.009385
 21
347.707359
 31
0.0
  0
LINE
  8
0
 10
879.009385
 20
347.707359
 30
0.0
 11
879.09381
 21
347.688091
 31
0.0
  0
LINE
  8
0
 10
879.09381
 20
347.688091
 30
0.0
 11
879.176446
 21
347.66326
 31
0.0
  0
LINE
  8
0
 10
879.176446
 20
347.66326
 30
0.0
 11
879.256898
 21
347.628695
 31
0.0
  0
LINE
  8
0
 10
879.256898
 20
347.628695
 30
0.0
 11
879.333774
 21
347.590357
 31
0.0
  0
LINE
  8
0
 10
879.333774
 20
347.590357
 30
0.0
 11
879.408664
 21
347.542284
 31
0.0
  0
LINE
  8
0
 10
879.408664
 20
347.542284
 30
0.0
 11
879.477594
 21
347.490438
 31
0.0
  0
LINE
  8
0
 10
879.477594
 20
347.490438
 30
0.0
 11
879.540962
 21
347.431043
 31
0.0
  0
LINE
  8
0
 10
879.540962
 20
347.431043
 30
0.0
 11
880.404676
 21
346.567329
 31
0.0
  0
LINE
  8
0
 10
880.444803
 20
346.523229
 30
0.0
 11
880.479367
 21
346.473369
 31
0.0
  0
LINE
  8
0
 10
880.479367
 20
346.473369
 30
0.0
 11
880.444803
 21
346.523229
 31
0.0
  0
LINE
  8
0
 10
880.479367
 20
346.473369
 30
0.0
 11
880.506383
 21
346.419536
 31
0.0
  0
LINE
  8
0
 10
880.506383
 20
346.419536
 30
0.0
 11
880.479367
 21
346.473369
 31
0.0
  0
LINE
  8
0
 10
880.506383
 20
346.419536
 30
0.0
 11
880.527439
 21
346.363915
 31
0.0
  0
LINE
  8
0
 10
880.527439
 20
346.363915
 30
0.0
 11
880.506383
 21
346.419536
 31
0.0
  0
LINE
  8
0
 10
880.527439
 20
346.363915
 30
0.0
 11
880.542735
 21
346.30452
 31
0.0
  0
LINE
  8
0
 10
880.542735
 20
346.30452
 30
0.0
 11
880.527439
 21
346.363915
 31
0.0
  0
LINE
  8
0
 10
880.542735
 20
346.30452
 30
0.0
 11
880.550482
 21
346.244926
 31
0.0
  0
LINE
  8
0
 10
880.550482
 20
346.244926
 30
0.0
 11
880.542735
 21
346.30452
 31
0.0
  0
LINE
  8
0
 10
880.550482
 20
346.244926
 30
0.0
 11
880.550482
 21
346.185531
 31
0.0
  0
LINE
  8
0
 10
880.550482
 20
346.185531
 30
0.0
 11
880.550482
 21
346.244926
 31
0.0
  0
LINE
  8
0
 10
880.550482
 20
346.185531
 30
0.0
 11
880.542735
 21
346.125937
 31
0.0
  0
LINE
  8
0
 10
880.542735
 20
346.125937
 30
0.0
 11
880.550482
 21
346.185531
 31
0.0
  0
LINE
  8
0
 10
880.542735
 20
346.125937
 30
0.0
 11
880.527439
 21
346.066542
 31
0.0
  0
LINE
  8
0
 10
880.527439
 20
346.066542
 30
0.0
 11
880.542735
 21
346.125937
 31
0.0
  0
LINE
  8
0
 10
880.527439
 20
346.066542
 30
0.0
 11
880.506383
 21
346.010921
 31
0.0
  0
LINE
  8
0
 10
880.506383
 20
346.010921
 30
0.0
 11
880.527439
 21
346.066542
 31
0.0
  0
LINE
  8
0
 10
880.506383
 20
346.010921
 30
0.0
 11
880.479367
 21
345.957088
 31
0.0
  0
LINE
  8
0
 10
880.479367
 20
345.957088
 30
0.0
 11
880.506383
 21
346.010921
 31
0.0
  0
LINE
  8
0
 10
880.479367
 20
345.957088
 30
0.0
 11
880.444803
 21
345.907227
 31
0.0
  0
LINE
  8
0
 10
880.444803
 20
345.907227
 30
0.0
 11
880.479367
 21
345.957088
 31
0.0
  0
LINE
  8
0
 10
880.444803
 20
345.907227
 30
0.0
 11
880.404676
 21
345.863128
 31
0.0
  0
LINE
  8
0
 10
880.404676
 20
345.863128
 30
0.0
 11
880.444803
 21
345.907227
 31
0.0
  0
LINE
  8
0
 10
880.404676
 20
345.863128
 30
0.0
 11
880.35859
 21
345.822803
 31
0.0
  0
LINE
  8
0
 10
880.35859
 20
345.822803
 30
0.0
 11
880.404676
 21
345.863128
 31
0.0
  0
LINE
  8
0
 10
880.35859
 20
345.822803
 30
0.0
 11
880.310518
 21
345.788238
 31
0.0
  0
LINE
  8
0
 10
880.310518
 20
345.788238
 30
0.0
 11
880.35859
 21
345.822803
 31
0.0
  0
LINE
  8
0
 10
880.310518
 20
345.788238
 30
0.0
 11
880.256883
 21
345.759435
 31
0.0
  0
LINE
  8
0
 10
880.256883
 20
345.759435
 30
0.0
 11
880.310518
 21
345.788238
 31
0.0
  0
LINE
  8
0
 10
880.256883
 20
345.759435
 30
0.0
 11
880.199276
 21
345.738378
 31
0.0
  0
LINE
  8
0
 10
880.199276
 20
345.738378
 30
0.0
 11
880.256883
 21
345.759435
 31
0.0
  0
LINE
  8
0
 10
880.199276
 20
345.738378
 30
0.0
 11
880.141668
 21
345.72487
 31
0.0
  0
LINE
  8
0
 10
880.141668
 20
345.72487
 30
0.0
 11
880.199276
 21
345.738378
 31
0.0
  0
LINE
  8
0
 10
880.141668
 20
345.72487
 30
0.0
 11
880.082273
 21
345.717123
 31
0.0
  0
LINE
  8
0
 10
880.082273
 20
345.717123
 30
0.0
 11
880.141668
 21
345.72487
 31
0.0
  0
LINE
  8
0
 10
880.082273
 20
345.717123
 30
0.0
 11
880.020693
 21
345.717123
 31
0.0
  0
LINE
  8
0
 10
880.020693
 20
345.717123
 30
0.0
 11
880.082273
 21
345.717123
 31
0.0
  0
LINE
  8
0
 10
880.020693
 20
345.717123
 30
0.0
 11
879.961298
 21
345.72487
 31
0.0
  0
LINE
  8
0
 10
879.961298
 20
345.72487
 30
0.0
 11
880.020693
 21
345.717123
 31
0.0
  0
LINE
  8
0
 10
879.961298
 20
345.72487
 30
0.0
 11
879.90369
 21
345.738378
 31
0.0
  0
LINE
  8
0
 10
879.90369
 20
345.738378
 30
0.0
 11
879.961298
 21
345.72487
 31
0.0
  0
LINE
  8
0
 10
879.90369
 20
345.738378
 30
0.0
 11
879.846083
 21
345.759435
 31
0.0
  0
LINE
  8
0
 10
879.846083
 20
345.759435
 30
0.0
 11
879.90369
 21
345.738378
 31
0.0
  0
LINE
  8
0
 10
879.846083
 20
345.759435
 30
0.0
 11
879.794236
 21
345.788238
 31
0.0
  0
LINE
  8
0
 10
879.794236
 20
345.788238
 30
0.0
 11
879.846083
 21
345.759435
 31
0.0
  0
LINE
  8
0
 10
879.794236
 20
345.788238
 30
0.0
 11
879.744376
 21
345.822803
 31
0.0
  0
LINE
  8
0
 10
879.744376
 20
345.822803
 30
0.0
 11
879.794236
 21
345.788238
 31
0.0
  0
LINE
  8
0
 10
879.744376
 20
345.822803
 30
0.0
 11
879.69829
 21
345.863128
 31
0.0
  0
LINE
  8
0
 10
879.69829
 20
345.863128
 30
0.0
 11
879.744376
 21
345.822803
 31
0.0
  0
LINE
  8
0
 10
878.836761
 20
346.724657
 30
0.0
 11
879.69829
 21
345.863128
 31
0.0
  0
LINE
  8
0
 10
880.210797
 20
345.529204
 30
0.0
 11
878.337762
 21
345.529204
 31
0.0
  0
LINE
  8
0
 10
878.337762
 20
345.529204
 30
0.0
 11
878.337762
 21
346.225856
 31
0.0
  0
LINE
  8
0
 10
878.337762
 20
346.225856
 30
0.0
 11
878.836761
 21
346.724657
 31
0.0
  0
LINE
  8
0
 10
880.210797
 20
345.529204
 30
0.0
 11
884.768536
 21
350.085154
 31
0.0
  0
LINE
  8
0
 10
880.916985
 20
344.531205
 30
0.0
 11
878.337762
 21
344.531205
 31
0.0
  0
LINE
  8
0
 10
881.623172
 20
344.823016
 30
0.0
 11
885.388511
 21
348.588157
 31
0.0
  0
LINE
  8
0
 10
885.388511
 20
348.588157
 30
0.0
 11
881.623172
 21
344.823016
 31
0.0
  0
LINE
  8
0
 10
877.339764
 20
345.529204
 30
0.0
 11
877.339764
 21
346.640232
 31
0.0
  0
LINE
  8
0
 10
877.339764
 20
357.089121
 30
0.0
 11
878.130376
 21
356.298509
 31
0.0
  0
LINE
  8
0
 10
877.339764
 20
357.089121
 30
0.0
 11
877.339764
 21
358.200348
 31
0.0
  0
LINE
  8
0
 10
878.337762
 20
357.503696
 30
0.0
 11
878.337762
 21
358.200348
 31
0.0
  0
LINE
  8
0
 10
878.337762
 20
358.200348
 30
0.0
 11
880.210797
 21
358.200348
 31
0.0
  0
LINE
  8
0
 10
880.210797
 20
358.200348
 30
0.0
 11
884.768536
 21
353.644397
 31
0.0
  0
LINE
  8
0
 10
880.210797
 20
358.200348
 30
0.0
 11
878.337762
 21
358.200348
 31
0.0
  0
LINE
  8
0
 10
878.337762
 20
358.200348
 30
0.0
 11
878.337762
 21
357.503696
 31
0.0
  0
LINE
  8
0
 10
878.337762
 20
357.503696
 30
0.0
 11
878.836761
 21
357.004696
 31
0.0
  0
LINE
  8
0
 10
878.836761
 20
357.004696
 30
0.0
 11
878.337762
 21
357.503696
 31
0.0
  0
LINE
  8
0
 10
878.836761
 20
357.004696
 30
0.0
 11
879.69829
 21
357.866424
 31
0.0
  0
LINE
  8
0
 10
879.69829
 20
357.866424
 30
0.0
 11
878.836761
 21
357.004696
 31
0.0
  0
LINE
  8
0
 10
879.540962
 20
356.298509
 30
0.0
 11
880.404676
 21
357.162024
 31
0.0
  0
LINE
  8
0
 10
880.404676
 20
357.162024
 30
0.0
 11
879.540962
 21
356.298509
 31
0.0
  0
LINE
  8
0
 10
878.337762
 20
359.198148
 30
0.0
 11
880.916985
 21
359.198148
 31
0.0
  0
LINE
  8
0
 10
881.623172
 20
358.906535
 30
0.0
 11
885.388511
 21
355.141196
 31
0.0
  0
LINE
  8
0
 10
885.388511
 20
355.141196
 30
0.0
 11
881.623172
 21
358.906535
 31
0.0
  0
LINE
  8
0
 10
887.152092
 20
354.291747
 30
0.0
 11
920.029827
 21
354.306982
 31
0.0
  0
LINE
  8
0
 10
886.532316
 20
352.821599
 30
0.0
 11
891.306976
 21
352.810183
 31
0.0
  0
LINE
  8
0
 10
886.532316
 20
350.816173
 30
0.0
 11
891.306976
 21
350.816173
 31
0.0
  0
LINE
  8
0
 10
887.152092
 20
349.319373
 30
0.0
 11
920.029827
 21
349.319373
 31
0.0
  0
LINE
  8
0
 10
855.039764
 20
451.988898
 30
0.0
 11
857.477768
 21
454.426903
 31
0.0
  0
LINE
  8
0
 10
855.039764
 20
444.917831
 30
0.0
 11
861.013302
 21
450.891369
 31
0.0
  0
LINE
  8
0
 10
855.039764
 20
437.846763
 30
0.0
 11
864.548836
 21
447.355835
 31
0.0
  0
LINE
  8
0
 10
855.039764
 20
430.775695
 30
0.0
 11
868.08437
 21
443.820301
 31
0.0
  0
LINE
  8
0
 10
855.039764
 20
423.704627
 30
0.0
 11
871.619904
 21
440.284767
 31
0.0
  0
LINE
  8
0
 10
855.039764
 20
416.633559
 30
0.0
 11
875.039764
 21
436.633559
 31
0.0
  0
LINE
  8
0
 10
855.039764
 20
409.562491
 30
0.0
 11
875.039764
 21
429.562491
 31
0.0
  0
LINE
  8
0
 10
855.039764
 20
402.491424
 30
0.0
 11
875.039764
 21
422.491424
 31
0.0
  0
LINE
  8
0
 10
855.039764
 20
395.420356
 30
0.0
 11
875.039764
 21
415.420356
 31
0.0
  0
LINE
  8
0
 10
855.039764
 20
388.349288
 30
0.0
 11
875.039764
 21
408.349288
 31
0.0
  0
LINE
  8
0
 10
855.039764
 20
381.27822
 30
0.0
 11
875.039764
 21
401.27822
 31
0.0
  0
LINE
  8
0
 10
855.039764
 20
374.207152
 30
0.0
 11
875.039764
 21
394.207152
 31
0.0
  0
LINE
  8
0
 10
855.039764
 20
367.136085
 30
0.0
 11
875.039764
 21
387.136085
 31
0.0
  0
LINE
  8
0
 10
855.039764
 20
360.065017
 30
0.0
 11
875.039764
 21
380.065017
 31
0.0
  0
LINE
  8
0
 10
855.039764
 20
352.993949
 30
0.0
 11
875.039764
 21
372.993949
 31
0.0
  0
LINE
  8
0
 10
855.039764
 20
345.922881
 30
0.0
 11
875.039764
 21
365.922881
 31
0.0
  0
LINE
  8
0
 10
855.039764
 20
338.851813
 30
0.0
 11
875.039764
 21
358.851813
 31
0.0
  0
LINE
  8
0
 10
855.039764
 20
331.780746
 30
0.0
 11
875.039764
 21
351.780746
 31
0.0
  0
LINE
  8
0
 10
855.039764
 20
324.709678
 30
0.0
 11
875.039764
 21
344.709678
 31
0.0
  0
LINE
  8
0
 10
855.039764
 20
317.63861
 30
0.0
 11
875.039764
 21
337.63861
 31
0.0
  0
LINE
  8
0
 10
855.039764
 20
310.567542
 30
0.0
 11
875.039764
 21
330.567542
 31
0.0
  0
LINE
  8
0
 10
855.039764
 20
303.496474
 30
0.0
 11
875.039764
 21
323.496474
 31
0.0
  0
LINE
  8
0
 10
855.039764
 20
296.425407
 30
0.0
 11
875.039764
 21
316.425407
 31
0.0
  0
LINE
  8
0
 10
855.039764
 20
289.354339
 30
0.0
 11
875.039764
 21
309.354339
 31
0.0
  0
LINE
  8
0
 10
855.039764
 20
282.283271
 30
0.0
 11
875.039764
 21
302.283271
 31
0.0
  0
LINE
  8
0
 10
855.039764
 20
275.212203
 30
0.0
 11
875.039764
 21
295.212203
 31
0.0
  0
LINE
  8
0
 10
855.039764
 20
268.141135
 30
0.0
 11
875.039764
 21
288.141135
 31
0.0
  0
LINE
  8
0
 10
855.039764
 20
261.070067
 30
0.0
 11
875.039764
 21
281.070067
 31
0.0
  0
LINE
  8
0
 10
855.039764
 20
253.999
 30
0.0
 11
875.039764
 21
273.999
 31
0.0
  0
LINE
  8
0
 10
855.039764
 20
246.927932
 30
0.0
 11
875.039764
 21
266.927932
 31
0.0
  0
ENDSEC
  0
EOF
