  0
SECTION
  2
HEADER
  9
$ACADVER
  1
AC1009
  9
$INSBASE
 10
0.0
 20
0.0
 30
0.0
  9
$EXTMIN
 10
855.039764
 20
266.864907
 30
0.0
  9
$EXTMAX
 10
935.453977
 20
436.864907
 30
0.0
  9
$LIMMIN
 10
855.039764
 20
266.864907
  9
$LIMMAX
 10
935.039764
 20
436.864907
  9
$ORTHOMODE
 70
     0
  9
$REGENMODE
 70
     1
  9
$FILLMODE
 70
     1
  9
$QTEXTMODE
 70
     0
  9
$MIRRTEXT
 70
     1
  9
$DRAGMODE
 70
     2
  9
$LTSCALE
 40
1.0
  9
$OSMODE
 70
     0
  9
$ATTMODE
 70
     1
  9
$TEXTSIZE
 40
3.5
  9
$TRACEWID
 40
0.5
  9
$TEXTSTYLE
  7
STANDARD
  9
$CLAYER
  8
0
  9
$CELTYPE
  6
BYLAYER
  9
$CECOLOR
 62
   256
  9
$DIMSCALE
 40
1.0
  9
$DIMASZ
 40
0.18
  9
$DIMEXO
 40
0.0625
  9
$DIMDLI
 40
0.38
  9
$DIMRND
 40
0.0
  9
$DIMDLE
 40
0.0
  9
$DIMEXE
 40
0.18
  9
$DIMTP
 40
0.0
  9
$DIMTM
 40
0.0
  9
$DIMTXT
 40
0.18
  9
$DIMCEN
 40
0.09
  9
$DIMTSZ
 40
0.0
  9
$DIMTOL
 70
     0
  9
$DIMLIM
 70
     0
  9
$DIMTIH
 70
     1
  9
$DIMTOH
 70
     1
  9
$DIMSE1
 70
     0
  9
$DIMSE2
 70
     0
  9
$DIMTAD
 70
     0
  9
$DIMZIN
 70
     0
  9
$DIMBLK
  1

  9
$DIMASO
 70
     1
  9
$DIMSHO
 70
     1
  9
$DIMPOST
  1

  9
$DIMAPOST
  1

  9
$DIMALT
 70
     0
  9
$DIMALTD
 70
     2
  9
$DIMALTF
 40
25.4
  9
$DIMLFAC
 40
1.0
  9
$DIMTOFL
 70
     0
  9
$DIMTVP
 40
0.0
  9
$DIMTIX
 70
     0
  9
$DIMSOXD
 70
     0
  9
$DIMSAH
 70
     0
  9
$DIMBLK1
  1

  9
$DIMBLK2
  1

  9
$DIMSTYLE
  2
*UNNAMED
  9
$DIMCLRD
 70
     0
  9
$DIMCLRE
 70
     0
  9
$DIMCLRT
 70
     0
  9
$DIMTFAC
 40
1.0
  9
$DIMGAP
 40
0.09
  9
$LUNITS
 70
     2
  9
$LUPREC
 70
     4
  9
$SKETCHINC
 40
0.1
  9
$FILLETRAD
 40
2.0
  9
$AUNITS
 70
     0
  9
$AUPREC
 70
     0
  9
$MENU
  1
ACAD
  9
$ELEVATION
 40
0.0
  9
$PELEVATION
 40
0.0
  9
$THICKNESS
 40
0.0
  9
$LIMCHECK
 70
     0
  9
$BLIPMODE
 70
     1
  9
$CHAMFERA
 40
0.0
  9
$CHAMFERB
 40
0.0
  9
$SKPOLY
 70
     0
  9
$TDCREATE
 40
2450948.685396411
  9
$TDUPDATE
 40
2450948.686376041
  9
$TDINDWG
 40
0.0007540509
  9
$TDUSRTIMER
 40
0.0007540509
  9
$USRTIMER
 70
     1
  9
$ANGBASE
 50
0.0
  9
$ANGDIR
 70
     0
  9
$PDMODE
 70
     0
  9
$PDSIZE
 40
0.0
  9
$PLINEWID
 40
0.0
  9
$COORDS
 70
     2
  9
$SPLFRAME
 70
     0
  9
$SPLINETYPE
 70
     6
  9
$SPLINESEGS
 70
     8
  9
$ATTDIA
 70
     0
  9
$ATTREQ
 70
     1
  9
$HANDLING
 70
     0
  9
$HANDSEED
  5
0
  9
$SURFTAB1
 70
     6
  9
$SURFTAB2
 70
     6
  9
$SURFTYPE
 70
     6
  9
$SURFU
 70
     6
  9
$SURFV
 70
     6
  9
$UCSNAME
  2

  9
$UCSORG
 10
0.0
 20
0.0
 30
0.0
  9
$UCSXDIR
 10
1.0
 20
0.0
 30
0.0
  9
$UCSYDIR
 10
0.0
 20
1.0
 30
0.0
  9
$PUCSNAME
  2

  9
$PUCSORG
 10
0.0
 20
0.0
 30
0.0
  9
$PUCSXDIR
 10
1.0
 20
0.0
 30
0.0
  9
$PUCSYDIR
 10
0.0
 20
1.0
 30
0.0
  9
$USERI1
 70
     0
  9
$USERI2
 70
     0
  9
$USERI3
 70
     0
  9
$USERI4
 70
     0
  9
$USERI5
 70
     0
  9
$USERR1
 40
0.0
  9
$USERR2
 40
0.0
  9
$USERR3
 40
0.0
  9
$USERR4
 40
0.0
  9
$USERR5
 40
0.0
  9
$WORLDVIEW
 70
     1
  9
$SHADEDGE
 70
     3
  9
$SHADEDIF
 70
    70
  9
$TILEMODE
 70
     1
  9
$MAXACTVP
 70
    16
  9
$PINSBASE
 10
0.0
 20
0.0
 30
0.0
  9
$PLIMCHECK
 70
     0
  9
$PEXTMIN
 10
1.000000E+20
 20
1.000000E+20
 30
1.000000E+20
  9
$PEXTMAX
 10
-1.000000E+20
 20
-1.000000E+20
 30
-1.000000E+20
  9
$PLIMMIN
 10
0.0
 20
0.0
  9
$PLIMMAX
 10
420.0
 20
297.0
  9
$UNITMODE
 70
     0
  9
$VISRETAIN
 70
     0
  9
$PLINEGEN
 70
     0
  9
$PSLTSCALE
 70
     1
  9
$TREEDEPTH
 70
  3020
  9
$DWGCODEPAGE
  3
iso8859-1
  0
ENDSEC
  0
SECTION
  2
TABLES
  0
TABLE
  2
VPORT
 70
     2
  0
VPORT
  2
*ACTIVE
 70
     0
 10
0.0
 20
0.0
 11
1.0
 21
1.0
 12
1008.824459
 22
340.613237
 13
0.0
 23
0.0
 14
1.0
 24
1.0
 15
0.0
 25
0.0
 16
0.0
 26
0.0
 36
1.0
 17
0.0
 27
0.0
 37
0.0
 40
240.735631
 41
1.748359
 42
50.0
 43
0.0
 44
0.0
 50
0.0
 51
0.0
 71
     0
 72
   100
 73
     1
 74
     0
 75
     0
 76
     0
 77
     0
 78
     0
  0
ENDTAB
  0
TABLE
  2
LTYPE
 70
     1
  0
LTYPE
  2
CONTINUOUS
 70
    64
  3
Solid line
 72
    65
 73
     0
 40
0.0
  0
ENDTAB
  0
TABLE
  2
LAYER
 70
     2
  0
LAYER
  2
0
 70
    64
 62
     7
  6
CONTINUOUS
  0
ENDTAB
  0
TABLE
  2
STYLE
 70
     1
  0
STYLE
  2
STANDARD
 70
     0
 40
0.0
 41
1.0
 50
0.0
 71
     0
 42
3.5
  3
txt
  4

  0
ENDTAB
  0
TABLE
  2
VIEW
 70
     0
  0
ENDTAB
  0
TABLE
  2
UCS
 70
     0
  0
ENDTAB
  0
TABLE
  2
APPID
 70
     1
  0
APPID
  2
ACAD
 70
    64
  0
ENDTAB
  0
TABLE
  2
DIMSTYLE
 70
     0
  0
ENDTAB
  0
ENDSEC
  0
SECTION
  2
BLOCKS
  0
ENDSEC
  0
SECTION
  2
ENTITIES
  0
LINE
  8
0
 10
925.500533
 20
290.164907
 30
0.0
 11
925.06752
 21
289.414907
 31
0.0
  0
LINE
  8
0
 10
929.539764
 20
413.764907
 30
0.0
 11
928.939764
 21
413.764907
 31
0.0
  0
LINE
  8
0
 10
929.539764
 20
415.164907
 30
0.0
 11
928.939764
 21
415.164907
 31
0.0
  0
LINE
  8
0
 10
929.539764
 20
289.964907
 30
0.0
 11
928.939764
 21
289.964907
 31
0.0
  0
LINE
  8
0
 10
879.339764
 20
289.164907
 30
0.0
 11
921.057157
 21
289.164907
 31
0.0
  0
LINE
  8
0
 10
882.349814
 20
354.364907
 30
0.0
 11
881.698342
 21
355.016379
 31
0.0
  0
LINE
  8
0
 10
881.698342
 20
355.016379
 30
0.0
 11
881.193317
 21
354.511354
 31
0.0
  0
LINE
  8
0
 10
880.339764
 20
354.864907
 30
0.0
 11
880.339764
 21
356.864907
 31
0.0
  0
LINE
  8
0
 10
881.193317
 20
357.218461
 30
0.0
 11
883.08621
 21
355.325568
 31
0.0
  0
LINE
  8
0
 10
882.02555
 20
352.764907
 30
0.0
 11
878.239764
 21
352.764907
 31
0.0
  0
LINE
  8
0
 10
882.349814
 20
354.364907
 30
0.0
 11
878.339764
 21
354.364907
 31
0.0
  0
LINE
  8
0
 10
881.698342
 20
348.713436
 30
0.0
 11
882.349814
 21
349.364907
 31
0.0
  0
LINE
  8
0
 10
881.193317
 20
349.218461
 30
0.0
 11
881.698342
 21
348.713436
 31
0.0
  0
LINE
  8
0
 10
880.339764
 20
346.864907
 30
0.0
 11
880.339764
 21
348.864907
 31
0.0
  0
LINE
  8
0
 10
883.08621
 20
348.404247
 30
0.0
 11
881.193317
 21
346.511354
 31
0.0
  0
LINE
  8
0
 10
878.239764
 20
350.964907
 30
0.0
 11
882.02555
 21
350.964907
 31
0.0
  0
LINE
  8
0
 10
878.339764
 20
349.364907
 30
0.0
 11
882.349814
 21
349.364907
 31
0.0
  0
LINE
  8
0
 10
929.139764
 20
294.264907
 30
0.0
 11
926.939764
 21
294.264907
 31
0.0
  0
LINE
  8
0
 10
931.539764
 20
294.264907
 30
0.0
 11
932.539764
 21
294.264907
 31
0.0
  0
LINE
  8
0
 10
933.039764
 20
293.764907
 30
0.0
 11
933.039764
 21
292.064907
 31
0.0
  0
LINE
  8
0
 10
929.539764
 20
288.564907
 30
0.0
 11
928.939764
 21
288.564907
 31
0.0
  0
LINE
  8
0
 10
931.639764
 20
292.064907
 30
0.0
 11
931.639764
 21
292.364907
 31
0.0
  0
LINE
  8
0
 10
931.139764
 20
292.864907
 30
0.0
 11
927.581216
 21
292.864907
 31
0.0
  0
LINE
  8
0
 10
931.039764
 20
294.764907
 30
0.0
 11
931.039764
 21
296.782136
 31
0.0
  0
LINE
  8
0
 10
930.039764
 20
300.564907
 30
0.0
 11
926.039764
 21
300.564907
 31
0.0
  0
LINE
  8
0
 10
929.639764
 20
294.764907
 30
0.0
 11
929.639764
 21
296.535278
 31
0.0
  0
LINE
  8
0
 10
929.139764
 20
299.164907
 30
0.0
 11
926.939764
 21
299.164907
 31
0.0
  0
LINE
  8
0
 10
926.439764
 20
294.764907
 30
0.0
 11
926.439764
 21
298.664907
 31
0.0
  0
LINE
  8
0
 10
877.039764
 20
416.864907
 30
0.0
 11
922.385063
 21
416.864907
 31
0.0
  0
LINE
  8
0
 10
879.339764
 20
414.564907
 30
0.0
 11
921.057157
 21
414.564907
 31
0.0
  0
LINE
  8
0
 10
932.539764
 20
409.464907
 30
0.0
 11
931.539764
 21
409.464907
 31
0.0
  0
LINE
  8
0
 10
933.039764
 20
411.664907
 30
0.0
 11
933.039764
 21
409.964907
 31
0.0
  0
LINE
  8
0
 10
931.639764
 20
411.364907
 30
0.0
 11
931.639764
 21
411.664907
 31
0.0
  0
LINE
  8
0
 10
927.588434
 20
410.864907
 30
0.0
 11
931.139764
 21
410.864907
 31
0.0
  0
LINE
  8
0
 10
926.039764
 20
403.164907
 30
0.0
 11
930.039764
 21
403.164907
 31
0.0
  0
LINE
  8
0
 10
926.939764
 20
404.564907
 30
0.0
 11
929.139764
 21
404.564907
 31
0.0
  0
LINE
  8
0
 10
926.439764
 20
408.964907
 30
0.0
 11
926.439764
 21
405.064907
 31
0.0
  0
LINE
  8
0
 10
931.039764
 20
404.164907
 30
0.0
 11
931.039764
 21
408.964907
 31
0.0
  0
LINE
  8
0
 10
931.039764
 20
298.764907
 30
0.0
 11
931.039764
 21
299.564907
 31
0.0
  0
LINE
  8
0
 10
924.117114
 20
287.864907
 30
0.0
 11
926.71519
 21
292.364907
 31
0.0
  0
LINE
  8
0
 10
927.588434
 20
410.864907
 30
0.0
 11
927.581216
 21
410.864907
 31
0.0
  0
LINE
  8
0
 10
926.71519
 20
411.364907
 30
0.0
 11
924.117114
 21
415.864907
 31
0.0
  0
LINE
  8
0
 10
922.789208
 20
290.164907
 30
0.0
 11
925.039764
 21
294.062984
 31
0.0
  0
LINE
  8
0
 10
925.039764
 20
294.062984
 30
0.0
 11
925.039764
 21
299.564907
 31
0.0
  0
LINE
  8
0
 10
922.789208
 20
413.564907
 30
0.0
 11
925.039764
 21
409.666831
 31
0.0
  0
LINE
  8
0
 10
925.039764
 20
409.666831
 30
0.0
 11
925.039764
 21
404.164907
 31
0.0
  0
LINE
  8
0
 10
922.385063
 20
286.864907
 30
0.0
 11
877.039764
 21
286.864907
 31
0.0
  0
LINE
  8
0
 10
875.039764
 20
288.864907
 30
0.0
 11
875.039764
 21
414.864907
 31
0.0
  0
LINE
  8
0
 10
882.349814
 20
324.364907
 30
0.0
 11
881.698342
 21
325.016379
 31
0.0
  0
LINE
  8
0
 10
881.698342
 20
325.016379
 30
0.0
 11
881.193317
 21
324.511354
 31
0.0
  0
LINE
  8
0
 10
880.339764
 20
324.864907
 30
0.0
 11
880.339764
 21
326.864907
 31
0.0
  0
LINE
  8
0
 10
881.193317
 20
327.218461
 30
0.0
 11
883.08621
 21
325.325568
 31
0.0
  0
LINE
  8
0
 10
882.02555
 20
322.764907
 30
0.0
 11
878.239764
 21
322.764907
 31
0.0
  0
LINE
  8
0
 10
882.349814
 20
324.364907
 30
0.0
 11
878.339764
 21
324.364907
 31
0.0
  0
LINE
  8
0
 10
881.698342
 20
318.713436
 30
0.0
 11
882.349814
 21
319.364907
 31
0.0
  0
LINE
  8
0
 10
881.193317
 20
319.218461
 30
0.0
 11
881.698342
 21
318.713436
 31
0.0
  0
LINE
  8
0
 10
880.339764
 20
316.864907
 30
0.0
 11
880.339764
 21
318.864907
 31
0.0
  0
LINE
  8
0
 10
883.08621
 20
318.404247
 30
0.0
 11
881.193317
 21
316.511354
 31
0.0
  0
LINE
  8
0
 10
878.239764
 20
320.964907
 30
0.0
 11
882.02555
 21
320.964907
 31
0.0
  0
LINE
  8
0
 10
878.339764
 20
319.364907
 30
0.0
 11
882.349814
 21
319.364907
 31
0.0
  0
LINE
  8
0
 10
882.349814
 20
384.364907
 30
0.0
 11
881.698342
 21
385.016379
 31
0.0
  0
LINE
  8
0
 10
881.698342
 20
385.016379
 30
0.0
 11
881.193317
 21
384.511354
 31
0.0
  0
LINE
  8
0
 10
880.339764
 20
384.864907
 30
0.0
 11
880.339764
 21
386.864907
 31
0.0
  0
LINE
  8
0
 10
881.193317
 20
387.218461
 30
0.0
 11
883.08621
 21
385.325568
 31
0.0
  0
LINE
  8
0
 10
882.02555
 20
382.764907
 30
0.0
 11
878.239764
 21
382.764907
 31
0.0
  0
LINE
  8
0
 10
882.349814
 20
384.364907
 30
0.0
 11
878.339764
 21
384.364907
 31
0.0
  0
LINE
  8
0
 10
881.698342
 20
378.713436
 30
0.0
 11
882.349814
 21
379.364907
 31
0.0
  0
LINE
  8
0
 10
881.193317
 20
379.218461
 30
0.0
 11
881.698342
 21
378.713436
 31
0.0
  0
LINE
  8
0
 10
880.339764
 20
376.864907
 30
0.0
 11
880.339764
 21
378.864907
 31
0.0
  0
LINE
  8
0
 10
883.08621
 20
378.404247
 30
0.0
 11
881.193317
 21
376.511354
 31
0.0
  0
LINE
  8
0
 10
878.239764
 20
380.964907
 30
0.0
 11
882.02555
 21
380.964907
 31
0.0
  0
LINE
  8
0
 10
878.339764
 20
379.364907
 30
0.0
 11
882.349814
 21
379.364907
 31
0.0
  0
LINE
  8
0
 10
877.339764
 20
412.564907
 30
0.0
 11
877.339764
 21
385.364907
 31
0.0
  0
LINE
  8
0
 10
877.339764
 20
378.364907
 30
0.0
 11
877.339764
 21
355.364907
 31
0.0
  0
LINE
  8
0
 10
877.339764
 20
348.364907
 30
0.0
 11
877.339764
 21
325.364907
 31
0.0
  0
LINE
  8
0
 10
877.339764
 20
318.364907
 30
0.0
 11
877.339764
 21
291.164907
 31
0.0
  0
LINE
  8
0
 10
929.639764
 20
298.562457
 30
0.0
 11
929.639764
 21
298.664907
 31
0.0
  0
LINE
  8
0
 10
931.039764
 20
298.764907
 30
0.0
 11
931.039764
 21
296.782136
 31
0.0
  0
LINE
  8
0
 10
929.639764
 20
298.562457
 30
0.0
 11
929.639764
 21
296.535278
 31
0.0
  0
LINE
  8
0
 10
929.639764
 20
405.064907
 30
0.0
 11
929.639764
 21
408.964907
 31
0.0
  0
LINE
  8
0
 10
929.139764
 20
409.464907
 30
0.0
 11
926.939764
 21
409.464907
 31
0.0
  0
ARC
  8
0
 10
880.839764
 20
346.864907
 30
0.0
 40
0.5
 50
180.0
 51
270.0
  0
ARC
  8
0
 10
880.839764
 20
356.864907
 30
0.0
 40
0.5
 50
45.0
 51
90.0
  0
ARC
  8
0
 10
880.839764
 20
354.864907
 30
0.0
 40
0.5
 50
180.0
 51
315.0
  0
ARC
  8
0
 10
880.839764
 20
356.864907
 30
0.0
 40
0.5
 50
90.0
 51
180.0
  0
ARC
  8
0
 10
882.02555
 20
354.264907
 30
0.0
 40
1.5
 50
270.0
 51
45.0
  0
ARC
  8
0
 10
880.839764
 20
348.864907
 30
0.0
 40
0.5
 50
45.0
 51
180.0
  0
ARC
  8
0
 10
880.839764
 20
346.864907
 30
0.0
 40
0.5
 50
270.0
 51
315.0
  0
ARC
  8
0
 10
882.02555
 20
349.464907
 30
0.0
 40
1.5
 50
315.0
 51
90.0
  0
ARC
  8
0
 10
880.839764
 20
316.864907
 30
0.0
 40
0.5
 50
180.0
 51
270.0
  0
ARC
  8
0
 10
880.839764
 20
326.864907
 30
0.0
 40
0.5
 50
45.0
 51
90.0
  0
ARC
  8
0
 10
880.839764
 20
324.864907
 30
0.0
 40
0.5
 50
180.0
 51
315.0
  0
ARC
  8
0
 10
880.839764
 20
326.864907
 30
0.0
 40
0.5
 50
90.0
 51
180.0
  0
ARC
  8
0
 10
882.02555
 20
324.264907
 30
0.0
 40
1.5
 50
270.0
 51
45.0
  0
ARC
  8
0
 10
880.839764
 20
318.864907
 30
0.0
 40
0.5
 50
45.0
 51
180.0
  0
ARC
  8
0
 10
880.839764
 20
316.864907
 30
0.0
 40
0.5
 50
270.0
 51
315.0
  0
ARC
  8
0
 10
882.02555
 20
319.464907
 30
0.0
 40
1.5
 50
315.0
 51
90.0
  0
ARC
  8
0
 10
880.839764
 20
376.864907
 30
0.0
 40
0.5
 50
180.0
 51
270.0
  0
ARC
  8
0
 10
880.839764
 20
386.864907
 30
0.0
 40
0.5
 50
45.0
 51
90.0
  0
ARC
  8
0
 10
880.839764
 20
384.864907
 30
0.0
 40
0.5
 50
180.0
 51
315.0
  0
ARC
  8
0
 10
880.839764
 20
386.864907
 30
0.0
 40
0.5
 50
90.0
 51
180.0
  0
ARC
  8
0
 10
882.02555
 20
384.264907
 30
0.0
 40
1.5
 50
270.0
 51
45.0
  0
ARC
  8
0
 10
880.839764
 20
378.864907
 30
0.0
 40
0.5
 50
45.0
 51
180.0
  0
ARC
  8
0
 10
880.839764
 20
376.864907
 30
0.0
 40
0.5
 50
270.0
 51
315.0
  0
ARC
  8
0
 10
882.02555
 20
379.464907
 30
0.0
 40
1.5
 50
315.0
 51
90.0
  0
ARC
  8
0
 10
879.339764
 20
291.164907
 30
0.0
 40
2.0
 50
180.0
 51
270.0
  0
ARC
  8
0
 10
878.339764
 20
348.364907
 30
0.0
 40
1.0
 50
90.0
 51
180.0
  0
ARC
  8
0
 10
878.339764
 20
355.364907
 30
0.0
 40
1.0
 50
180.0
 51
270.0
  0
ARC
  8
0
 10
878.239764
 20
351.864907
 30
0.0
 40
0.9
 50
90.0
 51
270.0
  0
ARC
  8
0
 10
926.939764
 20
294.764907
 30
0.0
 40
0.5
 50
180.0
 51
270.0
  0
ARC
  8
0
 10
929.139764
 20
294.764907
 30
0.0
 40
0.5
 50
270.0
 51
0.0
  0
ARC
  8
0
 10
931.539764
 20
294.764907
 30
0.0
 40
0.5
 50
180.0
 51
270.0
  0
ARC
  8
0
 10
932.539764
 20
293.764907
 30
0.0
 40
0.5
 50
0.0
 51
90.0
  0
ARC
  8
0
 10
926.039764
 20
299.564907
 30
0.0
 40
1.0
 50
90.0
 51
180.0
  0
ARC
  8
0
 10
930.039764
 20
299.564907
 30
0.0
 40
1.0
 50
0.0
 51
90.0
  0
ARC
  8
0
 10
929.539764
 20
292.064907
 30
0.0
 40
3.5
 50
270.0
 51
0.0
  0
ARC
  8
0
 10
929.539764
 20
292.064907
 30
0.0
 40
2.1
 50
270.0
 51
0.0
  0
ARC
  8
0
 10
931.139764
 20
292.364907
 30
0.0
 40
0.5
 50
0.0
 51
90.0
  0
ARC
  8
0
 10
928.939764
 20
289.264907
 30
0.0
 40
0.7
 50
180.0
 51
270.0
  0
ARC
  8
0
 10
928.939764
 20
289.264907
 30
0.0
 40
0.7
 50
90.0
 51
180.0
  0
ARC
  8
0
 10
879.339764
 20
412.564907
 30
0.0
 40
2.0
 50
90.0
 51
180.0
  0
ARC
  8
0
 10
926.939764
 20
408.964907
 30
0.0
 40
0.5
 50
90.0
 51
180.0
  0
ARC
  8
0
 10
931.539764
 20
408.964907
 30
0.0
 40
0.5
 50
90.0
 51
180.0
  0
ARC
  8
0
 10
932.539764
 20
409.964907
 30
0.0
 40
0.5
 50
270.0
 51
0.0
  0
ARC
  8
0
 10
926.039764
 20
404.164907
 30
0.0
 40
1.0
 50
180.0
 51
270.0
  0
ARC
  8
0
 10
930.039764
 20
404.164907
 30
0.0
 40
1.0
 50
270.0
 51
0.0
  0
ARC
  8
0
 10
929.539764
 20
411.664907
 30
0.0
 40
3.5
 50
0.0
 51
90.0
  0
ARC
  8
0
 10
929.539764
 20
411.664907
 30
0.0
 40
2.1
 50
0.0
 51
90.0
  0
ARC
  8
0
 10
931.139764
 20
411.364907
 30
0.0
 40
0.5
 50
270.0
 51
0.0
  0
ARC
  8
0
 10
928.939764
 20
414.464907
 30
0.0
 40
0.7
 50
90.0
 51
180.0
  0
ARC
  8
0
 10
928.939764
 20
414.464907
 30
0.0
 40
0.7
 50
180.0
 51
270.0
  0
ARC
  8
0
 10
929.139764
 20
298.664907
 30
0.0
 40
0.5
 50
0.0
 51
90.0
  0
ARC
  8
0
 10
926.939764
 20
298.664907
 30
0.0
 40
0.5
 50
90.0
 51
180.0
  0
ARC
  8
0
 10
929.139764
 20
405.064907
 30
0.0
 40
0.5
 50
270.0
 51
0.0
  0
ARC
  8
0
 10
926.939764
 20
405.064907
 30
0.0
 40
0.5
 50
180.0
 51
270.0
  0
ARC
  8
0
 10
922.385063
 20
288.864907
 30
0.0
 40
2.0
 50
270.0
 51
330.0
  0
ARC
  8
0
 10
927.581216
 20
291.864907
 30
0.0
 40
1.0
 50
90.0
 51
150.0
  0
ARC
  8
0
 10
922.385063
 20
414.864907
 30
0.0
 40
2.0
 50
30.0
 51
90.0
  0
ARC
  8
0
 10
927.581216
 20
411.864907
 30
0.0
 40
1.0
 50
210.0
 51
270.0
  0
ARC
  8
0
 10
921.057157
 20
291.164907
 30
0.0
 40
2.0
 50
270.0
 51
330.0
  0
ARC
  8
0
 10
921.057157
 20
412.564907
 30
0.0
 40
2.0
 50
30.0
 51
90.0
  0
ARC
  8
0
 10
877.039764
 20
414.864907
 30
0.0
 40
2.0
 50
90.0
 51
180.0
  0
ARC
  8
0
 10
877.039764
 20
288.864907
 30
0.0
 40
2.0
 50
180.0
 51
270.0
  0
ARC
  8
0
 10
878.339764
 20
318.364907
 30
0.0
 40
1.0
 50
90.0
 51
180.0
  0
ARC
  8
0
 10
878.339764
 20
325.364907
 30
0.0
 40
1.0
 50
180.0
 51
270.0
  0
ARC
  8
0
 10
878.239764
 20
321.864907
 30
0.0
 40
0.9
 50
90.0
 51
270.0
  0
ARC
  8
0
 10
878.339764
 20
378.364907
 30
0.0
 40
1.0
 50
90.0
 51
180.0
  0
ARC
  8
0
 10
878.339764
 20
385.364907
 30
0.0
 40
1.0
 50
180.0
 51
270.0
  0
ARC
  8
0
 10
878.239764
 20
381.864907
 30
0.0
 40
0.9
 50
90.0
 51
270.0
  0
ARC
  8
0
 10
929.139764
 20
408.964907
 30
0.0
 40
0.5
 50
0.0
 51
90.0
  0
LINE
  8
0
 10
887.152092
 20
379.319601
 30
0.0
 11
920.029827
 21
379.319601
 31
0.0
  0
LINE
  8
0
 10
886.532316
 20
380.8164
 30
0.0
 11
891.306976
 21
380.8164
 31
0.0
  0
LINE
  8
0
 10
886.532316
 20
382.821827
 30
0.0
 11
891.306976
 21
382.810411
 31
0.0
  0
LINE
  8
0
 10
887.152092
 20
384.291974
 30
0.0
 11
920.029827
 21
384.30721
 31
0.0
  0
LINE
  8
0
 10
885.388511
 20
385.141424
 30
0.0
 11
881.623172
 21
388.906763
 31
0.0
  0
LINE
  8
0
 10
881.623172
 20
388.906763
 30
0.0
 11
885.388511
 21
385.141424
 31
0.0
  0
LINE
  8
0
 10
878.337762
 20
389.198375
 30
0.0
 11
880.916985
 21
389.198375
 31
0.0
  0
LINE
  8
0
 10
880.404676
 20
387.162252
 30
0.0
 11
879.540962
 21
386.298737
 31
0.0
  0
LINE
  8
0
 10
879.540962
 20
386.298737
 30
0.0
 11
880.404676
 21
387.162252
 31
0.0
  0
LINE
  8
0
 10
879.69829
 20
387.866651
 30
0.0
 11
878.836761
 21
387.004924
 31
0.0
  0
LINE
  8
0
 10
878.836761
 20
387.004924
 30
0.0
 11
879.69829
 21
387.866651
 31
0.0
  0
LINE
  8
0
 10
878.836761
 20
387.004924
 30
0.0
 11
878.337762
 21
387.503923
 31
0.0
  0
LINE
  8
0
 10
878.337762
 20
387.503923
 30
0.0
 11
878.836761
 21
387.004924
 31
0.0
  0
LINE
  8
0
 10
878.337762
 20
388.200575
 30
0.0
 11
878.337762
 21
387.503923
 31
0.0
  0
LINE
  8
0
 10
880.210797
 20
388.200575
 30
0.0
 11
878.337762
 21
388.200575
 31
0.0
  0
LINE
  8
0
 10
880.210797
 20
388.200575
 30
0.0
 11
884.768536
 21
383.644625
 31
0.0
  0
LINE
  8
0
 10
878.337762
 20
388.200575
 30
0.0
 11
880.210797
 21
388.200575
 31
0.0
  0
LINE
  8
0
 10
878.337762
 20
387.503923
 30
0.0
 11
878.337762
 21
388.200575
 31
0.0
  0
LINE
  8
0
 10
877.339764
 20
387.089348
 30
0.0
 11
877.339764
 21
388.200575
 31
0.0
  0
LINE
  8
0
 10
877.339764
 20
387.089348
 30
0.0
 11
878.130376
 21
386.298737
 31
0.0
  0
LINE
  8
0
 10
877.339764
 20
375.529431
 30
0.0
 11
877.339764
 21
376.640459
 31
0.0
  0
LINE
  8
0
 10
885.388511
 20
378.588384
 30
0.0
 11
881.623172
 21
374.823244
 31
0.0
  0
LINE
  8
0
 10
881.623172
 20
374.823244
 30
0.0
 11
885.388511
 21
378.588384
 31
0.0
  0
LINE
  8
0
 10
880.916985
 20
374.531433
 30
0.0
 11
878.337762
 21
374.531433
 31
0.0
  0
LINE
  8
0
 10
880.210797
 20
375.529431
 30
0.0
 11
884.768536
 21
380.085382
 31
0.0
  0
LINE
  8
0
 10
878.337762
 20
376.226083
 30
0.0
 11
878.836761
 21
376.724884
 31
0.0
  0
LINE
  8
0
 10
878.337762
 20
375.529431
 30
0.0
 11
878.337762
 21
376.226083
 31
0.0
  0
LINE
  8
0
 10
880.210797
 20
375.529431
 30
0.0
 11
878.337762
 21
375.529431
 31
0.0
  0
LINE
  8
0
 10
878.836761
 20
376.724884
 30
0.0
 11
879.69829
 21
375.863355
 31
0.0
  0
LINE
  8
0
 10
879.69829
 20
375.863355
 30
0.0
 11
879.744376
 21
375.82303
 31
0.0
  0
LINE
  8
0
 10
879.744376
 20
375.82303
 30
0.0
 11
879.69829
 21
375.863355
 31
0.0
  0
LINE
  8
0
 10
879.744376
 20
375.82303
 30
0.0
 11
879.794236
 21
375.788466
 31
0.0
  0
LINE
  8
0
 10
879.794236
 20
375.788466
 30
0.0
 11
879.744376
 21
375.82303
 31
0.0
  0
LINE
  8
0
 10
879.794236
 20
375.788466
 30
0.0
 11
879.846083
 21
375.759662
 31
0.0
  0
LINE
  8
0
 10
879.846083
 20
375.759662
 30
0.0
 11
879.794236
 21
375.788466
 31
0.0
  0
LINE
  8
0
 10
879.846083
 20
375.759662
 30
0.0
 11
879.90369
 21
375.738606
 31
0.0
  0
LINE
  8
0
 10
879.90369
 20
375.738606
 30
0.0
 11
879.846083
 21
375.759662
 31
0.0
  0
LINE
  8
0
 10
879.90369
 20
375.738606
 30
0.0
 11
879.961298
 21
375.725098
 31
0.0
  0
LINE
  8
0
 10
879.961298
 20
375.725098
 30
0.0
 11
879.90369
 21
375.738606
 31
0.0
  0
LINE
  8
0
 10
879.961298
 20
375.725098
 30
0.0
 11
880.020693
 21
375.71735
 31
0.0
  0
LINE
  8
0
 10
880.020693
 20
375.71735
 30
0.0
 11
879.961298
 21
375.725098
 31
0.0
  0
LINE
  8
0
 10
880.020693
 20
375.71735
 30
0.0
 11
880.082273
 21
375.71735
 31
0.0
  0
LINE
  8
0
 10
880.082273
 20
375.71735
 30
0.0
 11
880.020693
 21
375.71735
 31
0.0
  0
LINE
  8
0
 10
880.082273
 20
375.71735
 30
0.0
 11
880.141668
 21
375.725098
 31
0.0
  0
LINE
  8
0
 10
880.141668
 20
375.725098
 30
0.0
 11
880.082273
 21
375.71735
 31
0.0
  0
LINE
  8
0
 10
880.141668
 20
375.725098
 30
0.0
 11
880.199276
 21
375.738606
 31
0.0
  0
LINE
  8
0
 10
880.199276
 20
375.738606
 30
0.0
 11
880.141668
 21
375.725098
 31
0.0
  0
LINE
  8
0
 10
880.199276
 20
375.738606
 30
0.0
 11
880.256883
 21
375.759662
 31
0.0
  0
LINE
  8
0
 10
880.256883
 20
375.759662
 30
0.0
 11
880.199276
 21
375.738606
 31
0.0
  0
LINE
  8
0
 10
880.256883
 20
375.759662
 30
0.0
 11
880.310518
 21
375.788466
 31
0.0
  0
LINE
  8
0
 10
880.310518
 20
375.788466
 30
0.0
 11
880.256883
 21
375.759662
 31
0.0
  0
LINE
  8
0
 10
880.310518
 20
375.788466
 30
0.0
 11
880.35859
 21
375.82303
 31
0.0
  0
LINE
  8
0
 10
880.35859
 20
375.82303
 30
0.0
 11
880.310518
 21
375.788466
 31
0.0
  0
LINE
  8
0
 10
880.35859
 20
375.82303
 30
0.0
 11
880.404676
 21
375.863355
 31
0.0
  0
LINE
  8
0
 10
880.404676
 20
375.863355
 30
0.0
 11
880.35859
 21
375.82303
 31
0.0
  0
LINE
  8
0
 10
880.404676
 20
375.863355
 30
0.0
 11
880.444803
 21
375.907455
 31
0.0
  0
LINE
  8
0
 10
880.444803
 20
375.907455
 30
0.0
 11
880.404676
 21
375.863355
 31
0.0
  0
LINE
  8
0
 10
880.444803
 20
375.907455
 30
0.0
 11
880.479367
 21
375.957315
 31
0.0
  0
LINE
  8
0
 10
880.479367
 20
375.957315
 30
0.0
 11
880.444803
 21
375.907455
 31
0.0
  0
LINE
  8
0
 10
880.479367
 20
375.957315
 30
0.0
 11
880.506383
 21
376.011148
 31
0.0
  0
LINE
  8
0
 10
880.506383
 20
376.011148
 30
0.0
 11
880.479367
 21
375.957315
 31
0.0
  0
LINE
  8
0
 10
880.506383
 20
376.011148
 30
0.0
 11
880.527439
 21
376.066769
 31
0.0
  0
LINE
  8
0
 10
880.527439
 20
376.066769
 30
0.0
 11
880.506383
 21
376.011148
 31
0.0
  0
LINE
  8
0
 10
880.527439
 20
376.066769
 30
0.0
 11
880.542735
 21
376.126164
 31
0.0
  0
LINE
  8
0
 10
880.542735
 20
376.126164
 30
0.0
 11
880.527439
 21
376.066769
 31
0.0
  0
LINE
  8
0
 10
880.542735
 20
376.126164
 30
0.0
 11
880.550482
 21
376.185758
 31
0.0
  0
LINE
  8
0
 10
880.550482
 20
376.185758
 30
0.0
 11
880.542735
 21
376.126164
 31
0.0
  0
LINE
  8
0
 10
880.550482
 20
376.185758
 30
0.0
 11
880.550482
 21
376.245153
 31
0.0
  0
LINE
  8
0
 10
880.550482
 20
376.245153
 30
0.0
 11
880.550482
 21
376.185758
 31
0.0
  0
LINE
  8
0
 10
880.550482
 20
376.245153
 30
0.0
 11
880.542735
 21
376.304747
 31
0.0
  0
LINE
  8
0
 10
880.542735
 20
376.304747
 30
0.0
 11
880.550482
 21
376.245153
 31
0.0
  0
LINE
  8
0
 10
880.542735
 20
376.304747
 30
0.0
 11
880.527439
 21
376.364143
 31
0.0
  0
LINE
  8
0
 10
880.527439
 20
376.364143
 30
0.0
 11
880.542735
 21
376.304747
 31
0.0
  0
LINE
  8
0
 10
880.527439
 20
376.364143
 30
0.0
 11
880.506383
 21
376.419763
 31
0.0
  0
LINE
  8
0
 10
880.506383
 20
376.419763
 30
0.0
 11
880.527439
 21
376.364143
 31
0.0
  0
LINE
  8
0
 10
880.506383
 20
376.419763
 30
0.0
 11
880.479367
 21
376.473597
 31
0.0
  0
LINE
  8
0
 10
880.479367
 20
376.473597
 30
0.0
 11
880.506383
 21
376.419763
 31
0.0
  0
LINE
  8
0
 10
880.479367
 20
376.473597
 30
0.0
 11
880.444803
 21
376.523457
 31
0.0
  0
LINE
  8
0
 10
880.444803
 20
376.523457
 30
0.0
 11
880.479367
 21
376.473597
 31
0.0
  0
LINE
  8
0
 10
879.540962
 20
377.43127
 30
0.0
 11
880.404676
 21
376.567556
 31
0.0
  0
LINE
  8
0
 10
879.477594
 20
377.490665
 30
0.0
 11
879.540962
 21
377.43127
 31
0.0
  0
LINE
  8
0
 10
879.408664
 20
377.542512
 30
0.0
 11
879.477594
 21
377.490665
 31
0.0
  0
LINE
  8
0
 10
879.333774
 20
377.590584
 30
0.0
 11
879.408664
 21
377.542512
 31
0.0
  0
LINE
  8
0
 10
879.256898
 20
377.628923
 30
0.0
 11
879.333774
 21
377.590584
 31
0.0
  0
LINE
  8
0
 10
879.176446
 20
377.663487
 30
0.0
 11
879.256898
 21
377.628923
 31
0.0
  0
LINE
  8
0
 10
879.09381
 20
377.688318
 30
0.0
 11
879.176446
 21
377.663487
 31
0.0
  0
LINE
  8
0
 10
879.009385
 20
377.707587
 30
0.0
 11
879.09381
 21
377.688318
 31
0.0
  0
LINE
  8
0
 10
878.922974
 20
377.719108
 30
0.0
 11
879.009385
 21
377.707587
 31
0.0
  0
LINE
  8
0
 10
878.836761
 20
377.722883
 30
0.0
 11
878.922974
 21
377.719108
 31
0.0
  0
LINE
  8
0
 10
878.748364
 20
377.719108
 30
0.0
 11
878.836761
 21
377.722883
 31
0.0
  0
LINE
  8
0
 10
878.661953
 20
377.707587
 30
0.0
 11
878.748364
 21
377.719108
 31
0.0
  0
LINE
  8
0
 10
878.577528
 20
377.688318
 30
0.0
 11
878.661953
 21
377.707587
 31
0.0
  0
LINE
  8
0
 10
878.49509
 20
377.663487
 30
0.0
 11
878.577528
 21
377.688318
 31
0.0
  0
LINE
  8
0
 10
878.41444
 20
377.628923
 30
0.0
 11
878.49509
 21
377.663487
 31
0.0
  0
LINE
  8
0
 10
878.337762
 20
377.590584
 30
0.0
 11
878.41444
 21
377.628923
 31
0.0
  0
LINE
  8
0
 10
878.262873
 20
377.542512
 30
0.0
 11
878.337762
 21
377.590584
 31
0.0
  0
LINE
  8
0
 10
878.193744
 20
377.490665
 30
0.0
 11
878.262873
 21
377.542512
 31
0.0
  0
LINE
  8
0
 10
878.130376
 20
377.43127
 30
0.0
 11
878.193744
 21
377.490665
 31
0.0
  0
LINE
  8
0
 10
877.339764
 20
376.640459
 30
0.0
 11
878.130376
 21
377.43127
 31
0.0
  0
LINE
  8
0
 10
878.130376
 20
377.43127
 30
0.0
 11
877.339764
 21
376.640459
 31
0.0
  0
LINE
  8
0
 10
878.193744
 20
377.490665
 30
0.0
 11
878.130376
 21
377.43127
 31
0.0
  0
LINE
  8
0
 10
878.262873
 20
377.542512
 30
0.0
 11
878.193744
 21
377.490665
 31
0.0
  0
LINE
  8
0
 10
878.337762
 20
377.590584
 30
0.0
 11
878.262873
 21
377.542512
 31
0.0
  0
LINE
  8
0
 10
878.41444
 20
377.628923
 30
0.0
 11
878.337762
 21
377.590584
 31
0.0
  0
LINE
  8
0
 10
878.49509
 20
377.663487
 30
0.0
 11
878.41444
 21
377.628923
 31
0.0
  0
LINE
  8
0
 10
878.577528
 20
377.688318
 30
0.0
 11
878.49509
 21
377.663487
 31
0.0
  0
LINE
  8
0
 10
878.661953
 20
377.707587
 30
0.0
 11
878.577528
 21
377.688318
 31
0.0
  0
LINE
  8
0
 10
878.748364
 20
377.719108
 30
0.0
 11
878.661953
 21
377.707587
 31
0.0
  0
LINE
  8
0
 10
878.836761
 20
377.722883
 30
0.0
 11
878.748364
 21
377.719108
 31
0.0
  0
LINE
  8
0
 10
878.922974
 20
377.719108
 30
0.0
 11
878.836761
 21
377.722883
 31
0.0
  0
LINE
  8
0
 10
879.009385
 20
377.707587
 30
0.0
 11
878.922974
 21
377.719108
 31
0.0
  0
LINE
  8
0
 10
879.09381
 20
377.688318
 30
0.0
 11
879.009385
 21
377.707587
 31
0.0
  0
LINE
  8
0
 10
879.176446
 20
377.663487
 30
0.0
 11
879.09381
 21
377.688318
 31
0.0
  0
LINE
  8
0
 10
879.256898
 20
377.628923
 30
0.0
 11
879.176446
 21
377.663487
 31
0.0
  0
LINE
  8
0
 10
879.333774
 20
377.590584
 30
0.0
 11
879.256898
 21
377.628923
 31
0.0
  0
LINE
  8
0
 10
879.408664
 20
377.542512
 30
0.0
 11
879.333774
 21
377.590584
 31
0.0
  0
LINE
  8
0
 10
879.477594
 20
377.490665
 30
0.0
 11
879.408664
 21
377.542512
 31
0.0
  0
LINE
  8
0
 10
879.540962
 20
377.43127
 30
0.0
 11
879.477594
 21
377.490665
 31
0.0
  0
LINE
  8
0
 10
880.404676
 20
376.567556
 30
0.0
 11
879.540962
 21
377.43127
 31
0.0
  0
LINE
  8
0
 10
880.444803
 20
376.523457
 30
0.0
 11
880.404676
 21
376.567556
 31
0.0
  0
LINE
  8
0
 10
880.404676
 20
376.567556
 30
0.0
 11
880.444803
 21
376.523457
 31
0.0
  0
LINE
  8
0
 10
886.532316
 20
380.8164
 30
0.0
 11
886.401805
 21
380.812626
 31
0.0
  0
LINE
  8
0
 10
886.401805
 20
380.812626
 30
0.0
 11
886.532316
 21
380.8164
 31
0.0
  0
LINE
  8
0
 10
886.401805
 20
380.812626
 30
0.0
 11
886.271294
 21
380.803091
 31
0.0
  0
LINE
  8
0
 10
886.271294
 20
380.803091
 30
0.0
 11
886.401805
 21
380.812626
 31
0.0
  0
LINE
  8
0
 10
886.271294
 20
380.803091
 30
0.0
 11
886.142572
 21
380.785808
 31
0.0
  0
LINE
  8
0
 10
886.142572
 20
380.785808
 30
0.0
 11
886.271294
 21
380.803091
 31
0.0
  0
LINE
  8
0
 10
886.142572
 20
380.785808
 30
0.0
 11
886.014048
 21
380.760779
 31
0.0
  0
LINE
  8
0
 10
886.014048
 20
380.760779
 30
0.0
 11
886.142572
 21
380.785808
 31
0.0
  0
LINE
  8
0
 10
886.014048
 20
380.760779
 30
0.0
 11
885.887311
 21
380.730188
 31
0.0
  0
LINE
  8
0
 10
885.887311
 20
380.730188
 30
0.0
 11
886.014048
 21
380.760779
 31
0.0
  0
LINE
  8
0
 10
885.887311
 20
380.730188
 30
0.0
 11
885.760774
 21
380.693637
 31
0.0
  0
LINE
  8
0
 10
885.760774
 20
380.693637
 30
0.0
 11
885.887311
 21
380.730188
 31
0.0
  0
LINE
  8
0
 10
885.760774
 20
380.693637
 30
0.0
 11
885.63801
 21
380.649537
 31
0.0
  0
LINE
  8
0
 10
885.63801
 20
380.649537
 30
0.0
 11
885.760774
 21
380.693637
 31
0.0
  0
LINE
  8
0
 10
885.63801
 20
380.649537
 30
0.0
 11
885.517035
 21
380.599677
 31
0.0
  0
LINE
  8
0
 10
885.517035
 20
380.599677
 30
0.0
 11
885.63801
 21
380.649537
 31
0.0
  0
LINE
  8
0
 10
885.517035
 20
380.599677
 30
0.0
 11
885.400032
 21
380.544056
 31
0.0
  0
LINE
  8
0
 10
885.400032
 20
380.544056
 30
0.0
 11
885.517035
 21
380.599677
 31
0.0
  0
LINE
  8
0
 10
885.400032
 20
380.544056
 30
0.0
 11
885.284817
 21
380.482476
 31
0.0
  0
LINE
  8
0
 10
885.284817
 20
380.482476
 30
0.0
 11
885.400032
 21
380.544056
 31
0.0
  0
LINE
  8
0
 10
885.284817
 20
380.482476
 30
0.0
 11
885.173575
 21
380.413545
 31
0.0
  0
LINE
  8
0
 10
885.173575
 20
380.413545
 30
0.0
 11
885.284817
 21
380.482476
 31
0.0
  0
LINE
  8
0
 10
885.173575
 20
380.413545
 30
0.0
 11
885.066108
 21
380.338656
 31
0.0
  0
LINE
  8
0
 10
885.066108
 20
380.338656
 30
0.0
 11
885.173575
 21
380.413545
 31
0.0
  0
LINE
  8
0
 10
885.066108
 20
380.338656
 30
0.0
 11
884.962415
 21
380.259992
 31
0.0
  0
LINE
  8
0
 10
884.962415
 20
380.259992
 30
0.0
 11
885.066108
 21
380.338656
 31
0.0
  0
LINE
  8
0
 10
884.962415
 20
380.259992
 30
0.0
 11
884.862694
 21
380.175567
 31
0.0
  0
LINE
  8
0
 10
884.862694
 20
380.175567
 30
0.0
 11
884.962415
 21
380.259992
 31
0.0
  0
LINE
  8
0
 10
884.862694
 20
380.175567
 30
0.0
 11
884.768536
 21
380.085382
 31
0.0
  0
LINE
  8
0
 10
884.768536
 20
380.085382
 30
0.0
 11
884.862694
 21
380.175567
 31
0.0
  0
LINE
  8
0
 10
884.862694
 20
383.566704
 30
0.0
 11
884.768536
 21
383.644625
 31
0.0
  0
LINE
  8
0
 10
884.962415
 20
383.486087
 30
0.0
 11
884.862694
 21
383.566704
 31
0.0
  0
LINE
  8
0
 10
885.066108
 20
383.40901
 30
0.0
 11
884.962415
 21
383.486087
 31
0.0
  0
LINE
  8
0
 10
885.173575
 20
383.33576
 30
0.0
 11
885.066108
 21
383.40901
 31
0.0
  0
LINE
  8
0
 10
885.284817
 20
383.266475
 30
0.0
 11
885.173575
 21
383.33576
 31
0.0
  0
LINE
  8
0
 10
885.400032
 20
383.201204
 30
0.0
 11
885.284817
 21
383.266475
 31
0.0
  0
LINE
  8
0
 10
885.517035
 20
383.141216
 30
0.0
 11
885.400032
 21
383.201204
 31
0.0
  0
LINE
  8
0
 10
885.63801
 20
383.085447
 30
0.0
 11
885.517035
 21
383.141216
 31
0.0
  0
LINE
  8
0
 10
885.760774
 20
383.034989
 30
0.0
 11
885.63801
 21
383.085447
 31
0.0
  0
LINE
  8
0
 10
885.887311
 20
382.98912
 30
0.0
 11
885.760774
 21
383.034989
 31
0.0
  0
LINE
  8
0
 10
886.014048
 20
382.949148
 30
0.0
 11
885.887311
 21
382.98912
 31
0.0
  0
LINE
  8
0
 10
886.142572
 20
382.914474
 30
0.0
 11
886.014048
 21
382.949148
 31
0.0
  0
LINE
  8
0
 10
886.271294
 20
382.885465
 30
0.0
 11
886.142572
 21
382.914474
 31
0.0
  0
LINE
  8
0
 10
886.401805
 20
382.854423
 30
0.0
 11
886.271294
 21
382.885465
 31
0.0
  0
LINE
  8
0
 10
886.532316
 20
382.821827
 30
0.0
 11
886.401805
 21
382.854423
 31
0.0
  0
LINE
  8
0
 10
886.401805
 20
382.854423
 30
0.0
 11
886.532316
 21
382.821827
 31
0.0
  0
LINE
  8
0
 10
886.271294
 20
382.885465
 30
0.0
 11
886.401805
 21
382.854423
 31
0.0
  0
LINE
  8
0
 10
886.142572
 20
382.914474
 30
0.0
 11
886.271294
 21
382.885465
 31
0.0
  0
LINE
  8
0
 10
886.014048
 20
382.949148
 30
0.0
 11
886.142572
 21
382.914474
 31
0.0
  0
LINE
  8
0
 10
885.887311
 20
382.98912
 30
0.0
 11
886.014048
 21
382.949148
 31
0.0
  0
LINE
  8
0
 10
885.760774
 20
383.034989
 30
0.0
 11
885.887311
 21
382.98912
 31
0.0
  0
LINE
  8
0
 10
885.63801
 20
383.085447
 30
0.0
 11
885.760774
 21
383.034989
 31
0.0
  0
LINE
  8
0
 10
885.517035
 20
383.141216
 30
0.0
 11
885.63801
 21
383.085447
 31
0.0
  0
LINE
  8
0
 10
885.400032
 20
383.201204
 30
0.0
 11
885.517035
 21
383.141216
 31
0.0
  0
LINE
  8
0
 10
885.284817
 20
383.266475
 30
0.0
 11
885.400032
 21
383.201204
 31
0.0
  0
LINE
  8
0
 10
885.173575
 20
383.33576
 30
0.0
 11
885.284817
 21
383.266475
 31
0.0
  0
LINE
  8
0
 10
885.066108
 20
383.40901
 30
0.0
 11
885.173575
 21
383.33576
 31
0.0
  0
LINE
  8
0
 10
884.962415
 20
383.486087
 30
0.0
 11
885.066108
 21
383.40901
 31
0.0
  0
LINE
  8
0
 10
884.862694
 20
383.566704
 30
0.0
 11
884.962415
 21
383.486087
 31
0.0
  0
LINE
  8
0
 10
884.768536
 20
383.644625
 30
0.0
 11
884.862694
 21
383.566704
 31
0.0
  0
LINE
  8
0
 10
880.404676
 20
387.162252
 30
0.0
 11
880.444803
 21
387.206351
 31
0.0
  0
LINE
  8
0
 10
880.444803
 20
387.206351
 30
0.0
 11
880.404676
 21
387.162252
 31
0.0
  0
LINE
  8
0
 10
880.444803
 20
387.206351
 30
0.0
 11
880.479367
 21
387.256211
 31
0.0
  0
LINE
  8
0
 10
880.479367
 20
387.256211
 30
0.0
 11
880.444803
 21
387.206351
 31
0.0
  0
LINE
  8
0
 10
880.479367
 20
387.256211
 30
0.0
 11
880.506383
 21
387.310044
 31
0.0
  0
LINE
  8
0
 10
880.506383
 20
387.310044
 30
0.0
 11
880.479367
 21
387.256211
 31
0.0
  0
LINE
  8
0
 10
880.506383
 20
387.310044
 30
0.0
 11
880.527439
 21
387.365665
 31
0.0
  0
LINE
  8
0
 10
880.527439
 20
387.365665
 30
0.0
 11
880.506383
 21
387.310044
 31
0.0
  0
LINE
  8
0
 10
880.527439
 20
387.365665
 30
0.0
 11
880.542735
 21
387.425259
 31
0.0
  0
LINE
  8
0
 10
880.542735
 20
387.425259
 30
0.0
 11
880.527439
 21
387.365665
 31
0.0
  0
LINE
  8
0
 10
880.542735
 20
387.425259
 30
0.0
 11
880.550482
 21
387.484654
 31
0.0
  0
LINE
  8
0
 10
880.550482
 20
387.484654
 30
0.0
 11
880.542735
 21
387.425259
 31
0.0
  0
LINE
  8
0
 10
880.550482
 20
387.484654
 30
0.0
 11
880.550482
 21
387.544248
 31
0.0
  0
LINE
  8
0
 10
880.550482
 20
387.544248
 30
0.0
 11
880.550482
 21
387.484654
 31
0.0
  0
LINE
  8
0
 10
880.550482
 20
387.544248
 30
0.0
 11
880.542735
 21
387.603644
 31
0.0
  0
LINE
  8
0
 10
880.542735
 20
387.603644
 30
0.0
 11
880.550482
 21
387.544248
 31
0.0
  0
LINE
  8
0
 10
880.542735
 20
387.603644
 30
0.0
 11
880.527439
 21
387.663039
 31
0.0
  0
LINE
  8
0
 10
880.527439
 20
387.663039
 30
0.0
 11
880.542735
 21
387.603644
 31
0.0
  0
LINE
  8
0
 10
880.527439
 20
387.663039
 30
0.0
 11
880.506383
 21
387.718858
 31
0.0
  0
LINE
  8
0
 10
880.506383
 20
387.718858
 30
0.0
 11
880.527439
 21
387.663039
 31
0.0
  0
LINE
  8
0
 10
880.506383
 20
387.718858
 30
0.0
 11
880.479367
 21
387.772493
 31
0.0
  0
LINE
  8
0
 10
880.479367
 20
387.772493
 30
0.0
 11
880.506383
 21
387.718858
 31
0.0
  0
LINE
  8
0
 10
880.479367
 20
387.772493
 30
0.0
 11
880.444803
 21
387.822353
 31
0.0
  0
LINE
  8
0
 10
880.444803
 20
387.822353
 30
0.0
 11
880.479367
 21
387.772493
 31
0.0
  0
LINE
  8
0
 10
880.444803
 20
387.822353
 30
0.0
 11
880.404676
 21
387.866651
 31
0.0
  0
LINE
  8
0
 10
880.404676
 20
387.866651
 30
0.0
 11
880.444803
 21
387.822353
 31
0.0
  0
LINE
  8
0
 10
880.35859
 20
387.906778
 30
0.0
 11
880.404676
 21
387.866651
 31
0.0
  0
LINE
  8
0
 10
880.310518
 20
387.941342
 30
0.0
 11
880.35859
 21
387.906778
 31
0.0
  0
LINE
  8
0
 10
880.256883
 20
387.970146
 30
0.0
 11
880.310518
 21
387.941342
 31
0.0
  0
LINE
  8
0
 10
880.199276
 20
387.991202
 30
0.0
 11
880.256883
 21
387.970146
 31
0.0
  0
LINE
  8
0
 10
880.141668
 20
388.00471
 30
0.0
 11
880.199276
 21
387.991202
 31
0.0
  0
LINE
  8
0
 10
880.082273
 20
388.012457
 30
0.0
 11
880.141668
 21
388.00471
 31
0.0
  0
LINE
  8
0
 10
880.020693
 20
388.012457
 30
0.0
 11
880.082273
 21
388.012457
 31
0.0
  0
LINE
  8
0
 10
879.961298
 20
388.00471
 30
0.0
 11
880.020693
 21
388.012457
 31
0.0
  0
LINE
  8
0
 10
879.90369
 20
387.991202
 30
0.0
 11
879.961298
 21
388.00471
 31
0.0
  0
LINE
  8
0
 10
879.846083
 20
387.970146
 30
0.0
 11
879.90369
 21
387.991202
 31
0.0
  0
LINE
  8
0
 10
879.794236
 20
387.941342
 30
0.0
 11
879.846083
 21
387.970146
 31
0.0
  0
LINE
  8
0
 10
879.744376
 20
387.906778
 30
0.0
 11
879.794236
 21
387.941342
 31
0.0
  0
LINE
  8
0
 10
879.69829
 20
387.866651
 30
0.0
 11
879.744376
 21
387.906778
 31
0.0
  0
LINE
  8
0
 10
879.744376
 20
387.906778
 30
0.0
 11
879.69829
 21
387.866651
 31
0.0
  0
LINE
  8
0
 10
879.794236
 20
387.941342
 30
0.0
 11
879.744376
 21
387.906778
 31
0.0
  0
LINE
  8
0
 10
879.846083
 20
387.970146
 30
0.0
 11
879.794236
 21
387.941342
 31
0.0
  0
LINE
  8
0
 10
879.90369
 20
387.991202
 30
0.0
 11
879.846083
 21
387.970146
 31
0.0
  0
LINE
  8
0
 10
879.961298
 20
388.00471
 30
0.0
 11
879.90369
 21
387.991202
 31
0.0
  0
LINE
  8
0
 10
880.020693
 20
388.012457
 30
0.0
 11
879.961298
 21
388.00471
 31
0.0
  0
LINE
  8
0
 10
880.082273
 20
388.012457
 30
0.0
 11
880.020693
 21
388.012457
 31
0.0
  0
LINE
  8
0
 10
880.141668
 20
388.00471
 30
0.0
 11
880.082273
 21
388.012457
 31
0.0
  0
LINE
  8
0
 10
880.199276
 20
387.991202
 30
0.0
 11
880.141668
 21
388.00471
 31
0.0
  0
LINE
  8
0
 10
880.256883
 20
387.970146
 30
0.0
 11
880.199276
 21
387.991202
 31
0.0
  0
LINE
  8
0
 10
880.310518
 20
387.941342
 30
0.0
 11
880.256883
 21
387.970146
 31
0.0
  0
LINE
  8
0
 10
880.35859
 20
387.906778
 30
0.0
 11
880.310518
 21
387.941342
 31
0.0
  0
LINE
  8
0
 10
880.404676
 20
387.866651
 30
0.0
 11
880.35859
 21
387.906778
 31
0.0
  0
LINE
  8
0
 10
881.623172
 20
388.906763
 30
0.0
 11
881.558016
 21
388.966158
 31
0.0
  0
LINE
  8
0
 10
881.558016
 20
388.966158
 30
0.0
 11
881.623172
 21
388.906763
 31
0.0
  0
LINE
  8
0
 10
881.558016
 20
388.966158
 30
0.0
 11
881.488887
 21
389.018005
 31
0.0
  0
LINE
  8
0
 10
881.488887
 20
389.018005
 30
0.0
 11
881.558016
 21
388.966158
 31
0.0
  0
LINE
  8
0
 10
881.488887
 20
389.018005
 30
0.0
 11
881.415984
 21
389.066077
 31
0.0
  0
LINE
  8
0
 10
881.415984
 20
389.066077
 30
0.0
 11
881.488887
 21
389.018005
 31
0.0
  0
LINE
  8
0
 10
881.415984
 20
389.066077
 30
0.0
 11
881.339108
 21
389.106203
 31
0.0
  0
LINE
  8
0
 10
881.339108
 20
389.106203
 30
0.0
 11
881.415984
 21
389.066077
 31
0.0
  0
LINE
  8
0
 10
881.339108
 20
389.106203
 30
0.0
 11
881.258656
 21
389.13898
 31
0.0
  0
LINE
  8
0
 10
881.258656
 20
389.13898
 30
0.0
 11
881.339108
 21
389.106203
 31
0.0
  0
LINE
  8
0
 10
881.258656
 20
389.13898
 30
0.0
 11
881.174231
 21
389.165797
 31
0.0
  0
LINE
  8
0
 10
881.174231
 20
389.165797
 30
0.0
 11
881.258656
 21
389.13898
 31
0.0
  0
LINE
  8
0
 10
881.174231
 20
389.165797
 30
0.0
 11
881.089608
 21
389.18308
 31
0.0
  0
LINE
  8
0
 10
881.089608
 20
389.18308
 30
0.0
 11
881.174231
 21
389.165797
 31
0.0
  0
LINE
  8
0
 10
881.089608
 20
389.18308
 30
0.0
 11
881.003396
 21
389.194601
 31
0.0
  0
LINE
  8
0
 10
881.003396
 20
389.194601
 30
0.0
 11
881.089608
 21
389.18308
 31
0.0
  0
LINE
  8
0
 10
881.003396
 20
389.194601
 30
0.0
 11
880.916985
 21
389.198375
 31
0.0
  0
LINE
  8
0
 10
880.916985
 20
389.198375
 30
0.0
 11
881.003396
 21
389.194601
 31
0.0
  0
LINE
  8
0
 10
878.337762
 20
389.198375
 30
0.0
 11
878.249365
 21
389.194601
 31
0.0
  0
LINE
  8
0
 10
878.249365
 20
389.194601
 30
0.0
 11
878.337762
 21
389.198375
 31
0.0
  0
LINE
  8
0
 10
878.249365
 20
389.194601
 30
0.0
 11
878.163152
 21
389.18308
 31
0.0
  0
LINE
  8
0
 10
878.163152
 20
389.18308
 30
0.0
 11
878.249365
 21
389.194601
 31
0.0
  0
LINE
  8
0
 10
878.163152
 20
389.18308
 30
0.0
 11
878.078728
 21
389.165797
 31
0.0
  0
LINE
  8
0
 10
878.078728
 20
389.165797
 30
0.0
 11
878.163152
 21
389.18308
 31
0.0
  0
LINE
  8
0
 10
878.078728
 20
389.165797
 30
0.0
 11
877.996091
 21
389.13898
 31
0.0
  0
LINE
  8
0
 10
877.996091
 20
389.13898
 30
0.0
 11
878.078728
 21
389.165797
 31
0.0
  0
LINE
  8
0
 10
877.996091
 20
389.13898
 30
0.0
 11
877.91544
 21
389.106203
 31
0.0
  0
LINE
  8
0
 10
877.91544
 20
389.106203
 30
0.0
 11
877.996091
 21
389.13898
 31
0.0
  0
LINE
  8
0
 10
877.91544
 20
389.106203
 30
0.0
 11
877.838763
 21
389.066077
 31
0.0
  0
LINE
  8
0
 10
877.838763
 20
389.066077
 30
0.0
 11
877.91544
 21
389.106203
 31
0.0
  0
LINE
  8
0
 10
877.838763
 20
389.066077
 30
0.0
 11
877.763873
 21
389.018005
 31
0.0
  0
LINE
  8
0
 10
877.763873
 20
389.018005
 30
0.0
 11
877.838763
 21
389.066077
 31
0.0
  0
LINE
  8
0
 10
877.763873
 20
389.018005
 30
0.0
 11
877.694744
 21
388.966158
 31
0.0
  0
LINE
  8
0
 10
877.694744
 20
388.966158
 30
0.0
 11
877.763873
 21
389.018005
 31
0.0
  0
LINE
  8
0
 10
877.694744
 20
388.966158
 30
0.0
 11
877.631575
 21
388.906763
 31
0.0
  0
LINE
  8
0
 10
877.631575
 20
388.906763
 30
0.0
 11
877.694744
 21
388.966158
 31
0.0
  0
LINE
  8
0
 10
877.631575
 20
388.906763
 30
0.0
 11
877.571981
 21
388.843394
 31
0.0
  0
LINE
  8
0
 10
877.571981
 20
388.843394
 30
0.0
 11
877.631575
 21
388.906763
 31
0.0
  0
LINE
  8
0
 10
877.571981
 20
388.843394
 30
0.0
 11
877.520134
 21
388.774266
 31
0.0
  0
LINE
  8
0
 10
877.520134
 20
388.774266
 30
0.0
 11
877.571981
 21
388.843394
 31
0.0
  0
LINE
  8
0
 10
877.520134
 20
388.774266
 30
0.0
 11
877.472261
 21
388.699376
 31
0.0
  0
LINE
  8
0
 10
877.472261
 20
388.699376
 30
0.0
 11
877.520134
 21
388.774266
 31
0.0
  0
LINE
  8
0
 10
877.472261
 20
388.699376
 30
0.0
 11
877.431935
 21
388.622699
 31
0.0
  0
LINE
  8
0
 10
877.431935
 20
388.622699
 30
0.0
 11
877.472261
 21
388.699376
 31
0.0
  0
LINE
  8
0
 10
877.431935
 20
388.622699
 30
0.0
 11
877.399358
 21
388.542048
 31
0.0
  0
LINE
  8
0
 10
877.399358
 20
388.542048
 30
0.0
 11
877.431935
 21
388.622699
 31
0.0
  0
LINE
  8
0
 10
877.399358
 20
388.542048
 30
0.0
 11
877.372342
 21
388.45961
 31
0.0
  0
LINE
  8
0
 10
877.372342
 20
388.45961
 30
0.0
 11
877.399358
 21
388.542048
 31
0.0
  0
LINE
  8
0
 10
877.372342
 20
388.45961
 30
0.0
 11
877.355059
 21
388.375185
 31
0.0
  0
LINE
  8
0
 10
877.355059
 20
388.375185
 30
0.0
 11
877.372342
 21
388.45961
 31
0.0
  0
LINE
  8
0
 10
877.355059
 20
388.375185
 30
0.0
 11
877.343538
 21
388.288774
 31
0.0
  0
LINE
  8
0
 10
877.343538
 20
388.288774
 30
0.0
 11
877.355059
 21
388.375185
 31
0.0
  0
LINE
  8
0
 10
877.343538
 20
388.288774
 30
0.0
 11
877.339764
 21
388.200575
 31
0.0
  0
LINE
  8
0
 10
877.339764
 20
388.200575
 30
0.0
 11
877.343538
 21
388.288774
 31
0.0
  0
LINE
  8
0
 10
878.130376
 20
386.298737
 30
0.0
 11
878.193744
 21
386.239143
 31
0.0
  0
LINE
  8
0
 10
878.193744
 20
386.239143
 30
0.0
 11
878.130376
 21
386.298737
 31
0.0
  0
LINE
  8
0
 10
878.193744
 20
386.239143
 30
0.0
 11
878.262873
 21
386.187296
 31
0.0
  0
LINE
  8
0
 10
878.262873
 20
386.187296
 30
0.0
 11
878.193744
 21
386.239143
 31
0.0
  0
LINE
  8
0
 10
878.262873
 20
386.187296
 30
0.0
 11
878.337762
 21
386.139422
 31
0.0
  0
LINE
  8
0
 10
878.337762
 20
386.139422
 30
0.0
 11
878.262873
 21
386.187296
 31
0.0
  0
LINE
  8
0
 10
878.337762
 20
386.139422
 30
0.0
 11
878.41444
 21
386.101084
 31
0.0
  0
LINE
  8
0
 10
878.41444
 20
386.101084
 30
0.0
 11
878.337762
 21
386.139422
 31
0.0
  0
LINE
  8
0
 10
878.41444
 20
386.101084
 30
0.0
 11
878.49509
 21
386.066519
 31
0.0
  0
LINE
  8
0
 10
878.49509
 20
386.066519
 30
0.0
 11
878.41444
 21
386.101084
 31
0.0
  0
LINE
  8
0
 10
878.49509
 20
386.066519
 30
0.0
 11
878.577528
 21
386.04149
 31
0.0
  0
LINE
  8
0
 10
878.577528
 20
386.04149
 30
0.0
 11
878.49509
 21
386.066519
 31
0.0
  0
LINE
  8
0
 10
878.577528
 20
386.04149
 30
0.0
 11
878.661953
 21
386.02242
 31
0.0
  0
LINE
  8
0
 10
878.661953
 20
386.02242
 30
0.0
 11
878.577528
 21
386.04149
 31
0.0
  0
LINE
  8
0
 10
878.661953
 20
386.02242
 30
0.0
 11
878.748364
 21
386.010898
 31
0.0
  0
LINE
  8
0
 10
878.748364
 20
386.010898
 30
0.0
 11
878.661953
 21
386.02242
 31
0.0
  0
LINE
  8
0
 10
878.748364
 20
386.010898
 30
0.0
 11
878.836761
 21
386.006925
 31
0.0
  0
LINE
  8
0
 10
878.836761
 20
386.006925
 30
0.0
 11
878.748364
 21
386.010898
 31
0.0
  0
LINE
  8
0
 10
878.836761
 20
386.006925
 30
0.0
 11
878.922974
 21
386.010898
 31
0.0
  0
LINE
  8
0
 10
878.922974
 20
386.010898
 30
0.0
 11
878.836761
 21
386.006925
 31
0.0
  0
LINE
  8
0
 10
878.922974
 20
386.010898
 30
0.0
 11
879.009385
 21
386.02242
 31
0.0
  0
LINE
  8
0
 10
879.009385
 20
386.02242
 30
0.0
 11
878.922974
 21
386.010898
 31
0.0
  0
LINE
  8
0
 10
879.009385
 20
386.02242
 30
0.0
 11
879.09381
 21
386.04149
 31
0.0
  0
LINE
  8
0
 10
879.09381
 20
386.04149
 30
0.0
 11
879.009385
 21
386.02242
 31
0.0
  0
LINE
  8
0
 10
879.09381
 20
386.04149
 30
0.0
 11
879.176446
 21
386.066519
 31
0.0
  0
LINE
  8
0
 10
879.176446
 20
386.066519
 30
0.0
 11
879.09381
 21
386.04149
 31
0.0
  0
LINE
  8
0
 10
879.176446
 20
386.066519
 30
0.0
 11
879.256898
 21
386.101084
 31
0.0
  0
LINE
  8
0
 10
879.256898
 20
386.101084
 30
0.0
 11
879.176446
 21
386.066519
 31
0.0
  0
LINE
  8
0
 10
879.256898
 20
386.101084
 30
0.0
 11
879.333774
 21
386.139422
 31
0.0
  0
LINE
  8
0
 10
879.333774
 20
386.139422
 30
0.0
 11
879.256898
 21
386.101084
 31
0.0
  0
LINE
  8
0
 10
879.333774
 20
386.139422
 30
0.0
 11
879.408664
 21
386.187296
 31
0.0
  0
LINE
  8
0
 10
879.408664
 20
386.187296
 30
0.0
 11
879.333774
 21
386.139422
 31
0.0
  0
LINE
  8
0
 10
879.408664
 20
386.187296
 30
0.0
 11
879.477594
 21
386.239143
 31
0.0
  0
LINE
  8
0
 10
879.477594
 20
386.239143
 30
0.0
 11
879.408664
 21
386.187296
 31
0.0
  0
LINE
  8
0
 10
879.477594
 20
386.239143
 30
0.0
 11
879.540962
 21
386.298737
 31
0.0
  0
LINE
  8
0
 10
879.540962
 20
386.298737
 30
0.0
 11
879.477594
 21
386.239143
 31
0.0
  0
LINE
  8
0
 10
920.450162
 20
384.21325
 30
0.0
 11
920.528826
 21
384.172925
 31
0.0
  0
LINE
  8
0
 10
920.369512
 20
384.247815
 30
0.0
 11
920.450162
 21
384.21325
 31
0.0
  0
LINE
  8
0
 10
920.287074
 20
384.272645
 30
0.0
 11
920.369512
 21
384.247815
 31
0.0
  0
LINE
  8
0
 10
920.202649
 20
384.291914
 30
0.0
 11
920.287074
 21
384.272645
 31
0.0
  0
LINE
  8
0
 10
920.116238
 20
384.303436
 30
0.0
 11
920.202649
 21
384.291914
 31
0.0
  0
LINE
  8
0
 10
920.029827
 20
384.30721
 30
0.0
 11
920.116238
 21
384.303436
 31
0.0
  0
LINE
  8
0
 10
920.116238
 20
384.303436
 30
0.0
 11
920.029827
 21
384.30721
 31
0.0
  0
LINE
  8
0
 10
920.202649
 20
384.291914
 30
0.0
 11
920.116238
 21
384.303436
 31
0.0
  0
LINE
  8
0
 10
920.287074
 20
384.272645
 30
0.0
 11
920.202649
 21
384.291914
 31
0.0
  0
LINE
  8
0
 10
920.369512
 20
384.247815
 30
0.0
 11
920.287074
 21
384.272645
 31
0.0
  0
LINE
  8
0
 10
920.450162
 20
384.21325
 30
0.0
 11
920.369512
 21
384.247815
 31
0.0
  0
LINE
  8
0
 10
920.528826
 20
384.172925
 30
0.0
 11
920.450162
 21
384.21325
 31
0.0
  0
LINE
  8
0
 10
920.116238
 20
379.323375
 30
0.0
 11
920.029827
 21
379.319601
 31
0.0
  0
LINE
  8
0
 10
920.202649
 20
379.334897
 30
0.0
 11
920.116238
 21
379.323375
 31
0.0
  0
LINE
  8
0
 10
920.287074
 20
379.354165
 30
0.0
 11
920.202649
 21
379.334897
 31
0.0
  0
LINE
  8
0
 10
920.369512
 20
379.378996
 30
0.0
 11
920.287074
 21
379.354165
 31
0.0
  0
LINE
  8
0
 10
920.450162
 20
379.41356
 30
0.0
 11
920.369512
 21
379.378996
 31
0.0
  0
LINE
  8
0
 10
920.528826
 20
379.453886
 30
0.0
 11
920.450162
 21
379.41356
 31
0.0
  0
LINE
  8
0
 10
920.450162
 20
379.41356
 30
0.0
 11
920.528826
 21
379.453886
 31
0.0
  0
LINE
  8
0
 10
920.369512
 20
379.378996
 30
0.0
 11
920.450162
 21
379.41356
 31
0.0
  0
LINE
  8
0
 10
920.287074
 20
379.354165
 30
0.0
 11
920.369512
 21
379.378996
 31
0.0
  0
LINE
  8
0
 10
920.202649
 20
379.334897
 30
0.0
 11
920.287074
 21
379.354165
 31
0.0
  0
LINE
  8
0
 10
920.116238
 20
379.323375
 30
0.0
 11
920.202649
 21
379.334897
 31
0.0
  0
LINE
  8
0
 10
920.029827
 20
379.319601
 30
0.0
 11
920.116238
 21
379.323375
 31
0.0
  0
LINE
  8
0
 10
887.152092
 20
379.319601
 30
0.0
 11
887.021581
 21
379.315827
 31
0.0
  0
LINE
  8
0
 10
887.021581
 20
379.315827
 30
0.0
 11
887.152092
 21
379.319601
 31
0.0
  0
LINE
  8
0
 10
887.021581
 20
379.315827
 30
0.0
 11
886.891071
 21
379.306093
 31
0.0
  0
LINE
  8
0
 10
886.891071
 20
379.306093
 30
0.0
 11
887.021581
 21
379.315827
 31
0.0
  0
LINE
  8
0
 10
886.891071
 20
379.306093
 30
0.0
 11
886.762546
 21
379.288811
 31
0.0
  0
LINE
  8
0
 10
886.762546
 20
379.288811
 30
0.0
 11
886.891071
 21
379.306093
 31
0.0
  0
LINE
  8
0
 10
886.762546
 20
379.288811
 30
0.0
 11
886.634022
 21
379.265768
 31
0.0
  0
LINE
  8
0
 10
886.634022
 20
379.265768
 30
0.0
 11
886.762546
 21
379.288811
 31
0.0
  0
LINE
  8
0
 10
886.634022
 20
379.265768
 30
0.0
 11
886.507286
 21
379.235176
 31
0.0
  0
LINE
  8
0
 10
886.507286
 20
379.235176
 30
0.0
 11
886.634022
 21
379.265768
 31
0.0
  0
LINE
  8
0
 10
886.507286
 20
379.235176
 30
0.0
 11
886.38055
 21
379.196837
 31
0.0
  0
LINE
  8
0
 10
886.38055
 20
379.196837
 30
0.0
 11
886.507286
 21
379.235176
 31
0.0
  0
LINE
  8
0
 10
886.38055
 20
379.196837
 30
0.0
 11
886.257786
 21
379.154526
 31
0.0
  0
LINE
  8
0
 10
886.257786
 20
379.154526
 30
0.0
 11
886.38055
 21
379.196837
 31
0.0
  0
LINE
  8
0
 10
886.257786
 20
379.154526
 30
0.0
 11
886.136811
 21
379.104666
 31
0.0
  0
LINE
  8
0
 10
886.136811
 20
379.104666
 30
0.0
 11
886.257786
 21
379.154526
 31
0.0
  0
LINE
  8
0
 10
886.136811
 20
379.104666
 30
0.0
 11
886.019808
 21
379.047058
 31
0.0
  0
LINE
  8
0
 10
886.019808
 20
379.047058
 30
0.0
 11
886.136811
 21
379.104666
 31
0.0
  0
LINE
  8
0
 10
886.019808
 20
379.047058
 30
0.0
 11
885.904594
 21
378.985677
 31
0.0
  0
LINE
  8
0
 10
885.904594
 20
378.985677
 30
0.0
 11
886.019808
 21
379.047058
 31
0.0
  0
LINE
  8
0
 10
885.904594
 20
378.985677
 30
0.0
 11
885.793352
 21
378.916548
 31
0.0
  0
LINE
  8
0
 10
885.793352
 20
378.916548
 30
0.0
 11
885.904594
 21
378.985677
 31
0.0
  0
LINE
  8
0
 10
885.793352
 20
378.916548
 30
0.0
 11
885.685884
 21
378.843644
 31
0.0
  0
LINE
  8
0
 10
885.685884
 20
378.843644
 30
0.0
 11
885.793352
 21
378.916548
 31
0.0
  0
LINE
  8
0
 10
885.685884
 20
378.843644
 30
0.0
 11
885.582191
 21
378.762994
 31
0.0
  0
LINE
  8
0
 10
885.582191
 20
378.762994
 30
0.0
 11
885.685884
 21
378.843644
 31
0.0
  0
LINE
  8
0
 10
885.582191
 20
378.762994
 30
0.0
 11
885.48247
 21
378.678569
 31
0.0
  0
LINE
  8
0
 10
885.48247
 20
378.678569
 30
0.0
 11
885.582191
 21
378.762994
 31
0.0
  0
LINE
  8
0
 10
885.48247
 20
378.678569
 30
0.0
 11
885.388511
 21
378.588384
 31
0.0
  0
LINE
  8
0
 10
885.388511
 20
378.588384
 30
0.0
 11
885.48247
 21
378.678569
 31
0.0
  0
LINE
  8
0
 10
881.558016
 20
374.76365
 30
0.0
 11
881.623172
 21
374.823244
 31
0.0
  0
LINE
  8
0
 10
881.488887
 20
374.711803
 30
0.0
 11
881.558016
 21
374.76365
 31
0.0
  0
LINE
  8
0
 10
881.415984
 20
374.66393
 30
0.0
 11
881.488887
 21
374.711803
 31
0.0
  0
LINE
  8
0
 10
881.339108
 20
374.623604
 30
0.0
 11
881.415984
 21
374.66393
 31
0.0
  0
LINE
  8
0
 10
881.258656
 20
374.591026
 30
0.0
 11
881.339108
 21
374.623604
 31
0.0
  0
LINE
  8
0
 10
881.174231
 20
374.564011
 30
0.0
 11
881.258656
 21
374.591026
 31
0.0
  0
LINE
  8
0
 10
881.089608
 20
374.546728
 30
0.0
 11
881.174231
 21
374.564011
 31
0.0
  0
LINE
  8
0
 10
881.003396
 20
374.535207
 30
0.0
 11
881.089608
 21
374.546728
 31
0.0
  0
LINE
  8
0
 10
881.003396
 20
374.535207
 30
0.0
 11
880.916985
 21
374.531433
 31
0.0
  0
LINE
  8
0
 10
881.558016
 20
374.76365
 30
0.0
 11
881.623172
 21
374.823244
 31
0.0
  0
LINE
  8
0
 10
881.488887
 20
374.711803
 30
0.0
 11
881.558016
 21
374.76365
 31
0.0
  0
LINE
  8
0
 10
881.415984
 20
374.66393
 30
0.0
 11
881.488887
 21
374.711803
 31
0.0
  0
LINE
  8
0
 10
881.339108
 20
374.623604
 30
0.0
 11
881.415984
 21
374.66393
 31
0.0
  0
LINE
  8
0
 10
881.258656
 20
374.591026
 30
0.0
 11
881.339108
 21
374.623604
 31
0.0
  0
LINE
  8
0
 10
881.174231
 20
374.564011
 30
0.0
 11
881.258656
 21
374.591026
 31
0.0
  0
LINE
  8
0
 10
881.089608
 20
374.546728
 30
0.0
 11
881.174231
 21
374.564011
 31
0.0
  0
LINE
  8
0
 10
881.003396
 20
374.535207
 30
0.0
 11
881.089608
 21
374.546728
 31
0.0
  0
LINE
  8
0
 10
880.916985
 20
374.531433
 30
0.0
 11
881.003396
 21
374.535207
 31
0.0
  0
LINE
  8
0
 10
878.249365
 20
374.535207
 30
0.0
 11
878.337762
 21
374.531433
 31
0.0
  0
LINE
  8
0
 10
878.163152
 20
374.546728
 30
0.0
 11
878.249365
 21
374.535207
 31
0.0
  0
LINE
  8
0
 10
878.078728
 20
374.564011
 30
0.0
 11
878.163152
 21
374.546728
 31
0.0
  0
LINE
  8
0
 10
877.996091
 20
374.591026
 30
0.0
 11
878.078728
 21
374.564011
 31
0.0
  0
LINE
  8
0
 10
877.91544
 20
374.623604
 30
0.0
 11
877.996091
 21
374.591026
 31
0.0
  0
LINE
  8
0
 10
877.838763
 20
374.66393
 30
0.0
 11
877.91544
 21
374.623604
 31
0.0
  0
LINE
  8
0
 10
877.763873
 20
374.711803
 30
0.0
 11
877.838763
 21
374.66393
 31
0.0
  0
LINE
  8
0
 10
877.694744
 20
374.76365
 30
0.0
 11
877.763873
 21
374.711803
 31
0.0
  0
LINE
  8
0
 10
877.631575
 20
374.823244
 30
0.0
 11
877.694744
 21
374.76365
 31
0.0
  0
LINE
  8
0
 10
877.571981
 20
374.886413
 30
0.0
 11
877.631575
 21
374.823244
 31
0.0
  0
LINE
  8
0
 10
877.520134
 20
374.955542
 30
0.0
 11
877.571981
 21
374.886413
 31
0.0
  0
LINE
  8
0
 10
877.472261
 20
375.030432
 30
0.0
 11
877.520134
 21
374.955542
 31
0.0
  0
LINE
  8
0
 10
877.431935
 20
375.107109
 30
0.0
 11
877.472261
 21
375.030432
 31
0.0
  0
LINE
  8
0
 10
877.399358
 20
375.18776
 30
0.0
 11
877.431935
 21
375.107109
 31
0.0
  0
LINE
  8
0
 10
877.372342
 20
375.270397
 30
0.0
 11
877.399358
 21
375.18776
 31
0.0
  0
LINE
  8
0
 10
877.355059
 20
375.354821
 30
0.0
 11
877.372342
 21
375.270397
 31
0.0
  0
LINE
  8
0
 10
877.343538
 20
375.441034
 30
0.0
 11
877.355059
 21
375.354821
 31
0.0
  0
LINE
  8
0
 10
877.343538
 20
375.441034
 30
0.0
 11
877.339764
 21
375.529431
 31
0.0
  0
LINE
  8
0
 10
878.249365
 20
374.535207
 30
0.0
 11
878.337762
 21
374.531433
 31
0.0
  0
LINE
  8
0
 10
878.163152
 20
374.546728
 30
0.0
 11
878.249365
 21
374.535207
 31
0.0
  0
LINE
  8
0
 10
878.078728
 20
374.564011
 30
0.0
 11
878.163152
 21
374.546728
 31
0.0
  0
LINE
  8
0
 10
877.996091
 20
374.591026
 30
0.0
 11
878.078728
 21
374.564011
 31
0.0
  0
LINE
  8
0
 10
877.91544
 20
374.623604
 30
0.0
 11
877.996091
 21
374.591026
 31
0.0
  0
LINE
  8
0
 10
877.838763
 20
374.66393
 30
0.0
 11
877.91544
 21
374.623604
 31
0.0
  0
LINE
  8
0
 10
877.763873
 20
374.711803
 30
0.0
 11
877.838763
 21
374.66393
 31
0.0
  0
LINE
  8
0
 10
877.694744
 20
374.76365
 30
0.0
 11
877.763873
 21
374.711803
 31
0.0
  0
LINE
  8
0
 10
877.631575
 20
374.823244
 30
0.0
 11
877.694744
 21
374.76365
 31
0.0
  0
LINE
  8
0
 10
877.571981
 20
374.886413
 30
0.0
 11
877.631575
 21
374.823244
 31
0.0
  0
LINE
  8
0
 10
877.520134
 20
374.955542
 30
0.0
 11
877.571981
 21
374.886413
 31
0.0
  0
LINE
  8
0
 10
877.472261
 20
375.030432
 30
0.0
 11
877.520134
 21
374.955542
 31
0.0
  0
LINE
  8
0
 10
877.431935
 20
375.107109
 30
0.0
 11
877.472261
 21
375.030432
 31
0.0
  0
LINE
  8
0
 10
877.399358
 20
375.18776
 30
0.0
 11
877.431935
 21
375.107109
 31
0.0
  0
LINE
  8
0
 10
877.372342
 20
375.270397
 30
0.0
 11
877.399358
 21
375.18776
 31
0.0
  0
LINE
  8
0
 10
877.355059
 20
375.354821
 30
0.0
 11
877.372342
 21
375.270397
 31
0.0
  0
LINE
  8
0
 10
877.343538
 20
375.441034
 30
0.0
 11
877.339764
 21
375.529431
 31
0.0
  0
LINE
  8
0
 10
877.355059
 20
375.354821
 30
0.0
 11
877.343538
 21
375.441034
 31
0.0
  0
LINE
  8
0
 10
885.388511
 20
385.141424
 30
0.0
 11
885.48247
 21
385.051238
 31
0.0
  0
LINE
  8
0
 10
885.48247
 20
385.051238
 30
0.0
 11
885.388511
 21
385.141424
 31
0.0
  0
LINE
  8
0
 10
885.48247
 20
385.051238
 30
0.0
 11
885.582191
 21
384.966814
 31
0.0
  0
LINE
  8
0
 10
885.582191
 20
384.966814
 30
0.0
 11
885.48247
 21
385.051238
 31
0.0
  0
LINE
  8
0
 10
885.582191
 20
384.966814
 30
0.0
 11
885.685884
 21
384.886163
 31
0.0
  0
LINE
  8
0
 10
885.685884
 20
384.886163
 30
0.0
 11
885.582191
 21
384.966814
 31
0.0
  0
LINE
  8
0
 10
885.685884
 20
384.886163
 30
0.0
 11
885.793352
 21
384.81326
 31
0.0
  0
LINE
  8
0
 10
885.793352
 20
384.81326
 30
0.0
 11
885.685884
 21
384.886163
 31
0.0
  0
LINE
  8
0
 10
885.793352
 20
384.81326
 30
0.0
 11
885.904594
 21
384.744131
 31
0.0
  0
LINE
  8
0
 10
885.904594
 20
384.744131
 30
0.0
 11
885.793352
 21
384.81326
 31
0.0
  0
LINE
  8
0
 10
885.904594
 20
384.744131
 30
0.0
 11
886.019808
 21
384.656098
 31
0.0
  0
LINE
  8
0
 10
886.019808
 20
384.656098
 30
0.0
 11
885.904594
 21
384.744131
 31
0.0
  0
LINE
  8
0
 10
886.019808
 20
384.656098
 30
0.0
 11
886.136811
 21
384.59849
 31
0.0
  0
LINE
  8
0
 10
886.136811
 20
384.59849
 30
0.0
 11
886.019808
 21
384.656098
 31
0.0
  0
LINE
  8
0
 10
886.136811
 20
384.59849
 30
0.0
 11
886.257786
 21
384.54863
 31
0.0
  0
LINE
  8
0
 10
886.257786
 20
384.54863
 30
0.0
 11
886.136811
 21
384.59849
 31
0.0
  0
LINE
  8
0
 10
886.257786
 20
384.54863
 30
0.0
 11
886.38055
 21
384.479865
 31
0.0
  0
LINE
  8
0
 10
886.38055
 20
384.479865
 30
0.0
 11
886.257786
 21
384.54863
 31
0.0
  0
LINE
  8
0
 10
886.38055
 20
384.479865
 30
0.0
 11
886.507286
 21
384.414676
 31
0.0
  0
LINE
  8
0
 10
886.507286
 20
384.414676
 30
0.0
 11
886.38055
 21
384.479865
 31
0.0
  0
LINE
  8
0
 10
886.634022
 20
384.359419
 30
0.0
 11
886.507286
 21
384.414676
 31
0.0
  0
LINE
  8
0
 10
886.762546
 20
384.307738
 30
0.0
 11
886.634022
 21
384.359419
 31
0.0
  0
LINE
  8
0
 10
886.891071
 20
384.290456
 30
0.0
 11
886.762546
 21
384.307738
 31
0.0
  0
LINE
  8
0
 10
887.021581
 20
384.295947
 30
0.0
 11
886.891071
 21
384.290456
 31
0.0
  0
LINE
  8
0
 10
887.152092
 20
384.291974
 30
0.0
 11
887.021581
 21
384.295947
 31
0.0
  0
LINE
  8
0
 10
887.021581
 20
384.295947
 30
0.0
 11
887.152092
 21
384.291974
 31
0.0
  0
LINE
  8
0
 10
886.891071
 20
384.290456
 30
0.0
 11
887.021581
 21
384.295947
 31
0.0
  0
LINE
  8
0
 10
886.762546
 20
384.307738
 30
0.0
 11
886.891071
 21
384.290456
 31
0.0
  0
LINE
  8
0
 10
886.634022
 20
384.359419
 30
0.0
 11
886.762546
 21
384.307738
 31
0.0
  0
LINE
  8
0
 10
886.507286
 20
384.414676
 30
0.0
 11
886.634022
 21
384.359419
 31
0.0
  0
LINE
  8
0
 10
922.620571
 20
381.814399
 30
0.0
 11
920.029827
 21
383.30941
 31
0.0
  0
LINE
  8
0
 10
920.029827
 20
380.317599
 30
0.0
 11
922.620571
 21
381.814399
 31
0.0
  0
LINE
  8
0
 10
894.300773
 20
380.317599
 30
0.0
 11
920.029827
 21
380.317599
 31
0.0
  0
LINE
  8
0
 10
891.306976
 20
380.8164
 30
0.0
 11
891.393188
 21
380.820373
 31
0.0
  0
LINE
  8
0
 10
891.393188
 20
380.820373
 30
0.0
 11
891.306976
 21
380.8164
 31
0.0
  0
LINE
  8
0
 10
891.393188
 20
380.820373
 30
0.0
 11
891.479599
 21
380.831894
 31
0.0
  0
LINE
  8
0
 10
891.479599
 20
380.831894
 30
0.0
 11
891.393188
 21
380.820373
 31
0.0
  0
LINE
  8
0
 10
891.479599
 20
380.831894
 30
0.0
 11
891.56601
 21
380.849177
 31
0.0
  0
LINE
  8
0
 10
891.56601
 20
380.849177
 30
0.0
 11
891.479599
 21
380.831894
 31
0.0
  0
LINE
  8
0
 10
891.56601
 20
380.849177
 30
0.0
 11
891.648449
 21
380.875994
 31
0.0
  0
LINE
  8
0
 10
891.648449
 20
380.875994
 30
0.0
 11
891.56601
 21
380.849177
 31
0.0
  0
LINE
  8
0
 10
891.648449
 20
380.875994
 30
0.0
 11
891.729099
 21
380.908572
 31
0.0
  0
LINE
  8
0
 10
891.729099
 20
380.908572
 30
0.0
 11
891.648449
 21
380.875994
 31
0.0
  0
LINE
  8
0
 10
891.729099
 20
380.908572
 30
0.0
 11
891.805975
 21
380.948897
 31
0.0
  0
LINE
  8
0
 10
891.805975
 20
380.948897
 30
0.0
 11
891.729099
 21
380.908572
 31
0.0
  0
LINE
  8
0
 10
891.805975
 20
380.948897
 30
0.0
 11
891.878878
 21
380.996771
 31
0.0
  0
LINE
  8
0
 10
891.878878
 20
380.996771
 30
0.0
 11
891.805975
 21
380.948897
 31
0.0
  0
LINE
  8
0
 10
891.878878
 20
380.996771
 30
0.0
 11
891.947808
 21
381.048617
 31
0.0
  0
LINE
  8
0
 10
891.947808
 20
381.048617
 30
0.0
 11
891.878878
 21
380.996771
 31
0.0
  0
LINE
  8
0
 10
891.947808
 20
381.048617
 30
0.0
 11
892.013163
 21
381.108211
 31
0.0
  0
LINE
  8
0
 10
892.013163
 20
381.108211
 30
0.0
 11
891.947808
 21
381.048617
 31
0.0
  0
LINE
  8
0
 10
892.013163
 20
381.108211
 30
0.0
 11
892.07077
 21
381.171579
 31
0.0
  0
LINE
  8
0
 10
892.07077
 20
381.171579
 30
0.0
 11
892.013163
 21
381.108211
 31
0.0
  0
LINE
  8
0
 10
892.07077
 20
381.171579
 30
0.0
 11
892.124405
 21
381.24051
 31
0.0
  0
LINE
  8
0
 10
892.124405
 20
381.24051
 30
0.0
 11
892.07077
 21
381.171579
 31
0.0
  0
LINE
  8
0
 10
892.124405
 20
381.24051
 30
0.0
 11
892.170491
 21
381.315399
 31
0.0
  0
LINE
  8
0
 10
892.170491
 20
381.315399
 30
0.0
 11
892.124405
 21
381.24051
 31
0.0
  0
LINE
  8
0
 10
892.170491
 20
381.315399
 30
0.0
 11
892.210816
 21
381.392275
 31
0.0
  0
LINE
  8
0
 10
892.210816
 20
381.392275
 30
0.0
 11
892.170491
 21
381.315399
 31
0.0
  0
LINE
  8
0
 10
892.210816
 20
381.392275
 30
0.0
 11
892.243394
 21
381.472727
 31
0.0
  0
LINE
  8
0
 10
892.243394
 20
381.472727
 30
0.0
 11
892.210816
 21
381.392275
 31
0.0
  0
LINE
  8
0
 10
892.243394
 20
381.472727
 30
0.0
 11
892.270211
 21
381.555364
 31
0.0
  0
LINE
  8
0
 10
892.270211
 20
381.555364
 30
0.0
 11
892.243394
 21
381.472727
 31
0.0
  0
LINE
  8
0
 10
892.270211
 20
381.555364
 30
0.0
 11
892.28948
 21
381.639789
 31
0.0
  0
LINE
  8
0
 10
892.28948
 20
381.639789
 30
0.0
 11
892.270211
 21
381.555364
 31
0.0
  0
LINE
  8
0
 10
891.393188
 20
382.806636
 30
0.0
 11
891.306976
 21
382.810411
 31
0.0
  0
LINE
  8
0
 10
891.479599
 20
382.795115
 30
0.0
 11
891.393188
 21
382.806636
 31
0.0
  0
LINE
  8
0
 10
891.56601
 20
382.777833
 30
0.0
 11
891.479599
 21
382.795115
 31
0.0
  0
LINE
  8
0
 10
891.648449
 20
382.750817
 30
0.0
 11
891.56601
 21
382.777833
 31
0.0
  0
LINE
  8
0
 10
891.729099
 20
382.718239
 30
0.0
 11
891.648449
 21
382.750817
 31
0.0
  0
LINE
  8
0
 10
891.805975
 20
382.677914
 30
0.0
 11
891.729099
 21
382.718239
 31
0.0
  0
LINE
  8
0
 10
891.878878
 20
382.63004
 30
0.0
 11
891.805975
 21
382.677914
 31
0.0
  0
LINE
  8
0
 10
891.947808
 20
382.578193
 30
0.0
 11
891.878878
 21
382.63004
 31
0.0
  0
LINE
  8
0
 10
892.013163
 20
382.518798
 30
0.0
 11
891.947808
 21
382.578193
 31
0.0
  0
LINE
  8
0
 10
892.07077
 20
382.45543
 30
0.0
 11
892.013163
 21
382.518798
 31
0.0
  0
LINE
  8
0
 10
892.124405
 20
382.386301
 30
0.0
 11
892.07077
 21
382.45543
 31
0.0
  0
LINE
  8
0
 10
892.170491
 20
382.311411
 30
0.0
 11
892.124405
 21
382.386301
 31
0.0
  0
LINE
  8
0
 10
892.210816
 20
382.234734
 30
0.0
 11
892.170491
 21
382.311411
 31
0.0
  0
LINE
  8
0
 10
892.243394
 20
382.154084
 30
0.0
 11
892.210816
 21
382.234734
 31
0.0
  0
LINE
  8
0
 10
892.270211
 20
382.071645
 30
0.0
 11
892.243394
 21
382.154084
 31
0.0
  0
LINE
  8
0
 10
892.28948
 20
381.987022
 30
0.0
 11
892.270211
 21
382.071645
 31
0.0
  0
LINE
  8
0
 10
892.301001
 20
381.90081
 30
0.0
 11
892.28948
 21
381.987022
 31
0.0
  0
LINE
  8
0
 10
892.304776
 20
381.814399
 30
0.0
 11
892.301001
 21
381.90081
 31
0.0
  0
LINE
  8
0
 10
892.301001
 20
381.7262
 30
0.0
 11
892.304776
 21
381.814399
 31
0.0
  0
LINE
  8
0
 10
892.28948
 20
381.639789
 30
0.0
 11
892.301001
 21
381.7262
 31
0.0
  0
LINE
  8
0
 10
892.301001
 20
381.7262
 30
0.0
 11
892.28948
 21
381.639789
 31
0.0
  0
LINE
  8
0
 10
892.304776
 20
381.814399
 30
0.0
 11
892.301001
 21
381.7262
 31
0.0
  0
LINE
  8
0
 10
892.301001
 20
381.90081
 30
0.0
 11
892.304776
 21
381.814399
 31
0.0
  0
LINE
  8
0
 10
892.28948
 20
381.987022
 30
0.0
 11
892.301001
 21
381.90081
 31
0.0
  0
LINE
  8
0
 10
892.270211
 20
382.071645
 30
0.0
 11
892.28948
 21
381.987022
 31
0.0
  0
LINE
  8
0
 10
892.243394
 20
382.154084
 30
0.0
 11
892.270211
 21
382.071645
 31
0.0
  0
LINE
  8
0
 10
892.210816
 20
382.234734
 30
0.0
 11
892.243394
 21
382.154084
 31
0.0
  0
LINE
  8
0
 10
892.170491
 20
382.311411
 30
0.0
 11
892.210816
 21
382.234734
 31
0.0
  0
LINE
  8
0
 10
891.393188
 20
382.806636
 30
0.0
 11
891.306976
 21
382.810411
 31
0.0
  0
LINE
  8
0
 10
891.479599
 20
382.795115
 30
0.0
 11
891.393188
 21
382.806636
 31
0.0
  0
LINE
  8
0
 10
891.56601
 20
382.777833
 30
0.0
 11
891.479599
 21
382.795115
 31
0.0
  0
LINE
  8
0
 10
891.648449
 20
382.750817
 30
0.0
 11
891.56601
 21
382.777833
 31
0.0
  0
LINE
  8
0
 10
891.729099
 20
382.718239
 30
0.0
 11
891.648449
 21
382.750817
 31
0.0
  0
LINE
  8
0
 10
891.805975
 20
382.677914
 30
0.0
 11
891.729099
 21
382.718239
 31
0.0
  0
LINE
  8
0
 10
891.878878
 20
382.63004
 30
0.0
 11
891.805975
 21
382.677914
 31
0.0
  0
LINE
  8
0
 10
891.947808
 20
382.578193
 30
0.0
 11
891.878878
 21
382.63004
 31
0.0
  0
LINE
  8
0
 10
892.013163
 20
382.518798
 30
0.0
 11
891.947808
 21
382.578193
 31
0.0
  0
LINE
  8
0
 10
892.07077
 20
382.45543
 30
0.0
 11
892.013163
 21
382.518798
 31
0.0
  0
LINE
  8
0
 10
892.124405
 20
382.386301
 30
0.0
 11
892.07077
 21
382.45543
 31
0.0
  0
LINE
  8
0
 10
892.170491
 20
382.311411
 30
0.0
 11
892.124405
 21
382.386301
 31
0.0
  0
LINE
  8
0
 10
893.302774
 20
381.315399
 30
0.0
 11
893.302774
 21
382.311411
 31
0.0
  0
LINE
  8
0
 10
893.302774
 20
382.311411
 30
0.0
 11
893.302774
 21
381.315399
 31
0.0
  0
LINE
  8
0
 10
894.300773
 20
383.30941
 30
0.0
 11
920.029827
 21
383.30941
 31
0.0
  0
LINE
  8
0
 10
894.300773
 20
383.30941
 30
0.0
 11
894.212375
 21
383.305437
 31
0.0
  0
LINE
  8
0
 10
894.212375
 20
383.305437
 30
0.0
 11
894.300773
 21
383.30941
 31
0.0
  0
LINE
  8
0
 10
894.212375
 20
383.305437
 30
0.0
 11
894.125964
 21
383.293915
 31
0.0
  0
LINE
  8
0
 10
894.125964
 20
383.293915
 30
0.0
 11
894.212375
 21
383.305437
 31
0.0
  0
LINE
  8
0
 10
894.125964
 20
383.293915
 30
0.0
 11
894.041539
 21
383.276832
 31
0.0
  0
LINE
  8
0
 10
894.041539
 20
383.276832
 30
0.0
 11
894.125964
 21
383.293915
 31
0.0
  0
LINE
  8
0
 10
894.041539
 20
383.276832
 30
0.0
 11
893.959101
 21
383.249816
 31
0.0
  0
LINE
  8
0
 10
893.959101
 20
383.249816
 30
0.0
 11
894.041539
 21
383.276832
 31
0.0
  0
LINE
  8
0
 10
893.959101
 20
383.249816
 30
0.0
 11
893.878451
 21
383.217238
 31
0.0
  0
LINE
  8
0
 10
893.878451
 20
383.217238
 30
0.0
 11
893.959101
 21
383.249816
 31
0.0
  0
LINE
  8
0
 10
893.878451
 20
383.217238
 30
0.0
 11
893.801773
 21
383.176913
 31
0.0
  0
LINE
  8
0
 10
893.801773
 20
383.176913
 30
0.0
 11
893.878451
 21
383.217238
 31
0.0
  0
LINE
  8
0
 10
893.801773
 20
383.176913
 30
0.0
 11
893.726884
 21
383.129039
 31
0.0
  0
LINE
  8
0
 10
893.726884
 20
383.129039
 30
0.0
 11
893.801773
 21
383.176913
 31
0.0
  0
LINE
  8
0
 10
893.726884
 20
383.129039
 30
0.0
 11
893.657755
 21
383.077192
 31
0.0
  0
LINE
  8
0
 10
893.657755
 20
383.077192
 30
0.0
 11
893.726884
 21
383.129039
 31
0.0
  0
LINE
  8
0
 10
893.657755
 20
383.077192
 30
0.0
 11
893.594387
 21
383.017599
 31
0.0
  0
LINE
  8
0
 10
893.594387
 20
383.017599
 30
0.0
 11
893.657755
 21
383.077192
 31
0.0
  0
LINE
  8
0
 10
893.594387
 20
383.017599
 30
0.0
 11
893.534992
 21
382.95423
 31
0.0
  0
LINE
  8
0
 10
893.534992
 20
382.95423
 30
0.0
 11
893.594387
 21
383.017599
 31
0.0
  0
LINE
  8
0
 10
893.534992
 20
382.95423
 30
0.0
 11
893.483145
 21
382.8853
 31
0.0
  0
LINE
  8
0
 10
893.483145
 20
382.8853
 30
0.0
 11
893.534992
 21
382.95423
 31
0.0
  0
LINE
  8
0
 10
893.483145
 20
382.8853
 30
0.0
 11
893.435271
 21
382.810411
 31
0.0
  0
LINE
  8
0
 10
893.435271
 20
382.810411
 30
0.0
 11
893.483145
 21
382.8853
 31
0.0
  0
LINE
  8
0
 10
893.435271
 20
382.810411
 30
0.0
 11
893.394946
 21
382.733733
 31
0.0
  0
LINE
  8
0
 10
893.394946
 20
382.733733
 30
0.0
 11
893.435271
 21
382.810411
 31
0.0
  0
LINE
  8
0
 10
893.394946
 20
382.733733
 30
0.0
 11
893.362169
 21
382.653083
 31
0.0
  0
LINE
  8
0
 10
893.362169
 20
382.653083
 30
0.0
 11
893.394946
 21
382.733733
 31
0.0
  0
LINE
  8
0
 10
893.362169
 20
382.653083
 30
0.0
 11
893.335352
 21
382.570446
 31
0.0
  0
LINE
  8
0
 10
893.335352
 20
382.570446
 30
0.0
 11
893.362169
 21
382.653083
 31
0.0
  0
LINE
  8
0
 10
893.335352
 20
382.570446
 30
0.0
 11
893.31807
 21
382.486021
 31
0.0
  0
LINE
  8
0
 10
893.31807
 20
382.486021
 30
0.0
 11
893.335352
 21
382.570446
 31
0.0
  0
LINE
  8
0
 10
893.31807
 20
382.486021
 30
0.0
 11
893.306549
 21
382.399809
 31
0.0
  0
LINE
  8
0
 10
893.306549
 20
382.399809
 30
0.0
 11
893.31807
 21
382.486021
 31
0.0
  0
LINE
  8
0
 10
893.306549
 20
382.399809
 30
0.0
 11
893.302774
 21
382.313398
 31
0.0
  0
LINE
  8
0
 10
893.302774
 20
382.311411
 30
0.0
 11
893.306549
 21
382.399809
 31
0.0
  0
LINE
  8
0
 10
893.302774
 20
381.315399
 30
0.0
 11
893.306549
 21
381.2272
 31
0.0
  0
LINE
  8
0
 10
893.302774
 20
381.313413
 30
0.0
 11
893.302774
 21
381.315399
 31
0.0
  0
LINE
  8
0
 10
893.306549
 20
381.2272
 30
0.0
 11
893.302774
 21
381.313413
 31
0.0
  0
LINE
  8
0
 10
893.306549
 20
381.2272
 30
0.0
 11
893.31807
 21
381.140789
 31
0.0
  0
LINE
  8
0
 10
893.31807
 20
381.140789
 30
0.0
 11
893.306549
 21
381.2272
 31
0.0
  0
LINE
  8
0
 10
893.31807
 20
381.140789
 30
0.0
 11
893.335352
 21
381.056365
 31
0.0
  0
LINE
  8
0
 10
893.335352
 20
381.056365
 30
0.0
 11
893.31807
 21
381.140789
 31
0.0
  0
LINE
  8
0
 10
893.335352
 20
381.056365
 30
0.0
 11
893.362169
 21
380.973926
 31
0.0
  0
LINE
  8
0
 10
893.362169
 20
380.973926
 30
0.0
 11
893.335352
 21
381.056365
 31
0.0
  0
LINE
  8
0
 10
893.362169
 20
380.973926
 30
0.0
 11
893.394946
 21
380.893276
 31
0.0
  0
LINE
  8
0
 10
893.394946
 20
380.893276
 30
0.0
 11
893.362169
 21
380.973926
 31
0.0
  0
LINE
  8
0
 10
893.394946
 20
380.893276
 30
0.0
 11
893.435271
 21
380.8164
 31
0.0
  0
LINE
  8
0
 10
893.435271
 20
380.8164
 30
0.0
 11
893.394946
 21
380.893276
 31
0.0
  0
LINE
  8
0
 10
893.435271
 20
380.8164
 30
0.0
 11
893.483145
 21
380.741709
 31
0.0
  0
LINE
  8
0
 10
893.483145
 20
380.741709
 30
0.0
 11
893.435271
 21
380.8164
 31
0.0
  0
LINE
  8
0
 10
893.483145
 20
380.741709
 30
0.0
 11
893.534992
 21
380.67258
 31
0.0
  0
LINE
  8
0
 10
893.534992
 20
380.67258
 30
0.0
 11
893.483145
 21
380.741709
 31
0.0
  0
LINE
  8
0
 10
893.534992
 20
380.67258
 30
0.0
 11
893.594387
 21
380.609212
 31
0.0
  0
LINE
  8
0
 10
893.594387
 20
380.609212
 30
0.0
 11
893.534992
 21
380.67258
 31
0.0
  0
LINE
  8
0
 10
893.594387
 20
380.609212
 30
0.0
 11
893.657755
 21
380.549618
 31
0.0
  0
LINE
  8
0
 10
893.657755
 20
380.549618
 30
0.0
 11
893.594387
 21
380.609212
 31
0.0
  0
LINE
  8
0
 10
893.657755
 20
380.549618
 30
0.0
 11
893.726884
 21
380.49797
 31
0.0
  0
LINE
  8
0
 10
893.726884
 20
380.49797
 30
0.0
 11
893.657755
 21
380.549618
 31
0.0
  0
LINE
  8
0
 10
893.726884
 20
380.49797
 30
0.0
 11
893.801773
 21
380.449898
 31
0.0
  0
LINE
  8
0
 10
893.801773
 20
380.449898
 30
0.0
 11
893.726884
 21
380.49797
 31
0.0
  0
LINE
  8
0
 10
893.801773
 20
380.449898
 30
0.0
 11
893.878451
 21
380.409573
 31
0.0
  0
LINE
  8
0
 10
893.878451
 20
380.409573
 30
0.0
 11
893.801773
 21
380.449898
 31
0.0
  0
LINE
  8
0
 10
893.878451
 20
380.409573
 30
0.0
 11
893.959101
 21
380.376995
 31
0.0
  0
LINE
  8
0
 10
893.959101
 20
380.376995
 30
0.0
 11
893.878451
 21
380.409573
 31
0.0
  0
LINE
  8
0
 10
893.959101
 20
380.376995
 30
0.0
 11
894.041539
 21
380.350177
 31
0.0
  0
LINE
  8
0
 10
894.041539
 20
380.350177
 30
0.0
 11
893.959101
 21
380.376995
 31
0.0
  0
LINE
  8
0
 10
894.212375
 20
380.321374
 30
0.0
 11
894.300773
 21
380.317599
 31
0.0
  0
LINE
  8
0
 10
894.125964
 20
380.332895
 30
0.0
 11
894.212375
 21
380.321374
 31
0.0
  0
LINE
  8
0
 10
894.041539
 20
380.350177
 30
0.0
 11
894.125964
 21
380.332895
 31
0.0
  0
LINE
  8
0
 10
894.125964
 20
380.332895
 30
0.0
 11
894.041539
 21
380.350177
 31
0.0
  0
LINE
  8
0
 10
894.212375
 20
380.321374
 30
0.0
 11
894.125964
 21
380.332895
 31
0.0
  0
LINE
  8
0
 10
894.298786
 20
380.317599
 30
0.0
 11
894.212375
 21
380.321374
 31
0.0
  0
LINE
  8
0
 10
894.300773
 20
380.317599
 30
0.0
 11
894.298786
 21
380.317599
 31
0.0
  0
LINE
  8
0
 10
880.210797
 20
388.200575
 30
0.0
 11
884.768536
 21
383.644625
 31
0.0
  0
LINE
  8
0
 10
884.768536
 20
383.644625
 30
0.0
 11
880.210797
 21
388.200575
 31
0.0
  0
LINE
  8
0
 10
922.739764
 20
380.7305
 30
0.0
 11
920.528826
 21
379.453886
 31
0.0
  0
LINE
  8
0
 10
922.762242
 20
382.883332
 30
0.0
 11
920.528826
 21
384.172925
 31
0.0
  0
LINE
  8
0
 10
923.157716
 20
320.971829
 30
0.0
 11
923.157909
 21
320.97194
 31
0.0
  0
LINE
  8
0
 10
923.157909
 20
320.97194
 30
0.0
 11
923.157716
 21
320.971829
 31
0.0
  0
LINE
  8
0
 10
920.029827
 20
319.319601
 30
0.0
 11
887.152092
 21
319.319601
 31
0.0
  0
LINE
  8
0
 10
887.152092
 20
319.319601
 30
0.0
 11
920.029827
 21
319.319601
 31
0.0
  0
LINE
  8
0
 10
891.306976
 20
320.8164
 30
0.0
 11
886.532316
 21
320.8164
 31
0.0
  0
LINE
  8
0
 10
886.532316
 20
320.8164
 30
0.0
 11
891.306976
 21
320.8164
 31
0.0
  0
LINE
  8
0
 10
891.306976
 20
322.810411
 30
0.0
 11
886.532316
 21
322.821827
 31
0.0
  0
LINE
  8
0
 10
886.532316
 20
322.821827
 30
0.0
 11
891.306976
 21
322.810411
 31
0.0
  0
LINE
  8
0
 10
920.029827
 20
324.30721
 30
0.0
 11
887.152092
 21
324.291974
 31
0.0
  0
LINE
  8
0
 10
887.152092
 20
324.291974
 30
0.0
 11
920.029827
 21
324.30721
 31
0.0
  0
LINE
  8
0
 10
885.388511
 20
325.141424
 30
0.0
 11
881.623172
 21
328.906763
 31
0.0
  0
LINE
  8
0
 10
881.623172
 20
328.906763
 30
0.0
 11
885.388511
 21
325.141424
 31
0.0
  0
LINE
  8
0
 10
880.916985
 20
329.198375
 30
0.0
 11
878.337762
 21
329.198375
 31
0.0
  0
LINE
  8
0
 10
878.337762
 20
329.198375
 30
0.0
 11
880.916985
 21
329.198375
 31
0.0
  0
LINE
  8
0
 10
880.404676
 20
327.162252
 30
0.0
 11
879.540962
 21
326.298737
 31
0.0
  0
LINE
  8
0
 10
879.540962
 20
326.298737
 30
0.0
 11
880.404676
 21
327.162252
 31
0.0
  0
LINE
  8
0
 10
879.69829
 20
327.866651
 30
0.0
 11
878.836761
 21
327.004924
 31
0.0
  0
LINE
  8
0
 10
878.836761
 20
327.004924
 30
0.0
 11
879.69829
 21
327.866651
 31
0.0
  0
LINE
  8
0
 10
878.836761
 20
327.004924
 30
0.0
 11
878.337762
 21
327.503923
 31
0.0
  0
LINE
  8
0
 10
878.337762
 20
327.503923
 30
0.0
 11
878.836761
 21
327.004924
 31
0.0
  0
LINE
  8
0
 10
878.337762
 20
328.200575
 30
0.0
 11
878.337762
 21
327.503923
 31
0.0
  0
LINE
  8
0
 10
880.210797
 20
328.200575
 30
0.0
 11
878.337762
 21
328.200575
 31
0.0
  0
LINE
  8
0
 10
880.210797
 20
328.200575
 30
0.0
 11
884.768536
 21
323.644625
 31
0.0
  0
LINE
  8
0
 10
878.337762
 20
328.200575
 30
0.0
 11
880.210797
 21
328.200575
 31
0.0
  0
LINE
  8
0
 10
878.337762
 20
327.503923
 30
0.0
 11
878.337762
 21
328.200575
 31
0.0
  0
LINE
  8
0
 10
877.339764
 20
328.200575
 30
0.0
 11
877.339764
 21
327.089348
 31
0.0
  0
LINE
  8
0
 10
877.339764
 20
327.089348
 30
0.0
 11
877.339764
 21
328.200575
 31
0.0
  0
LINE
  8
0
 10
878.130376
 20
326.298737
 30
0.0
 11
877.339764
 21
327.089348
 31
0.0
  0
LINE
  8
0
 10
877.339764
 20
327.089348
 30
0.0
 11
878.130376
 21
326.298737
 31
0.0
  0
LINE
  8
0
 10
877.339764
 20
316.640459
 30
0.0
 11
877.339764
 21
315.529431
 31
0.0
  0
LINE
  8
0
 10
877.339764
 20
315.529431
 30
0.0
 11
877.339764
 21
316.640459
 31
0.0
  0
LINE
  8
0
 10
885.388511
 20
318.588384
 30
0.0
 11
881.623172
 21
314.823244
 31
0.0
  0
LINE
  8
0
 10
881.623172
 20
314.823244
 30
0.0
 11
885.388511
 21
318.588384
 31
0.0
  0
LINE
  8
0
 10
878.337762
 20
314.531433
 30
0.0
 11
880.916985
 21
314.531433
 31
0.0
  0
LINE
  8
0
 10
880.916985
 20
314.531433
 30
0.0
 11
878.337762
 21
314.531433
 31
0.0
  0
LINE
  8
0
 10
884.768536
 20
320.085382
 30
0.0
 11
880.210797
 21
315.529431
 31
0.0
  0
LINE
  8
0
 10
880.210797
 20
315.529431
 30
0.0
 11
884.768536
 21
320.085382
 31
0.0
  0
LINE
  8
0
 10
878.337762
 20
315.529431
 30
0.0
 11
880.210797
 21
315.529431
 31
0.0
  0
LINE
  8
0
 10
878.337762
 20
316.226083
 30
0.0
 11
878.337762
 21
315.529431
 31
0.0
  0
LINE
  8
0
 10
878.836761
 20
316.724884
 30
0.0
 11
878.337762
 21
316.226083
 31
0.0
  0
LINE
  8
0
 10
878.337762
 20
316.226083
 30
0.0
 11
878.836761
 21
316.724884
 31
0.0
  0
LINE
  8
0
 10
878.337762
 20
315.529431
 30
0.0
 11
878.337762
 21
316.226083
 31
0.0
  0
LINE
  8
0
 10
880.210797
 20
315.529431
 30
0.0
 11
878.337762
 21
315.529431
 31
0.0
  0
LINE
  8
0
 10
878.836761
 20
316.724884
 30
0.0
 11
879.69829
 21
315.863355
 31
0.0
  0
LINE
  8
0
 10
879.69829
 20
315.863355
 30
0.0
 11
878.836761
 21
316.724884
 31
0.0
  0
LINE
  8
0
 10
879.69829
 20
315.863355
 30
0.0
 11
879.744376
 21
315.82303
 31
0.0
  0
LINE
  8
0
 10
879.744376
 20
315.82303
 30
0.0
 11
879.69829
 21
315.863355
 31
0.0
  0
LINE
  8
0
 10
879.744376
 20
315.82303
 30
0.0
 11
879.794236
 21
315.788466
 31
0.0
  0
LINE
  8
0
 10
879.794236
 20
315.788466
 30
0.0
 11
879.744376
 21
315.82303
 31
0.0
  0
LINE
  8
0
 10
879.794236
 20
315.788466
 30
0.0
 11
879.846083
 21
315.759662
 31
0.0
  0
LINE
  8
0
 10
879.846083
 20
315.759662
 30
0.0
 11
879.794236
 21
315.788466
 31
0.0
  0
LINE
  8
0
 10
879.846083
 20
315.759662
 30
0.0
 11
879.90369
 21
315.738606
 31
0.0
  0
LINE
  8
0
 10
879.90369
 20
315.738606
 30
0.0
 11
879.846083
 21
315.759662
 31
0.0
  0
LINE
  8
0
 10
879.90369
 20
315.738606
 30
0.0
 11
879.961298
 21
315.725098
 31
0.0
  0
LINE
  8
0
 10
879.961298
 20
315.725098
 30
0.0
 11
879.90369
 21
315.738606
 31
0.0
  0
LINE
  8
0
 10
879.961298
 20
315.725098
 30
0.0
 11
880.020693
 21
315.71735
 31
0.0
  0
LINE
  8
0
 10
880.020693
 20
315.71735
 30
0.0
 11
879.961298
 21
315.725098
 31
0.0
  0
LINE
  8
0
 10
880.020693
 20
315.71735
 30
0.0
 11
880.082273
 21
315.71735
 31
0.0
  0
LINE
  8
0
 10
880.082273
 20
315.71735
 30
0.0
 11
880.020693
 21
315.71735
 31
0.0
  0
LINE
  8
0
 10
880.082273
 20
315.71735
 30
0.0
 11
880.141668
 21
315.725098
 31
0.0
  0
LINE
  8
0
 10
880.141668
 20
315.725098
 30
0.0
 11
880.082273
 21
315.71735
 31
0.0
  0
LINE
  8
0
 10
880.141668
 20
315.725098
 30
0.0
 11
880.199276
 21
315.738606
 31
0.0
  0
LINE
  8
0
 10
880.199276
 20
315.738606
 30
0.0
 11
880.141668
 21
315.725098
 31
0.0
  0
LINE
  8
0
 10
880.199276
 20
315.738606
 30
0.0
 11
880.256883
 21
315.759662
 31
0.0
  0
LINE
  8
0
 10
880.256883
 20
315.759662
 30
0.0
 11
880.199276
 21
315.738606
 31
0.0
  0
LINE
  8
0
 10
880.256883
 20
315.759662
 30
0.0
 11
880.310518
 21
315.788466
 31
0.0
  0
LINE
  8
0
 10
880.310518
 20
315.788466
 30
0.0
 11
880.256883
 21
315.759662
 31
0.0
  0
LINE
  8
0
 10
880.310518
 20
315.788466
 30
0.0
 11
880.35859
 21
315.82303
 31
0.0
  0
LINE
  8
0
 10
880.35859
 20
315.82303
 30
0.0
 11
880.310518
 21
315.788466
 31
0.0
  0
LINE
  8
0
 10
880.35859
 20
315.82303
 30
0.0
 11
880.404676
 21
315.863355
 31
0.0
  0
LINE
  8
0
 10
880.404676
 20
315.863355
 30
0.0
 11
880.35859
 21
315.82303
 31
0.0
  0
LINE
  8
0
 10
880.404676
 20
315.863355
 30
0.0
 11
880.444803
 21
315.907455
 31
0.0
  0
LINE
  8
0
 10
880.444803
 20
315.907455
 30
0.0
 11
880.404676
 21
315.863355
 31
0.0
  0
LINE
  8
0
 10
880.444803
 20
315.907455
 30
0.0
 11
880.479367
 21
315.957315
 31
0.0
  0
LINE
  8
0
 10
880.479367
 20
315.957315
 30
0.0
 11
880.444803
 21
315.907455
 31
0.0
  0
LINE
  8
0
 10
880.479367
 20
315.957315
 30
0.0
 11
880.506383
 21
316.011148
 31
0.0
  0
LINE
  8
0
 10
880.506383
 20
316.011148
 30
0.0
 11
880.479367
 21
315.957315
 31
0.0
  0
LINE
  8
0
 10
880.506383
 20
316.011148
 30
0.0
 11
880.527439
 21
316.066769
 31
0.0
  0
LINE
  8
0
 10
880.527439
 20
316.066769
 30
0.0
 11
880.506383
 21
316.011148
 31
0.0
  0
LINE
  8
0
 10
880.527439
 20
316.066769
 30
0.0
 11
880.542735
 21
316.126164
 31
0.0
  0
LINE
  8
0
 10
880.542735
 20
316.126164
 30
0.0
 11
880.527439
 21
316.066769
 31
0.0
  0
LINE
  8
0
 10
880.542735
 20
316.126164
 30
0.0
 11
880.550482
 21
316.185758
 31
0.0
  0
LINE
  8
0
 10
880.550482
 20
316.185758
 30
0.0
 11
880.542735
 21
316.126164
 31
0.0
  0
LINE
  8
0
 10
880.550482
 20
316.185758
 30
0.0
 11
880.550482
 21
316.245153
 31
0.0
  0
LINE
  8
0
 10
880.550482
 20
316.245153
 30
0.0
 11
880.550482
 21
316.185758
 31
0.0
  0
LINE
  8
0
 10
880.550482
 20
316.245153
 30
0.0
 11
880.542735
 21
316.304747
 31
0.0
  0
LINE
  8
0
 10
880.542735
 20
316.304747
 30
0.0
 11
880.550482
 21
316.245153
 31
0.0
  0
LINE
  8
0
 10
880.542735
 20
316.304747
 30
0.0
 11
880.527439
 21
316.364143
 31
0.0
  0
LINE
  8
0
 10
880.527439
 20
316.364143
 30
0.0
 11
880.542735
 21
316.304747
 31
0.0
  0
LINE
  8
0
 10
880.527439
 20
316.364143
 30
0.0
 11
880.506383
 21
316.419763
 31
0.0
  0
LINE
  8
0
 10
880.506383
 20
316.419763
 30
0.0
 11
880.527439
 21
316.364143
 31
0.0
  0
LINE
  8
0
 10
880.506383
 20
316.419763
 30
0.0
 11
880.479367
 21
316.473597
 31
0.0
  0
LINE
  8
0
 10
880.479367
 20
316.473597
 30
0.0
 11
880.506383
 21
316.419763
 31
0.0
  0
LINE
  8
0
 10
880.479367
 20
316.473597
 30
0.0
 11
880.444803
 21
316.523457
 31
0.0
  0
LINE
  8
0
 10
880.444803
 20
316.523457
 30
0.0
 11
880.479367
 21
316.473597
 31
0.0
  0
LINE
  8
0
 10
879.540962
 20
317.43127
 30
0.0
 11
880.404676
 21
316.567556
 31
0.0
  0
LINE
  8
0
 10
879.477594
 20
317.490665
 30
0.0
 11
879.540962
 21
317.43127
 31
0.0
  0
LINE
  8
0
 10
879.408664
 20
317.542512
 30
0.0
 11
879.477594
 21
317.490665
 31
0.0
  0
LINE
  8
0
 10
879.333774
 20
317.590584
 30
0.0
 11
879.408664
 21
317.542512
 31
0.0
  0
LINE
  8
0
 10
879.256898
 20
317.628923
 30
0.0
 11
879.333774
 21
317.590584
 31
0.0
  0
LINE
  8
0
 10
879.176446
 20
317.663487
 30
0.0
 11
879.256898
 21
317.628923
 31
0.0
  0
LINE
  8
0
 10
879.09381
 20
317.688318
 30
0.0
 11
879.176446
 21
317.663487
 31
0.0
  0
LINE
  8
0
 10
879.009385
 20
317.707587
 30
0.0
 11
879.09381
 21
317.688318
 31
0.0
  0
LINE
  8
0
 10
878.922974
 20
317.719108
 30
0.0
 11
879.009385
 21
317.707587
 31
0.0
  0
LINE
  8
0
 10
878.836761
 20
317.722883
 30
0.0
 11
878.922974
 21
317.719108
 31
0.0
  0
LINE
  8
0
 10
878.748364
 20
317.719108
 30
0.0
 11
878.836761
 21
317.722883
 31
0.0
  0
LINE
  8
0
 10
878.661953
 20
317.707587
 30
0.0
 11
878.748364
 21
317.719108
 31
0.0
  0
LINE
  8
0
 10
878.577528
 20
317.688318
 30
0.0
 11
878.661953
 21
317.707587
 31
0.0
  0
LINE
  8
0
 10
878.49509
 20
317.663487
 30
0.0
 11
878.577528
 21
317.688318
 31
0.0
  0
LINE
  8
0
 10
878.41444
 20
317.628923
 30
0.0
 11
878.49509
 21
317.663487
 31
0.0
  0
LINE
  8
0
 10
878.337762
 20
317.590584
 30
0.0
 11
878.41444
 21
317.628923
 31
0.0
  0
LINE
  8
0
 10
878.262873
 20
317.542512
 30
0.0
 11
878.337762
 21
317.590584
 31
0.0
  0
LINE
  8
0
 10
878.193744
 20
317.490665
 30
0.0
 11
878.262873
 21
317.542512
 31
0.0
  0
LINE
  8
0
 10
878.130376
 20
317.43127
 30
0.0
 11
878.193744
 21
317.490665
 31
0.0
  0
LINE
  8
0
 10
877.339764
 20
316.640459
 30
0.0
 11
878.130376
 21
317.43127
 31
0.0
  0
LINE
  8
0
 10
878.130376
 20
317.43127
 30
0.0
 11
877.339764
 21
316.640459
 31
0.0
  0
LINE
  8
0
 10
878.193744
 20
317.490665
 30
0.0
 11
878.130376
 21
317.43127
 31
0.0
  0
LINE
  8
0
 10
878.262873
 20
317.542512
 30
0.0
 11
878.193744
 21
317.490665
 31
0.0
  0
LINE
  8
0
 10
878.337762
 20
317.590584
 30
0.0
 11
878.262873
 21
317.542512
 31
0.0
  0
LINE
  8
0
 10
878.41444
 20
317.628923
 30
0.0
 11
878.337762
 21
317.590584
 31
0.0
  0
LINE
  8
0
 10
878.49509
 20
317.663487
 30
0.0
 11
878.41444
 21
317.628923
 31
0.0
  0
LINE
  8
0
 10
878.577528
 20
317.688318
 30
0.0
 11
878.49509
 21
317.663487
 31
0.0
  0
LINE
  8
0
 10
878.661953
 20
317.707587
 30
0.0
 11
878.577528
 21
317.688318
 31
0.0
  0
LINE
  8
0
 10
878.748364
 20
317.719108
 30
0.0
 11
878.661953
 21
317.707587
 31
0.0
  0
LINE
  8
0
 10
878.836761
 20
317.722883
 30
0.0
 11
878.748364
 21
317.719108
 31
0.0
  0
LINE
  8
0
 10
878.922974
 20
317.719108
 30
0.0
 11
878.836761
 21
317.722883
 31
0.0
  0
LINE
  8
0
 10
879.009385
 20
317.707587
 30
0.0
 11
878.922974
 21
317.719108
 31
0.0
  0
LINE
  8
0
 10
879.09381
 20
317.688318
 30
0.0
 11
879.009385
 21
317.707587
 31
0.0
  0
LINE
  8
0
 10
879.176446
 20
317.663487
 30
0.0
 11
879.09381
 21
317.688318
 31
0.0
  0
LINE
  8
0
 10
879.256898
 20
317.628923
 30
0.0
 11
879.176446
 21
317.663487
 31
0.0
  0
LINE
  8
0
 10
879.333774
 20
317.590584
 30
0.0
 11
879.256898
 21
317.628923
 31
0.0
  0
LINE
  8
0
 10
879.408664
 20
317.542512
 30
0.0
 11
879.333774
 21
317.590584
 31
0.0
  0
LINE
  8
0
 10
879.477594
 20
317.490665
 30
0.0
 11
879.408664
 21
317.542512
 31
0.0
  0
LINE
  8
0
 10
879.540962
 20
317.43127
 30
0.0
 11
879.477594
 21
317.490665
 31
0.0
  0
LINE
  8
0
 10
880.404676
 20
316.567556
 30
0.0
 11
879.540962
 21
317.43127
 31
0.0
  0
LINE
  8
0
 10
880.444803
 20
316.523457
 30
0.0
 11
880.404676
 21
316.567556
 31
0.0
  0
LINE
  8
0
 10
880.404676
 20
316.567556
 30
0.0
 11
880.444803
 21
316.523457
 31
0.0
  0
LINE
  8
0
 10
886.532316
 20
320.8164
 30
0.0
 11
886.401805
 21
320.812626
 31
0.0
  0
LINE
  8
0
 10
886.401805
 20
320.812626
 30
0.0
 11
886.532316
 21
320.8164
 31
0.0
  0
LINE
  8
0
 10
886.401805
 20
320.812626
 30
0.0
 11
886.271294
 21
320.803091
 31
0.0
  0
LINE
  8
0
 10
886.271294
 20
320.803091
 30
0.0
 11
886.401805
 21
320.812626
 31
0.0
  0
LINE
  8
0
 10
886.271294
 20
320.803091
 30
0.0
 11
886.142572
 21
320.785808
 31
0.0
  0
LINE
  8
0
 10
886.142572
 20
320.785808
 30
0.0
 11
886.271294
 21
320.803091
 31
0.0
  0
LINE
  8
0
 10
886.142572
 20
320.785808
 30
0.0
 11
886.014048
 21
320.760779
 31
0.0
  0
LINE
  8
0
 10
886.014048
 20
320.760779
 30
0.0
 11
886.142572
 21
320.785808
 31
0.0
  0
LINE
  8
0
 10
886.014048
 20
320.760779
 30
0.0
 11
885.887311
 21
320.730188
 31
0.0
  0
LINE
  8
0
 10
885.887311
 20
320.730188
 30
0.0
 11
886.014048
 21
320.760779
 31
0.0
  0
LINE
  8
0
 10
885.887311
 20
320.730188
 30
0.0
 11
885.760774
 21
320.693637
 31
0.0
  0
LINE
  8
0
 10
885.760774
 20
320.693637
 30
0.0
 11
885.887311
 21
320.730188
 31
0.0
  0
LINE
  8
0
 10
885.760774
 20
320.693637
 30
0.0
 11
885.63801
 21
320.649537
 31
0.0
  0
LINE
  8
0
 10
885.63801
 20
320.649537
 30
0.0
 11
885.760774
 21
320.693637
 31
0.0
  0
LINE
  8
0
 10
885.63801
 20
320.649537
 30
0.0
 11
885.517035
 21
320.599677
 31
0.0
  0
LINE
  8
0
 10
885.517035
 20
320.599677
 30
0.0
 11
885.63801
 21
320.649537
 31
0.0
  0
LINE
  8
0
 10
885.517035
 20
320.599677
 30
0.0
 11
885.400032
 21
320.544056
 31
0.0
  0
LINE
  8
0
 10
885.400032
 20
320.544056
 30
0.0
 11
885.517035
 21
320.599677
 31
0.0
  0
LINE
  8
0
 10
885.400032
 20
320.544056
 30
0.0
 11
885.284817
 21
320.482476
 31
0.0
  0
LINE
  8
0
 10
885.284817
 20
320.482476
 30
0.0
 11
885.400032
 21
320.544056
 31
0.0
  0
LINE
  8
0
 10
885.284817
 20
320.482476
 30
0.0
 11
885.173575
 21
320.413545
 31
0.0
  0
LINE
  8
0
 10
885.173575
 20
320.413545
 30
0.0
 11
885.284817
 21
320.482476
 31
0.0
  0
LINE
  8
0
 10
885.173575
 20
320.413545
 30
0.0
 11
885.066108
 21
320.338656
 31
0.0
  0
LINE
  8
0
 10
885.066108
 20
320.338656
 30
0.0
 11
885.173575
 21
320.413545
 31
0.0
  0
LINE
  8
0
 10
885.066108
 20
320.338656
 30
0.0
 11
884.962415
 21
320.259992
 31
0.0
  0
LINE
  8
0
 10
884.962415
 20
320.259992
 30
0.0
 11
885.066108
 21
320.338656
 31
0.0
  0
LINE
  8
0
 10
884.962415
 20
320.259992
 30
0.0
 11
884.862694
 21
320.175567
 31
0.0
  0
LINE
  8
0
 10
884.862694
 20
320.175567
 30
0.0
 11
884.962415
 21
320.259992
 31
0.0
  0
LINE
  8
0
 10
884.862694
 20
320.175567
 30
0.0
 11
884.768536
 21
320.085382
 31
0.0
  0
LINE
  8
0
 10
884.768536
 20
320.085382
 30
0.0
 11
884.862694
 21
320.175567
 31
0.0
  0
LINE
  8
0
 10
884.862694
 20
323.566704
 30
0.0
 11
884.768536
 21
323.644625
 31
0.0
  0
LINE
  8
0
 10
884.962415
 20
323.486087
 30
0.0
 11
884.862694
 21
323.566704
 31
0.0
  0
LINE
  8
0
 10
885.066108
 20
323.40901
 30
0.0
 11
884.962415
 21
323.486087
 31
0.0
  0
LINE
  8
0
 10
885.173575
 20
323.33576
 30
0.0
 11
885.066108
 21
323.40901
 31
0.0
  0
LINE
  8
0
 10
885.284817
 20
323.266475
 30
0.0
 11
885.173575
 21
323.33576
 31
0.0
  0
LINE
  8
0
 10
885.400032
 20
323.201204
 30
0.0
 11
885.284817
 21
323.266475
 31
0.0
  0
LINE
  8
0
 10
885.517035
 20
323.141216
 30
0.0
 11
885.400032
 21
323.201204
 31
0.0
  0
LINE
  8
0
 10
885.63801
 20
323.085447
 30
0.0
 11
885.517035
 21
323.141216
 31
0.0
  0
LINE
  8
0
 10
885.760774
 20
323.034989
 30
0.0
 11
885.63801
 21
323.085447
 31
0.0
  0
LINE
  8
0
 10
885.887311
 20
322.98912
 30
0.0
 11
885.760774
 21
323.034989
 31
0.0
  0
LINE
  8
0
 10
886.014048
 20
322.949148
 30
0.0
 11
885.887311
 21
322.98912
 31
0.0
  0
LINE
  8
0
 10
886.142572
 20
322.914474
 30
0.0
 11
886.014048
 21
322.949148
 31
0.0
  0
LINE
  8
0
 10
886.271294
 20
322.885465
 30
0.0
 11
886.142572
 21
322.914474
 31
0.0
  0
LINE
  8
0
 10
886.401805
 20
322.854423
 30
0.0
 11
886.271294
 21
322.885465
 31
0.0
  0
LINE
  8
0
 10
886.532316
 20
322.821827
 30
0.0
 11
886.401805
 21
322.854423
 31
0.0
  0
LINE
  8
0
 10
886.401805
 20
322.854423
 30
0.0
 11
886.532316
 21
322.821827
 31
0.0
  0
LINE
  8
0
 10
886.271294
 20
322.885465
 30
0.0
 11
886.401805
 21
322.854423
 31
0.0
  0
LINE
  8
0
 10
886.142572
 20
322.914474
 30
0.0
 11
886.271294
 21
322.885465
 31
0.0
  0
LINE
  8
0
 10
886.014048
 20
322.949148
 30
0.0
 11
886.142572
 21
322.914474
 31
0.0
  0
LINE
  8
0
 10
885.887311
 20
322.98912
 30
0.0
 11
886.014048
 21
322.949148
 31
0.0
  0
LINE
  8
0
 10
885.760774
 20
323.034989
 30
0.0
 11
885.887311
 21
322.98912
 31
0.0
  0
LINE
  8
0
 10
885.63801
 20
323.085447
 30
0.0
 11
885.760774
 21
323.034989
 31
0.0
  0
LINE
  8
0
 10
885.517035
 20
323.141216
 30
0.0
 11
885.63801
 21
323.085447
 31
0.0
  0
LINE
  8
0
 10
885.400032
 20
323.201204
 30
0.0
 11
885.517035
 21
323.141216
 31
0.0
  0
LINE
  8
0
 10
885.284817
 20
323.266475
 30
0.0
 11
885.400032
 21
323.201204
 31
0.0
  0
LINE
  8
0
 10
885.173575
 20
323.33576
 30
0.0
 11
885.284817
 21
323.266475
 31
0.0
  0
LINE
  8
0
 10
885.066108
 20
323.40901
 30
0.0
 11
885.173575
 21
323.33576
 31
0.0
  0
LINE
  8
0
 10
884.962415
 20
323.486087
 30
0.0
 11
885.066108
 21
323.40901
 31
0.0
  0
LINE
  8
0
 10
884.862694
 20
323.566704
 30
0.0
 11
884.962415
 21
323.486087
 31
0.0
  0
LINE
  8
0
 10
884.768536
 20
323.644625
 30
0.0
 11
884.862694
 21
323.566704
 31
0.0
  0
LINE
  8
0
 10
880.404676
 20
327.162252
 30
0.0
 11
880.444803
 21
327.206351
 31
0.0
  0
LINE
  8
0
 10
880.444803
 20
327.206351
 30
0.0
 11
880.404676
 21
327.162252
 31
0.0
  0
LINE
  8
0
 10
880.444803
 20
327.206351
 30
0.0
 11
880.479367
 21
327.256211
 31
0.0
  0
LINE
  8
0
 10
880.479367
 20
327.256211
 30
0.0
 11
880.444803
 21
327.206351
 31
0.0
  0
LINE
  8
0
 10
880.479367
 20
327.256211
 30
0.0
 11
880.506383
 21
327.310044
 31
0.0
  0
LINE
  8
0
 10
880.506383
 20
327.310044
 30
0.0
 11
880.479367
 21
327.256211
 31
0.0
  0
LINE
  8
0
 10
880.506383
 20
327.310044
 30
0.0
 11
880.527439
 21
327.365665
 31
0.0
  0
LINE
  8
0
 10
880.527439
 20
327.365665
 30
0.0
 11
880.506383
 21
327.310044
 31
0.0
  0
LINE
  8
0
 10
880.527439
 20
327.365665
 30
0.0
 11
880.542735
 21
327.425259
 31
0.0
  0
LINE
  8
0
 10
880.542735
 20
327.425259
 30
0.0
 11
880.527439
 21
327.365665
 31
0.0
  0
LINE
  8
0
 10
880.542735
 20
327.425259
 30
0.0
 11
880.550482
 21
327.484654
 31
0.0
  0
LINE
  8
0
 10
880.550482
 20
327.484654
 30
0.0
 11
880.542735
 21
327.425259
 31
0.0
  0
LINE
  8
0
 10
880.550482
 20
327.484654
 30
0.0
 11
880.550482
 21
327.544248
 31
0.0
  0
LINE
  8
0
 10
880.550482
 20
327.544248
 30
0.0
 11
880.550482
 21
327.484654
 31
0.0
  0
LINE
  8
0
 10
880.550482
 20
327.544248
 30
0.0
 11
880.542735
 21
327.603644
 31
0.0
  0
LINE
  8
0
 10
880.542735
 20
327.603644
 30
0.0
 11
880.550482
 21
327.544248
 31
0.0
  0
LINE
  8
0
 10
880.542735
 20
327.603644
 30
0.0
 11
880.527439
 21
327.663039
 31
0.0
  0
LINE
  8
0
 10
880.527439
 20
327.663039
 30
0.0
 11
880.542735
 21
327.603644
 31
0.0
  0
LINE
  8
0
 10
880.527439
 20
327.663039
 30
0.0
 11
880.506383
 21
327.718858
 31
0.0
  0
LINE
  8
0
 10
880.506383
 20
327.718858
 30
0.0
 11
880.527439
 21
327.663039
 31
0.0
  0
LINE
  8
0
 10
880.506383
 20
327.718858
 30
0.0
 11
880.479367
 21
327.772493
 31
0.0
  0
LINE
  8
0
 10
880.479367
 20
327.772493
 30
0.0
 11
880.506383
 21
327.718858
 31
0.0
  0
LINE
  8
0
 10
880.479367
 20
327.772493
 30
0.0
 11
880.444803
 21
327.822353
 31
0.0
  0
LINE
  8
0
 10
880.444803
 20
327.822353
 30
0.0
 11
880.479367
 21
327.772493
 31
0.0
  0
LINE
  8
0
 10
880.444803
 20
327.822353
 30
0.0
 11
880.404676
 21
327.866651
 31
0.0
  0
LINE
  8
0
 10
880.404676
 20
327.866651
 30
0.0
 11
880.444803
 21
327.822353
 31
0.0
  0
LINE
  8
0
 10
880.35859
 20
327.906778
 30
0.0
 11
880.404676
 21
327.866651
 31
0.0
  0
LINE
  8
0
 10
880.310518
 20
327.941342
 30
0.0
 11
880.35859
 21
327.906778
 31
0.0
  0
LINE
  8
0
 10
880.256883
 20
327.970146
 30
0.0
 11
880.310518
 21
327.941342
 31
0.0
  0
LINE
  8
0
 10
880.199276
 20
327.991202
 30
0.0
 11
880.256883
 21
327.970146
 31
0.0
  0
LINE
  8
0
 10
880.141668
 20
328.00471
 30
0.0
 11
880.199276
 21
327.991202
 31
0.0
  0
LINE
  8
0
 10
880.082273
 20
328.012457
 30
0.0
 11
880.141668
 21
328.00471
 31
0.0
  0
LINE
  8
0
 10
880.020693
 20
328.012457
 30
0.0
 11
880.082273
 21
328.012457
 31
0.0
  0
LINE
  8
0
 10
879.961298
 20
328.00471
 30
0.0
 11
880.020693
 21
328.012457
 31
0.0
  0
LINE
  8
0
 10
879.90369
 20
327.991202
 30
0.0
 11
879.961298
 21
328.00471
 31
0.0
  0
LINE
  8
0
 10
879.846083
 20
327.970146
 30
0.0
 11
879.90369
 21
327.991202
 31
0.0
  0
LINE
  8
0
 10
879.794236
 20
327.941342
 30
0.0
 11
879.846083
 21
327.970146
 31
0.0
  0
LINE
  8
0
 10
879.744376
 20
327.906778
 30
0.0
 11
879.794236
 21
327.941342
 31
0.0
  0
LINE
  8
0
 10
879.69829
 20
327.866651
 30
0.0
 11
879.744376
 21
327.906778
 31
0.0
  0
LINE
  8
0
 10
879.744376
 20
327.906778
 30
0.0
 11
879.69829
 21
327.866651
 31
0.0
  0
LINE
  8
0
 10
879.794236
 20
327.941342
 30
0.0
 11
879.744376
 21
327.906778
 31
0.0
  0
LINE
  8
0
 10
879.846083
 20
327.970146
 30
0.0
 11
879.794236
 21
327.941342
 31
0.0
  0
LINE
  8
0
 10
879.90369
 20
327.991202
 30
0.0
 11
879.846083
 21
327.970146
 31
0.0
  0
LINE
  8
0
 10
879.961298
 20
328.00471
 30
0.0
 11
879.90369
 21
327.991202
 31
0.0
  0
LINE
  8
0
 10
880.020693
 20
328.012457
 30
0.0
 11
879.961298
 21
328.00471
 31
0.0
  0
LINE
  8
0
 10
880.082273
 20
328.012457
 30
0.0
 11
880.020693
 21
328.012457
 31
0.0
  0
LINE
  8
0
 10
880.141668
 20
328.00471
 30
0.0
 11
880.082273
 21
328.012457
 31
0.0
  0
LINE
  8
0
 10
880.199276
 20
327.991202
 30
0.0
 11
880.141668
 21
328.00471
 31
0.0
  0
LINE
  8
0
 10
880.256883
 20
327.970146
 30
0.0
 11
880.199276
 21
327.991202
 31
0.0
  0
LINE
  8
0
 10
880.310518
 20
327.941342
 30
0.0
 11
880.256883
 21
327.970146
 31
0.0
  0
LINE
  8
0
 10
880.35859
 20
327.906778
 30
0.0
 11
880.310518
 21
327.941342
 31
0.0
  0
LINE
  8
0
 10
880.404676
 20
327.866651
 30
0.0
 11
880.35859
 21
327.906778
 31
0.0
  0
LINE
  8
0
 10
881.623172
 20
328.906763
 30
0.0
 11
881.558016
 21
328.966158
 31
0.0
  0
LINE
  8
0
 10
881.558016
 20
328.966158
 30
0.0
 11
881.623172
 21
328.906763
 31
0.0
  0
LINE
  8
0
 10
881.558016
 20
328.966158
 30
0.0
 11
881.488887
 21
329.018005
 31
0.0
  0
LINE
  8
0
 10
881.488887
 20
329.018005
 30
0.0
 11
881.558016
 21
328.966158
 31
0.0
  0
LINE
  8
0
 10
881.488887
 20
329.018005
 30
0.0
 11
881.415984
 21
329.066077
 31
0.0
  0
LINE
  8
0
 10
881.415984
 20
329.066077
 30
0.0
 11
881.488887
 21
329.018005
 31
0.0
  0
LINE
  8
0
 10
881.415984
 20
329.066077
 30
0.0
 11
881.339108
 21
329.106203
 31
0.0
  0
LINE
  8
0
 10
881.339108
 20
329.106203
 30
0.0
 11
881.415984
 21
329.066077
 31
0.0
  0
LINE
  8
0
 10
881.339108
 20
329.106203
 30
0.0
 11
881.258656
 21
329.13898
 31
0.0
  0
LINE
  8
0
 10
881.258656
 20
329.13898
 30
0.0
 11
881.339108
 21
329.106203
 31
0.0
  0
LINE
  8
0
 10
881.258656
 20
329.13898
 30
0.0
 11
881.174231
 21
329.165797
 31
0.0
  0
LINE
  8
0
 10
881.174231
 20
329.165797
 30
0.0
 11
881.258656
 21
329.13898
 31
0.0
  0
LINE
  8
0
 10
881.174231
 20
329.165797
 30
0.0
 11
881.089608
 21
329.18308
 31
0.0
  0
LINE
  8
0
 10
881.089608
 20
329.18308
 30
0.0
 11
881.174231
 21
329.165797
 31
0.0
  0
LINE
  8
0
 10
881.089608
 20
329.18308
 30
0.0
 11
881.003396
 21
329.194601
 31
0.0
  0
LINE
  8
0
 10
881.003396
 20
329.194601
 30
0.0
 11
881.089608
 21
329.18308
 31
0.0
  0
LINE
  8
0
 10
881.003396
 20
329.194601
 30
0.0
 11
880.916985
 21
329.198375
 31
0.0
  0
LINE
  8
0
 10
880.916985
 20
329.198375
 30
0.0
 11
881.003396
 21
329.194601
 31
0.0
  0
LINE
  8
0
 10
878.337762
 20
329.198375
 30
0.0
 11
878.249365
 21
329.194601
 31
0.0
  0
LINE
  8
0
 10
878.249365
 20
329.194601
 30
0.0
 11
878.337762
 21
329.198375
 31
0.0
  0
LINE
  8
0
 10
878.249365
 20
329.194601
 30
0.0
 11
878.163152
 21
329.18308
 31
0.0
  0
LINE
  8
0
 10
878.163152
 20
329.18308
 30
0.0
 11
878.249365
 21
329.194601
 31
0.0
  0
LINE
  8
0
 10
878.163152
 20
329.18308
 30
0.0
 11
878.078728
 21
329.165797
 31
0.0
  0
LINE
  8
0
 10
878.078728
 20
329.165797
 30
0.0
 11
878.163152
 21
329.18308
 31
0.0
  0
LINE
  8
0
 10
878.078728
 20
329.165797
 30
0.0
 11
877.996091
 21
329.13898
 31
0.0
  0
LINE
  8
0
 10
877.996091
 20
329.13898
 30
0.0
 11
878.078728
 21
329.165797
 31
0.0
  0
LINE
  8
0
 10
877.996091
 20
329.13898
 30
0.0
 11
877.91544
 21
329.106203
 31
0.0
  0
LINE
  8
0
 10
877.91544
 20
329.106203
 30
0.0
 11
877.996091
 21
329.13898
 31
0.0
  0
LINE
  8
0
 10
877.91544
 20
329.106203
 30
0.0
 11
877.838763
 21
329.066077
 31
0.0
  0
LINE
  8
0
 10
877.838763
 20
329.066077
 30
0.0
 11
877.91544
 21
329.106203
 31
0.0
  0
LINE
  8
0
 10
877.838763
 20
329.066077
 30
0.0
 11
877.763873
 21
329.018005
 31
0.0
  0
LINE
  8
0
 10
877.763873
 20
329.018005
 30
0.0
 11
877.838763
 21
329.066077
 31
0.0
  0
LINE
  8
0
 10
877.763873
 20
329.018005
 30
0.0
 11
877.694744
 21
328.966158
 31
0.0
  0
LINE
  8
0
 10
877.694744
 20
328.966158
 30
0.0
 11
877.763873
 21
329.018005
 31
0.0
  0
LINE
  8
0
 10
877.694744
 20
328.966158
 30
0.0
 11
877.631575
 21
328.906763
 31
0.0
  0
LINE
  8
0
 10
877.631575
 20
328.906763
 30
0.0
 11
877.694744
 21
328.966158
 31
0.0
  0
LINE
  8
0
 10
877.631575
 20
328.906763
 30
0.0
 11
877.571981
 21
328.843394
 31
0.0
  0
LINE
  8
0
 10
877.571981
 20
328.843394
 30
0.0
 11
877.631575
 21
328.906763
 31
0.0
  0
LINE
  8
0
 10
877.571981
 20
328.843394
 30
0.0
 11
877.520134
 21
328.774266
 31
0.0
  0
LINE
  8
0
 10
877.520134
 20
328.774266
 30
0.0
 11
877.571981
 21
328.843394
 31
0.0
  0
LINE
  8
0
 10
877.520134
 20
328.774266
 30
0.0
 11
877.472261
 21
328.699376
 31
0.0
  0
LINE
  8
0
 10
877.472261
 20
328.699376
 30
0.0
 11
877.520134
 21
328.774266
 31
0.0
  0
LINE
  8
0
 10
877.472261
 20
328.699376
 30
0.0
 11
877.431935
 21
328.622699
 31
0.0
  0
LINE
  8
0
 10
877.431935
 20
328.622699
 30
0.0
 11
877.472261
 21
328.699376
 31
0.0
  0
LINE
  8
0
 10
877.431935
 20
328.622699
 30
0.0
 11
877.399358
 21
328.542048
 31
0.0
  0
LINE
  8
0
 10
877.399358
 20
328.542048
 30
0.0
 11
877.431935
 21
328.622699
 31
0.0
  0
LINE
  8
0
 10
877.399358
 20
328.542048
 30
0.0
 11
877.372342
 21
328.45961
 31
0.0
  0
LINE
  8
0
 10
877.372342
 20
328.45961
 30
0.0
 11
877.399358
 21
328.542048
 31
0.0
  0
LINE
  8
0
 10
877.372342
 20
328.45961
 30
0.0
 11
877.355059
 21
328.375185
 31
0.0
  0
LINE
  8
0
 10
877.355059
 20
328.375185
 30
0.0
 11
877.372342
 21
328.45961
 31
0.0
  0
LINE
  8
0
 10
877.355059
 20
328.375185
 30
0.0
 11
877.343538
 21
328.288774
 31
0.0
  0
LINE
  8
0
 10
877.343538
 20
328.288774
 30
0.0
 11
877.355059
 21
328.375185
 31
0.0
  0
LINE
  8
0
 10
877.343538
 20
328.288774
 30
0.0
 11
877.339764
 21
328.200575
 31
0.0
  0
LINE
  8
0
 10
877.339764
 20
328.200575
 30
0.0
 11
877.343538
 21
328.288774
 31
0.0
  0
LINE
  8
0
 10
878.130376
 20
326.298737
 30
0.0
 11
878.193744
 21
326.239143
 31
0.0
  0
LINE
  8
0
 10
878.193744
 20
326.239143
 30
0.0
 11
878.130376
 21
326.298737
 31
0.0
  0
LINE
  8
0
 10
878.193744
 20
326.239143
 30
0.0
 11
878.262873
 21
326.187296
 31
0.0
  0
LINE
  8
0
 10
878.262873
 20
326.187296
 30
0.0
 11
878.193744
 21
326.239143
 31
0.0
  0
LINE
  8
0
 10
878.262873
 20
326.187296
 30
0.0
 11
878.337762
 21
326.139422
 31
0.0
  0
LINE
  8
0
 10
878.337762
 20
326.139422
 30
0.0
 11
878.262873
 21
326.187296
 31
0.0
  0
LINE
  8
0
 10
878.337762
 20
326.139422
 30
0.0
 11
878.41444
 21
326.101084
 31
0.0
  0
LINE
  8
0
 10
878.41444
 20
326.101084
 30
0.0
 11
878.337762
 21
326.139422
 31
0.0
  0
LINE
  8
0
 10
878.41444
 20
326.101084
 30
0.0
 11
878.49509
 21
326.066519
 31
0.0
  0
LINE
  8
0
 10
878.49509
 20
326.066519
 30
0.0
 11
878.41444
 21
326.101084
 31
0.0
  0
LINE
  8
0
 10
878.49509
 20
326.066519
 30
0.0
 11
878.577528
 21
326.04149
 31
0.0
  0
LINE
  8
0
 10
878.577528
 20
326.04149
 30
0.0
 11
878.49509
 21
326.066519
 31
0.0
  0
LINE
  8
0
 10
878.577528
 20
326.04149
 30
0.0
 11
878.661953
 21
326.02242
 31
0.0
  0
LINE
  8
0
 10
878.661953
 20
326.02242
 30
0.0
 11
878.577528
 21
326.04149
 31
0.0
  0
LINE
  8
0
 10
878.661953
 20
326.02242
 30
0.0
 11
878.748364
 21
326.010898
 31
0.0
  0
LINE
  8
0
 10
878.748364
 20
326.010898
 30
0.0
 11
878.661953
 21
326.02242
 31
0.0
  0
LINE
  8
0
 10
878.748364
 20
326.010898
 30
0.0
 11
878.836761
 21
326.006925
 31
0.0
  0
LINE
  8
0
 10
878.836761
 20
326.006925
 30
0.0
 11
878.748364
 21
326.010898
 31
0.0
  0
LINE
  8
0
 10
878.836761
 20
326.006925
 30
0.0
 11
878.922974
 21
326.010898
 31
0.0
  0
LINE
  8
0
 10
878.922974
 20
326.010898
 30
0.0
 11
878.836761
 21
326.006925
 31
0.0
  0
LINE
  8
0
 10
878.922974
 20
326.010898
 30
0.0
 11
879.009385
 21
326.02242
 31
0.0
  0
LINE
  8
0
 10
879.009385
 20
326.02242
 30
0.0
 11
878.922974
 21
326.010898
 31
0.0
  0
LINE
  8
0
 10
879.009385
 20
326.02242
 30
0.0
 11
879.09381
 21
326.04149
 31
0.0
  0
LINE
  8
0
 10
879.09381
 20
326.04149
 30
0.0
 11
879.009385
 21
326.02242
 31
0.0
  0
LINE
  8
0
 10
879.09381
 20
326.04149
 30
0.0
 11
879.176446
 21
326.066519
 31
0.0
  0
LINE
  8
0
 10
879.176446
 20
326.066519
 30
0.0
 11
879.09381
 21
326.04149
 31
0.0
  0
LINE
  8
0
 10
879.176446
 20
326.066519
 30
0.0
 11
879.256898
 21
326.101084
 31
0.0
  0
LINE
  8
0
 10
879.256898
 20
326.101084
 30
0.0
 11
879.176446
 21
326.066519
 31
0.0
  0
LINE
  8
0
 10
879.256898
 20
326.101084
 30
0.0
 11
879.333774
 21
326.139422
 31
0.0
  0
LINE
  8
0
 10
879.333774
 20
326.139422
 30
0.0
 11
879.256898
 21
326.101084
 31
0.0
  0
LINE
  8
0
 10
879.333774
 20
326.139422
 30
0.0
 11
879.408664
 21
326.187296
 31
0.0
  0
LINE
  8
0
 10
879.408664
 20
326.187296
 30
0.0
 11
879.333774
 21
326.139422
 31
0.0
  0
LINE
  8
0
 10
879.408664
 20
326.187296
 30
0.0
 11
879.477594
 21
326.239143
 31
0.0
  0
LINE
  8
0
 10
879.477594
 20
326.239143
 30
0.0
 11
879.408664
 21
326.187296
 31
0.0
  0
LINE
  8
0
 10
879.477594
 20
326.239143
 30
0.0
 11
879.540962
 21
326.298737
 31
0.0
  0
LINE
  8
0
 10
879.540962
 20
326.298737
 30
0.0
 11
879.477594
 21
326.239143
 31
0.0
  0
LINE
  8
0
 10
920.450162
 20
324.21325
 30
0.0
 11
920.528826
 21
324.172925
 31
0.0
  0
LINE
  8
0
 10
920.369512
 20
324.247815
 30
0.0
 11
920.450162
 21
324.21325
 31
0.0
  0
LINE
  8
0
 10
920.287074
 20
324.272645
 30
0.0
 11
920.369512
 21
324.247815
 31
0.0
  0
LINE
  8
0
 10
920.202649
 20
324.291914
 30
0.0
 11
920.287074
 21
324.272645
 31
0.0
  0
LINE
  8
0
 10
920.116238
 20
324.303436
 30
0.0
 11
920.202649
 21
324.291914
 31
0.0
  0
LINE
  8
0
 10
920.029827
 20
324.30721
 30
0.0
 11
920.116238
 21
324.303436
 31
0.0
  0
LINE
  8
0
 10
920.116238
 20
324.303436
 30
0.0
 11
920.029827
 21
324.30721
 31
0.0
  0
LINE
  8
0
 10
920.202649
 20
324.291914
 30
0.0
 11
920.116238
 21
324.303436
 31
0.0
  0
LINE
  8
0
 10
920.287074
 20
324.272645
 30
0.0
 11
920.202649
 21
324.291914
 31
0.0
  0
LINE
  8
0
 10
920.369512
 20
324.247815
 30
0.0
 11
920.287074
 21
324.272645
 31
0.0
  0
LINE
  8
0
 10
920.450162
 20
324.21325
 30
0.0
 11
920.369512
 21
324.247815
 31
0.0
  0
LINE
  8
0
 10
920.528826
 20
324.172925
 30
0.0
 11
920.450162
 21
324.21325
 31
0.0
  0
LINE
  8
0
 10
920.116238
 20
319.323375
 30
0.0
 11
920.029827
 21
319.319601
 31
0.0
  0
LINE
  8
0
 10
920.202649
 20
319.334897
 30
0.0
 11
920.116238
 21
319.323375
 31
0.0
  0
LINE
  8
0
 10
920.287074
 20
319.354165
 30
0.0
 11
920.202649
 21
319.334897
 31
0.0
  0
LINE
  8
0
 10
920.369512
 20
319.378996
 30
0.0
 11
920.287074
 21
319.354165
 31
0.0
  0
LINE
  8
0
 10
920.450162
 20
319.41356
 30
0.0
 11
920.369512
 21
319.378996
 31
0.0
  0
LINE
  8
0
 10
920.528826
 20
319.453886
 30
0.0
 11
920.450162
 21
319.41356
 31
0.0
  0
LINE
  8
0
 10
920.450162
 20
319.41356
 30
0.0
 11
920.528826
 21
319.453886
 31
0.0
  0
LINE
  8
0
 10
920.369512
 20
319.378996
 30
0.0
 11
920.450162
 21
319.41356
 31
0.0
  0
LINE
  8
0
 10
920.287074
 20
319.354165
 30
0.0
 11
920.369512
 21
319.378996
 31
0.0
  0
LINE
  8
0
 10
920.202649
 20
319.334897
 30
0.0
 11
920.287074
 21
319.354165
 31
0.0
  0
LINE
  8
0
 10
920.116238
 20
319.323375
 30
0.0
 11
920.202649
 21
319.334897
 31
0.0
  0
LINE
  8
0
 10
920.029827
 20
319.319601
 30
0.0
 11
920.116238
 21
319.323375
 31
0.0
  0
LINE
  8
0
 10
887.152092
 20
319.319601
 30
0.0
 11
887.021581
 21
319.315827
 31
0.0
  0
LINE
  8
0
 10
887.021581
 20
319.315827
 30
0.0
 11
887.152092
 21
319.319601
 31
0.0
  0
LINE
  8
0
 10
887.021581
 20
319.315827
 30
0.0
 11
886.891071
 21
319.306093
 31
0.0
  0
LINE
  8
0
 10
886.891071
 20
319.306093
 30
0.0
 11
887.021581
 21
319.315827
 31
0.0
  0
LINE
  8
0
 10
886.891071
 20
319.306093
 30
0.0
 11
886.762546
 21
319.288811
 31
0.0
  0
LINE
  8
0
 10
886.762546
 20
319.288811
 30
0.0
 11
886.891071
 21
319.306093
 31
0.0
  0
LINE
  8
0
 10
886.762546
 20
319.288811
 30
0.0
 11
886.634022
 21
319.265768
 31
0.0
  0
LINE
  8
0
 10
886.634022
 20
319.265768
 30
0.0
 11
886.762546
 21
319.288811
 31
0.0
  0
LINE
  8
0
 10
886.634022
 20
319.265768
 30
0.0
 11
886.507286
 21
319.235176
 31
0.0
  0
LINE
  8
0
 10
886.507286
 20
319.235176
 30
0.0
 11
886.634022
 21
319.265768
 31
0.0
  0
LINE
  8
0
 10
886.507286
 20
319.235176
 30
0.0
 11
886.38055
 21
319.196837
 31
0.0
  0
LINE
  8
0
 10
886.38055
 20
319.196837
 30
0.0
 11
886.507286
 21
319.235176
 31
0.0
  0
LINE
  8
0
 10
886.38055
 20
319.196837
 30
0.0
 11
886.257786
 21
319.154526
 31
0.0
  0
LINE
  8
0
 10
886.257786
 20
319.154526
 30
0.0
 11
886.38055
 21
319.196837
 31
0.0
  0
LINE
  8
0
 10
886.257786
 20
319.154526
 30
0.0
 11
886.136811
 21
319.104666
 31
0.0
  0
LINE
  8
0
 10
886.136811
 20
319.104666
 30
0.0
 11
886.257786
 21
319.154526
 31
0.0
  0
LINE
  8
0
 10
886.136811
 20
319.104666
 30
0.0
 11
886.019808
 21
319.047058
 31
0.0
  0
LINE
  8
0
 10
886.019808
 20
319.047058
 30
0.0
 11
886.136811
 21
319.104666
 31
0.0
  0
LINE
  8
0
 10
886.019808
 20
319.047058
 30
0.0
 11
885.904594
 21
318.985677
 31
0.0
  0
LINE
  8
0
 10
885.904594
 20
318.985677
 30
0.0
 11
886.019808
 21
319.047058
 31
0.0
  0
LINE
  8
0
 10
885.904594
 20
318.985677
 30
0.0
 11
885.793352
 21
318.916548
 31
0.0
  0
LINE
  8
0
 10
885.793352
 20
318.916548
 30
0.0
 11
885.904594
 21
318.985677
 31
0.0
  0
LINE
  8
0
 10
885.793352
 20
318.916548
 30
0.0
 11
885.685884
 21
318.843644
 31
0.0
  0
LINE
  8
0
 10
885.685884
 20
318.843644
 30
0.0
 11
885.793352
 21
318.916548
 31
0.0
  0
LINE
  8
0
 10
885.685884
 20
318.843644
 30
0.0
 11
885.582191
 21
318.762994
 31
0.0
  0
LINE
  8
0
 10
885.582191
 20
318.762994
 30
0.0
 11
885.685884
 21
318.843644
 31
0.0
  0
LINE
  8
0
 10
885.582191
 20
318.762994
 30
0.0
 11
885.48247
 21
318.678569
 31
0.0
  0
LINE
  8
0
 10
885.48247
 20
318.678569
 30
0.0
 11
885.582191
 21
318.762994
 31
0.0
  0
LINE
  8
0
 10
885.48247
 20
318.678569
 30
0.0
 11
885.388511
 21
318.588384
 31
0.0
  0
LINE
  8
0
 10
885.388511
 20
318.588384
 30
0.0
 11
885.48247
 21
318.678569
 31
0.0
  0
LINE
  8
0
 10
881.558016
 20
314.76365
 30
0.0
 11
881.623172
 21
314.823244
 31
0.0
  0
LINE
  8
0
 10
881.488887
 20
314.711803
 30
0.0
 11
881.558016
 21
314.76365
 31
0.0
  0
LINE
  8
0
 10
881.415984
 20
314.66393
 30
0.0
 11
881.488887
 21
314.711803
 31
0.0
  0
LINE
  8
0
 10
881.339108
 20
314.623604
 30
0.0
 11
881.415984
 21
314.66393
 31
0.0
  0
LINE
  8
0
 10
881.258656
 20
314.591026
 30
0.0
 11
881.339108
 21
314.623604
 31
0.0
  0
LINE
  8
0
 10
881.174231
 20
314.564011
 30
0.0
 11
881.258656
 21
314.591026
 31
0.0
  0
LINE
  8
0
 10
881.089608
 20
314.546728
 30
0.0
 11
881.174231
 21
314.564011
 31
0.0
  0
LINE
  8
0
 10
881.003396
 20
314.535207
 30
0.0
 11
881.089608
 21
314.546728
 31
0.0
  0
LINE
  8
0
 10
881.003396
 20
314.535207
 30
0.0
 11
880.916985
 21
314.531433
 31
0.0
  0
LINE
  8
0
 10
881.558016
 20
314.76365
 30
0.0
 11
881.623172
 21
314.823244
 31
0.0
  0
LINE
  8
0
 10
881.488887
 20
314.711803
 30
0.0
 11
881.558016
 21
314.76365
 31
0.0
  0
LINE
  8
0
 10
881.415984
 20
314.66393
 30
0.0
 11
881.488887
 21
314.711803
 31
0.0
  0
LINE
  8
0
 10
881.339108
 20
314.623604
 30
0.0
 11
881.415984
 21
314.66393
 31
0.0
  0
LINE
  8
0
 10
881.258656
 20
314.591026
 30
0.0
 11
881.339108
 21
314.623604
 31
0.0
  0
LINE
  8
0
 10
881.174231
 20
314.564011
 30
0.0
 11
881.258656
 21
314.591026
 31
0.0
  0
LINE
  8
0
 10
881.089608
 20
314.546728
 30
0.0
 11
881.174231
 21
314.564011
 31
0.0
  0
LINE
  8
0
 10
881.003396
 20
314.535207
 30
0.0
 11
881.089608
 21
314.546728
 31
0.0
  0
LINE
  8
0
 10
880.916985
 20
314.531433
 30
0.0
 11
881.003396
 21
314.535207
 31
0.0
  0
LINE
  8
0
 10
878.249365
 20
314.535207
 30
0.0
 11
878.337762
 21
314.531433
 31
0.0
  0
LINE
  8
0
 10
878.163152
 20
314.546728
 30
0.0
 11
878.249365
 21
314.535207
 31
0.0
  0
LINE
  8
0
 10
878.078728
 20
314.564011
 30
0.0
 11
878.163152
 21
314.546728
 31
0.0
  0
LINE
  8
0
 10
877.996091
 20
314.591026
 30
0.0
 11
878.078728
 21
314.564011
 31
0.0
  0
LINE
  8
0
 10
877.91544
 20
314.623604
 30
0.0
 11
877.996091
 21
314.591026
 31
0.0
  0
LINE
  8
0
 10
877.838763
 20
314.66393
 30
0.0
 11
877.91544
 21
314.623604
 31
0.0
  0
LINE
  8
0
 10
877.763873
 20
314.711803
 30
0.0
 11
877.838763
 21
314.66393
 31
0.0
  0
LINE
  8
0
 10
877.694744
 20
314.76365
 30
0.0
 11
877.763873
 21
314.711803
 31
0.0
  0
LINE
  8
0
 10
877.631575
 20
314.823244
 30
0.0
 11
877.694744
 21
314.76365
 31
0.0
  0
LINE
  8
0
 10
877.571981
 20
314.886413
 30
0.0
 11
877.631575
 21
314.823244
 31
0.0
  0
LINE
  8
0
 10
877.520134
 20
314.955542
 30
0.0
 11
877.571981
 21
314.886413
 31
0.0
  0
LINE
  8
0
 10
877.472261
 20
315.030432
 30
0.0
 11
877.520134
 21
314.955542
 31
0.0
  0
LINE
  8
0
 10
877.431935
 20
315.107109
 30
0.0
 11
877.472261
 21
315.030432
 31
0.0
  0
LINE
  8
0
 10
877.399358
 20
315.18776
 30
0.0
 11
877.431935
 21
315.107109
 31
0.0
  0
LINE
  8
0
 10
877.372342
 20
315.270397
 30
0.0
 11
877.399358
 21
315.18776
 31
0.0
  0
LINE
  8
0
 10
877.355059
 20
315.354821
 30
0.0
 11
877.372342
 21
315.270397
 31
0.0
  0
LINE
  8
0
 10
877.343538
 20
315.441034
 30
0.0
 11
877.355059
 21
315.354821
 31
0.0
  0
LINE
  8
0
 10
877.343538
 20
315.441034
 30
0.0
 11
877.339764
 21
315.529431
 31
0.0
  0
LINE
  8
0
 10
878.249365
 20
314.535207
 30
0.0
 11
878.337762
 21
314.531433
 31
0.0
  0
LINE
  8
0
 10
878.163152
 20
314.546728
 30
0.0
 11
878.249365
 21
314.535207
 31
0.0
  0
LINE
  8
0
 10
878.078728
 20
314.564011
 30
0.0
 11
878.163152
 21
314.546728
 31
0.0
  0
LINE
  8
0
 10
877.996091
 20
314.591026
 30
0.0
 11
878.078728
 21
314.564011
 31
0.0
  0
LINE
  8
0
 10
877.91544
 20
314.623604
 30
0.0
 11
877.996091
 21
314.591026
 31
0.0
  0
LINE
  8
0
 10
877.838763
 20
314.66393
 30
0.0
 11
877.91544
 21
314.623604
 31
0.0
  0
LINE
  8
0
 10
877.763873
 20
314.711803
 30
0.0
 11
877.838763
 21
314.66393
 31
0.0
  0
LINE
  8
0
 10
877.694744
 20
314.76365
 30
0.0
 11
877.763873
 21
314.711803
 31
0.0
  0
LINE
  8
0
 10
877.631575
 20
314.823244
 30
0.0
 11
877.694744
 21
314.76365
 31
0.0
  0
LINE
  8
0
 10
877.571981
 20
314.886413
 30
0.0
 11
877.631575
 21
314.823244
 31
0.0
  0
LINE
  8
0
 10
877.520134
 20
314.955542
 30
0.0
 11
877.571981
 21
314.886413
 31
0.0
  0
LINE
  8
0
 10
877.472261
 20
315.030432
 30
0.0
 11
877.520134
 21
314.955542
 31
0.0
  0
LINE
  8
0
 10
877.431935
 20
315.107109
 30
0.0
 11
877.472261
 21
315.030432
 31
0.0
  0
LINE
  8
0
 10
877.399358
 20
315.18776
 30
0.0
 11
877.431935
 21
315.107109
 31
0.0
  0
LINE
  8
0
 10
877.372342
 20
315.270397
 30
0.0
 11
877.399358
 21
315.18776
 31
0.0
  0
LINE
  8
0
 10
877.355059
 20
315.354821
 30
0.0
 11
877.372342
 21
315.270397
 31
0.0
  0
LINE
  8
0
 10
877.343538
 20
315.441034
 30
0.0
 11
877.339764
 21
315.529431
 31
0.0
  0
LINE
  8
0
 10
877.355059
 20
315.354821
 30
0.0
 11
877.343538
 21
315.441034
 31
0.0
  0
LINE
  8
0
 10
885.388511
 20
325.141424
 30
0.0
 11
885.48247
 21
325.051238
 31
0.0
  0
LINE
  8
0
 10
885.48247
 20
325.051238
 30
0.0
 11
885.388511
 21
325.141424
 31
0.0
  0
LINE
  8
0
 10
885.48247
 20
325.051238
 30
0.0
 11
885.582191
 21
324.966814
 31
0.0
  0
LINE
  8
0
 10
885.582191
 20
324.966814
 30
0.0
 11
885.48247
 21
325.051238
 31
0.0
  0
LINE
  8
0
 10
885.582191
 20
324.966814
 30
0.0
 11
885.685884
 21
324.886163
 31
0.0
  0
LINE
  8
0
 10
885.685884
 20
324.886163
 30
0.0
 11
885.582191
 21
324.966814
 31
0.0
  0
LINE
  8
0
 10
885.685884
 20
324.886163
 30
0.0
 11
885.793352
 21
324.81326
 31
0.0
  0
LINE
  8
0
 10
885.793352
 20
324.81326
 30
0.0
 11
885.685884
 21
324.886163
 31
0.0
  0
LINE
  8
0
 10
885.793352
 20
324.81326
 30
0.0
 11
885.904594
 21
324.744131
 31
0.0
  0
LINE
  8
0
 10
885.904594
 20
324.744131
 30
0.0
 11
885.793352
 21
324.81326
 31
0.0
  0
LINE
  8
0
 10
885.904594
 20
324.744131
 30
0.0
 11
886.019808
 21
324.656098
 31
0.0
  0
LINE
  8
0
 10
886.019808
 20
324.656098
 30
0.0
 11
885.904594
 21
324.744131
 31
0.0
  0
LINE
  8
0
 10
886.019808
 20
324.656098
 30
0.0
 11
886.136811
 21
324.59849
 31
0.0
  0
LINE
  8
0
 10
886.136811
 20
324.59849
 30
0.0
 11
886.019808
 21
324.656098
 31
0.0
  0
LINE
  8
0
 10
886.136811
 20
324.59849
 30
0.0
 11
886.257786
 21
324.54863
 31
0.0
  0
LINE
  8
0
 10
886.257786
 20
324.54863
 30
0.0
 11
886.136811
 21
324.59849
 31
0.0
  0
LINE
  8
0
 10
886.257786
 20
324.54863
 30
0.0
 11
886.38055
 21
324.479865
 31
0.0
  0
LINE
  8
0
 10
886.38055
 20
324.479865
 30
0.0
 11
886.257786
 21
324.54863
 31
0.0
  0
LINE
  8
0
 10
886.38055
 20
324.479865
 30
0.0
 11
886.507286
 21
324.414676
 31
0.0
  0
LINE
  8
0
 10
886.507286
 20
324.414676
 30
0.0
 11
886.38055
 21
324.479865
 31
0.0
  0
LINE
  8
0
 10
886.634022
 20
324.359419
 30
0.0
 11
886.507286
 21
324.414676
 31
0.0
  0
LINE
  8
0
 10
886.762546
 20
324.307738
 30
0.0
 11
886.634022
 21
324.359419
 31
0.0
  0
LINE
  8
0
 10
886.891071
 20
324.290456
 30
0.0
 11
886.762546
 21
324.307738
 31
0.0
  0
LINE
  8
0
 10
887.021581
 20
324.295947
 30
0.0
 11
886.891071
 21
324.290456
 31
0.0
  0
LINE
  8
0
 10
887.152092
 20
324.291974
 30
0.0
 11
887.021581
 21
324.295947
 31
0.0
  0
LINE
  8
0
 10
887.021581
 20
324.295947
 30
0.0
 11
887.152092
 21
324.291974
 31
0.0
  0
LINE
  8
0
 10
886.891071
 20
324.290456
 30
0.0
 11
887.021581
 21
324.295947
 31
0.0
  0
LINE
  8
0
 10
886.762546
 20
324.307738
 30
0.0
 11
886.891071
 21
324.290456
 31
0.0
  0
LINE
  8
0
 10
886.634022
 20
324.359419
 30
0.0
 11
886.762546
 21
324.307738
 31
0.0
  0
LINE
  8
0
 10
886.507286
 20
324.414676
 30
0.0
 11
886.634022
 21
324.359419
 31
0.0
  0
LINE
  8
0
 10
920.029827
 20
320.317599
 30
0.0
 11
894.300773
 21
320.317599
 31
0.0
  0
LINE
  8
0
 10
922.620571
 20
321.814399
 30
0.0
 11
920.029827
 21
320.317599
 31
0.0
  0
LINE
  8
0
 10
920.029827
 20
323.30941
 30
0.0
 11
922.620571
 21
321.814399
 31
0.0
  0
LINE
  8
0
 10
922.620571
 20
321.814399
 30
0.0
 11
920.029827
 21
323.30941
 31
0.0
  0
LINE
  8
0
 10
920.029827
 20
320.317599
 30
0.0
 11
922.620571
 21
321.814399
 31
0.0
  0
LINE
  8
0
 10
894.300773
 20
320.317599
 30
0.0
 11
920.029827
 21
320.317599
 31
0.0
  0
LINE
  8
0
 10
891.306976
 20
320.8164
 30
0.0
 11
891.393188
 21
320.820373
 31
0.0
  0
LINE
  8
0
 10
891.393188
 20
320.820373
 30
0.0
 11
891.306976
 21
320.8164
 31
0.0
  0
LINE
  8
0
 10
891.393188
 20
320.820373
 30
0.0
 11
891.479599
 21
320.831894
 31
0.0
  0
LINE
  8
0
 10
891.479599
 20
320.831894
 30
0.0
 11
891.393188
 21
320.820373
 31
0.0
  0
LINE
  8
0
 10
891.479599
 20
320.831894
 30
0.0
 11
891.56601
 21
320.849177
 31
0.0
  0
LINE
  8
0
 10
891.56601
 20
320.849177
 30
0.0
 11
891.479599
 21
320.831894
 31
0.0
  0
LINE
  8
0
 10
891.56601
 20
320.849177
 30
0.0
 11
891.648449
 21
320.875994
 31
0.0
  0
LINE
  8
0
 10
891.648449
 20
320.875994
 30
0.0
 11
891.56601
 21
320.849177
 31
0.0
  0
LINE
  8
0
 10
891.648449
 20
320.875994
 30
0.0
 11
891.729099
 21
320.908572
 31
0.0
  0
LINE
  8
0
 10
891.729099
 20
320.908572
 30
0.0
 11
891.648449
 21
320.875994
 31
0.0
  0
LINE
  8
0
 10
891.729099
 20
320.908572
 30
0.0
 11
891.805975
 21
320.948897
 31
0.0
  0
LINE
  8
0
 10
891.805975
 20
320.948897
 30
0.0
 11
891.729099
 21
320.908572
 31
0.0
  0
LINE
  8
0
 10
891.805975
 20
320.948897
 30
0.0
 11
891.878878
 21
320.996771
 31
0.0
  0
LINE
  8
0
 10
891.878878
 20
320.996771
 30
0.0
 11
891.805975
 21
320.948897
 31
0.0
  0
LINE
  8
0
 10
891.878878
 20
320.996771
 30
0.0
 11
891.947808
 21
321.048617
 31
0.0
  0
LINE
  8
0
 10
891.947808
 20
321.048617
 30
0.0
 11
891.878878
 21
320.996771
 31
0.0
  0
LINE
  8
0
 10
891.947808
 20
321.048617
 30
0.0
 11
892.013163
 21
321.108211
 31
0.0
  0
LINE
  8
0
 10
892.013163
 20
321.108211
 30
0.0
 11
891.947808
 21
321.048617
 31
0.0
  0
LINE
  8
0
 10
892.013163
 20
321.108211
 30
0.0
 11
892.07077
 21
321.171579
 31
0.0
  0
LINE
  8
0
 10
892.07077
 20
321.171579
 30
0.0
 11
892.013163
 21
321.108211
 31
0.0
  0
LINE
  8
0
 10
892.07077
 20
321.171579
 30
0.0
 11
892.124405
 21
321.24051
 31
0.0
  0
LINE
  8
0
 10
892.124405
 20
321.24051
 30
0.0
 11
892.07077
 21
321.171579
 31
0.0
  0
LINE
  8
0
 10
892.124405
 20
321.24051
 30
0.0
 11
892.170491
 21
321.315399
 31
0.0
  0
LINE
  8
0
 10
892.170491
 20
321.315399
 30
0.0
 11
892.124405
 21
321.24051
 31
0.0
  0
LINE
  8
0
 10
892.170491
 20
321.315399
 30
0.0
 11
892.210816
 21
321.392275
 31
0.0
  0
LINE
  8
0
 10
892.210816
 20
321.392275
 30
0.0
 11
892.170491
 21
321.315399
 31
0.0
  0
LINE
  8
0
 10
892.210816
 20
321.392275
 30
0.0
 11
892.243394
 21
321.472727
 31
0.0
  0
LINE
  8
0
 10
892.243394
 20
321.472727
 30
0.0
 11
892.210816
 21
321.392275
 31
0.0
  0
LINE
  8
0
 10
892.243394
 20
321.472727
 30
0.0
 11
892.270211
 21
321.555364
 31
0.0
  0
LINE
  8
0
 10
892.270211
 20
321.555364
 30
0.0
 11
892.243394
 21
321.472727
 31
0.0
  0
LINE
  8
0
 10
892.270211
 20
321.555364
 30
0.0
 11
892.28948
 21
321.639789
 31
0.0
  0
LINE
  8
0
 10
892.28948
 20
321.639789
 30
0.0
 11
892.270211
 21
321.555364
 31
0.0
  0
LINE
  8
0
 10
891.393188
 20
322.806636
 30
0.0
 11
891.306976
 21
322.810411
 31
0.0
  0
LINE
  8
0
 10
891.479599
 20
322.795115
 30
0.0
 11
891.393188
 21
322.806636
 31
0.0
  0
LINE
  8
0
 10
891.56601
 20
322.777833
 30
0.0
 11
891.479599
 21
322.795115
 31
0.0
  0
LINE
  8
0
 10
891.648449
 20
322.750817
 30
0.0
 11
891.56601
 21
322.777833
 31
0.0
  0
LINE
  8
0
 10
891.729099
 20
322.718239
 30
0.0
 11
891.648449
 21
322.750817
 31
0.0
  0
LINE
  8
0
 10
891.805975
 20
322.677914
 30
0.0
 11
891.729099
 21
322.718239
 31
0.0
  0
LINE
  8
0
 10
891.878878
 20
322.63004
 30
0.0
 11
891.805975
 21
322.677914
 31
0.0
  0
LINE
  8
0
 10
891.947808
 20
322.578193
 30
0.0
 11
891.878878
 21
322.63004
 31
0.0
  0
LINE
  8
0
 10
892.013163
 20
322.518798
 30
0.0
 11
891.947808
 21
322.578193
 31
0.0
  0
LINE
  8
0
 10
892.07077
 20
322.45543
 30
0.0
 11
892.013163
 21
322.518798
 31
0.0
  0
LINE
  8
0
 10
892.124405
 20
322.386301
 30
0.0
 11
892.07077
 21
322.45543
 31
0.0
  0
LINE
  8
0
 10
892.170491
 20
322.311411
 30
0.0
 11
892.124405
 21
322.386301
 31
0.0
  0
LINE
  8
0
 10
892.210816
 20
322.234734
 30
0.0
 11
892.170491
 21
322.311411
 31
0.0
  0
LINE
  8
0
 10
892.243394
 20
322.154084
 30
0.0
 11
892.210816
 21
322.234734
 31
0.0
  0
LINE
  8
0
 10
892.270211
 20
322.071645
 30
0.0
 11
892.243394
 21
322.154084
 31
0.0
  0
LINE
  8
0
 10
892.28948
 20
321.987022
 30
0.0
 11
892.270211
 21
322.071645
 31
0.0
  0
LINE
  8
0
 10
892.301001
 20
321.90081
 30
0.0
 11
892.28948
 21
321.987022
 31
0.0
  0
LINE
  8
0
 10
892.304776
 20
321.814399
 30
0.0
 11
892.301001
 21
321.90081
 31
0.0
  0
LINE
  8
0
 10
892.301001
 20
321.7262
 30
0.0
 11
892.304776
 21
321.814399
 31
0.0
  0
LINE
  8
0
 10
892.28948
 20
321.639789
 30
0.0
 11
892.301001
 21
321.7262
 31
0.0
  0
LINE
  8
0
 10
892.301001
 20
321.7262
 30
0.0
 11
892.28948
 21
321.639789
 31
0.0
  0
LINE
  8
0
 10
892.304776
 20
321.814399
 30
0.0
 11
892.301001
 21
321.7262
 31
0.0
  0
LINE
  8
0
 10
892.301001
 20
321.90081
 30
0.0
 11
892.304776
 21
321.814399
 31
0.0
  0
LINE
  8
0
 10
892.28948
 20
321.987022
 30
0.0
 11
892.301001
 21
321.90081
 31
0.0
  0
LINE
  8
0
 10
892.270211
 20
322.071645
 30
0.0
 11
892.28948
 21
321.987022
 31
0.0
  0
LINE
  8
0
 10
892.243394
 20
322.154084
 30
0.0
 11
892.270211
 21
322.071645
 31
0.0
  0
LINE
  8
0
 10
892.210816
 20
322.234734
 30
0.0
 11
892.243394
 21
322.154084
 31
0.0
  0
LINE
  8
0
 10
892.170491
 20
322.311411
 30
0.0
 11
892.210816
 21
322.234734
 31
0.0
  0
LINE
  8
0
 10
891.393188
 20
322.806636
 30
0.0
 11
891.306976
 21
322.810411
 31
0.0
  0
LINE
  8
0
 10
891.479599
 20
322.795115
 30
0.0
 11
891.393188
 21
322.806636
 31
0.0
  0
LINE
  8
0
 10
891.56601
 20
322.777833
 30
0.0
 11
891.479599
 21
322.795115
 31
0.0
  0
LINE
  8
0
 10
891.648449
 20
322.750817
 30
0.0
 11
891.56601
 21
322.777833
 31
0.0
  0
LINE
  8
0
 10
891.729099
 20
322.718239
 30
0.0
 11
891.648449
 21
322.750817
 31
0.0
  0
LINE
  8
0
 10
891.805975
 20
322.677914
 30
0.0
 11
891.729099
 21
322.718239
 31
0.0
  0
LINE
  8
0
 10
891.878878
 20
322.63004
 30
0.0
 11
891.805975
 21
322.677914
 31
0.0
  0
LINE
  8
0
 10
891.947808
 20
322.578193
 30
0.0
 11
891.878878
 21
322.63004
 31
0.0
  0
LINE
  8
0
 10
892.013163
 20
322.518798
 30
0.0
 11
891.947808
 21
322.578193
 31
0.0
  0
LINE
  8
0
 10
892.07077
 20
322.45543
 30
0.0
 11
892.013163
 21
322.518798
 31
0.0
  0
LINE
  8
0
 10
892.124405
 20
322.386301
 30
0.0
 11
892.07077
 21
322.45543
 31
0.0
  0
LINE
  8
0
 10
892.170491
 20
322.311411
 30
0.0
 11
892.124405
 21
322.386301
 31
0.0
  0
LINE
  8
0
 10
893.302774
 20
321.315399
 30
0.0
 11
893.302774
 21
322.311411
 31
0.0
  0
LINE
  8
0
 10
893.302774
 20
322.311411
 30
0.0
 11
893.302774
 21
321.315399
 31
0.0
  0
LINE
  8
0
 10
920.029827
 20
323.30941
 30
0.0
 11
894.300773
 21
323.30941
 31
0.0
  0
LINE
  8
0
 10
894.300773
 20
323.30941
 30
0.0
 11
920.029827
 21
323.30941
 31
0.0
  0
LINE
  8
0
 10
894.300773
 20
323.30941
 30
0.0
 11
894.212375
 21
323.305437
 31
0.0
  0
LINE
  8
0
 10
894.212375
 20
323.305437
 30
0.0
 11
894.300773
 21
323.30941
 31
0.0
  0
LINE
  8
0
 10
894.212375
 20
323.305437
 30
0.0
 11
894.125964
 21
323.293915
 31
0.0
  0
LINE
  8
0
 10
894.125964
 20
323.293915
 30
0.0
 11
894.212375
 21
323.305437
 31
0.0
  0
LINE
  8
0
 10
894.125964
 20
323.293915
 30
0.0
 11
894.041539
 21
323.276832
 31
0.0
  0
LINE
  8
0
 10
894.041539
 20
323.276832
 30
0.0
 11
894.125964
 21
323.293915
 31
0.0
  0
LINE
  8
0
 10
894.041539
 20
323.276832
 30
0.0
 11
893.959101
 21
323.249816
 31
0.0
  0
LINE
  8
0
 10
893.959101
 20
323.249816
 30
0.0
 11
894.041539
 21
323.276832
 31
0.0
  0
LINE
  8
0
 10
893.959101
 20
323.249816
 30
0.0
 11
893.878451
 21
323.217238
 31
0.0
  0
LINE
  8
0
 10
893.878451
 20
323.217238
 30
0.0
 11
893.959101
 21
323.249816
 31
0.0
  0
LINE
  8
0
 10
893.878451
 20
323.217238
 30
0.0
 11
893.801773
 21
323.176913
 31
0.0
  0
LINE
  8
0
 10
893.801773
 20
323.176913
 30
0.0
 11
893.878451
 21
323.217238
 31
0.0
  0
LINE
  8
0
 10
893.801773
 20
323.176913
 30
0.0
 11
893.726884
 21
323.129039
 31
0.0
  0
LINE
  8
0
 10
893.726884
 20
323.129039
 30
0.0
 11
893.801773
 21
323.176913
 31
0.0
  0
LINE
  8
0
 10
893.726884
 20
323.129039
 30
0.0
 11
893.657755
 21
323.077192
 31
0.0
  0
LINE
  8
0
 10
893.657755
 20
323.077192
 30
0.0
 11
893.726884
 21
323.129039
 31
0.0
  0
LINE
  8
0
 10
893.657755
 20
323.077192
 30
0.0
 11
893.594387
 21
323.017599
 31
0.0
  0
LINE
  8
0
 10
893.594387
 20
323.017599
 30
0.0
 11
893.657755
 21
323.077192
 31
0.0
  0
LINE
  8
0
 10
893.594387
 20
323.017599
 30
0.0
 11
893.534992
 21
322.95423
 31
0.0
  0
LINE
  8
0
 10
893.534992
 20
322.95423
 30
0.0
 11
893.594387
 21
323.017599
 31
0.0
  0
LINE
  8
0
 10
893.534992
 20
322.95423
 30
0.0
 11
893.483145
 21
322.8853
 31
0.0
  0
LINE
  8
0
 10
893.483145
 20
322.8853
 30
0.0
 11
893.534992
 21
322.95423
 31
0.0
  0
LINE
  8
0
 10
893.483145
 20
322.8853
 30
0.0
 11
893.435271
 21
322.810411
 31
0.0
  0
LINE
  8
0
 10
893.435271
 20
322.810411
 30
0.0
 11
893.483145
 21
322.8853
 31
0.0
  0
LINE
  8
0
 10
893.435271
 20
322.810411
 30
0.0
 11
893.394946
 21
322.733733
 31
0.0
  0
LINE
  8
0
 10
893.394946
 20
322.733733
 30
0.0
 11
893.435271
 21
322.810411
 31
0.0
  0
LINE
  8
0
 10
893.394946
 20
322.733733
 30
0.0
 11
893.362169
 21
322.653083
 31
0.0
  0
LINE
  8
0
 10
893.362169
 20
322.653083
 30
0.0
 11
893.394946
 21
322.733733
 31
0.0
  0
LINE
  8
0
 10
893.362169
 20
322.653083
 30
0.0
 11
893.335352
 21
322.570446
 31
0.0
  0
LINE
  8
0
 10
893.335352
 20
322.570446
 30
0.0
 11
893.362169
 21
322.653083
 31
0.0
  0
LINE
  8
0
 10
893.335352
 20
322.570446
 30
0.0
 11
893.31807
 21
322.486021
 31
0.0
  0
LINE
  8
0
 10
893.31807
 20
322.486021
 30
0.0
 11
893.335352
 21
322.570446
 31
0.0
  0
LINE
  8
0
 10
893.31807
 20
322.486021
 30
0.0
 11
893.306549
 21
322.399809
 31
0.0
  0
LINE
  8
0
 10
893.306549
 20
322.399809
 30
0.0
 11
893.31807
 21
322.486021
 31
0.0
  0
LINE
  8
0
 10
893.306549
 20
322.399809
 30
0.0
 11
893.302774
 21
322.313398
 31
0.0
  0
LINE
  8
0
 10
893.302774
 20
322.311411
 30
0.0
 11
893.306549
 21
322.399809
 31
0.0
  0
LINE
  8
0
 10
893.302774
 20
321.315399
 30
0.0
 11
893.306549
 21
321.2272
 31
0.0
  0
LINE
  8
0
 10
893.302774
 20
321.313413
 30
0.0
 11
893.302774
 21
321.315399
 31
0.0
  0
LINE
  8
0
 10
893.306549
 20
321.2272
 30
0.0
 11
893.302774
 21
321.313413
 31
0.0
  0
LINE
  8
0
 10
893.306549
 20
321.2272
 30
0.0
 11
893.31807
 21
321.140789
 31
0.0
  0
LINE
  8
0
 10
893.31807
 20
321.140789
 30
0.0
 11
893.306549
 21
321.2272
 31
0.0
  0
LINE
  8
0
 10
893.31807
 20
321.140789
 30
0.0
 11
893.335352
 21
321.056365
 31
0.0
  0
LINE
  8
0
 10
893.335352
 20
321.056365
 30
0.0
 11
893.31807
 21
321.140789
 31
0.0
  0
LINE
  8
0
 10
893.335352
 20
321.056365
 30
0.0
 11
893.362169
 21
320.973926
 31
0.0
  0
LINE
  8
0
 10
893.362169
 20
320.973926
 30
0.0
 11
893.335352
 21
321.056365
 31
0.0
  0
LINE
  8
0
 10
893.362169
 20
320.973926
 30
0.0
 11
893.394946
 21
320.893276
 31
0.0
  0
LINE
  8
0
 10
893.394946
 20
320.893276
 30
0.0
 11
893.362169
 21
320.973926
 31
0.0
  0
LINE
  8
0
 10
893.394946
 20
320.893276
 30
0.0
 11
893.435271
 21
320.8164
 31
0.0
  0
LINE
  8
0
 10
893.435271
 20
320.8164
 30
0.0
 11
893.394946
 21
320.893276
 31
0.0
  0
LINE
  8
0
 10
893.435271
 20
320.8164
 30
0.0
 11
893.483145
 21
320.741709
 31
0.0
  0
LINE
  8
0
 10
893.483145
 20
320.741709
 30
0.0
 11
893.435271
 21
320.8164
 31
0.0
  0
LINE
  8
0
 10
893.483145
 20
320.741709
 30
0.0
 11
893.534992
 21
320.67258
 31
0.0
  0
LINE
  8
0
 10
893.534992
 20
320.67258
 30
0.0
 11
893.483145
 21
320.741709
 31
0.0
  0
LINE
  8
0
 10
893.534992
 20
320.67258
 30
0.0
 11
893.594387
 21
320.609212
 31
0.0
  0
LINE
  8
0
 10
893.594387
 20
320.609212
 30
0.0
 11
893.534992
 21
320.67258
 31
0.0
  0
LINE
  8
0
 10
893.594387
 20
320.609212
 30
0.0
 11
893.657755
 21
320.549618
 31
0.0
  0
LINE
  8
0
 10
893.657755
 20
320.549618
 30
0.0
 11
893.594387
 21
320.609212
 31
0.0
  0
LINE
  8
0
 10
893.657755
 20
320.549618
 30
0.0
 11
893.726884
 21
320.49797
 31
0.0
  0
LINE
  8
0
 10
893.726884
 20
320.49797
 30
0.0
 11
893.657755
 21
320.549618
 31
0.0
  0
LINE
  8
0
 10
893.726884
 20
320.49797
 30
0.0
 11
893.801773
 21
320.449898
 31
0.0
  0
LINE
  8
0
 10
893.801773
 20
320.449898
 30
0.0
 11
893.726884
 21
320.49797
 31
0.0
  0
LINE
  8
0
 10
893.801773
 20
320.449898
 30
0.0
 11
893.878451
 21
320.409573
 31
0.0
  0
LINE
  8
0
 10
893.878451
 20
320.409573
 30
0.0
 11
893.801773
 21
320.449898
 31
0.0
  0
LINE
  8
0
 10
893.878451
 20
320.409573
 30
0.0
 11
893.959101
 21
320.376995
 31
0.0
  0
LINE
  8
0
 10
893.959101
 20
320.376995
 30
0.0
 11
893.878451
 21
320.409573
 31
0.0
  0
LINE
  8
0
 10
893.959101
 20
320.376995
 30
0.0
 11
894.041539
 21
320.350177
 31
0.0
  0
LINE
  8
0
 10
894.041539
 20
320.350177
 30
0.0
 11
893.959101
 21
320.376995
 31
0.0
  0
LINE
  8
0
 10
894.212375
 20
320.321374
 30
0.0
 11
894.300773
 21
320.317599
 31
0.0
  0
LINE
  8
0
 10
894.125964
 20
320.332895
 30
0.0
 11
894.212375
 21
320.321374
 31
0.0
  0
LINE
  8
0
 10
894.041539
 20
320.350177
 30
0.0
 11
894.125964
 21
320.332895
 31
0.0
  0
LINE
  8
0
 10
894.125964
 20
320.332895
 30
0.0
 11
894.041539
 21
320.350177
 31
0.0
  0
LINE
  8
0
 10
894.212375
 20
320.321374
 30
0.0
 11
894.125964
 21
320.332895
 31
0.0
  0
LINE
  8
0
 10
894.298786
 20
320.317599
 30
0.0
 11
894.212375
 21
320.321374
 31
0.0
  0
LINE
  8
0
 10
894.300773
 20
320.317599
 30
0.0
 11
894.298786
 21
320.317599
 31
0.0
  0
LINE
  8
0
 10
880.210797
 20
328.200575
 30
0.0
 11
884.768536
 21
323.644625
 31
0.0
  0
LINE
  8
0
 10
884.768536
 20
323.644625
 30
0.0
 11
880.210797
 21
328.200575
 31
0.0
  0
LINE
  8
0
 10
922.778662
 20
320.75296
 30
0.0
 11
920.528826
 21
319.453886
 31
0.0
  0
LINE
  8
0
 10
922.739764
 20
322.896311
 30
0.0
 11
920.528826
 21
324.172925
 31
0.0
  0
LINE
  8
0
 10
884.768536
 20
353.644625
 30
0.0
 11
880.210797
 21
358.200575
 31
0.0
  0
LINE
  8
0
 10
880.210797
 20
358.200575
 30
0.0
 11
884.768536
 21
353.644625
 31
0.0
  0
LINE
  8
0
 10
894.300773
 20
350.317599
 30
0.0
 11
894.298786
 21
350.317599
 31
0.0
  0
LINE
  8
0
 10
894.298786
 20
350.317599
 30
0.0
 11
894.212375
 21
350.321374
 31
0.0
  0
LINE
  8
0
 10
894.212375
 20
350.321374
 30
0.0
 11
894.125964
 21
350.332895
 31
0.0
  0
LINE
  8
0
 10
894.125964
 20
350.332895
 30
0.0
 11
894.041539
 21
350.350177
 31
0.0
  0
LINE
  8
0
 10
894.041539
 20
350.350177
 30
0.0
 11
894.125964
 21
350.332895
 31
0.0
  0
LINE
  8
0
 10
894.125964
 20
350.332895
 30
0.0
 11
894.212375
 21
350.321374
 31
0.0
  0
LINE
  8
0
 10
894.212375
 20
350.321374
 30
0.0
 11
894.300773
 21
350.317599
 31
0.0
  0
LINE
  8
0
 10
894.041539
 20
350.350177
 30
0.0
 11
893.959101
 21
350.376995
 31
0.0
  0
LINE
  8
0
 10
893.959101
 20
350.376995
 30
0.0
 11
894.041539
 21
350.350177
 31
0.0
  0
LINE
  8
0
 10
893.959101
 20
350.376995
 30
0.0
 11
893.878451
 21
350.409573
 31
0.0
  0
LINE
  8
0
 10
893.878451
 20
350.409573
 30
0.0
 11
893.959101
 21
350.376995
 31
0.0
  0
LINE
  8
0
 10
893.878451
 20
350.409573
 30
0.0
 11
893.801773
 21
350.449898
 31
0.0
  0
LINE
  8
0
 10
893.801773
 20
350.449898
 30
0.0
 11
893.878451
 21
350.409573
 31
0.0
  0
LINE
  8
0
 10
893.801773
 20
350.449898
 30
0.0
 11
893.726884
 21
350.49797
 31
0.0
  0
LINE
  8
0
 10
893.726884
 20
350.49797
 30
0.0
 11
893.801773
 21
350.449898
 31
0.0
  0
LINE
  8
0
 10
893.726884
 20
350.49797
 30
0.0
 11
893.657755
 21
350.549618
 31
0.0
  0
LINE
  8
0
 10
893.657755
 20
350.549618
 30
0.0
 11
893.726884
 21
350.49797
 31
0.0
  0
LINE
  8
0
 10
893.657755
 20
350.549618
 30
0.0
 11
893.594387
 21
350.609212
 31
0.0
  0
LINE
  8
0
 10
893.594387
 20
350.609212
 30
0.0
 11
893.657755
 21
350.549618
 31
0.0
  0
LINE
  8
0
 10
893.594387
 20
350.609212
 30
0.0
 11
893.534992
 21
350.67258
 31
0.0
  0
LINE
  8
0
 10
893.534992
 20
350.67258
 30
0.0
 11
893.594387
 21
350.609212
 31
0.0
  0
LINE
  8
0
 10
893.534992
 20
350.67258
 30
0.0
 11
893.483145
 21
350.741709
 31
0.0
  0
LINE
  8
0
 10
893.483145
 20
350.741709
 30
0.0
 11
893.534992
 21
350.67258
 31
0.0
  0
LINE
  8
0
 10
893.483145
 20
350.741709
 30
0.0
 11
893.435271
 21
350.8164
 31
0.0
  0
LINE
  8
0
 10
893.435271
 20
350.8164
 30
0.0
 11
893.483145
 21
350.741709
 31
0.0
  0
LINE
  8
0
 10
893.435271
 20
350.8164
 30
0.0
 11
893.394946
 21
350.893276
 31
0.0
  0
LINE
  8
0
 10
893.394946
 20
350.893276
 30
0.0
 11
893.435271
 21
350.8164
 31
0.0
  0
LINE
  8
0
 10
893.394946
 20
350.893276
 30
0.0
 11
893.362169
 21
350.973926
 31
0.0
  0
LINE
  8
0
 10
893.362169
 20
350.973926
 30
0.0
 11
893.394946
 21
350.893276
 31
0.0
  0
LINE
  8
0
 10
893.362169
 20
350.973926
 30
0.0
 11
893.335352
 21
351.056365
 31
0.0
  0
LINE
  8
0
 10
893.335352
 20
351.056365
 30
0.0
 11
893.362169
 21
350.973926
 31
0.0
  0
LINE
  8
0
 10
893.335352
 20
351.056365
 30
0.0
 11
893.31807
 21
351.140789
 31
0.0
  0
LINE
  8
0
 10
893.31807
 20
351.140789
 30
0.0
 11
893.335352
 21
351.056365
 31
0.0
  0
LINE
  8
0
 10
893.31807
 20
351.140789
 30
0.0
 11
893.306549
 21
351.2272
 31
0.0
  0
LINE
  8
0
 10
893.306549
 20
351.2272
 30
0.0
 11
893.31807
 21
351.140789
 31
0.0
  0
LINE
  8
0
 10
893.306549
 20
351.2272
 30
0.0
 11
893.302774
 21
351.313413
 31
0.0
  0
LINE
  8
0
 10
893.302774
 20
351.313413
 30
0.0
 11
893.302774
 21
351.315399
 31
0.0
  0
LINE
  8
0
 10
893.302774
 20
351.315399
 30
0.0
 11
893.306549
 21
351.2272
 31
0.0
  0
LINE
  8
0
 10
893.302774
 20
352.311411
 30
0.0
 11
893.306549
 21
352.399809
 31
0.0
  0
LINE
  8
0
 10
893.306549
 20
352.399809
 30
0.0
 11
893.302774
 21
352.313398
 31
0.0
  0
LINE
  8
0
 10
893.306549
 20
352.399809
 30
0.0
 11
893.31807
 21
352.486021
 31
0.0
  0
LINE
  8
0
 10
893.31807
 20
352.486021
 30
0.0
 11
893.306549
 21
352.399809
 31
0.0
  0
LINE
  8
0
 10
893.31807
 20
352.486021
 30
0.0
 11
893.335352
 21
352.570446
 31
0.0
  0
LINE
  8
0
 10
893.335352
 20
352.570446
 30
0.0
 11
893.31807
 21
352.486021
 31
0.0
  0
LINE
  8
0
 10
893.335352
 20
352.570446
 30
0.0
 11
893.362169
 21
352.653083
 31
0.0
  0
LINE
  8
0
 10
893.362169
 20
352.653083
 30
0.0
 11
893.335352
 21
352.570446
 31
0.0
  0
LINE
  8
0
 10
893.362169
 20
352.653083
 30
0.0
 11
893.394946
 21
352.733733
 31
0.0
  0
LINE
  8
0
 10
893.394946
 20
352.733733
 30
0.0
 11
893.362169
 21
352.653083
 31
0.0
  0
LINE
  8
0
 10
893.394946
 20
352.733733
 30
0.0
 11
893.435271
 21
352.810411
 31
0.0
  0
LINE
  8
0
 10
893.435271
 20
352.810411
 30
0.0
 11
893.394946
 21
352.733733
 31
0.0
  0
LINE
  8
0
 10
893.435271
 20
352.810411
 30
0.0
 11
893.483145
 21
352.8853
 31
0.0
  0
LINE
  8
0
 10
893.483145
 20
352.8853
 30
0.0
 11
893.435271
 21
352.810411
 31
0.0
  0
LINE
  8
0
 10
893.483145
 20
352.8853
 30
0.0
 11
893.534992
 21
352.95423
 31
0.0
  0
LINE
  8
0
 10
893.534992
 20
352.95423
 30
0.0
 11
893.483145
 21
352.8853
 31
0.0
  0
LINE
  8
0
 10
893.534992
 20
352.95423
 30
0.0
 11
893.594387
 21
353.017599
 31
0.0
  0
LINE
  8
0
 10
893.594387
 20
353.017599
 30
0.0
 11
893.534992
 21
352.95423
 31
0.0
  0
LINE
  8
0
 10
893.594387
 20
353.017599
 30
0.0
 11
893.657755
 21
353.077192
 31
0.0
  0
LINE
  8
0
 10
893.657755
 20
353.077192
 30
0.0
 11
893.594387
 21
353.017599
 31
0.0
  0
LINE
  8
0
 10
893.657755
 20
353.077192
 30
0.0
 11
893.726884
 21
353.129039
 31
0.0
  0
LINE
  8
0
 10
893.726884
 20
353.129039
 30
0.0
 11
893.657755
 21
353.077192
 31
0.0
  0
LINE
  8
0
 10
893.726884
 20
353.129039
 30
0.0
 11
893.801773
 21
353.176913
 31
0.0
  0
LINE
  8
0
 10
893.801773
 20
353.176913
 30
0.0
 11
893.726884
 21
353.129039
 31
0.0
  0
LINE
  8
0
 10
893.801773
 20
353.176913
 30
0.0
 11
893.878451
 21
353.217238
 31
0.0
  0
LINE
  8
0
 10
893.878451
 20
353.217238
 30
0.0
 11
893.801773
 21
353.176913
 31
0.0
  0
LINE
  8
0
 10
893.878451
 20
353.217238
 30
0.0
 11
893.959101
 21
353.249816
 31
0.0
  0
LINE
  8
0
 10
893.959101
 20
353.249816
 30
0.0
 11
893.878451
 21
353.217238
 31
0.0
  0
LINE
  8
0
 10
893.959101
 20
353.249816
 30
0.0
 11
894.041539
 21
353.276832
 31
0.0
  0
LINE
  8
0
 10
894.041539
 20
353.276832
 30
0.0
 11
893.959101
 21
353.249816
 31
0.0
  0
LINE
  8
0
 10
894.041539
 20
353.276832
 30
0.0
 11
894.125964
 21
353.293915
 31
0.0
  0
LINE
  8
0
 10
894.125964
 20
353.293915
 30
0.0
 11
894.041539
 21
353.276832
 31
0.0
  0
LINE
  8
0
 10
894.125964
 20
353.293915
 30
0.0
 11
894.212375
 21
353.305437
 31
0.0
  0
LINE
  8
0
 10
894.212375
 20
353.305437
 30
0.0
 11
894.125964
 21
353.293915
 31
0.0
  0
LINE
  8
0
 10
894.212375
 20
353.305437
 30
0.0
 11
894.300773
 21
353.30941
 31
0.0
  0
LINE
  8
0
 10
894.300773
 20
353.30941
 30
0.0
 11
894.212375
 21
353.305437
 31
0.0
  0
LINE
  8
0
 10
894.300773
 20
353.30941
 30
0.0
 11
920.029827
 21
353.30941
 31
0.0
  0
LINE
  8
0
 10
920.029827
 20
353.30941
 30
0.0
 11
894.300773
 21
353.30941
 31
0.0
  0
LINE
  8
0
 10
893.302774
 20
352.311411
 30
0.0
 11
893.302774
 21
351.315399
 31
0.0
  0
LINE
  8
0
 10
893.302774
 20
351.315399
 30
0.0
 11
893.302774
 21
352.311411
 31
0.0
  0
LINE
  8
0
 10
892.170491
 20
352.311411
 30
0.0
 11
892.124405
 21
352.386301
 31
0.0
  0
LINE
  8
0
 10
892.124405
 20
352.386301
 30
0.0
 11
892.07077
 21
352.45543
 31
0.0
  0
LINE
  8
0
 10
892.07077
 20
352.45543
 30
0.0
 11
892.013163
 21
352.518798
 31
0.0
  0
LINE
  8
0
 10
892.013163
 20
352.518798
 30
0.0
 11
891.947808
 21
352.578193
 31
0.0
  0
LINE
  8
0
 10
891.947808
 20
352.578193
 30
0.0
 11
891.878878
 21
352.63004
 31
0.0
  0
LINE
  8
0
 10
891.878878
 20
352.63004
 30
0.0
 11
891.805975
 21
352.677914
 31
0.0
  0
LINE
  8
0
 10
891.805975
 20
352.677914
 30
0.0
 11
891.729099
 21
352.718239
 31
0.0
  0
LINE
  8
0
 10
891.729099
 20
352.718239
 30
0.0
 11
891.648449
 21
352.750817
 31
0.0
  0
LINE
  8
0
 10
891.648449
 20
352.750817
 30
0.0
 11
891.56601
 21
352.777833
 31
0.0
  0
LINE
  8
0
 10
891.56601
 20
352.777833
 30
0.0
 11
891.479599
 21
352.795115
 31
0.0
  0
LINE
  8
0
 10
891.479599
 20
352.795115
 30
0.0
 11
891.393188
 21
352.806636
 31
0.0
  0
LINE
  8
0
 10
891.393188
 20
352.806636
 30
0.0
 11
891.306976
 21
352.810411
 31
0.0
  0
LINE
  8
0
 10
892.170491
 20
352.311411
 30
0.0
 11
892.210816
 21
352.234734
 31
0.0
  0
LINE
  8
0
 10
892.210816
 20
352.234734
 30
0.0
 11
892.243394
 21
352.154084
 31
0.0
  0
LINE
  8
0
 10
892.243394
 20
352.154084
 30
0.0
 11
892.270211
 21
352.071645
 31
0.0
  0
LINE
  8
0
 10
892.270211
 20
352.071645
 30
0.0
 11
892.28948
 21
351.987022
 31
0.0
  0
LINE
  8
0
 10
892.28948
 20
351.987022
 30
0.0
 11
892.301001
 21
351.90081
 31
0.0
  0
LINE
  8
0
 10
892.301001
 20
351.90081
 30
0.0
 11
892.304776
 21
351.814399
 31
0.0
  0
LINE
  8
0
 10
892.304776
 20
351.814399
 30
0.0
 11
892.301001
 21
351.7262
 31
0.0
  0
LINE
  8
0
 10
892.301001
 20
351.7262
 30
0.0
 11
892.28948
 21
351.639789
 31
0.0
  0
LINE
  8
0
 10
892.28948
 20
351.639789
 30
0.0
 11
892.301001
 21
351.7262
 31
0.0
  0
LINE
  8
0
 10
892.301001
 20
351.7262
 30
0.0
 11
892.304776
 21
351.814399
 31
0.0
  0
LINE
  8
0
 10
892.304776
 20
351.814399
 30
0.0
 11
892.301001
 21
351.90081
 31
0.0
  0
LINE
  8
0
 10
892.301001
 20
351.90081
 30
0.0
 11
892.28948
 21
351.987022
 31
0.0
  0
LINE
  8
0
 10
892.28948
 20
351.987022
 30
0.0
 11
892.270211
 21
352.071645
 31
0.0
  0
LINE
  8
0
 10
892.270211
 20
352.071645
 30
0.0
 11
892.243394
 21
352.154084
 31
0.0
  0
LINE
  8
0
 10
892.243394
 20
352.154084
 30
0.0
 11
892.210816
 21
352.234734
 31
0.0
  0
LINE
  8
0
 10
892.210816
 20
352.234734
 30
0.0
 11
892.170491
 21
352.311411
 31
0.0
  0
LINE
  8
0
 10
892.170491
 20
352.311411
 30
0.0
 11
892.124405
 21
352.386301
 31
0.0
  0
LINE
  8
0
 10
892.124405
 20
352.386301
 30
0.0
 11
892.07077
 21
352.45543
 31
0.0
  0
LINE
  8
0
 10
892.07077
 20
352.45543
 30
0.0
 11
892.013163
 21
352.518798
 31
0.0
  0
LINE
  8
0
 10
892.013163
 20
352.518798
 30
0.0
 11
891.947808
 21
352.578193
 31
0.0
  0
LINE
  8
0
 10
891.947808
 20
352.578193
 30
0.0
 11
891.878878
 21
352.63004
 31
0.0
  0
LINE
  8
0
 10
891.878878
 20
352.63004
 30
0.0
 11
891.805975
 21
352.677914
 31
0.0
  0
LINE
  8
0
 10
891.805975
 20
352.677914
 30
0.0
 11
891.729099
 21
352.718239
 31
0.0
  0
LINE
  8
0
 10
891.729099
 20
352.718239
 30
0.0
 11
891.648449
 21
352.750817
 31
0.0
  0
LINE
  8
0
 10
891.648449
 20
352.750817
 30
0.0
 11
891.56601
 21
352.777833
 31
0.0
  0
LINE
  8
0
 10
891.56601
 20
352.777833
 30
0.0
 11
891.479599
 21
352.795115
 31
0.0
  0
LINE
  8
0
 10
891.479599
 20
352.795115
 30
0.0
 11
891.393188
 21
352.806636
 31
0.0
  0
LINE
  8
0
 10
891.393188
 20
352.806636
 30
0.0
 11
891.306976
 21
352.810411
 31
0.0
  0
LINE
  8
0
 10
892.28948
 20
351.639789
 30
0.0
 11
892.270211
 21
351.555364
 31
0.0
  0
LINE
  8
0
 10
892.270211
 20
351.555364
 30
0.0
 11
892.28948
 21
351.639789
 31
0.0
  0
LINE
  8
0
 10
892.270211
 20
351.555364
 30
0.0
 11
892.243394
 21
351.472727
 31
0.0
  0
LINE
  8
0
 10
892.243394
 20
351.472727
 30
0.0
 11
892.270211
 21
351.555364
 31
0.0
  0
LINE
  8
0
 10
892.243394
 20
351.472727
 30
0.0
 11
892.210816
 21
351.392275
 31
0.0
  0
LINE
  8
0
 10
892.210816
 20
351.392275
 30
0.0
 11
892.243394
 21
351.472727
 31
0.0
  0
LINE
  8
0
 10
892.210816
 20
351.392275
 30
0.0
 11
892.170491
 21
351.315399
 31
0.0
  0
LINE
  8
0
 10
892.170491
 20
351.315399
 30
0.0
 11
892.210816
 21
351.392275
 31
0.0
  0
LINE
  8
0
 10
892.170491
 20
351.315399
 30
0.0
 11
892.124405
 21
351.24051
 31
0.0
  0
LINE
  8
0
 10
892.124405
 20
351.24051
 30
0.0
 11
892.170491
 21
351.315399
 31
0.0
  0
LINE
  8
0
 10
892.124405
 20
351.24051
 30
0.0
 11
892.07077
 21
351.171579
 31
0.0
  0
LINE
  8
0
 10
892.07077
 20
351.171579
 30
0.0
 11
892.124405
 21
351.24051
 31
0.0
  0
LINE
  8
0
 10
892.07077
 20
351.171579
 30
0.0
 11
892.013163
 21
351.108211
 31
0.0
  0
LINE
  8
0
 10
892.013163
 20
351.108211
 30
0.0
 11
892.07077
 21
351.171579
 31
0.0
  0
LINE
  8
0
 10
892.013163
 20
351.108211
 30
0.0
 11
891.947808
 21
351.048617
 31
0.0
  0
LINE
  8
0
 10
891.947808
 20
351.048617
 30
0.0
 11
892.013163
 21
351.108211
 31
0.0
  0
LINE
  8
0
 10
891.947808
 20
351.048617
 30
0.0
 11
891.878878
 21
350.996771
 31
0.0
  0
LINE
  8
0
 10
891.878878
 20
350.996771
 30
0.0
 11
891.947808
 21
351.048617
 31
0.0
  0
LINE
  8
0
 10
891.878878
 20
350.996771
 30
0.0
 11
891.805975
 21
350.948897
 31
0.0
  0
LINE
  8
0
 10
891.805975
 20
350.948897
 30
0.0
 11
891.878878
 21
350.996771
 31
0.0
  0
LINE
  8
0
 10
891.805975
 20
350.948897
 30
0.0
 11
891.729099
 21
350.908572
 31
0.0
  0
LINE
  8
0
 10
891.729099
 20
350.908572
 30
0.0
 11
891.805975
 21
350.948897
 31
0.0
  0
LINE
  8
0
 10
891.729099
 20
350.908572
 30
0.0
 11
891.648449
 21
350.875994
 31
0.0
  0
LINE
  8
0
 10
891.648449
 20
350.875994
 30
0.0
 11
891.729099
 21
350.908572
 31
0.0
  0
LINE
  8
0
 10
891.648449
 20
350.875994
 30
0.0
 11
891.56601
 21
350.849177
 31
0.0
  0
LINE
  8
0
 10
891.56601
 20
350.849177
 30
0.0
 11
891.648449
 21
350.875994
 31
0.0
  0
LINE
  8
0
 10
891.56601
 20
350.849177
 30
0.0
 11
891.479599
 21
350.831894
 31
0.0
  0
LINE
  8
0
 10
891.479599
 20
350.831894
 30
0.0
 11
891.56601
 21
350.849177
 31
0.0
  0
LINE
  8
0
 10
891.479599
 20
350.831894
 30
0.0
 11
891.393188
 21
350.820373
 31
0.0
  0
LINE
  8
0
 10
891.393188
 20
350.820373
 30
0.0
 11
891.479599
 21
350.831894
 31
0.0
  0
LINE
  8
0
 10
891.393188
 20
350.820373
 30
0.0
 11
891.306976
 21
350.8164
 31
0.0
  0
LINE
  8
0
 10
891.306976
 20
350.8164
 30
0.0
 11
891.393188
 21
350.820373
 31
0.0
  0
LINE
  8
0
 10
894.300773
 20
350.317599
 30
0.0
 11
920.029827
 21
350.317599
 31
0.0
  0
LINE
  8
0
 10
920.029827
 20
350.317599
 30
0.0
 11
922.620571
 21
351.814399
 31
0.0
  0
LINE
  8
0
 10
922.620571
 20
351.814399
 30
0.0
 11
920.029827
 21
353.30941
 31
0.0
  0
LINE
  8
0
 10
920.029827
 20
353.30941
 30
0.0
 11
922.620571
 21
351.814399
 31
0.0
  0
LINE
  8
0
 10
922.620571
 20
351.814399
 30
0.0
 11
920.029827
 21
350.317599
 31
0.0
  0
LINE
  8
0
 10
920.029827
 20
350.317599
 30
0.0
 11
894.300773
 21
350.317599
 31
0.0
  0
LINE
  8
0
 10
886.507286
 20
354.414676
 30
0.0
 11
886.634022
 21
354.359419
 31
0.0
  0
LINE
  8
0
 10
886.634022
 20
354.359419
 30
0.0
 11
886.762546
 21
354.307738
 31
0.0
  0
LINE
  8
0
 10
886.762546
 20
354.307738
 30
0.0
 11
886.891071
 21
354.290456
 31
0.0
  0
LINE
  8
0
 10
886.891071
 20
354.290456
 30
0.0
 11
887.021581
 21
354.295947
 31
0.0
  0
LINE
  8
0
 10
887.021581
 20
354.295947
 30
0.0
 11
887.152092
 21
354.291974
 31
0.0
  0
LINE
  8
0
 10
887.152092
 20
354.291974
 30
0.0
 11
887.021581
 21
354.295947
 31
0.0
  0
LINE
  8
0
 10
887.021581
 20
354.295947
 30
0.0
 11
886.891071
 21
354.290456
 31
0.0
  0
LINE
  8
0
 10
886.891071
 20
354.290456
 30
0.0
 11
886.762546
 21
354.307738
 31
0.0
  0
LINE
  8
0
 10
886.762546
 20
354.307738
 30
0.0
 11
886.634022
 21
354.359419
 31
0.0
  0
LINE
  8
0
 10
886.634022
 20
354.359419
 30
0.0
 11
886.507286
 21
354.414676
 31
0.0
  0
LINE
  8
0
 10
886.507286
 20
354.414676
 30
0.0
 11
886.38055
 21
354.479865
 31
0.0
  0
LINE
  8
0
 10
886.38055
 20
354.479865
 30
0.0
 11
886.507286
 21
354.414676
 31
0.0
  0
LINE
  8
0
 10
886.38055
 20
354.479865
 30
0.0
 11
886.257786
 21
354.54863
 31
0.0
  0
LINE
  8
0
 10
886.257786
 20
354.54863
 30
0.0
 11
886.38055
 21
354.479865
 31
0.0
  0
LINE
  8
0
 10
886.257786
 20
354.54863
 30
0.0
 11
886.136811
 21
354.59849
 31
0.0
  0
LINE
  8
0
 10
886.136811
 20
354.59849
 30
0.0
 11
886.257786
 21
354.54863
 31
0.0
  0
LINE
  8
0
 10
886.136811
 20
354.59849
 30
0.0
 11
886.019808
 21
354.656098
 31
0.0
  0
LINE
  8
0
 10
886.019808
 20
354.656098
 30
0.0
 11
886.136811
 21
354.59849
 31
0.0
  0
LINE
  8
0
 10
886.019808
 20
354.656098
 30
0.0
 11
885.904594
 21
354.744131
 31
0.0
  0
LINE
  8
0
 10
885.904594
 20
354.744131
 30
0.0
 11
886.019808
 21
354.656098
 31
0.0
  0
LINE
  8
0
 10
885.904594
 20
354.744131
 30
0.0
 11
885.793352
 21
354.81326
 31
0.0
  0
LINE
  8
0
 10
885.793352
 20
354.81326
 30
0.0
 11
885.904594
 21
354.744131
 31
0.0
  0
LINE
  8
0
 10
885.793352
 20
354.81326
 30
0.0
 11
885.685884
 21
354.886163
 31
0.0
  0
LINE
  8
0
 10
885.685884
 20
354.886163
 30
0.0
 11
885.793352
 21
354.81326
 31
0.0
  0
LINE
  8
0
 10
885.685884
 20
354.886163
 30
0.0
 11
885.582191
 21
354.966814
 31
0.0
  0
LINE
  8
0
 10
885.582191
 20
354.966814
 30
0.0
 11
885.685884
 21
354.886163
 31
0.0
  0
LINE
  8
0
 10
885.582191
 20
354.966814
 30
0.0
 11
885.48247
 21
355.051238
 31
0.0
  0
LINE
  8
0
 10
885.48247
 20
355.051238
 30
0.0
 11
885.582191
 21
354.966814
 31
0.0
  0
LINE
  8
0
 10
885.48247
 20
355.051238
 30
0.0
 11
885.388511
 21
355.141424
 31
0.0
  0
LINE
  8
0
 10
885.388511
 20
355.141424
 30
0.0
 11
885.48247
 21
355.051238
 31
0.0
  0
LINE
  8
0
 10
877.355059
 20
345.354821
 30
0.0
 11
877.343538
 21
345.441034
 31
0.0
  0
LINE
  8
0
 10
877.343538
 20
345.441034
 30
0.0
 11
877.339764
 21
345.529431
 31
0.0
  0
LINE
  8
0
 10
877.355059
 20
345.354821
 30
0.0
 11
877.372342
 21
345.270397
 31
0.0
  0
LINE
  8
0
 10
877.372342
 20
345.270397
 30
0.0
 11
877.399358
 21
345.18776
 31
0.0
  0
LINE
  8
0
 10
877.399358
 20
345.18776
 30
0.0
 11
877.431935
 21
345.107109
 31
0.0
  0
LINE
  8
0
 10
877.431935
 20
345.107109
 30
0.0
 11
877.472261
 21
345.030432
 31
0.0
  0
LINE
  8
0
 10
877.472261
 20
345.030432
 30
0.0
 11
877.520134
 21
344.955542
 31
0.0
  0
LINE
  8
0
 10
877.520134
 20
344.955542
 30
0.0
 11
877.571981
 21
344.886413
 31
0.0
  0
LINE
  8
0
 10
877.571981
 20
344.886413
 30
0.0
 11
877.631575
 21
344.823244
 31
0.0
  0
LINE
  8
0
 10
877.631575
 20
344.823244
 30
0.0
 11
877.694744
 21
344.76365
 31
0.0
  0
LINE
  8
0
 10
877.694744
 20
344.76365
 30
0.0
 11
877.763873
 21
344.711803
 31
0.0
  0
LINE
  8
0
 10
877.763873
 20
344.711803
 30
0.0
 11
877.838763
 21
344.66393
 31
0.0
  0
LINE
  8
0
 10
877.838763
 20
344.66393
 30
0.0
 11
877.91544
 21
344.623604
 31
0.0
  0
LINE
  8
0
 10
877.91544
 20
344.623604
 30
0.0
 11
877.996091
 21
344.591026
 31
0.0
  0
LINE
  8
0
 10
877.996091
 20
344.591026
 30
0.0
 11
878.078728
 21
344.564011
 31
0.0
  0
LINE
  8
0
 10
878.078728
 20
344.564011
 30
0.0
 11
878.163152
 21
344.546728
 31
0.0
  0
LINE
  8
0
 10
878.163152
 20
344.546728
 30
0.0
 11
878.249365
 21
344.535207
 31
0.0
  0
LINE
  8
0
 10
878.249365
 20
344.535207
 30
0.0
 11
878.337762
 21
344.531433
 31
0.0
  0
LINE
  8
0
 10
877.343538
 20
345.441034
 30
0.0
 11
877.339764
 21
345.529431
 31
0.0
  0
LINE
  8
0
 10
877.343538
 20
345.441034
 30
0.0
 11
877.355059
 21
345.354821
 31
0.0
  0
LINE
  8
0
 10
877.355059
 20
345.354821
 30
0.0
 11
877.372342
 21
345.270397
 31
0.0
  0
LINE
  8
0
 10
877.372342
 20
345.270397
 30
0.0
 11
877.399358
 21
345.18776
 31
0.0
  0
LINE
  8
0
 10
877.399358
 20
345.18776
 30
0.0
 11
877.431935
 21
345.107109
 31
0.0
  0
LINE
  8
0
 10
877.431935
 20
345.107109
 30
0.0
 11
877.472261
 21
345.030432
 31
0.0
  0
LINE
  8
0
 10
877.472261
 20
345.030432
 30
0.0
 11
877.520134
 21
344.955542
 31
0.0
  0
LINE
  8
0
 10
877.520134
 20
344.955542
 30
0.0
 11
877.571981
 21
344.886413
 31
0.0
  0
LINE
  8
0
 10
877.571981
 20
344.886413
 30
0.0
 11
877.631575
 21
344.823244
 31
0.0
  0
LINE
  8
0
 10
877.631575
 20
344.823244
 30
0.0
 11
877.694744
 21
344.76365
 31
0.0
  0
LINE
  8
0
 10
877.694744
 20
344.76365
 30
0.0
 11
877.763873
 21
344.711803
 31
0.0
  0
LINE
  8
0
 10
877.763873
 20
344.711803
 30
0.0
 11
877.838763
 21
344.66393
 31
0.0
  0
LINE
  8
0
 10
877.838763
 20
344.66393
 30
0.0
 11
877.91544
 21
344.623604
 31
0.0
  0
LINE
  8
0
 10
877.91544
 20
344.623604
 30
0.0
 11
877.996091
 21
344.591026
 31
0.0
  0
LINE
  8
0
 10
877.996091
 20
344.591026
 30
0.0
 11
878.078728
 21
344.564011
 31
0.0
  0
LINE
  8
0
 10
878.078728
 20
344.564011
 30
0.0
 11
878.163152
 21
344.546728
 31
0.0
  0
LINE
  8
0
 10
878.163152
 20
344.546728
 30
0.0
 11
878.249365
 21
344.535207
 31
0.0
  0
LINE
  8
0
 10
878.249365
 20
344.535207
 30
0.0
 11
878.337762
 21
344.531433
 31
0.0
  0
LINE
  8
0
 10
880.916985
 20
344.531433
 30
0.0
 11
881.003396
 21
344.535207
 31
0.0
  0
LINE
  8
0
 10
881.003396
 20
344.535207
 30
0.0
 11
881.089608
 21
344.546728
 31
0.0
  0
LINE
  8
0
 10
881.089608
 20
344.546728
 30
0.0
 11
881.174231
 21
344.564011
 31
0.0
  0
LINE
  8
0
 10
881.174231
 20
344.564011
 30
0.0
 11
881.258656
 21
344.591026
 31
0.0
  0
LINE
  8
0
 10
881.258656
 20
344.591026
 30
0.0
 11
881.339108
 21
344.623604
 31
0.0
  0
LINE
  8
0
 10
881.339108
 20
344.623604
 30
0.0
 11
881.415984
 21
344.66393
 31
0.0
  0
LINE
  8
0
 10
881.415984
 20
344.66393
 30
0.0
 11
881.488887
 21
344.711803
 31
0.0
  0
LINE
  8
0
 10
881.488887
 20
344.711803
 30
0.0
 11
881.558016
 21
344.76365
 31
0.0
  0
LINE
  8
0
 10
881.558016
 20
344.76365
 30
0.0
 11
881.623172
 21
344.823244
 31
0.0
  0
LINE
  8
0
 10
881.003396
 20
344.535207
 30
0.0
 11
880.916985
 21
344.531433
 31
0.0
  0
LINE
  8
0
 10
881.003396
 20
344.535207
 30
0.0
 11
881.089608
 21
344.546728
 31
0.0
  0
LINE
  8
0
 10
881.089608
 20
344.546728
 30
0.0
 11
881.174231
 21
344.564011
 31
0.0
  0
LINE
  8
0
 10
881.174231
 20
344.564011
 30
0.0
 11
881.258656
 21
344.591026
 31
0.0
  0
LINE
  8
0
 10
881.258656
 20
344.591026
 30
0.0
 11
881.339108
 21
344.623604
 31
0.0
  0
LINE
  8
0
 10
881.339108
 20
344.623604
 30
0.0
 11
881.415984
 21
344.66393
 31
0.0
  0
LINE
  8
0
 10
881.415984
 20
344.66393
 30
0.0
 11
881.488887
 21
344.711803
 31
0.0
  0
LINE
  8
0
 10
881.488887
 20
344.711803
 30
0.0
 11
881.558016
 21
344.76365
 31
0.0
  0
LINE
  8
0
 10
881.558016
 20
344.76365
 30
0.0
 11
881.623172
 21
344.823244
 31
0.0
  0
LINE
  8
0
 10
885.388511
 20
348.588384
 30
0.0
 11
885.48247
 21
348.678569
 31
0.0
  0
LINE
  8
0
 10
885.48247
 20
348.678569
 30
0.0
 11
885.388511
 21
348.588384
 31
0.0
  0
LINE
  8
0
 10
885.48247
 20
348.678569
 30
0.0
 11
885.582191
 21
348.762994
 31
0.0
  0
LINE
  8
0
 10
885.582191
 20
348.762994
 30
0.0
 11
885.48247
 21
348.678569
 31
0.0
  0
LINE
  8
0
 10
885.582191
 20
348.762994
 30
0.0
 11
885.685884
 21
348.843644
 31
0.0
  0
LINE
  8
0
 10
885.685884
 20
348.843644
 30
0.0
 11
885.582191
 21
348.762994
 31
0.0
  0
LINE
  8
0
 10
885.685884
 20
348.843644
 30
0.0
 11
885.793352
 21
348.916548
 31
0.0
  0
LINE
  8
0
 10
885.793352
 20
348.916548
 30
0.0
 11
885.685884
 21
348.843644
 31
0.0
  0
LINE
  8
0
 10
885.793352
 20
348.916548
 30
0.0
 11
885.904594
 21
348.985677
 31
0.0
  0
LINE
  8
0
 10
885.904594
 20
348.985677
 30
0.0
 11
885.793352
 21
348.916548
 31
0.0
  0
LINE
  8
0
 10
885.904594
 20
348.985677
 30
0.0
 11
886.019808
 21
349.047058
 31
0.0
  0
LINE
  8
0
 10
886.019808
 20
349.047058
 30
0.0
 11
885.904594
 21
348.985677
 31
0.0
  0
LINE
  8
0
 10
886.019808
 20
349.047058
 30
0.0
 11
886.136811
 21
349.104666
 31
0.0
  0
LINE
  8
0
 10
886.136811
 20
349.104666
 30
0.0
 11
886.019808
 21
349.047058
 31
0.0
  0
LINE
  8
0
 10
886.136811
 20
349.104666
 30
0.0
 11
886.257786
 21
349.154526
 31
0.0
  0
LINE
  8
0
 10
886.257786
 20
349.154526
 30
0.0
 11
886.136811
 21
349.104666
 31
0.0
  0
LINE
  8
0
 10
886.257786
 20
349.154526
 30
0.0
 11
886.38055
 21
349.196837
 31
0.0
  0
LINE
  8
0
 10
886.38055
 20
349.196837
 30
0.0
 11
886.257786
 21
349.154526
 31
0.0
  0
LINE
  8
0
 10
886.38055
 20
349.196837
 30
0.0
 11
886.507286
 21
349.235176
 31
0.0
  0
LINE
  8
0
 10
886.507286
 20
349.235176
 30
0.0
 11
886.38055
 21
349.196837
 31
0.0
  0
LINE
  8
0
 10
886.507286
 20
349.235176
 30
0.0
 11
886.634022
 21
349.265768
 31
0.0
  0
LINE
  8
0
 10
886.634022
 20
349.265768
 30
0.0
 11
886.507286
 21
349.235176
 31
0.0
  0
LINE
  8
0
 10
886.634022
 20
349.265768
 30
0.0
 11
886.762546
 21
349.288811
 31
0.0
  0
LINE
  8
0
 10
886.762546
 20
349.288811
 30
0.0
 11
886.634022
 21
349.265768
 31
0.0
  0
LINE
  8
0
 10
886.762546
 20
349.288811
 30
0.0
 11
886.891071
 21
349.306093
 31
0.0
  0
LINE
  8
0
 10
886.891071
 20
349.306093
 30
0.0
 11
886.762546
 21
349.288811
 31
0.0
  0
LINE
  8
0
 10
886.891071
 20
349.306093
 30
0.0
 11
887.021581
 21
349.315827
 31
0.0
  0
LINE
  8
0
 10
887.021581
 20
349.315827
 30
0.0
 11
886.891071
 21
349.306093
 31
0.0
  0
LINE
  8
0
 10
887.021581
 20
349.315827
 30
0.0
 11
887.152092
 21
349.319601
 31
0.0
  0
LINE
  8
0
 10
887.152092
 20
349.319601
 30
0.0
 11
887.021581
 21
349.315827
 31
0.0
  0
LINE
  8
0
 10
920.029827
 20
349.319601
 30
0.0
 11
920.116238
 21
349.323375
 31
0.0
  0
LINE
  8
0
 10
920.116238
 20
349.323375
 30
0.0
 11
920.202649
 21
349.334897
 31
0.0
  0
LINE
  8
0
 10
920.202649
 20
349.334897
 30
0.0
 11
920.287074
 21
349.354165
 31
0.0
  0
LINE
  8
0
 10
920.287074
 20
349.354165
 30
0.0
 11
920.369512
 21
349.378996
 31
0.0
  0
LINE
  8
0
 10
920.369512
 20
349.378996
 30
0.0
 11
920.450162
 21
349.41356
 31
0.0
  0
LINE
  8
0
 10
920.450162
 20
349.41356
 30
0.0
 11
920.528826
 21
349.453886
 31
0.0
  0
LINE
  8
0
 10
920.528826
 20
349.453886
 30
0.0
 11
920.450162
 21
349.41356
 31
0.0
  0
LINE
  8
0
 10
920.450162
 20
349.41356
 30
0.0
 11
920.369512
 21
349.378996
 31
0.0
  0
LINE
  8
0
 10
920.369512
 20
349.378996
 30
0.0
 11
920.287074
 21
349.354165
 31
0.0
  0
LINE
  8
0
 10
920.287074
 20
349.354165
 30
0.0
 11
920.202649
 21
349.334897
 31
0.0
  0
LINE
  8
0
 10
920.202649
 20
349.334897
 30
0.0
 11
920.116238
 21
349.323375
 31
0.0
  0
LINE
  8
0
 10
920.116238
 20
349.323375
 30
0.0
 11
920.029827
 21
349.319601
 31
0.0
  0
LINE
  8
0
 10
920.528826
 20
354.172925
 30
0.0
 11
920.450162
 21
354.21325
 31
0.0
  0
LINE
  8
0
 10
920.450162
 20
354.21325
 30
0.0
 11
920.369512
 21
354.247815
 31
0.0
  0
LINE
  8
0
 10
920.369512
 20
354.247815
 30
0.0
 11
920.287074
 21
354.272645
 31
0.0
  0
LINE
  8
0
 10
920.287074
 20
354.272645
 30
0.0
 11
920.202649
 21
354.291914
 31
0.0
  0
LINE
  8
0
 10
920.202649
 20
354.291914
 30
0.0
 11
920.116238
 21
354.303436
 31
0.0
  0
LINE
  8
0
 10
920.116238
 20
354.303436
 30
0.0
 11
920.029827
 21
354.30721
 31
0.0
  0
LINE
  8
0
 10
920.029827
 20
354.30721
 30
0.0
 11
920.116238
 21
354.303436
 31
0.0
  0
LINE
  8
0
 10
920.116238
 20
354.303436
 30
0.0
 11
920.202649
 21
354.291914
 31
0.0
  0
LINE
  8
0
 10
920.202649
 20
354.291914
 30
0.0
 11
920.287074
 21
354.272645
 31
0.0
  0
LINE
  8
0
 10
920.287074
 20
354.272645
 30
0.0
 11
920.369512
 21
354.247815
 31
0.0
  0
LINE
  8
0
 10
920.369512
 20
354.247815
 30
0.0
 11
920.450162
 21
354.21325
 31
0.0
  0
LINE
  8
0
 10
920.450162
 20
354.21325
 30
0.0
 11
920.528826
 21
354.172925
 31
0.0
  0
LINE
  8
0
 10
879.540962
 20
356.298737
 30
0.0
 11
879.477594
 21
356.239143
 31
0.0
  0
LINE
  8
0
 10
879.477594
 20
356.239143
 30
0.0
 11
879.540962
 21
356.298737
 31
0.0
  0
LINE
  8
0
 10
879.477594
 20
356.239143
 30
0.0
 11
879.408664
 21
356.187296
 31
0.0
  0
LINE
  8
0
 10
879.408664
 20
356.187296
 30
0.0
 11
879.477594
 21
356.239143
 31
0.0
  0
LINE
  8
0
 10
879.408664
 20
356.187296
 30
0.0
 11
879.333774
 21
356.139422
 31
0.0
  0
LINE
  8
0
 10
879.333774
 20
356.139422
 30
0.0
 11
879.408664
 21
356.187296
 31
0.0
  0
LINE
  8
0
 10
879.333774
 20
356.139422
 30
0.0
 11
879.256898
 21
356.101084
 31
0.0
  0
LINE
  8
0
 10
879.256898
 20
356.101084
 30
0.0
 11
879.333774
 21
356.139422
 31
0.0
  0
LINE
  8
0
 10
879.256898
 20
356.101084
 30
0.0
 11
879.176446
 21
356.066519
 31
0.0
  0
LINE
  8
0
 10
879.176446
 20
356.066519
 30
0.0
 11
879.256898
 21
356.101084
 31
0.0
  0
LINE
  8
0
 10
879.176446
 20
356.066519
 30
0.0
 11
879.09381
 21
356.04149
 31
0.0
  0
LINE
  8
0
 10
879.09381
 20
356.04149
 30
0.0
 11
879.176446
 21
356.066519
 31
0.0
  0
LINE
  8
0
 10
879.09381
 20
356.04149
 30
0.0
 11
879.009385
 21
356.02242
 31
0.0
  0
LINE
  8
0
 10
879.009385
 20
356.02242
 30
0.0
 11
879.09381
 21
356.04149
 31
0.0
  0
LINE
  8
0
 10
879.009385
 20
356.02242
 30
0.0
 11
878.922974
 21
356.010898
 31
0.0
  0
LINE
  8
0
 10
878.922974
 20
356.010898
 30
0.0
 11
879.009385
 21
356.02242
 31
0.0
  0
LINE
  8
0
 10
878.922974
 20
356.010898
 30
0.0
 11
878.836761
 21
356.006925
 31
0.0
  0
LINE
  8
0
 10
878.836761
 20
356.006925
 30
0.0
 11
878.922974
 21
356.010898
 31
0.0
  0
LINE
  8
0
 10
878.836761
 20
356.006925
 30
0.0
 11
878.748364
 21
356.010898
 31
0.0
  0
LINE
  8
0
 10
878.748364
 20
356.010898
 30
0.0
 11
878.836761
 21
356.006925
 31
0.0
  0
LINE
  8
0
 10
878.748364
 20
356.010898
 30
0.0
 11
878.661953
 21
356.02242
 31
0.0
  0
LINE
  8
0
 10
878.661953
 20
356.02242
 30
0.0
 11
878.748364
 21
356.010898
 31
0.0
  0
LINE
  8
0
 10
878.661953
 20
356.02242
 30
0.0
 11
878.577528
 21
356.04149
 31
0.0
  0
LINE
  8
0
 10
878.577528
 20
356.04149
 30
0.0
 11
878.661953
 21
356.02242
 31
0.0
  0
LINE
  8
0
 10
878.577528
 20
356.04149
 30
0.0
 11
878.49509
 21
356.066519
 31
0.0
  0
LINE
  8
0
 10
878.49509
 20
356.066519
 30
0.0
 11
878.577528
 21
356.04149
 31
0.0
  0
LINE
  8
0
 10
878.49509
 20
356.066519
 30
0.0
 11
878.41444
 21
356.101084
 31
0.0
  0
LINE
  8
0
 10
878.41444
 20
356.101084
 30
0.0
 11
878.49509
 21
356.066519
 31
0.0
  0
LINE
  8
0
 10
878.41444
 20
356.101084
 30
0.0
 11
878.337762
 21
356.139422
 31
0.0
  0
LINE
  8
0
 10
878.337762
 20
356.139422
 30
0.0
 11
878.41444
 21
356.101084
 31
0.0
  0
LINE
  8
0
 10
878.337762
 20
356.139422
 30
0.0
 11
878.262873
 21
356.187296
 31
0.0
  0
LINE
  8
0
 10
878.262873
 20
356.187296
 30
0.0
 11
878.337762
 21
356.139422
 31
0.0
  0
LINE
  8
0
 10
878.262873
 20
356.187296
 30
0.0
 11
878.193744
 21
356.239143
 31
0.0
  0
LINE
  8
0
 10
878.193744
 20
356.239143
 30
0.0
 11
878.262873
 21
356.187296
 31
0.0
  0
LINE
  8
0
 10
878.193744
 20
356.239143
 30
0.0
 11
878.130376
 21
356.298737
 31
0.0
  0
LINE
  8
0
 10
878.130376
 20
356.298737
 30
0.0
 11
878.193744
 21
356.239143
 31
0.0
  0
LINE
  8
0
 10
877.339764
 20
358.200575
 30
0.0
 11
877.343538
 21
358.288774
 31
0.0
  0
LINE
  8
0
 10
877.343538
 20
358.288774
 30
0.0
 11
877.339764
 21
358.200575
 31
0.0
  0
LINE
  8
0
 10
877.343538
 20
358.288774
 30
0.0
 11
877.355059
 21
358.375185
 31
0.0
  0
LINE
  8
0
 10
877.355059
 20
358.375185
 30
0.0
 11
877.343538
 21
358.288774
 31
0.0
  0
LINE
  8
0
 10
877.355059
 20
358.375185
 30
0.0
 11
877.372342
 21
358.45961
 31
0.0
  0
LINE
  8
0
 10
877.372342
 20
358.45961
 30
0.0
 11
877.355059
 21
358.375185
 31
0.0
  0
LINE
  8
0
 10
877.372342
 20
358.45961
 30
0.0
 11
877.399358
 21
358.542048
 31
0.0
  0
LINE
  8
0
 10
877.399358
 20
358.542048
 30
0.0
 11
877.372342
 21
358.45961
 31
0.0
  0
LINE
  8
0
 10
877.399358
 20
358.542048
 30
0.0
 11
877.431935
 21
358.622699
 31
0.0
  0
LINE
  8
0
 10
877.431935
 20
358.622699
 30
0.0
 11
877.399358
 21
358.542048
 31
0.0
  0
LINE
  8
0
 10
877.431935
 20
358.622699
 30
0.0
 11
877.472261
 21
358.699376
 31
0.0
  0
LINE
  8
0
 10
877.472261
 20
358.699376
 30
0.0
 11
877.431935
 21
358.622699
 31
0.0
  0
LINE
  8
0
 10
877.472261
 20
358.699376
 30
0.0
 11
877.520134
 21
358.774266
 31
0.0
  0
LINE
  8
0
 10
877.520134
 20
358.774266
 30
0.0
 11
877.472261
 21
358.699376
 31
0.0
  0
LINE
  8
0
 10
877.520134
 20
358.774266
 30
0.0
 11
877.571981
 21
358.843394
 31
0.0
  0
LINE
  8
0
 10
877.571981
 20
358.843394
 30
0.0
 11
877.520134
 21
358.774266
 31
0.0
  0
LINE
  8
0
 10
877.571981
 20
358.843394
 30
0.0
 11
877.631575
 21
358.906763
 31
0.0
  0
LINE
  8
0
 10
877.631575
 20
358.906763
 30
0.0
 11
877.571981
 21
358.843394
 31
0.0
  0
LINE
  8
0
 10
877.631575
 20
358.906763
 30
0.0
 11
877.694744
 21
358.966158
 31
0.0
  0
LINE
  8
0
 10
877.694744
 20
358.966158
 30
0.0
 11
877.631575
 21
358.906763
 31
0.0
  0
LINE
  8
0
 10
877.694744
 20
358.966158
 30
0.0
 11
877.763873
 21
359.018005
 31
0.0
  0
LINE
  8
0
 10
877.763873
 20
359.018005
 30
0.0
 11
877.694744
 21
358.966158
 31
0.0
  0
LINE
  8
0
 10
877.763873
 20
359.018005
 30
0.0
 11
877.838763
 21
359.066077
 31
0.0
  0
LINE
  8
0
 10
877.838763
 20
359.066077
 30
0.0
 11
877.763873
 21
359.018005
 31
0.0
  0
LINE
  8
0
 10
877.838763
 20
359.066077
 30
0.0
 11
877.91544
 21
359.106203
 31
0.0
  0
LINE
  8
0
 10
877.91544
 20
359.106203
 30
0.0
 11
877.838763
 21
359.066077
 31
0.0
  0
LINE
  8
0
 10
877.91544
 20
359.106203
 30
0.0
 11
877.996091
 21
359.13898
 31
0.0
  0
LINE
  8
0
 10
877.996091
 20
359.13898
 30
0.0
 11
877.91544
 21
359.106203
 31
0.0
  0
LINE
  8
0
 10
877.996091
 20
359.13898
 30
0.0
 11
878.078728
 21
359.165797
 31
0.0
  0
LINE
  8
0
 10
878.078728
 20
359.165797
 30
0.0
 11
877.996091
 21
359.13898
 31
0.0
  0
LINE
  8
0
 10
878.078728
 20
359.165797
 30
0.0
 11
878.163152
 21
359.18308
 31
0.0
  0
LINE
  8
0
 10
878.163152
 20
359.18308
 30
0.0
 11
878.078728
 21
359.165797
 31
0.0
  0
LINE
  8
0
 10
878.163152
 20
359.18308
 30
0.0
 11
878.249365
 21
359.194601
 31
0.0
  0
LINE
  8
0
 10
878.249365
 20
359.194601
 30
0.0
 11
878.163152
 21
359.18308
 31
0.0
  0
LINE
  8
0
 10
878.249365
 20
359.194601
 30
0.0
 11
878.337762
 21
359.198375
 31
0.0
  0
LINE
  8
0
 10
878.337762
 20
359.198375
 30
0.0
 11
878.249365
 21
359.194601
 31
0.0
  0
LINE
  8
0
 10
880.916985
 20
359.198375
 30
0.0
 11
881.003396
 21
359.194601
 31
0.0
  0
LINE
  8
0
 10
881.003396
 20
359.194601
 30
0.0
 11
880.916985
 21
359.198375
 31
0.0
  0
LINE
  8
0
 10
881.003396
 20
359.194601
 30
0.0
 11
881.089608
 21
359.18308
 31
0.0
  0
LINE
  8
0
 10
881.089608
 20
359.18308
 30
0.0
 11
881.003396
 21
359.194601
 31
0.0
  0
LINE
  8
0
 10
881.089608
 20
359.18308
 30
0.0
 11
881.174231
 21
359.165797
 31
0.0
  0
LINE
  8
0
 10
881.174231
 20
359.165797
 30
0.0
 11
881.089608
 21
359.18308
 31
0.0
  0
LINE
  8
0
 10
881.174231
 20
359.165797
 30
0.0
 11
881.258656
 21
359.13898
 31
0.0
  0
LINE
  8
0
 10
881.258656
 20
359.13898
 30
0.0
 11
881.174231
 21
359.165797
 31
0.0
  0
LINE
  8
0
 10
881.258656
 20
359.13898
 30
0.0
 11
881.339108
 21
359.106203
 31
0.0
  0
LINE
  8
0
 10
881.339108
 20
359.106203
 30
0.0
 11
881.258656
 21
359.13898
 31
0.0
  0
LINE
  8
0
 10
881.339108
 20
359.106203
 30
0.0
 11
881.415984
 21
359.066077
 31
0.0
  0
LINE
  8
0
 10
881.415984
 20
359.066077
 30
0.0
 11
881.339108
 21
359.106203
 31
0.0
  0
LINE
  8
0
 10
881.415984
 20
359.066077
 30
0.0
 11
881.488887
 21
359.018005
 31
0.0
  0
LINE
  8
0
 10
881.488887
 20
359.018005
 30
0.0
 11
881.415984
 21
359.066077
 31
0.0
  0
LINE
  8
0
 10
881.488887
 20
359.018005
 30
0.0
 11
881.558016
 21
358.966158
 31
0.0
  0
LINE
  8
0
 10
881.558016
 20
358.966158
 30
0.0
 11
881.488887
 21
359.018005
 31
0.0
  0
LINE
  8
0
 10
881.558016
 20
358.966158
 30
0.0
 11
881.623172
 21
358.906763
 31
0.0
  0
LINE
  8
0
 10
881.623172
 20
358.906763
 30
0.0
 11
881.558016
 21
358.966158
 31
0.0
  0
LINE
  8
0
 10
880.404676
 20
357.866651
 30
0.0
 11
880.35859
 21
357.906778
 31
0.0
  0
LINE
  8
0
 10
880.35859
 20
357.906778
 30
0.0
 11
880.310518
 21
357.941342
 31
0.0
  0
LINE
  8
0
 10
880.310518
 20
357.941342
 30
0.0
 11
880.256883
 21
357.970146
 31
0.0
  0
LINE
  8
0
 10
880.256883
 20
357.970146
 30
0.0
 11
880.199276
 21
357.991202
 31
0.0
  0
LINE
  8
0
 10
880.199276
 20
357.991202
 30
0.0
 11
880.141668
 21
358.00471
 31
0.0
  0
LINE
  8
0
 10
880.141668
 20
358.00471
 30
0.0
 11
880.082273
 21
358.012457
 31
0.0
  0
LINE
  8
0
 10
880.082273
 20
358.012457
 30
0.0
 11
880.020693
 21
358.012457
 31
0.0
  0
LINE
  8
0
 10
880.020693
 20
358.012457
 30
0.0
 11
879.961298
 21
358.00471
 31
0.0
  0
LINE
  8
0
 10
879.961298
 20
358.00471
 30
0.0
 11
879.90369
 21
357.991202
 31
0.0
  0
LINE
  8
0
 10
879.90369
 20
357.991202
 30
0.0
 11
879.846083
 21
357.970146
 31
0.0
  0
LINE
  8
0
 10
879.846083
 20
357.970146
 30
0.0
 11
879.794236
 21
357.941342
 31
0.0
  0
LINE
  8
0
 10
879.794236
 20
357.941342
 30
0.0
 11
879.744376
 21
357.906778
 31
0.0
  0
LINE
  8
0
 10
879.744376
 20
357.906778
 30
0.0
 11
879.69829
 21
357.866651
 31
0.0
  0
LINE
  8
0
 10
879.69829
 20
357.866651
 30
0.0
 11
879.744376
 21
357.906778
 31
0.0
  0
LINE
  8
0
 10
879.744376
 20
357.906778
 30
0.0
 11
879.794236
 21
357.941342
 31
0.0
  0
LINE
  8
0
 10
879.794236
 20
357.941342
 30
0.0
 11
879.846083
 21
357.970146
 31
0.0
  0
LINE
  8
0
 10
879.846083
 20
357.970146
 30
0.0
 11
879.90369
 21
357.991202
 31
0.0
  0
LINE
  8
0
 10
879.90369
 20
357.991202
 30
0.0
 11
879.961298
 21
358.00471
 31
0.0
  0
LINE
  8
0
 10
879.961298
 20
358.00471
 30
0.0
 11
880.020693
 21
358.012457
 31
0.0
  0
LINE
  8
0
 10
880.020693
 20
358.012457
 30
0.0
 11
880.082273
 21
358.012457
 31
0.0
  0
LINE
  8
0
 10
880.082273
 20
358.012457
 30
0.0
 11
880.141668
 21
358.00471
 31
0.0
  0
LINE
  8
0
 10
880.141668
 20
358.00471
 30
0.0
 11
880.199276
 21
357.991202
 31
0.0
  0
LINE
  8
0
 10
880.199276
 20
357.991202
 30
0.0
 11
880.256883
 21
357.970146
 31
0.0
  0
LINE
  8
0
 10
880.256883
 20
357.970146
 30
0.0
 11
880.310518
 21
357.941342
 31
0.0
  0
LINE
  8
0
 10
880.310518
 20
357.941342
 30
0.0
 11
880.35859
 21
357.906778
 31
0.0
  0
LINE
  8
0
 10
880.35859
 20
357.906778
 30
0.0
 11
880.404676
 21
357.866651
 31
0.0
  0
LINE
  8
0
 10
880.404676
 20
357.866651
 30
0.0
 11
880.444803
 21
357.822353
 31
0.0
  0
LINE
  8
0
 10
880.444803
 20
357.822353
 30
0.0
 11
880.404676
 21
357.866651
 31
0.0
  0
LINE
  8
0
 10
880.444803
 20
357.822353
 30
0.0
 11
880.479367
 21
357.772493
 31
0.0
  0
LINE
  8
0
 10
880.479367
 20
357.772493
 30
0.0
 11
880.444803
 21
357.822353
 31
0.0
  0
LINE
  8
0
 10
880.479367
 20
357.772493
 30
0.0
 11
880.506383
 21
357.718858
 31
0.0
  0
LINE
  8
0
 10
880.506383
 20
357.718858
 30
0.0
 11
880.479367
 21
357.772493
 31
0.0
  0
LINE
  8
0
 10
880.506383
 20
357.718858
 30
0.0
 11
880.527439
 21
357.663039
 31
0.0
  0
LINE
  8
0
 10
880.527439
 20
357.663039
 30
0.0
 11
880.506383
 21
357.718858
 31
0.0
  0
LINE
  8
0
 10
880.527439
 20
357.663039
 30
0.0
 11
880.542735
 21
357.603644
 31
0.0
  0
LINE
  8
0
 10
880.542735
 20
357.603644
 30
0.0
 11
880.527439
 21
357.663039
 31
0.0
  0
LINE
  8
0
 10
880.542735
 20
357.603644
 30
0.0
 11
880.550482
 21
357.544248
 31
0.0
  0
LINE
  8
0
 10
880.550482
 20
357.544248
 30
0.0
 11
880.542735
 21
357.603644
 31
0.0
  0
LINE
  8
0
 10
880.550482
 20
357.544248
 30
0.0
 11
880.550482
 21
357.484654
 31
0.0
  0
LINE
  8
0
 10
880.550482
 20
357.484654
 30
0.0
 11
880.550482
 21
357.544248
 31
0.0
  0
LINE
  8
0
 10
880.550482
 20
357.484654
 30
0.0
 11
880.542735
 21
357.425259
 31
0.0
  0
LINE
  8
0
 10
880.542735
 20
357.425259
 30
0.0
 11
880.550482
 21
357.484654
 31
0.0
  0
LINE
  8
0
 10
880.542735
 20
357.425259
 30
0.0
 11
880.527439
 21
357.365665
 31
0.0
  0
LINE
  8
0
 10
880.527439
 20
357.365665
 30
0.0
 11
880.542735
 21
357.425259
 31
0.0
  0
LINE
  8
0
 10
880.527439
 20
357.365665
 30
0.0
 11
880.506383
 21
357.310044
 31
0.0
  0
LINE
  8
0
 10
880.506383
 20
357.310044
 30
0.0
 11
880.527439
 21
357.365665
 31
0.0
  0
LINE
  8
0
 10
880.506383
 20
357.310044
 30
0.0
 11
880.479367
 21
357.256211
 31
0.0
  0
LINE
  8
0
 10
880.479367
 20
357.256211
 30
0.0
 11
880.506383
 21
357.310044
 31
0.0
  0
LINE
  8
0
 10
880.479367
 20
357.256211
 30
0.0
 11
880.444803
 21
357.206351
 31
0.0
  0
LINE
  8
0
 10
880.444803
 20
357.206351
 30
0.0
 11
880.479367
 21
357.256211
 31
0.0
  0
LINE
  8
0
 10
880.444803
 20
357.206351
 30
0.0
 11
880.404676
 21
357.162252
 31
0.0
  0
LINE
  8
0
 10
880.404676
 20
357.162252
 30
0.0
 11
880.444803
 21
357.206351
 31
0.0
  0
LINE
  8
0
 10
884.768536
 20
353.644625
 30
0.0
 11
884.862694
 21
353.566704
 31
0.0
  0
LINE
  8
0
 10
884.862694
 20
353.566704
 30
0.0
 11
884.962415
 21
353.486087
 31
0.0
  0
LINE
  8
0
 10
884.962415
 20
353.486087
 30
0.0
 11
885.066108
 21
353.40901
 31
0.0
  0
LINE
  8
0
 10
885.066108
 20
353.40901
 30
0.0
 11
885.173575
 21
353.33576
 31
0.0
  0
LINE
  8
0
 10
885.173575
 20
353.33576
 30
0.0
 11
885.284817
 21
353.266475
 31
0.0
  0
LINE
  8
0
 10
885.284817
 20
353.266475
 30
0.0
 11
885.400032
 21
353.201204
 31
0.0
  0
LINE
  8
0
 10
885.400032
 20
353.201204
 30
0.0
 11
885.517035
 21
353.141216
 31
0.0
  0
LINE
  8
0
 10
885.517035
 20
353.141216
 30
0.0
 11
885.63801
 21
353.085447
 31
0.0
  0
LINE
  8
0
 10
885.63801
 20
353.085447
 30
0.0
 11
885.760774
 21
353.034989
 31
0.0
  0
LINE
  8
0
 10
885.760774
 20
353.034989
 30
0.0
 11
885.887311
 21
352.98912
 31
0.0
  0
LINE
  8
0
 10
885.887311
 20
352.98912
 30
0.0
 11
886.014048
 21
352.949148
 31
0.0
  0
LINE
  8
0
 10
886.014048
 20
352.949148
 30
0.0
 11
886.142572
 21
352.914474
 31
0.0
  0
LINE
  8
0
 10
886.142572
 20
352.914474
 30
0.0
 11
886.271294
 21
352.885465
 31
0.0
  0
LINE
  8
0
 10
886.271294
 20
352.885465
 30
0.0
 11
886.401805
 21
352.854423
 31
0.0
  0
LINE
  8
0
 10
886.401805
 20
352.854423
 30
0.0
 11
886.532316
 21
352.821827
 31
0.0
  0
LINE
  8
0
 10
886.532316
 20
352.821827
 30
0.0
 11
886.401805
 21
352.854423
 31
0.0
  0
LINE
  8
0
 10
886.401805
 20
352.854423
 30
0.0
 11
886.271294
 21
352.885465
 31
0.0
  0
LINE
  8
0
 10
886.271294
 20
352.885465
 30
0.0
 11
886.142572
 21
352.914474
 31
0.0
  0
LINE
  8
0
 10
886.142572
 20
352.914474
 30
0.0
 11
886.014048
 21
352.949148
 31
0.0
  0
LINE
  8
0
 10
886.014048
 20
352.949148
 30
0.0
 11
885.887311
 21
352.98912
 31
0.0
  0
LINE
  8
0
 10
885.887311
 20
352.98912
 30
0.0
 11
885.760774
 21
353.034989
 31
0.0
  0
LINE
  8
0
 10
885.760774
 20
353.034989
 30
0.0
 11
885.63801
 21
353.085447
 31
0.0
  0
LINE
  8
0
 10
885.63801
 20
353.085447
 30
0.0
 11
885.517035
 21
353.141216
 31
0.0
  0
LINE
  8
0
 10
885.517035
 20
353.141216
 30
0.0
 11
885.400032
 21
353.201204
 31
0.0
  0
LINE
  8
0
 10
885.400032
 20
353.201204
 30
0.0
 11
885.284817
 21
353.266475
 31
0.0
  0
LINE
  8
0
 10
885.284817
 20
353.266475
 30
0.0
 11
885.173575
 21
353.33576
 31
0.0
  0
LINE
  8
0
 10
885.173575
 20
353.33576
 30
0.0
 11
885.066108
 21
353.40901
 31
0.0
  0
LINE
  8
0
 10
885.066108
 20
353.40901
 30
0.0
 11
884.962415
 21
353.486087
 31
0.0
  0
LINE
  8
0
 10
884.962415
 20
353.486087
 30
0.0
 11
884.862694
 21
353.566704
 31
0.0
  0
LINE
  8
0
 10
884.862694
 20
353.566704
 30
0.0
 11
884.768536
 21
353.644625
 31
0.0
  0
LINE
  8
0
 10
884.768536
 20
350.085382
 30
0.0
 11
884.862694
 21
350.175567
 31
0.0
  0
LINE
  8
0
 10
884.862694
 20
350.175567
 30
0.0
 11
884.768536
 21
350.085382
 31
0.0
  0
LINE
  8
0
 10
884.862694
 20
350.175567
 30
0.0
 11
884.962415
 21
350.259992
 31
0.0
  0
LINE
  8
0
 10
884.962415
 20
350.259992
 30
0.0
 11
884.862694
 21
350.175567
 31
0.0
  0
LINE
  8
0
 10
884.962415
 20
350.259992
 30
0.0
 11
885.066108
 21
350.338656
 31
0.0
  0
LINE
  8
0
 10
885.066108
 20
350.338656
 30
0.0
 11
884.962415
 21
350.259992
 31
0.0
  0
LINE
  8
0
 10
885.066108
 20
350.338656
 30
0.0
 11
885.173575
 21
350.413545
 31
0.0
  0
LINE
  8
0
 10
885.173575
 20
350.413545
 30
0.0
 11
885.066108
 21
350.338656
 31
0.0
  0
LINE
  8
0
 10
885.173575
 20
350.413545
 30
0.0
 11
885.284817
 21
350.482476
 31
0.0
  0
LINE
  8
0
 10
885.284817
 20
350.482476
 30
0.0
 11
885.173575
 21
350.413545
 31
0.0
  0
LINE
  8
0
 10
885.284817
 20
350.482476
 30
0.0
 11
885.400032
 21
350.544056
 31
0.0
  0
LINE
  8
0
 10
885.400032
 20
350.544056
 30
0.0
 11
885.284817
 21
350.482476
 31
0.0
  0
LINE
  8
0
 10
885.400032
 20
350.544056
 30
0.0
 11
885.517035
 21
350.599677
 31
0.0
  0
LINE
  8
0
 10
885.517035
 20
350.599677
 30
0.0
 11
885.400032
 21
350.544056
 31
0.0
  0
LINE
  8
0
 10
885.517035
 20
350.599677
 30
0.0
 11
885.63801
 21
350.649537
 31
0.0
  0
LINE
  8
0
 10
885.63801
 20
350.649537
 30
0.0
 11
885.517035
 21
350.599677
 31
0.0
  0
LINE
  8
0
 10
885.63801
 20
350.649537
 30
0.0
 11
885.760774
 21
350.693637
 31
0.0
  0
LINE
  8
0
 10
885.760774
 20
350.693637
 30
0.0
 11
885.63801
 21
350.649537
 31
0.0
  0
LINE
  8
0
 10
885.760774
 20
350.693637
 30
0.0
 11
885.887311
 21
350.730188
 31
0.0
  0
LINE
  8
0
 10
885.887311
 20
350.730188
 30
0.0
 11
885.760774
 21
350.693637
 31
0.0
  0
LINE
  8
0
 10
885.887311
 20
350.730188
 30
0.0
 11
886.014048
 21
350.760779
 31
0.0
  0
LINE
  8
0
 10
886.014048
 20
350.760779
 30
0.0
 11
885.887311
 21
350.730188
 31
0.0
  0
LINE
  8
0
 10
886.014048
 20
350.760779
 30
0.0
 11
886.142572
 21
350.785808
 31
0.0
  0
LINE
  8
0
 10
886.142572
 20
350.785808
 30
0.0
 11
886.014048
 21
350.760779
 31
0.0
  0
LINE
  8
0
 10
886.142572
 20
350.785808
 30
0.0
 11
886.271294
 21
350.803091
 31
0.0
  0
LINE
  8
0
 10
886.271294
 20
350.803091
 30
0.0
 11
886.142572
 21
350.785808
 31
0.0
  0
LINE
  8
0
 10
886.271294
 20
350.803091
 30
0.0
 11
886.401805
 21
350.812626
 31
0.0
  0
LINE
  8
0
 10
886.401805
 20
350.812626
 30
0.0
 11
886.271294
 21
350.803091
 31
0.0
  0
LINE
  8
0
 10
886.401805
 20
350.812626
 30
0.0
 11
886.532316
 21
350.8164
 31
0.0
  0
LINE
  8
0
 10
886.532316
 20
350.8164
 30
0.0
 11
886.401805
 21
350.812626
 31
0.0
  0
LINE
  8
0
 10
880.404676
 20
346.567556
 30
0.0
 11
880.444803
 21
346.523457
 31
0.0
  0
LINE
  8
0
 10
880.444803
 20
346.523457
 30
0.0
 11
880.404676
 21
346.567556
 31
0.0
  0
LINE
  8
0
 10
880.404676
 20
346.567556
 30
0.0
 11
879.540962
 21
347.43127
 31
0.0
  0
LINE
  8
0
 10
879.540962
 20
347.43127
 30
0.0
 11
879.477594
 21
347.490665
 31
0.0
  0
LINE
  8
0
 10
879.477594
 20
347.490665
 30
0.0
 11
879.408664
 21
347.542512
 31
0.0
  0
LINE
  8
0
 10
879.408664
 20
347.542512
 30
0.0
 11
879.333774
 21
347.590584
 31
0.0
  0
LINE
  8
0
 10
879.333774
 20
347.590584
 30
0.0
 11
879.256898
 21
347.628923
 31
0.0
  0
LINE
  8
0
 10
879.256898
 20
347.628923
 30
0.0
 11
879.176446
 21
347.663487
 31
0.0
  0
LINE
  8
0
 10
879.176446
 20
347.663487
 30
0.0
 11
879.09381
 21
347.688318
 31
0.0
  0
LINE
  8
0
 10
879.09381
 20
347.688318
 30
0.0
 11
879.009385
 21
347.707587
 31
0.0
  0
LINE
  8
0
 10
879.009385
 20
347.707587
 30
0.0
 11
878.922974
 21
347.719108
 31
0.0
  0
LINE
  8
0
 10
878.922974
 20
347.719108
 30
0.0
 11
878.836761
 21
347.722883
 31
0.0
  0
LINE
  8
0
 10
878.836761
 20
347.722883
 30
0.0
 11
878.748364
 21
347.719108
 31
0.0
  0
LINE
  8
0
 10
878.748364
 20
347.719108
 30
0.0
 11
878.661953
 21
347.707587
 31
0.0
  0
LINE
  8
0
 10
878.661953
 20
347.707587
 30
0.0
 11
878.577528
 21
347.688318
 31
0.0
  0
LINE
  8
0
 10
878.577528
 20
347.688318
 30
0.0
 11
878.49509
 21
347.663487
 31
0.0
  0
LINE
  8
0
 10
878.49509
 20
347.663487
 30
0.0
 11
878.41444
 21
347.628923
 31
0.0
  0
LINE
  8
0
 10
878.41444
 20
347.628923
 30
0.0
 11
878.337762
 21
347.590584
 31
0.0
  0
LINE
  8
0
 10
878.337762
 20
347.590584
 30
0.0
 11
878.262873
 21
347.542512
 31
0.0
  0
LINE
  8
0
 10
878.262873
 20
347.542512
 30
0.0
 11
878.193744
 21
347.490665
 31
0.0
  0
LINE
  8
0
 10
878.193744
 20
347.490665
 30
0.0
 11
878.130376
 21
347.43127
 31
0.0
  0
LINE
  8
0
 10
878.130376
 20
347.43127
 30
0.0
 11
877.339764
 21
346.640459
 31
0.0
  0
LINE
  8
0
 10
877.339764
 20
346.640459
 30
0.0
 11
878.130376
 21
347.43127
 31
0.0
  0
LINE
  8
0
 10
878.130376
 20
347.43127
 30
0.0
 11
878.193744
 21
347.490665
 31
0.0
  0
LINE
  8
0
 10
878.193744
 20
347.490665
 30
0.0
 11
878.262873
 21
347.542512
 31
0.0
  0
LINE
  8
0
 10
878.262873
 20
347.542512
 30
0.0
 11
878.337762
 21
347.590584
 31
0.0
  0
LINE
  8
0
 10
878.337762
 20
347.590584
 30
0.0
 11
878.41444
 21
347.628923
 31
0.0
  0
LINE
  8
0
 10
878.41444
 20
347.628923
 30
0.0
 11
878.49509
 21
347.663487
 31
0.0
  0
LINE
  8
0
 10
878.49509
 20
347.663487
 30
0.0
 11
878.577528
 21
347.688318
 31
0.0
  0
LINE
  8
0
 10
878.577528
 20
347.688318
 30
0.0
 11
878.661953
 21
347.707587
 31
0.0
  0
LINE
  8
0
 10
878.661953
 20
347.707587
 30
0.0
 11
878.748364
 21
347.719108
 31
0.0
  0
LINE
  8
0
 10
878.748364
 20
347.719108
 30
0.0
 11
878.836761
 21
347.722883
 31
0.0
  0
LINE
  8
0
 10
878.836761
 20
347.722883
 30
0.0
 11
878.922974
 21
347.719108
 31
0.0
  0
LINE
  8
0
 10
878.922974
 20
347.719108
 30
0.0
 11
879.009385
 21
347.707587
 31
0.0
  0
LINE
  8
0
 10
879.009385
 20
347.707587
 30
0.0
 11
879.09381
 21
347.688318
 31
0.0
  0
LINE
  8
0
 10
879.09381
 20
347.688318
 30
0.0
 11
879.176446
 21
347.663487
 31
0.0
  0
LINE
  8
0
 10
879.176446
 20
347.663487
 30
0.0
 11
879.256898
 21
347.628923
 31
0.0
  0
LINE
  8
0
 10
879.256898
 20
347.628923
 30
0.0
 11
879.333774
 21
347.590584
 31
0.0
  0
LINE
  8
0
 10
879.333774
 20
347.590584
 30
0.0
 11
879.408664
 21
347.542512
 31
0.0
  0
LINE
  8
0
 10
879.408664
 20
347.542512
 30
0.0
 11
879.477594
 21
347.490665
 31
0.0
  0
LINE
  8
0
 10
879.477594
 20
347.490665
 30
0.0
 11
879.540962
 21
347.43127
 31
0.0
  0
LINE
  8
0
 10
879.540962
 20
347.43127
 30
0.0
 11
880.404676
 21
346.567556
 31
0.0
  0
LINE
  8
0
 10
880.444803
 20
346.523457
 30
0.0
 11
880.479367
 21
346.473597
 31
0.0
  0
LINE
  8
0
 10
880.479367
 20
346.473597
 30
0.0
 11
880.444803
 21
346.523457
 31
0.0
  0
LINE
  8
0
 10
880.479367
 20
346.473597
 30
0.0
 11
880.506383
 21
346.419763
 31
0.0
  0
LINE
  8
0
 10
880.506383
 20
346.419763
 30
0.0
 11
880.479367
 21
346.473597
 31
0.0
  0
LINE
  8
0
 10
880.506383
 20
346.419763
 30
0.0
 11
880.527439
 21
346.364143
 31
0.0
  0
LINE
  8
0
 10
880.527439
 20
346.364143
 30
0.0
 11
880.506383
 21
346.419763
 31
0.0
  0
LINE
  8
0
 10
880.527439
 20
346.364143
 30
0.0
 11
880.542735
 21
346.304747
 31
0.0
  0
LINE
  8
0
 10
880.542735
 20
346.304747
 30
0.0
 11
880.527439
 21
346.364143
 31
0.0
  0
LINE
  8
0
 10
880.542735
 20
346.304747
 30
0.0
 11
880.550482
 21
346.245153
 31
0.0
  0
LINE
  8
0
 10
880.550482
 20
346.245153
 30
0.0
 11
880.542735
 21
346.304747
 31
0.0
  0
LINE
  8
0
 10
880.550482
 20
346.245153
 30
0.0
 11
880.550482
 21
346.185758
 31
0.0
  0
LINE
  8
0
 10
880.550482
 20
346.185758
 30
0.0
 11
880.550482
 21
346.245153
 31
0.0
  0
LINE
  8
0
 10
880.550482
 20
346.185758
 30
0.0
 11
880.542735
 21
346.126164
 31
0.0
  0
LINE
  8
0
 10
880.542735
 20
346.126164
 30
0.0
 11
880.550482
 21
346.185758
 31
0.0
  0
LINE
  8
0
 10
880.542735
 20
346.126164
 30
0.0
 11
880.527439
 21
346.066769
 31
0.0
  0
LINE
  8
0
 10
880.527439
 20
346.066769
 30
0.0
 11
880.542735
 21
346.126164
 31
0.0
  0
LINE
  8
0
 10
880.527439
 20
346.066769
 30
0.0
 11
880.506383
 21
346.011148
 31
0.0
  0
LINE
  8
0
 10
880.506383
 20
346.011148
 30
0.0
 11
880.527439
 21
346.066769
 31
0.0
  0
LINE
  8
0
 10
880.506383
 20
346.011148
 30
0.0
 11
880.479367
 21
345.957315
 31
0.0
  0
LINE
  8
0
 10
880.479367
 20
345.957315
 30
0.0
 11
880.506383
 21
346.011148
 31
0.0
  0
LINE
  8
0
 10
880.479367
 20
345.957315
 30
0.0
 11
880.444803
 21
345.907455
 31
0.0
  0
LINE
  8
0
 10
880.444803
 20
345.907455
 30
0.0
 11
880.479367
 21
345.957315
 31
0.0
  0
LINE
  8
0
 10
880.444803
 20
345.907455
 30
0.0
 11
880.404676
 21
345.863355
 31
0.0
  0
LINE
  8
0
 10
880.404676
 20
345.863355
 30
0.0
 11
880.444803
 21
345.907455
 31
0.0
  0
LINE
  8
0
 10
880.404676
 20
345.863355
 30
0.0
 11
880.35859
 21
345.82303
 31
0.0
  0
LINE
  8
0
 10
880.35859
 20
345.82303
 30
0.0
 11
880.404676
 21
345.863355
 31
0.0
  0
LINE
  8
0
 10
880.35859
 20
345.82303
 30
0.0
 11
880.310518
 21
345.788466
 31
0.0
  0
LINE
  8
0
 10
880.310518
 20
345.788466
 30
0.0
 11
880.35859
 21
345.82303
 31
0.0
  0
LINE
  8
0
 10
880.310518
 20
345.788466
 30
0.0
 11
880.256883
 21
345.759662
 31
0.0
  0
LINE
  8
0
 10
880.256883
 20
345.759662
 30
0.0
 11
880.310518
 21
345.788466
 31
0.0
  0
LINE
  8
0
 10
880.256883
 20
345.759662
 30
0.0
 11
880.199276
 21
345.738606
 31
0.0
  0
LINE
  8
0
 10
880.199276
 20
345.738606
 30
0.0
 11
880.256883
 21
345.759662
 31
0.0
  0
LINE
  8
0
 10
880.199276
 20
345.738606
 30
0.0
 11
880.141668
 21
345.725098
 31
0.0
  0
LINE
  8
0
 10
880.141668
 20
345.725098
 30
0.0
 11
880.199276
 21
345.738606
 31
0.0
  0
LINE
  8
0
 10
880.141668
 20
345.725098
 30
0.0
 11
880.082273
 21
345.71735
 31
0.0
  0
LINE
  8
0
 10
880.082273
 20
345.71735
 30
0.0
 11
880.141668
 21
345.725098
 31
0.0
  0
LINE
  8
0
 10
880.082273
 20
345.71735
 30
0.0
 11
880.020693
 21
345.71735
 31
0.0
  0
LINE
  8
0
 10
880.020693
 20
345.71735
 30
0.0
 11
880.082273
 21
345.71735
 31
0.0
  0
LINE
  8
0
 10
880.020693
 20
345.71735
 30
0.0
 11
879.961298
 21
345.725098
 31
0.0
  0
LINE
  8
0
 10
879.961298
 20
345.725098
 30
0.0
 11
880.020693
 21
345.71735
 31
0.0
  0
LINE
  8
0
 10
879.961298
 20
345.725098
 30
0.0
 11
879.90369
 21
345.738606
 31
0.0
  0
LINE
  8
0
 10
879.90369
 20
345.738606
 30
0.0
 11
879.961298
 21
345.725098
 31
0.0
  0
LINE
  8
0
 10
879.90369
 20
345.738606
 30
0.0
 11
879.846083
 21
345.759662
 31
0.0
  0
LINE
  8
0
 10
879.846083
 20
345.759662
 30
0.0
 11
879.90369
 21
345.738606
 31
0.0
  0
LINE
  8
0
 10
879.846083
 20
345.759662
 30
0.0
 11
879.794236
 21
345.788466
 31
0.0
  0
LINE
  8
0
 10
879.794236
 20
345.788466
 30
0.0
 11
879.846083
 21
345.759662
 31
0.0
  0
LINE
  8
0
 10
879.794236
 20
345.788466
 30
0.0
 11
879.744376
 21
345.82303
 31
0.0
  0
LINE
  8
0
 10
879.744376
 20
345.82303
 30
0.0
 11
879.794236
 21
345.788466
 31
0.0
  0
LINE
  8
0
 10
879.744376
 20
345.82303
 30
0.0
 11
879.69829
 21
345.863355
 31
0.0
  0
LINE
  8
0
 10
879.69829
 20
345.863355
 30
0.0
 11
879.744376
 21
345.82303
 31
0.0
  0
LINE
  8
0
 10
879.69829
 20
345.863355
 30
0.0
 11
878.836761
 21
346.724884
 31
0.0
  0
LINE
  8
0
 10
878.836761
 20
346.724884
 30
0.0
 11
879.69829
 21
345.863355
 31
0.0
  0
LINE
  8
0
 10
880.210797
 20
345.529431
 30
0.0
 11
878.337762
 21
345.529431
 31
0.0
  0
LINE
  8
0
 10
878.337762
 20
345.529431
 30
0.0
 11
878.337762
 21
346.226083
 31
0.0
  0
LINE
  8
0
 10
878.337762
 20
346.226083
 30
0.0
 11
878.836761
 21
346.724884
 31
0.0
  0
LINE
  8
0
 10
878.836761
 20
346.724884
 30
0.0
 11
878.337762
 21
346.226083
 31
0.0
  0
LINE
  8
0
 10
878.337762
 20
346.226083
 30
0.0
 11
878.337762
 21
345.529431
 31
0.0
  0
LINE
  8
0
 10
878.337762
 20
345.529431
 30
0.0
 11
880.210797
 21
345.529431
 31
0.0
  0
LINE
  8
0
 10
880.210797
 20
345.529431
 30
0.0
 11
884.768536
 21
350.085382
 31
0.0
  0
LINE
  8
0
 10
884.768536
 20
350.085382
 30
0.0
 11
880.210797
 21
345.529431
 31
0.0
  0
LINE
  8
0
 10
880.916985
 20
344.531433
 30
0.0
 11
878.337762
 21
344.531433
 31
0.0
  0
LINE
  8
0
 10
878.337762
 20
344.531433
 30
0.0
 11
880.916985
 21
344.531433
 31
0.0
  0
LINE
  8
0
 10
881.623172
 20
344.823244
 30
0.0
 11
885.388511
 21
348.588384
 31
0.0
  0
LINE
  8
0
 10
885.388511
 20
348.588384
 30
0.0
 11
881.623172
 21
344.823244
 31
0.0
  0
LINE
  8
0
 10
877.339764
 20
345.529431
 30
0.0
 11
877.339764
 21
346.640459
 31
0.0
  0
LINE
  8
0
 10
877.339764
 20
346.640459
 30
0.0
 11
877.339764
 21
345.529431
 31
0.0
  0
LINE
  8
0
 10
877.339764
 20
357.089348
 30
0.0
 11
878.130376
 21
356.298737
 31
0.0
  0
LINE
  8
0
 10
878.130376
 20
356.298737
 30
0.0
 11
877.339764
 21
357.089348
 31
0.0
  0
LINE
  8
0
 10
877.339764
 20
357.089348
 30
0.0
 11
877.339764
 21
358.200575
 31
0.0
  0
LINE
  8
0
 10
877.339764
 20
358.200575
 30
0.0
 11
877.339764
 21
357.089348
 31
0.0
  0
LINE
  8
0
 10
878.337762
 20
357.503923
 30
0.0
 11
878.337762
 21
358.200575
 31
0.0
  0
LINE
  8
0
 10
878.337762
 20
358.200575
 30
0.0
 11
880.210797
 21
358.200575
 31
0.0
  0
LINE
  8
0
 10
880.210797
 20
358.200575
 30
0.0
 11
884.768536
 21
353.644625
 31
0.0
  0
LINE
  8
0
 10
880.210797
 20
358.200575
 30
0.0
 11
878.337762
 21
358.200575
 31
0.0
  0
LINE
  8
0
 10
878.337762
 20
358.200575
 30
0.0
 11
878.337762
 21
357.503923
 31
0.0
  0
LINE
  8
0
 10
878.337762
 20
357.503923
 30
0.0
 11
878.836761
 21
357.004924
 31
0.0
  0
LINE
  8
0
 10
878.836761
 20
357.004924
 30
0.0
 11
878.337762
 21
357.503923
 31
0.0
  0
LINE
  8
0
 10
878.836761
 20
357.004924
 30
0.0
 11
879.69829
 21
357.866651
 31
0.0
  0
LINE
  8
0
 10
879.69829
 20
357.866651
 30
0.0
 11
878.836761
 21
357.004924
 31
0.0
  0
LINE
  8
0
 10
879.540962
 20
356.298737
 30
0.0
 11
880.404676
 21
357.162252
 31
0.0
  0
LINE
  8
0
 10
880.404676
 20
357.162252
 30
0.0
 11
879.540962
 21
356.298737
 31
0.0
  0
LINE
  8
0
 10
878.337762
 20
359.198375
 30
0.0
 11
880.916985
 21
359.198375
 31
0.0
  0
LINE
  8
0
 10
880.916985
 20
359.198375
 30
0.0
 11
878.337762
 21
359.198375
 31
0.0
  0
LINE
  8
0
 10
881.623172
 20
358.906763
 30
0.0
 11
885.388511
 21
355.141424
 31
0.0
  0
LINE
  8
0
 10
885.388511
 20
355.141424
 30
0.0
 11
881.623172
 21
358.906763
 31
0.0
  0
LINE
  8
0
 10
887.152092
 20
354.291974
 30
0.0
 11
920.029827
 21
354.30721
 31
0.0
  0
LINE
  8
0
 10
920.029827
 20
354.30721
 30
0.0
 11
887.152092
 21
354.291974
 31
0.0
  0
LINE
  8
0
 10
886.532316
 20
352.821827
 30
0.0
 11
891.306976
 21
352.810411
 31
0.0
  0
LINE
  8
0
 10
891.306976
 20
352.810411
 30
0.0
 11
886.532316
 21
352.821827
 31
0.0
  0
LINE
  8
0
 10
886.532316
 20
350.8164
 30
0.0
 11
891.306976
 21
350.8164
 31
0.0
  0
LINE
  8
0
 10
891.306976
 20
350.8164
 30
0.0
 11
886.532316
 21
350.8164
 31
0.0
  0
LINE
  8
0
 10
887.152092
 20
349.319601
 30
0.0
 11
920.029827
 21
349.319601
 31
0.0
  0
LINE
  8
0
 10
920.029827
 20
349.319601
 30
0.0
 11
887.152092
 21
349.319601
 31
0.0
  0
LINE
  8
0
 10
923.157909
 20
350.97194
 30
0.0
 11
923.157716
 21
350.971829
 31
0.0
  0
LINE
  8
0
 10
923.157909
 20
352.654871
 30
0.0
 11
923.157716
 21
352.654982
 31
0.0
  0
LINE
  8
0
 10
923.157716
 20
352.654982
 30
0.0
 11
923.157909
 21
352.654871
 31
0.0
  0
LINE
  8
0
 10
923.157716
 20
350.971829
 30
0.0
 11
923.157909
 21
350.97194
 31
0.0
  0
LINE
  8
0
 10
922.739764
 20
350.7305
 30
0.0
 11
920.528826
 21
349.453886
 31
0.0
  0
LINE
  8
0
 10
922.739764
 20
352.896311
 30
0.0
 11
920.528826
 21
354.172925
 31
0.0
  0
LINE
  8
0
 10
875.039764
 20
414.864907
 30
0.0
 11
875.039764
 21
436.864907
 31
0.0
  0
LINE
  8
0
 10
875.039764
 20
288.864907
 30
0.0
 11
875.039764
 21
266.864907
 31
0.0
  0
LINE
  8
0
 10
928.296481
 20
296.298421
 30
0.0
 11
929.639764
 21
296.535278
 31
0.0
  0
LINE
  8
0
 10
932.739764
 20
316.864907
 30
0.0
 11
932.739764
 21
298.340541
 31
0.0
  0
LINE
  8
0
 10
931.039764
 20
299.061045
 30
0.0
 11
931.039764
 21
300.764907
 31
0.0
  0
LINE
  8
0
 10
925.439764
 20
301.064907
 30
0.0
 11
930.739764
 21
301.064907
 31
0.0
  0
LINE
  8
0
 10
925.761859
 20
317.272752
 30
0.0
 11
924.239764
 21
316.864907
 31
0.0
  0
LINE
  8
0
 10
924.239764
 20
316.864907
 30
0.0
 11
924.239764
 21
315.088628
 31
0.0
  0
LINE
  8
0
 10
924.239764
 20
315.088628
 30
0.0
 11
924.239764
 21
302.264907
 31
0.0
  0
LINE
  8
0
 10
926.639764
 20
315.088628
 30
0.0
 11
926.639764
 21
302.264907
 31
0.0
  0
LINE
  8
0
 10
927.739764
 20
317.80273
 30
0.0
 11
925.761859
 21
317.272752
 31
0.0
  0
LINE
  8
0
 10
924.669965
 20
319.146711
 30
0.0
 11
925.560813
 21
319.115602
 31
0.0
  0
LINE
  8
0
 10
925.560813
 20
319.115602
 30
0.0
 11
924.839764
 21
318.699304
 31
0.0
  0
LINE
  8
0
 10
924.739764
 20
318.526099
 30
0.0
 11
924.739764
 21
317.96619
 31
0.0
  0
LINE
  8
0
 10
924.669965
 20
319.146711
 30
0.0
 11
931.239764
 21
318.917289
 31
0.0
  0
LINE
  8
0
 10
927.739764
 20
317.80273
 30
0.0
 11
932.739764
 21
317.80273
 31
0.0
  0
LINE
  8
0
 10
931.239764
 20
318.917289
 30
0.0
 11
932.739764
 21
318.864907
 31
0.0
  0
LINE
  8
0
 10
932.739764
 20
317.80273
 30
0.0
 11
932.739764
 21
316.864907
 31
0.0
  0
LINE
  8
0
 10
932.739764
 20
321.864907
 30
0.0
 11
932.739764
 21
317.80273
 31
0.0
  0
LINE
  8
0
 10
931.239764
 20
339.312526
 30
0.0
 11
931.239764
 21
318.917289
 31
0.0
  0
LINE
  8
0
 10
932.739764
 20
318.864907
 30
0.0
 11
932.739764
 21
339.364907
 31
0.0
  0
LINE
  8
0
 10
922.739764
 20
337.084322
 30
0.0
 11
922.739764
 21
321.145493
 31
0.0
  0
LINE
  8
0
 10
927.866115
 20
405.776237
 30
0.0
 11
929.639764
 21
405.463495
 31
0.0
  0
LINE
  8
0
 10
931.500236
 20
407.162623
 30
0.0
 11
931.039764
 21
407.243817
 31
0.0
  0
LINE
  8
0
 10
932.739764
 20
405.685411
 30
0.0
 11
932.739764
 21
386.864907
 31
0.0
  0
LINE
  8
0
 10
931.039764
 20
402.964907
 30
0.0
 11
931.039764
 21
404.66877
 31
0.0
  0
LINE
  8
0
 10
930.739764
 20
402.664907
 30
0.0
 11
925.439764
 21
402.664907
 31
0.0
  0
LINE
  8
0
 10
924.239764
 20
401.464907
 30
0.0
 11
924.239764
 21
388.641187
 31
0.0
  0
LINE
  8
0
 10
926.639764
 20
401.464907
 30
0.0
 11
926.639764
 21
388.641187
 31
0.0
  0
LINE
  8
0
 10
924.239764
 20
388.641187
 30
0.0
 11
924.239764
 21
386.864907
 31
0.0
  0
LINE
  8
0
 10
924.239764
 20
386.864907
 30
0.0
 11
932.739764
 21
386.864907
 31
0.0
  0
LINE
  8
0
 10
924.239764
 20
386.864907
 30
0.0
 11
925.761859
 21
386.457063
 31
0.0
  0
LINE
  8
0
 10
932.739764
 20
386.864907
 30
0.0
 11
932.739764
 21
385.927085
 31
0.0
  0
LINE
  8
0
 10
932.739764
 20
385.927085
 30
0.0
 11
932.739764
 21
381.864907
 31
0.0
  0
LINE
  8
0
 10
932.739764
 20
385.927085
 30
0.0
 11
927.739764
 21
385.927085
 31
0.0
  0
LINE
  8
0
 10
931.239764
 20
384.812526
 30
0.0
 11
924.669965
 21
384.583104
 31
0.0
  0
LINE
  8
0
 10
931.239764
 20
384.812526
 30
0.0
 11
931.239764
 21
364.417289
 31
0.0
  0
LINE
  8
0
 10
932.739764
 20
384.864907
 30
0.0
 11
931.239764
 21
384.812526
 31
0.0
  0
LINE
  8
0
 10
932.739764
 20
364.364907
 30
0.0
 11
932.739764
 21
384.864907
 31
0.0
  0
LINE
  8
0
 10
925.761859
 20
386.457063
 30
0.0
 11
927.739764
 21
385.927085
 31
0.0
  0
LINE
  8
0
 10
925.560813
 20
384.614213
 30
0.0
 11
924.669965
 21
384.583104
 31
0.0
  0
LINE
  8
0
 10
924.839764
 20
385.030511
 30
0.0
 11
925.560813
 21
384.614213
 31
0.0
  0
LINE
  8
0
 10
924.739764
 20
385.763625
 30
0.0
 11
924.739764
 21
385.203716
 31
0.0
  0
LINE
  8
0
 10
922.739764
 20
382.584322
 30
0.0
 11
922.739764
 21
366.645493
 31
0.0
  0
LINE
  8
0
 10
927.739764
 20
363.190304
 30
0.0
 11
924.669965
 21
363.083104
 31
0.0
  0
LINE
  8
0
 10
927.739764
 20
364.539511
 30
0.0
 11
927.739764
 21
363.190304
 31
0.0
  0
LINE
  8
0
 10
924.669965
 20
364.646711
 30
0.0
 11
927.739764
 21
364.539511
 31
0.0
  0
LINE
  8
0
 10
922.739764
 20
361.084322
 30
0.0
 11
922.739764
 21
351.864907
 31
0.0
  0
LINE
  8
0
 10
931.239764
 20
363.312526
 30
0.0
 11
927.739764
 21
363.190304
 31
0.0
  0
LINE
  8
0
 10
927.739764
 20
364.539511
 30
0.0
 11
931.239764
 21
364.417289
 31
0.0
  0
LINE
  8
0
 10
932.739764
 20
340.364907
 30
0.0
 11
932.739764
 21
363.364907
 31
0.0
  0
LINE
  8
0
 10
932.739764
 20
363.364907
 30
0.0
 11
931.239764
 21
363.312526
 31
0.0
  0
LINE
  8
0
 10
932.739764
 20
364.364907
 30
0.0
 11
932.739764
 21
363.364907
 31
0.0
  0
LINE
  8
0
 10
931.239764
 20
364.417289
 30
0.0
 11
932.739764
 21
364.364907
 31
0.0
  0
LINE
  8
0
 10
931.239764
 20
363.312526
 30
0.0
 11
931.239764
 21
340.417289
 31
0.0
  0
LINE
  8
0
 10
924.669965
 20
340.646711
 30
0.0
 11
927.739764
 21
340.539511
 31
0.0
  0
LINE
  8
0
 10
927.739764
 20
340.539511
 30
0.0
 11
927.739764
 21
339.190304
 31
0.0
  0
LINE
  8
0
 10
922.739764
 20
351.864907
 30
0.0
 11
922.739764
 21
342.645493
 31
0.0
  0
LINE
  8
0
 10
927.739764
 20
339.190304
 30
0.0
 11
924.669965
 21
339.083104
 31
0.0
  0
LINE
  8
0
 10
927.739764
 20
340.539511
 30
0.0
 11
931.239764
 21
340.417289
 31
0.0
  0
LINE
  8
0
 10
931.239764
 20
339.312526
 30
0.0
 11
927.739764
 21
339.190304
 31
0.0
  0
LINE
  8
0
 10
932.739764
 20
340.364907
 30
0.0
 11
932.739764
 21
339.364907
 31
0.0
  0
LINE
  8
0
 10
931.239764
 20
340.417289
 30
0.0
 11
932.739764
 21
340.364907
 31
0.0
  0
LINE
  8
0
 10
932.739764
 20
339.364907
 30
0.0
 11
931.239764
 21
339.312526
 31
0.0
  0
LINE
  8
0
 10
932.739764
 20
316.864907
 30
0.0
 11
924.239764
 21
316.864907
 31
0.0
  0
LINE
  8
0
 10
929.639764
 20
298.562457
 30
0.0
 11
927.866115
 21
298.249715
 31
0.0
  0
LINE
  8
0
 10
931.039764
 20
296.782136
 30
0.0
 11
931.500236
 21
296.863329
 31
0.0
  0
LINE
  8
0
 10
929.639764
 20
407.490674
 30
0.0
 11
928.296481
 21
407.727531
 31
0.0
  0
ARC
  8
0
 10
928.039764
 20
297.264907
 30
0.0
 40
1.0
 50
284.875362
 51
100.0
  0
ARC
  8
0
 10
928.039764
 20
297.264907
 30
0.0
 40
1.0
 50
100.0
 51
284.875362
  0
ARC
  8
0
 10
925.439764
 20
302.264907
 30
0.0
 40
1.2
 50
180.0
 51
270.0
  0
ARC
  8
0
 10
925.439764
 20
302.264907
 30
0.0
 40
1.2
 50
270.0
 51
0.0
  0
ARC
  8
0
 10
925.439764
 20
315.088628
 30
0.0
 40
1.2
 50
0.0
 51
90.0
  0
ARC
  8
0
 10
927.739764
 20
321.864907
 30
0.0
 40
5.0
 50
234.314665
 51
246.697793
  0
ARC
  8
0
 10
928.039764
 20
406.761045
 30
0.0
 40
1.0
 50
260.0
 51
75.124638
  0
ARC
  8
0
 10
928.039764
 20
406.761045
 30
0.0
 40
1.0
 50
75.124638
 51
260.0
  0
ARC
  8
0
 10
925.439764
 20
401.464907
 30
0.0
 40
1.2
 50
0.0
 51
90.0
  0
ARC
  8
0
 10
925.439764
 20
401.464907
 30
0.0
 40
1.2
 50
90.0
 51
180.0
  0
ARC
  8
0
 10
925.439764
 20
388.641187
 30
0.0
 40
1.2
 50
270.0
 51
0.0
  0
ARC
  8
0
 10
927.739764
 20
381.864907
 30
0.0
 40
5.0
 50
113.302207
 51
125.685335
  0
ARC
  8
0
 10
931.239764
 20
298.340541
 30
0.0
 40
1.5
 50
280.0
 51
0.0
  0
ARC
  8
0
 10
930.739764
 20
300.764907
 30
0.0
 40
0.3
 50
0.0
 51
90.0
  0
ARC
  8
0
 10
925.439764
 20
315.088628
 30
0.0
 40
1.2
 50
90.0
 51
180.0
  0
ARC
  8
0
 10
924.939764
 20
318.526099
 30
0.0
 40
0.2
 50
120.0
 51
180.0
  0
ARC
  8
0
 10
924.939764
 20
317.96619
 30
0.0
 40
0.2
 50
180.0
 51
234.314665
  0
ARC
  8
0
 10
924.739764
 20
321.145493
 30
0.0
 40
2.0
 50
180.0
 51
268.0
  0
ARC
  8
0
 10
924.739764
 20
321.145493
 30
0.0
 40
2.0
 50
180.0
 51
268.0
  0
ARC
  8
0
 10
931.239764
 20
405.685411
 30
0.0
 40
1.5
 50
0.0
 51
80.0
  0
ARC
  8
0
 10
930.739764
 20
402.964907
 30
0.0
 40
0.3
 50
270.0
 51
0.0
  0
ARC
  8
0
 10
925.439764
 20
388.641187
 30
0.0
 40
1.2
 50
180.0
 51
270.0
  0
ARC
  8
0
 10
924.939764
 20
385.203716
 30
0.0
 40
0.2
 50
180.0
 51
240.0
  0
ARC
  8
0
 10
924.939764
 20
385.763625
 30
0.0
 40
0.2
 50
125.685335
 51
180.0
  0
ARC
  8
0
 10
924.739764
 20
382.584322
 30
0.0
 40
2.0
 50
92.0
 51
180.0
  0
ARC
  8
0
 10
924.739764
 20
382.584322
 30
0.0
 40
2.0
 50
92.0
 51
180.0
  0
ARC
  8
0
 10
924.739764
 20
361.084322
 30
0.0
 40
2.0
 50
92.0
 51
180.0
  0
ARC
  8
0
 10
924.739764
 20
366.645493
 30
0.0
 40
2.0
 50
180.0
 51
268.0
  0
ARC
  8
0
 10
924.739764
 20
342.645493
 30
0.0
 40
2.0
 50
180.0
 51
268.0
  0
ARC
  8
0
 10
924.739764
 20
337.084322
 30
0.0
 40
2.0
 50
92.0
 51
180.0
  0
LINE
  8
0
 10
928.514893
 20
288.564907
 30
0.0
 11
927.302457
 21
287.864907
 31
0.0
  0
LINE
  8
0
 10
927.302457
 20
287.864907
 30
0.0
 11
926.539764
 21
287.864907
 31
0.0
  0
LINE
  8
0
 10
925.933546
 20
288.914907
 30
0.0
 11
926.020148
 21
289.064907
 31
0.0
  0
LINE
  8
0
 10
926.366559
 20
289.064907
 30
0.0
 11
926.870148
 21
288.192664
 31
0.0
  0
LINE
  8
0
 10
927.736174
 20
288.692664
 30
0.0
 11
926.886174
 21
290.164907
 31
0.0
  0
LINE
  8
0
 10
926.539764
 20
286.864907
 30
0.0
 11
933.039764
 21
286.864907
 31
0.0
  0
LINE
  8
0
 10
935.039764
 20
288.864907
 30
0.0
 11
935.039764
 21
351.864907
 31
0.0
  0
LINE
  8
0
 10
933.339764
 20
351.864907
 30
0.0
 11
933.339764
 21
290.064907
 31
0.0
  0
LINE
  8
0
 10
931.839764
 20
288.564907
 30
0.0
 11
928.514893
 21
288.564907
 31
0.0
  0
LINE
  8
0
 10
927.302457
 20
415.864907
 30
0.0
 11
928.514893
 21
415.164907
 31
0.0
  0
LINE
  8
0
 10
926.539764
 20
415.864907
 30
0.0
 11
927.302457
 21
415.864907
 31
0.0
  0
LINE
  8
0
 10
926.020148
 20
414.664907
 30
0.0
 11
925.933546
 21
414.814907
 31
0.0
  0
LINE
  8
0
 10
926.870148
 20
415.537151
 30
0.0
 11
926.366559
 21
414.664907
 31
0.0
  0
LINE
  8
0
 10
926.886174
 20
413.564907
 30
0.0
 11
927.736174
 21
415.037151
 31
0.0
  0
LINE
  8
0
 10
925.06752
 20
414.314907
 30
0.0
 11
925.500533
 21
413.564907
 31
0.0
  0
LINE
  8
0
 10
933.039764
 20
416.864907
 30
0.0
 11
926.539764
 21
416.864907
 31
0.0
  0
LINE
  8
0
 10
935.039764
 20
351.864907
 30
0.0
 11
935.039764
 21
414.864907
 31
0.0
  0
LINE
  8
0
 10
933.339764
 20
413.664907
 30
0.0
 11
933.339764
 21
351.864907
 31
0.0
  0
LINE
  8
0
 10
928.514893
 20
415.164907
 30
0.0
 11
931.839764
 21
415.164907
 31
0.0
  0
ARC
  8
0
 10
926.539764
 20
288.564907
 30
0.0
 40
0.7
 50
150.0
 51
270.0
  0
ARC
  8
0
 10
926.193353
 20
288.964907
 30
0.0
 40
0.2
 50
30.0
 51
150.0
  0
ARC
  8
0
 10
927.303161
 20
288.442664
 30
0.0
 40
0.5
 50
210.0
 51
30.0
  0
ARC
  8
0
 10
926.193353
 20
289.764907
 30
0.0
 40
0.8
 50
30.0
 51
150.0
  0
ARC
  8
0
 10
926.539764
 20
288.564907
 30
0.0
 40
1.7
 50
150.0
 51
270.0
  0
ARC
  8
0
 10
926.539764
 20
415.164907
 30
0.0
 40
0.7
 50
90.0
 51
210.0
  0
ARC
  8
0
 10
926.193353
 20
414.764907
 30
0.0
 40
0.2
 50
210.0
 51
330.0
  0
ARC
  8
0
 10
927.303161
 20
415.287151
 30
0.0
 40
0.5
 50
330.0
 51
150.0
  0
ARC
  8
0
 10
926.193353
 20
413.964907
 30
0.0
 40
0.8
 50
210.0
 51
330.0
  0
ARC
  8
0
 10
926.539764
 20
415.164907
 30
0.0
 40
1.7
 50
90.0
 51
210.0
  0
ARC
  8
0
 10
933.039764
 20
288.864907
 30
0.0
 40
2.0
 50
270.0
 51
0.0
  0
ARC
  8
0
 10
931.839764
 20
290.064907
 30
0.0
 40
1.5
 50
270.0
 51
0.0
  0
ARC
  8
0
 10
933.039764
 20
414.864907
 30
0.0
 40
2.0
 50
0.0
 51
90.0
  0
ARC
  8
0
 10
931.839764
 20
413.664907
 30
0.0
 40
1.5
 50
0.0
 51
90.0
  0
LINE
  8
0
 10
855.039764
 20
430.775695
 30
0.0
 11
861.128976
 21
436.864907
 31
0.0
  0
LINE
  8
0
 10
855.039764
 20
423.704627
 30
0.0
 11
868.200044
 21
436.864907
 31
0.0
  0
LINE
  8
0
 10
855.039764
 20
416.633559
 30
0.0
 11
875.039764
 21
436.633559
 31
0.0
  0
LINE
  8
0
 10
855.039764
 20
409.562491
 30
0.0
 11
875.039764
 21
429.562491
 31
0.0
  0
LINE
  8
0
 10
855.039764
 20
402.491424
 30
0.0
 11
875.039764
 21
422.491424
 31
0.0
  0
LINE
  8
0
 10
855.039764
 20
395.420356
 30
0.0
 11
875.039764
 21
415.420356
 31
0.0
  0
LINE
  8
0
 10
855.039764
 20
388.349288
 30
0.0
 11
875.039764
 21
408.349288
 31
0.0
  0
LINE
  8
0
 10
855.039764
 20
381.27822
 30
0.0
 11
875.039764
 21
401.27822
 31
0.0
  0
LINE
  8
0
 10
855.039764
 20
374.207152
 30
0.0
 11
875.039764
 21
394.207152
 31
0.0
  0
LINE
  8
0
 10
855.039764
 20
367.136085
 30
0.0
 11
875.039764
 21
387.136085
 31
0.0
  0
LINE
  8
0
 10
855.039764
 20
360.065017
 30
0.0
 11
875.039764
 21
380.065017
 31
0.0
  0
LINE
  8
0
 10
855.039764
 20
352.993949
 30
0.0
 11
875.039764
 21
372.993949
 31
0.0
  0
LINE
  8
0
 10
855.039764
 20
345.922881
 30
0.0
 11
875.039764
 21
365.922881
 31
0.0
  0
LINE
  8
0
 10
855.039764
 20
338.851813
 30
0.0
 11
875.039764
 21
358.851813
 31
0.0
  0
LINE
  8
0
 10
855.039764
 20
331.780746
 30
0.0
 11
875.039764
 21
351.780746
 31
0.0
  0
LINE
  8
0
 10
855.039764
 20
324.709678
 30
0.0
 11
875.039764
 21
344.709678
 31
0.0
  0
LINE
  8
0
 10
855.039764
 20
317.63861
 30
0.0
 11
875.039764
 21
337.63861
 31
0.0
  0
LINE
  8
0
 10
855.039764
 20
310.567542
 30
0.0
 11
875.039764
 21
330.567542
 31
0.0
  0
LINE
  8
0
 10
855.039764
 20
303.496474
 30
0.0
 11
875.039764
 21
323.496474
 31
0.0
  0
LINE
  8
0
 10
855.039764
 20
296.425407
 30
0.0
 11
875.039764
 21
316.425407
 31
0.0
  0
LINE
  8
0
 10
855.039764
 20
289.354339
 30
0.0
 11
875.039764
 21
309.354339
 31
0.0
  0
LINE
  8
0
 10
855.039764
 20
282.283271
 30
0.0
 11
875.039764
 21
302.283271
 31
0.0
  0
LINE
  8
0
 10
855.039764
 20
275.212203
 30
0.0
 11
875.039764
 21
295.212203
 31
0.0
  0
LINE
  8
0
 10
855.039764
 20
268.141135
 30
0.0
 11
875.039764
 21
288.141135
 31
0.0
  0
LINE
  8
0
 10
860.834604
 20
266.864907
 30
0.0
 11
875.039764
 21
281.070067
 31
0.0
  0
LINE
  8
0
 10
867.905671
 20
266.864907
 30
0.0
 11
875.039764
 21
273.999
 31
0.0
  0
LINE
  8
0
 10
874.976739
 20
266.864907
 30
0.0
 11
875.039764
 21
266.927932
 31
0.0
  0
ENDSEC
  0
EOF
