  0
SECTION
  2
HEADER
  9
$ACADVER
  1
AC1009
  9
$INSBASE
 10
0.0
 20
0.0
 30
0.0
  9
$EXTMIN
 10
108.273017
 20
252.002381
 30
0.0
  9
$EXTMAX
 10
117.253273
 20
262.017588
 30
0.0
  9
$LIMMIN
 10
108.044677
 20
251.366152
  9
$LIMMAX
 10
117.66381
 20
262.314931
  9
$ORTHOMODE
 70
     0
  9
$REGENMODE
 70
     1
  9
$FILLMODE
 70
     1
  9
$QTEXTMODE
 70
     0
  9
$MIRRTEXT
 70
     1
  9
$DRAGMODE
 70
     2
  9
$LTSCALE
 40
1.0
  9
$OSMODE
 70
    55
  9
$ATTMODE
 70
     1
  9
$TEXTSIZE
 40
0.2
  9
$TRACEWID
 40
0.05
  9
$TEXTSTYLE
  7
STANDARD
  9
$CLAYER
  8
0
  9
$CELTYPE
  6
BYLAYER
  9
$CECOLOR
 62
   256
  9
$DIMSCALE
 40
4.5
  9
$DIMASZ
 40
0.18
  9
$DIMEXO
 40
0.0625
  9
$DIMDLI
 40
0.38
  9
$DIMRND
 40
0.0
  9
$DIMDLE
 40
0.0
  9
$DIMEXE
 40
0.18
  9
$DIMTP
 40
0.0
  9
$DIMTM
 40
0.0
  9
$DIMTXT
 40
0.45
  9
$DIMCEN
 40
0.09
  9
$DIMTSZ
 40
0.0
  9
$DIMTOL
 70
     0
  9
$DIMLIM
 70
     0
  9
$DIMTIH
 70
     1
  9
$DIMTOH
 70
     1
  9
$DIMSE1
 70
     0
  9
$DIMSE2
 70
     0
  9
$DIMTAD
 70
     1
  9
$DIMZIN
 70
     0
  9
$DIMBLK
  1

  9
$DIMASO
 70
     1
  9
$DIMSHO
 70
     1
  9
$DIMPOST
  1

  9
$DIMAPOST
  1

  9
$DIMALT
 70
     0
  9
$DIMALTD
 70
     2
  9
$DIMALTF
 40
25.4
  9
$DIMLFAC
 40
1.0
  9
$DIMTOFL
 70
     0
  9
$DIMTVP
 40
0.0
  9
$DIMTIX
 70
     0
  9
$DIMSOXD
 70
     0
  9
$DIMSAH
 70
     0
  9
$DIMBLK1
  1

  9
$DIMBLK2
  1

  9
$DIMSTYLE
  2
*UNNAMED
  9
$DIMCLRD
 70
     0
  9
$DIMCLRE
 70
     0
  9
$DIMCLRT
 70
     0
  9
$DIMTFAC
 40
1.0
  9
$DIMGAP
 40
0.09
  9
$LUNITS
 70
     2
  9
$LUPREC
 70
     4
  9
$SKETCHINC
 40
0.1
  9
$FILLETRAD
 40
0.0
  9
$AUNITS
 70
     0
  9
$AUPREC
 70
     0
  9
$MENU
  1
acad
  9
$ELEVATION
 40
0.0
  9
$PELEVATION
 40
0.0
  9
$THICKNESS
 40
0.0
  9
$LIMCHECK
 70
     1
  9
$BLIPMODE
 70
     1
  9
$CHAMFERA
 40
0.0
  9
$CHAMFERB
 40
0.0
  9
$SKPOLY
 70
     0
  9
$TDCREATE
 40
2451215.691636458
  9
$TDUPDATE
 40
2451215.692260185
  9
$TDINDWG
 40
0.0005467593
  9
$TDUSRTIMER
 40
0.0005467593
  9
$USRTIMER
 70
     1
  9
$ANGBASE
 50
0.0
  9
$ANGDIR
 70
     0
  9
$PDMODE
 70
     0
  9
$PDSIZE
 40
0.0
  9
$PLINEWID
 40
0.0
  9
$COORDS
 70
     1
  9
$SPLFRAME
 70
     0
  9
$SPLINETYPE
 70
     6
  9
$SPLINESEGS
 70
     8
  9
$ATTDIA
 70
     0
  9
$ATTREQ
 70
     1
  9
$HANDLING
 70
     1
  9
$HANDSEED
  5
4B439
  9
$SURFTAB1
 70
     6
  9
$SURFTAB2
 70
     6
  9
$SURFTYPE
 70
     6
  9
$SURFU
 70
     6
  9
$SURFV
 70
     6
  9
$UCSNAME
  2

  9
$UCSORG
 10
108.0694683220424
 20
251.3413802479096
 30
0.0
  9
$UCSXDIR
 10
1.0
 20
0.0
 30
0.0
  9
$UCSYDIR
 10
0.0
 20
1.0
 30
0.0
  9
$PUCSNAME
  2

  9
$PUCSORG
 10
0.0
 20
0.0
 30
0.0
  9
$PUCSXDIR
 10
1.0
 20
0.0
 30
0.0
  9
$PUCSYDIR
 10
0.0
 20
1.0
 30
0.0
  9
$USERI1
 70
     0
  9
$USERI2
 70
     0
  9
$USERI3
 70
     0
  9
$USERI4
 70
     0
  9
$USERI5
 70
     0
  9
$USERR1
 40
0.0
  9
$USERR2
 40
0.0
  9
$USERR3
 40
0.0
  9
$USERR4
 40
0.0
  9
$USERR5
 40
0.0
  9
$WORLDVIEW
 70
     1
  9
$SHADEDGE
 70
     3
  9
$SHADEDIF
 70
    70
  9
$TILEMODE
 70
     1
  9
$MAXACTVP
 70
    16
  9
$PINSBASE
 10
0.0
 20
0.0
 30
0.0
  9
$PLIMCHECK
 70
     0
  9
$PEXTMIN
 10
1.000000E+20
 20
1.000000E+20
 30
1.000000E+20
  9
$PEXTMAX
 10
-1.000000E+20
 20
-1.000000E+20
 30
-1.000000E+20
  9
$PLIMMIN
 10
0.0
 20
0.0
  9
$PLIMMAX
 10
12.0
 20
9.0
  9
$UNITMODE
 70
     0
  9
$VISRETAIN
 70
     0
  9
$PLINEGEN
 70
     0
  9
$PSLTSCALE
 70
     1
  9
$TREEDEPTH
 70
  3020
  9
$DWGCODEPAGE
  3
dummy
  0
ENDSEC
  0
SECTION
  2
TABLES
  0
TABLE
  2
VPORT
 70
     2
  0
VPORT
  2
*ACTIVE
 70
     0
 10
0.0
 20
0.0
 11
1.0
 21
1.0
 12
117.122754
 22
256.840541
 13
0.0
 23
0.0
 14
1.0
 24
1.0
 15
0.0
 25
0.0
 16
0.0
 26
0.0
 36
1.0
 17
0.0
 27
0.0
 37
0.0
 40
10.94878
 41
1.658281
 42
50.0
 43
0.0
 44
0.0
 50
0.0
 51
0.0
 71
     0
 72
   100
 73
     1
 74
     1
 75
     0
 76
     0
 77
     0
 78
     0
  0
ENDTAB
  0
TABLE
  2
LTYPE
 70
     1
  0
LTYPE
  2
CONTINUOUS
 70
    64
  3
Solid line
 72
    65
 73
     0
 40
0.0
  0
ENDTAB
  0
TABLE
  2
LAYER
 70
     1
  0
LAYER
  2
0
 70
    64
 62
     7
  6
CONTINUOUS
  0
ENDTAB
  0
TABLE
  2
STYLE
 70
     1
  0
STYLE
  2
STANDARD
 70
     0
 40
0.0
 41
1.0
 50
0.0
 71
     0
 42
0.2
  3
txt
  4

  0
ENDTAB
  0
TABLE
  2
VIEW
 70
     0
  0
ENDTAB
  0
TABLE
  2
UCS
 70
     0
  0
ENDTAB
  0
TABLE
  2
APPID
 70
     1
  0
APPID
  2
ACAD
 70
    64
  0
ENDTAB
  0
TABLE
  2
DIMSTYLE
 70
     0
  0
ENDTAB
  0
ENDSEC
  0
SECTION
  2
BLOCKS
  0
BLOCK
  8
0
  5
3675A
  2
73830
 70
    64
 10
440.848374
 20
1407.449189
 30
0.0
  3
73830
  0
ENDBLK
  8
0
  5
3675B
  0
BLOCK
  8
0
  5
3675C
  2
DF
 70
    64
 10
922.739764
 20
276.264907
 30
0.0
  3
DF
  0
ENDBLK
  8
0
  5
3675D
  0
BLOCK
  8
0
  5
3675E
  2
IU
 70
    64
 10
924.839764
 20
266.864907
 30
0.0
  3
IU
  0
ENDBLK
  8
0
  5
3675F
  0
ENDSEC
  0
SECTION
  2
ENTITIES
  0
INSERT
  8
0
  5
3AA11
  2
73830
 10
177.999828
 20
709.671176
 30
0.0
 41
0.5
 42
0.5
 43
0.5
  0
INSERT
  8
0
  5
3AA12
  2
DF
 10
418.945523
 20
144.079035
 30
0.0
 41
0.5
 42
0.5
 43
0.5
  0
INSERT
  8
0
  5
3AA13
  2
IU
 10
419.995523
 20
139.379035
 30
0.0
 41
0.5
 42
0.5
 43
0.5
  0
INSERT
  8
0
  5
3AC95
  2
73830
 10
238.823284
 20
747.308767
 30
0.0
 41
0.5
 42
0.5
 43
0.5
  0
INSERT
  8
0
  5
3AC96
  2
DF
 10
479.768979
 20
181.716626
 30
0.0
 41
0.5
 42
0.5
 43
0.5
  0
INSERT
  8
0
  5
3AC97
  2
IU
 10
480.818979
 20
177.016626
 30
0.0
 41
0.5
 42
0.5
 43
0.5
  0
INSERT
  8
0
  5
479D7
  2
73830
 10
135.819219
 20
602.841227
 30
0.0
 41
0.5
 42
0.5
 43
0.5
  0
INSERT
  8
0
  5
479D8
  2
DF
 10
376.764914
 20
37.249086
 30
0.0
 41
0.5
 42
0.5
 43
0.5
  0
INSERT
  8
0
  5
479D9
  2
IU
 10
377.814914
 20
32.549086
 30
0.0
 41
0.5
 42
0.5
 43
0.5
  0
INSERT
  8
0
  5
479DA
  2
73830
 10
196.642675
 20
640.478818
 30
0.0
 41
0.5
 42
0.5
 43
0.5
  0
INSERT
  8
0
  5
479DB
  2
DF
 10
437.58837
 20
74.886677
 30
0.0
 41
0.5
 42
0.5
 43
0.5
  0
INSERT
  8
0
  5
479DC
  2
IU
 10
438.63837
 20
70.186677
 30
0.0
 41
0.5
 42
0.5
 43
0.5
  0
INSERT
  8
0
  5
481E8
  2
73830
 10
177.999828
 20
709.671176
 30
0.0
 41
0.5
 42
0.5
 43
0.5
  0
INSERT
  8
0
  5
481E9
  2
DF
 10
418.945523
 20
144.079035
 30
0.0
 41
0.5
 42
0.5
 43
0.5
  0
INSERT
  8
0
  5
481EA
  2
IU
 10
419.995523
 20
139.379035
 30
0.0
 41
0.5
 42
0.5
 43
0.5
  0
INSERT
  8
0
  5
481EB
  2
73830
 10
238.823284
 20
747.308767
 30
0.0
 41
0.5
 42
0.5
 43
0.5
  0
INSERT
  8
0
  5
481EC
  2
DF
 10
479.768979
 20
181.716626
 30
0.0
 41
0.5
 42
0.5
 43
0.5
  0
INSERT
  8
0
  5
481ED
  2
IU
 10
480.818979
 20
177.016626
 30
0.0
 41
0.5
 42
0.5
 43
0.5
  0
LINE
  8
0
  5
4862C
 10
116.443305
 20
258.787875
 30
0.0
 11
116.443305
 21
258.519125
 31
0.0
  0
LINE
  8
0
  5
4862D
 10
116.327765
 20
258.575261
 30
0.0
 11
116.443305
 21
258.519125
 31
0.0
  0
LINE
  8
0
  5
4862E
 10
113.107345
 20
256.223787
 30
0.0
 11
116.443305
 21
258.519125
 31
0.0
  0
LINE
  8
0
  5
4862F
 10
116.583178
 20
258.884116
 30
0.0
 11
116.443305
 21
258.787875
 31
0.0
  0
LINE
  8
0
  5
48630
 10
116.327765
 20
258.844011
 30
0.0
 11
116.443305
 21
258.787875
 31
0.0
  0
LINE
  8
0
  5
48631
 10
116.583178
 20
258.521921
 30
0.0
 11
113.107345
 21
256.130342
 31
0.0
  0
LINE
  8
0
  5
48632
 10
116.583178
 20
258.884116
 30
0.0
 11
116.806003
 21
258.775853
 31
0.0
  0
LINE
  8
0
  5
48633
 10
116.583178
 20
258.521921
 30
0.0
 11
116.806003
 21
258.413658
 31
0.0
  0
LINE
  8
0
  5
48634
 10
116.583178
 20
258.884116
 30
0.0
 11
116.583178
 21
258.521921
 31
0.0
  0
LINE
  8
0
  5
48637
 10
116.347648
 20
260.360985
 30
0.0
 11
116.443305
 21
260.318016
 31
0.0
  0
LINE
  8
0
  5
48638
 10
116.583178
 20
260.414257
 30
0.0
 11
116.443305
 21
260.318016
 31
0.0
  0
LINE
  8
0
  5
48639
 10
116.443305
 20
260.318016
 30
0.0
 11
116.443305
 21
260.426802
 31
0.0
  0
LINE
  8
0
  5
4863A
 10
112.515541
 20
257.251369
 30
0.0
 11
112.655414
 21
257.34761
 31
0.0
  0
LINE
  8
0
  5
4863B
 10
112.655414
 20
256.545695
 30
0.0
 11
112.655414
 21
257.34761
 31
0.0
  0
LINE
  8
0
  5
4863C
 10
112.539875
 20
257.403747
 30
0.0
 11
112.655414
 21
257.34761
 31
0.0
  0
LINE
  8
0
  5
4863D
 10
112.655414
 20
257.711723
 30
0.0
 11
112.655414
 21
257.820509
 31
0.0
  0
LINE
  8
0
  5
4863E
 10
112.655414
 20
257.711723
 30
0.0
 11
112.515541
 21
257.615482
 31
0.0
  0
LINE
  8
0
  5
4863F
 10
112.515541
 20
257.615482
 30
0.0
 11
112.515541
 21
257.724268
 31
0.0
  0
LINE
  8
0
  5
48640
 10
112.419885
 20
257.658451
 30
0.0
 11
112.515541
 21
257.615482
 31
0.0
  0
LINE
  8
0
  5
48641
 10
112.655414
 20
255.819387
 30
0.0
 11
112.87824
 21
255.711124
 31
0.0
  0
LINE
  8
0
  5
48642
 10
109.179581
 20
254.694451
 30
0.0
 11
109.133279
 21
254.718564
 31
0.0
  0
LINE
  8
0
  5
48644
 10
108.330326
 20
253.294967
 30
0.0
 11
108.281524
 21
253.314059
 31
0.0
  0
LINE
  8
0
  5
48645
 10
108.281524
 20
253.314059
 30
0.0
 11
108.273017
 21
253.365265
 31
0.0
  0
LINE
  8
0
  5
48646
 10
108.281524
 20
253.06308
 30
0.0
 11
108.281524
 21
253.314059
 31
0.0
  0
LINE
  8
0
  5
48647
 10
108.273017
 20
253.365265
 30
0.0
 11
108.346602
 21
253.415896
 31
0.0
  0
LINE
  8
0
  5
48648
 10
108.273017
 20
253.124146
 30
0.0
 11
108.273017
 21
253.365265
 31
0.0
  0
LINE
  8
0
  5
48649
 10
112.655414
 20
256.181582
 30
0.0
 11
112.655414
 21
255.819387
 31
0.0
  0
LINE
  8
0
  5
4864A
 10
109.179581
 20
253.427808
 30
0.0
 11
112.655414
 21
255.819387
 31
0.0
  0
LINE
  8
0
  5
4864B
 10
112.515541
 20
256.449454
 30
0.0
 11
112.655414
 21
256.545695
 31
0.0
  0
LINE
  8
0
  5
4864D
 10
111.921596
 20
258.711395
 30
0.0
 11
111.921596
 21
258.617923
 31
0.0
  0
LINE
  8
0
  5
4864E
 10
113.226036
 20
259.603288
 30
0.0
 11
112.687204
 21
259.23254
 31
0.0
  0
LINE
  8
0
  5
4864F
 10
113.27842
 20
259.582111
 30
0.0
 11
113.226036
 21
259.603288
 31
0.0
  0
LINE
  8
0
  5
48650
 10
113.226036
 20
259.603288
 30
0.0
 11
113.169286
 21
259.569879
 31
0.0
  0
LINE
  8
0
  5
48651
 10
113.27842
 20
259.582111
 30
0.0
 11
112.732424
 21
259.206433
 31
0.0
  0
LINE
  8
0
  5
48652
 10
113.27842
 20
259.51702
 30
0.0
 11
113.27842
 21
259.582111
 31
0.0
  0
LINE
  8
0
  5
48653
 10
112.509415
 20
259.11021
 30
0.0
 11
112.452665
 21
259.076802
 31
0.0
  0
LINE
  8
0
  5
48654
 10
111.970584
 20
258.739463
 30
0.0
 11
111.921596
 21
258.711395
 31
0.0
  0
LINE
  8
0
  5
48655
 10
111.921596
 20
258.711395
 30
0.0
 11
112.452665
 21
259.076802
 31
0.0
  0
LINE
  8
0
  5
48656
 10
112.015803
 20
258.713355
 30
0.0
 11
111.970584
 21
258.739463
 31
0.0
  0
LINE
  8
0
  5
48657
 10
111.970584
 20
258.739463
 30
0.0
 11
112.509415
 21
259.11021
 31
0.0
  0
LINE
  8
0
  5
48658
 10
112.5618
 20
259.089033
 30
0.0
 11
112.509415
 21
259.11021
 31
0.0
  0
LINE
  8
0
  5
48659
 10
112.015803
 20
258.648264
 30
0.0
 11
112.015803
 21
258.713355
 31
0.0
  0
LINE
  8
0
  5
4865A
 10
112.015803
 20
258.713355
 30
0.0
 11
112.5618
 21
259.089033
 31
0.0
  0
LINE
  8
0
  5
4865B
 10
112.5618
 20
259.023942
 30
0.0
 11
112.5618
 21
259.089033
 31
0.0
  0
LINE
  8
0
  5
4865C
 10
112.515541
 20
255.816591
 30
0.0
 11
109.179581
 21
253.521253
 31
0.0
  0
LINE
  8
0
  5
4865D
 10
108.732312
 20
252.002381
 30
0.0
 11
108.381568
 21
252.159933
 31
0.0
  0
LINE
  8
0
  5
4865E
 10
108.381568
 20
254.977403
 30
0.0
 11
108.381568
 21
253.330225
 31
0.0
  0
LINE
  8
0
  5
4865F
 10
115.778061
 20
261.302012
 30
0.0
 11
115.317376
 21
260.985033
 31
0.0
  0
LINE
  8
0
  5
48660
 10
108.732312
 20
255.977281
 30
0.0
 11
108.381568
 21
256.147696
 31
0.0
  0
LINE
  8
0
  5
48661
 10
109.516162
 20
256.928363
 30
0.0
 11
109.976847
 21
257.245342
 31
0.0
  0
LINE
  8
0
  5
48662
 10
112.015803
 20
258.648264
 30
0.0
 11
109.976847
 21
257.245342
 31
0.0
  0
LINE
  8
0
  5
48663
 10
112.015803
 20
258.648264
 30
0.0
 11
112.5618
 21
259.023942
 31
0.0
  0
LINE
  8
0
  5
48664
 10
112.732424
 20
259.141342
 30
0.0
 11
112.5618
 21
259.023942
 31
0.0
  0
LINE
  8
0
  5
48665
 10
113.27842
 20
259.51702
 30
0.0
 11
112.732424
 21
259.141342
 31
0.0
  0
LINE
  8
0
  5
48666
 10
115.778061
 20
261.236921
 30
0.0
 11
115.317376
 21
260.919942
 31
0.0
  0
LINE
  8
0
  5
48667
 10
117.253273
 20
261.840207
 30
0.0
 11
116.912655
 21
262.017588
 31
0.0
  0
LINE
  8
0
  5
48668
 10
115.778061
 20
261.236921
 30
0.0
 11
116.912655
 21
262.017588
 31
0.0
  0
LINE
  8
0
  5
48669
 10
115.778061
 20
261.236921
 30
0.0
 11
115.778061
 21
261.302012
 31
0.0
  0
LINE
  8
0
  5
4866A
 10
115.778061
 20
261.302012
 30
0.0
 11
115.725676
 21
261.323189
 31
0.0
  0
LINE
  8
0
  5
4866B
 10
115.272157
 20
261.011141
 30
0.0
 11
115.725676
 21
261.323189
 31
0.0
  0
LINE
  8
0
  5
4866C
 10
115.223169
 20
260.983073
 30
0.0
 11
115.668926
 21
261.28978
 31
0.0
  0
LINE
  8
0
  5
4866D
 10
115.725676
 20
261.323189
 30
0.0
 11
115.668926
 21
261.28978
 31
0.0
  0
LINE
  8
0
  5
4866F
 10
115.223169
 20
260.983073
 30
0.0
 11
115.223169
 21
260.889602
 31
0.0
  0
LINE
  8
0
  5
48670
 10
115.272157
 20
261.011141
 30
0.0
 11
115.223169
 21
260.983073
 31
0.0
  0
LINE
  8
0
  5
48671
 10
115.317376
 20
260.985033
 30
0.0
 11
115.272157
 21
261.011141
 31
0.0
  0
LINE
  8
0
  5
48672
 10
115.317376
 20
260.919942
 30
0.0
 11
115.317376
 21
260.985033
 31
0.0
  0
LINE
  8
0
  5
48673
 10
113.27842
 20
259.51702
 30
0.0
 11
115.317376
 21
260.919942
 31
0.0
  0
LINE
  8
0
  5
48674
 10
112.515541
 20
257.251369
 30
0.0
 11
112.400002
 21
257.307506
 31
0.0
  0
LINE
  8
0
  5
48675
 10
112.515541
 20
257.038109
 30
0.0
 11
112.515541
 21
257.251369
 31
0.0
  0
LINE
  8
0
  5
48676
 10
116.583178
 20
260.414257
 30
0.0
 11
116.583178
 21
260.523043
 31
0.0
  0
LINE
  8
0
  5
48677
 10
116.583178
 20
260.414257
 30
0.0
 11
116.806003
 21
260.314166
 31
0.0
  0
LINE
  8
0
  5
48678
 10
117.253273
 20
257.865307
 30
0.0
 11
108.732312
 21
252.002381
 31
0.0
  0
LINE
  8
0
  5
48679
 10
108.732312
 20
255.977281
 30
0.0
 11
108.732312
 21
252.002381
 31
0.0
  0
LINE
  8
0
  5
4867A
 10
117.253273
 20
261.840207
 30
0.0
 11
108.732312
 21
255.977281
 31
0.0
  0
LINE
  8
0
  5
4867B
 10
117.253273
 20
261.840207
 30
0.0
 11
117.253273
 21
257.865307
 31
0.0
  0
LINE
  8
0
  5
4867C
 10
109.133279
 20
253.868848
 30
0.0
 11
109.179581
 21
253.900707
 31
0.0
  0
LINE
  8
0
  5
4867D
 10
109.133279
 20
253.868848
 30
0.0
 11
109.133279
 21
253.496563
 31
0.0
  0
LINE
  8
0
  5
4867E
 10
109.179581
 20
253.528422
 30
0.0
 11
109.133279
 21
253.496563
 31
0.0
  0
LINE
  8
0
  5
4867F
 10
109.179581
 20
253.166228
 30
0.0
 11
112.87824
 21
255.711124
 31
0.0
  0
LINE
  8
0
  5
48680
 10
112.87824
 20
255.711124
 30
0.0
 11
112.87824
 21
257.973826
 31
0.0
  0
LINE
  8
0
  5
48681
 10
109.179581
 20
255.42893
 30
0.0
 11
112.87824
 21
257.973826
 31
0.0
  0
LINE
  8
0
  5
48682
 10
109.179581
 20
255.066735
 30
0.0
 11
109.179581
 21
255.42893
 31
0.0
  0
LINE
  8
0
  5
48683
 10
109.179581
 20
255.066735
 30
0.0
 11
109.133279
 21
255.034876
 31
0.0
  0
LINE
  8
0
  5
48684
 10
109.133279
 20
254.662592
 30
0.0
 11
109.133279
 21
255.034876
 31
0.0
  0
LINE
  8
0
  5
48685
 10
109.133279
 20
254.662592
 30
0.0
 11
109.179581
 21
254.694451
 31
0.0
  0
LINE
  8
0
  5
48686
 10
109.179581
 20
253.900707
 30
0.0
 11
109.179581
 21
254.694451
 31
0.0
  0
LINE
  8
0
  5
48687
 10
116.852306
 20
259.97374
 30
0.0
 11
116.852306
 21
260.346025
 31
0.0
  0
LINE
  8
0
  5
48688
 10
116.806003
 20
260.314166
 30
0.0
 11
116.852306
 21
260.346025
 31
0.0
  0
LINE
  8
0
  5
48689
 10
116.806003
 20
260.314166
 30
0.0
 11
116.806003
 21
260.67636
 31
0.0
  0
LINE
  8
0
  5
4868A
 10
116.806003
 20
260.67636
 30
0.0
 11
113.107345
 21
258.131464
 31
0.0
  0
LINE
  8
0
  5
4868B
 10
113.107345
 20
255.868762
 30
0.0
 11
113.107345
 21
258.131464
 31
0.0
  0
LINE
  8
0
  5
4868C
 10
116.806003
 20
258.413658
 30
0.0
 11
113.107345
 21
255.868762
 31
0.0
  0
LINE
  8
0
  5
4868D
 10
116.806003
 20
258.775853
 30
0.0
 11
116.806003
 21
258.413658
 31
0.0
  0
LINE
  8
0
  5
4868E
 10
116.806003
 20
258.775853
 30
0.0
 11
116.852306
 21
258.807712
 31
0.0
  0
LINE
  8
0
  5
48690
 10
108.330326
 20
254.942145
 30
0.0
 11
108.381568
 21
254.977403
 31
0.0
  0
LINE
  8
0
  5
48691
 10
108.330326
 20
255.202226
 30
0.0
 11
108.381568
 21
255.237484
 31
0.0
  0
LINE
  8
0
  5
48692
 10
108.381568
 20
254.977403
 30
0.0
 11
108.381568
 21
255.237484
 31
0.0
  0
LINE
  8
0
  5
48693
 10
108.281524
 20
255.221317
 30
0.0
 11
108.273017
 21
255.272524
 31
0.0
  0
LINE
  8
0
  5
48694
 10
108.281524
 20
254.970338
 30
0.0
 11
108.273017
 21
255.031405
 31
0.0
  0
LINE
  8
0
  5
48695
 10
108.273017
 20
255.272524
 30
0.0
 11
108.346602
 21
255.323155
 31
0.0
  0
LINE
  8
0
  5
48696
 10
108.273017
 20
255.272524
 30
0.0
 11
108.273017
 21
255.031405
 31
0.0
  0
LINE
  8
0
  5
48697
 10
108.330326
 20
254.942145
 30
0.0
 11
108.281524
 21
254.970338
 31
0.0
  0
LINE
  8
0
  5
48698
 10
108.281524
 20
255.221317
 30
0.0
 11
108.281524
 21
254.970338
 31
0.0
  0
LINE
  8
0
  5
48699
 10
108.330326
 20
255.202226
 30
0.0
 11
108.281524
 21
255.221317
 31
0.0
  0
LINE
  8
0
  5
4869A
 10
108.330326
 20
255.202226
 30
0.0
 11
108.330326
 21
254.942145
 31
0.0
  0
LINE
  8
0
  5
4869B
 10
109.516162
 20
256.993454
 30
0.0
 11
109.976847
 21
257.310432
 31
0.0
  0
LINE
  8
0
  5
4869C
 10
109.924462
 20
257.33161
 30
0.0
 11
109.470943
 21
257.019561
 31
0.0
  0
LINE
  8
0
  5
4869D
 10
109.470943
 20
257.019561
 30
0.0
 11
109.421955
 21
256.991494
 31
0.0
  0
LINE
  8
0
  5
4869E
 10
109.516162
 20
256.993454
 30
0.0
 11
109.470943
 21
257.019561
 31
0.0
  0
LINE
  8
0
  5
4869F
 10
109.516162
 20
256.928363
 30
0.0
 11
109.516162
 21
256.993454
 31
0.0
  0
LINE
  8
0
  5
486A0
 10
109.421955
 20
256.991494
 30
0.0
 11
109.421955
 21
256.898022
 31
0.0
  0
LINE
  8
0
  5
486A1
 10
109.867712
 20
257.298201
 30
0.0
 11
109.421955
 21
256.991494
 31
0.0
  0
LINE
  8
0
  5
486A3
 10
109.976847
 20
257.245342
 30
0.0
 11
109.976847
 21
257.310432
 31
0.0
  0
LINE
  8
0
  5
486A4
 10
109.976847
 20
257.310432
 30
0.0
 11
109.924462
 21
257.33161
 31
0.0
  0
LINE
  8
0
  5
486A5
 10
109.924462
 20
257.33161
 30
0.0
 11
109.867712
 21
257.298201
 31
0.0
  0
LINE
  8
0
  5
486A6
 10
108.381568
 20
256.147696
 30
0.0
 11
108.381568
 21
255.237484
 31
0.0
  0
LINE
  8
0
  5
486A7
 10
109.516162
 20
256.928363
 30
0.0
 11
108.381568
 21
256.147696
 31
0.0
  0
LINE
  8
0
  5
486A9
 10
112.687204
 20
259.23254
 30
0.0
 11
112.638217
 21
259.204472
 31
0.0
  0
LINE
  8
0
  5
486AA
 10
112.732424
 20
259.206433
 30
0.0
 11
112.687204
 21
259.23254
 31
0.0
  0
LINE
  8
0
  5
486AB
 10
112.732424
 20
259.141342
 30
0.0
 11
112.732424
 21
259.206433
 31
0.0
  0
LINE
  8
0
  5
486AC
 10
113.169286
 20
259.569879
 30
0.0
 11
112.638217
 21
259.204472
 31
0.0
  0
LINE
  8
0
  5
486AD
 10
112.638217
 20
259.204472
 30
0.0
 11
112.638217
 21
259.111001
 31
0.0
  0
LINE
  8
0
  5
486AE
 10
108.281524
 20
253.06308
 30
0.0
 11
108.273017
 21
253.124146
 31
0.0
  0
LINE
  8
0
  5
486AF
 10
108.330326
 20
253.034887
 30
0.0
 11
108.281524
 21
253.06308
 31
0.0
  0
LINE
  8
0
  5
486B0
 10
108.381568
 20
253.330225
 30
0.0
 11
108.381568
 21
253.070145
 31
0.0
  0
LINE
  8
0
  5
486B1
 10
108.330326
 20
253.034887
 30
0.0
 11
108.381568
 21
253.070145
 31
0.0
  0
LINE
  8
0
  5
486B2
 10
108.330326
 20
253.034887
 30
0.0
 11
108.330326
 21
253.294967
 31
0.0
  0
LINE
  8
0
  5
486B3
 10
108.330326
 20
253.294967
 30
0.0
 11
108.381568
 21
253.330225
 31
0.0
  0
LINE
  8
0
  5
486B4
 10
108.381568
 20
252.159933
 30
0.0
 11
108.381568
 21
253.070145
 31
0.0
  0
LINE
  8
0
  5
486B5
 10
109.179581
 20
253.528422
 30
0.0
 11
109.179581
 21
253.166228
 31
0.0
  0
LINE
  8
0
  5
486B6
 10
109.133279
 20
253.552535
 30
0.0
 11
109.179581
 21
253.528422
 31
0.0
  0
LINE
  8
0
  5
486B7
 10
112.655414
 20
256.181582
 30
0.0
 11
112.539875
 21
256.237718
 31
0.0
  0
LINE
  8
0
  5
486B8
 10
112.655414
 20
256.181582
 30
0.0
 11
112.515541
 21
256.085341
 31
0.0
  0
LINE
  8
0
  5
486B9
 10
116.443305
 20
259.953903
 30
0.0
 11
116.327765
 21
260.01004
 31
0.0
  0
LINE
  8
0
  5
486BA
 10
116.467639
 20
260.106281
 30
0.0
 11
116.852306
 21
259.97374
 31
0.0
  0
LINE
  8
0
  5
486BB
 10
116.852306
 20
259.97374
 30
0.0
 11
116.806003
 21
259.941881
 31
0.0
  0
LINE
  8
0
  5
486BC
 10
116.443305
 20
259.365248
 30
0.0
 11
116.443305
 21
259.151988
 31
0.0
  0
POLYLINE
  8
0
  5
486BD
 66
     1
 10
0.0
 20
0.0
 30
0.0
 70
   128
  0
VERTEX
  8
0
  5
4B409
 10
116.443305
 20
259.365248
 30
0.0
  0
VERTEX
  8
0
  5
4B40A
 10
116.469728
 20
259.40733
 30
0.0
  0
VERTEX
  8
0
  5
4B40B
 10
116.492112
 20
259.452552
 30
0.0
  0
VERTEX
  8
0
  5
4B40C
 10
116.509649
 20
259.499281
 30
0.0
  0
VERTEX
  8
0
  5
4B40D
 10
116.521705
 20
259.545829
 30
0.0
  0
VERTEX
  8
0
  5
4B40E
 10
116.527844
 20
259.590512
 30
0.0
  0
VERTEX
  8
0
  5
4B40F
 10
116.527844
 20
259.631716
 30
0.0
  0
VERTEX
  8
0
  5
4B410
 10
116.521705
 20
259.667951
 30
0.0
  0
VERTEX
  8
0
  5
4B411
 10
116.509649
 20
259.697908
 30
0.0
  0
VERTEX
  8
0
  5
4B412
 10
116.492112
 20
259.720504
 30
0.0
  0
VERTEX
  8
0
  5
4B413
 10
116.469728
 20
259.734923
 30
0.0
  0
VERTEX
  8
0
  5
4B414
 10
116.443305
 20
259.740643
 30
0.0
  0
SEQEND
  8
0
  5
4B415
  0
LINE
  8
0
  5
486BE
 10
116.443305
 20
259.740643
 30
0.0
 11
116.443305
 21
259.953903
 31
0.0
  0
LINE
  8
0
  5
486BF
 10
116.443305
 20
259.953903
 30
0.0
 11
116.583178
 21
260.050144
 31
0.0
  0
LINE
  8
0
  5
486C0
 10
116.806003
 20
259.148137
 30
0.0
 11
116.806003
 21
259.941881
 31
0.0
  0
LINE
  8
0
  5
486C1
 10
116.583178
 20
259.248229
 30
0.0
 11
116.583178
 21
260.050144
 31
0.0
  0
LINE
  8
0
  5
486C2
 10
116.806003
 20
259.941881
 30
0.0
 11
116.583178
 21
260.050144
 31
0.0
  0
LINE
  8
0
  5
486C3
 10
116.852306
 20
259.179996
 30
0.0
 11
116.852306
 21
258.807712
 31
0.0
  0
LINE
  8
0
  5
486C4
 10
116.852306
 20
258.807712
 30
0.0
 11
116.467639
 21
258.940252
 31
0.0
  0
LINE
  8
0
  5
486C5
 10
116.852306
 20
259.179996
 30
0.0
 11
116.806003
 21
259.148137
 31
0.0
  0
LINE
  8
0
  5
486C6
 10
116.443305
 20
259.151988
 30
0.0
 11
116.327765
 21
259.203887
 31
0.0
  0
LINE
  8
0
  5
486C7
 10
116.443305
 20
259.151988
 30
0.0
 11
116.583178
 21
259.248229
 31
0.0
  0
LINE
  8
0
  5
486C8
 10
116.806003
 20
259.148137
 30
0.0
 11
116.583178
 21
259.248229
 31
0.0
  0
LINE
  8
0
  5
486C9
 10
112.539875
 20
256.466197
 30
0.0
 11
112.539875
 21
256.237718
 31
0.0
  0
LINE
  8
0
  5
486CA
 10
112.539875
 20
256.237718
 30
0.0
 11
112.400002
 21
256.141477
 31
0.0
  0
LINE
  8
0
  5
486CB
 10
109.133279
 20
253.625028
 30
0.0
 11
112.400002
 21
255.872727
 31
0.0
  0
LINE
  8
0
  5
486CC
 10
112.539875
 20
257.403747
 30
0.0
 11
112.539875
 21
257.632226
 31
0.0
  0
LINE
  8
0
  5
486CD
 10
112.400002
 20
257.307506
 30
0.0
 11
112.539875
 21
257.403747
 31
0.0
  0
LINE
  8
0
  5
486CE
 10
112.400002
 20
257.090899
 30
0.0
 11
112.400002
 21
257.307506
 31
0.0
  0
LINE
  8
0
  5
486CF
 10
112.400002
 20
256.141477
 30
0.0
 11
112.400002
 21
255.872727
 31
0.0
  0
LINE
  8
0
  5
486D0
 10
112.400002
 20
256.141477
 30
0.0
 11
112.515541
 21
256.085341
 31
0.0
  0
LINE
  8
0
  5
486D1
 10
112.515541
 20
256.085341
 30
0.0
 11
112.515541
 21
255.816591
 31
0.0
  0
LINE
  8
0
  5
486D2
 10
112.400002
 20
255.872727
 30
0.0
 11
112.515541
 21
255.816591
 31
0.0
  0
LINE
  8
0
  5
486D3
 10
112.024299
 20
256.538899
 30
0.0
 11
112.049874
 21
256.556495
 31
0.0
  0
LINE
  8
0
  5
486D4
 10
112.224663
 20
256.442123
 30
0.0
 11
112.224663
 21
257.524126
 31
0.0
  0
LINE
  8
0
  5
486D5
 10
112.224663
 20
255.866162
 30
0.0
 11
112.319035
 21
255.817017
 31
0.0
  0
LINE
  8
0
  5
486D6
 10
112.224663
 20
255.866162
 30
0.0
 11
112.224663
 21
256.157137
 31
0.0
  0
LINE
  8
0
  5
486D7
 10
112.024299
 20
256.261479
 30
0.0
 11
112.224663
 21
256.157137
 31
0.0
  0
LINE
  8
0
  5
486D8
 10
112.024299
 20
256.261479
 30
0.0
 11
112.024299
 21
256.538899
 31
0.0
  0
LINE
  8
0
  5
486D9
 10
112.224663
 20
256.442123
 30
0.0
 11
112.024299
 21
256.538899
 31
0.0
  0
LINE
  8
0
  5
486DA
 10
112.224663
 20
256.477981
 30
0.0
 11
112.049874
 21
256.556495
 31
0.0
  0
LINE
  8
0
  5
486DB
 10
112.400002
 20
256.71796
 30
0.0
 11
112.400002
 21
256.501353
 31
0.0
  0
LINE
  8
0
  5
486DC
 10
112.515541
 20
256.662714
 30
0.0
 11
112.515541
 21
256.449454
 31
0.0
  0
LINE
  8
0
  5
486DD
 10
112.515541
 20
256.449454
 30
0.0
 11
112.400002
 21
256.501353
 31
0.0
  0
POLYLINE
  8
0
  5
486DF
 66
     1
 10
0.0
 20
0.0
 30
0.0
 70
   128
  0
VERTEX
  8
0
  5
4B416
 10
112.515541
 20
256.662714
 30
0.0
  0
VERTEX
  8
0
  5
4B417
 10
112.541964
 20
256.704796
 30
0.0
  0
VERTEX
  8
0
  5
4B418
 10
112.564349
 20
256.750018
 30
0.0
  0
VERTEX
  8
0
  5
4B419
 10
112.581886
 20
256.796747
 30
0.0
  0
VERTEX
  8
0
  5
4B41A
 10
112.593942
 20
256.843295
 30
0.0
  0
VERTEX
  8
0
  5
4B41B
 10
112.600081
 20
256.887978
 30
0.0
  0
VERTEX
  8
0
  5
4B41C
 10
112.600081
 20
256.929182
 30
0.0
  0
VERTEX
  8
0
  5
4B41D
 10
112.593942
 20
256.965417
 30
0.0
  0
VERTEX
  8
0
  5
4B41E
 10
112.581886
 20
256.995374
 30
0.0
  0
VERTEX
  8
0
  5
4B41F
 10
112.564349
 20
257.01797
 30
0.0
  0
VERTEX
  8
0
  5
4B420
 10
112.541964
 20
257.032389
 30
0.0
  0
VERTEX
  8
0
  5
4B421
 10
112.515541
 20
257.038109
 30
0.0
  0
SEQEND
  8
0
  5
4B422
  0
POLYLINE
  8
0
  5
486E1
 66
     1
 10
0.0
 20
0.0
 30
0.0
 70
   128
  0
VERTEX
  8
0
  5
4B423
 10
112.400002
 20
256.71796
 30
0.0
  0
VERTEX
  8
0
  5
4B424
 10
112.425713
 20
256.758522
 30
0.0
  0
VERTEX
  8
0
  5
4B425
 10
112.44765
 20
256.802134
 30
0.0
  0
VERTEX
  8
0
  5
4B426
 10
112.465055
 20
256.847291
 30
0.0
  0
VERTEX
  8
0
  5
4B427
 10
112.477328
 20
256.892433
 30
0.0
  0
VERTEX
  8
0
  5
4B428
 10
112.484045
 20
256.936003
 30
0.0
  0
VERTEX
  8
0
  5
4B429
 10
112.484974
 20
256.976497
 30
0.0
  0
VERTEX
  8
0
  5
4B42A
 10
112.480084
 20
257.012517
 30
0.0
  0
VERTEX
  8
0
  5
4B42B
 10
112.469542
 20
257.04282
 30
0.0
  0
VERTEX
  8
0
  5
4B42C
 10
112.453713
 20
257.066359
 30
0.0
  0
SEQEND
  8
0
  5
4B42D
  0
LINE
  8
0
  5
486E2
 10
116.327765
 20
259.420494
 30
0.0
 11
116.327765
 21
259.203887
 31
0.0
  0
LINE
  8
0
  5
486E3
 10
116.467639
 20
258.940252
 30
0.0
 11
116.467639
 21
259.168731
 31
0.0
  0
LINE
  8
0
  5
486E4
 10
116.467639
 20
258.940252
 30
0.0
 11
116.327765
 21
258.844011
 31
0.0
  0
LINE
  8
0
  5
486E5
 10
116.327765
 20
258.844011
 30
0.0
 11
116.327765
 21
258.575261
 31
0.0
  0
LINE
  8
0
  5
486E6
 10
116.327765
 20
258.575261
 30
0.0
 11
113.107345
 21
256.359421
 31
0.0
  0
LINE
  8
0
  5
486E7
 10
116.467639
 20
260.33476
 30
0.0
 11
116.467639
 21
260.106281
 31
0.0
  0
LINE
  8
0
  5
486E8
 10
116.327765
 20
260.01004
 30
0.0
 11
116.467639
 21
260.106281
 31
0.0
  0
LINE
  8
0
  5
486E9
 10
116.327765
 20
259.793433
 30
0.0
 11
116.327765
 21
260.01004
 31
0.0
  0
POLYLINE
  8
0
  5
486EA
 66
     1
 10
0.0
 20
0.0
 30
0.0
 70
   128
  0
VERTEX
  8
0
  5
4B42E
 10
116.327765
 20
259.420494
 30
0.0
  0
VERTEX
  8
0
  5
4B42F
 10
116.353477
 20
259.461056
 30
0.0
  0
VERTEX
  8
0
  5
4B430
 10
116.375414
 20
259.504668
 30
0.0
  0
VERTEX
  8
0
  5
4B431
 10
116.392819
 20
259.549825
 30
0.0
  0
VERTEX
  8
0
  5
4B432
 10
116.405092
 20
259.594967
 30
0.0
  0
VERTEX
  8
0
  5
4B433
 10
116.411809
 20
259.638537
 30
0.0
  0
VERTEX
  8
0
  5
4B434
 10
116.412738
 20
259.679031
 30
0.0
  0
VERTEX
  8
0
  5
4B435
 10
116.407847
 20
259.715051
 30
0.0
  0
VERTEX
  8
0
  5
4B436
 10
116.397306
 20
259.745354
 30
0.0
  0
VERTEX
  8
0
  5
4B437
 10
116.381477
 20
259.768893
 30
0.0
  0
SEQEND
  8
0
  5
4B438
  0
LINE
  8
0
  5
4A8F7
 10
108.346602
 20
255.323155
 30
0.0
 11
108.363665
 21
255.326984
 31
0.0
  0
LINE
  8
0
  5
4A8F8
 10
108.363665
 20
255.326984
 30
0.0
 11
108.381568
 21
255.327679
 31
0.0
  0
LINE
  8
0
  5
4A8F9
 10
108.346602
 20
253.415896
 30
0.0
 11
108.363665
 21
253.419726
 31
0.0
  0
LINE
  8
0
  5
4A8FA
 10
108.363665
 20
253.419726
 30
0.0
 11
108.381568
 21
253.420421
 31
0.0
  0
LINE
  8
0
  5
4A8FB
 10
109.421955
 20
256.898022
 30
0.0
 11
109.427182
 21
256.884774
 31
0.0
  0
LINE
  8
0
  5
4A8FC
 10
109.427182
 20
256.884774
 30
0.0
 11
109.434625
 21
256.872261
 31
0.0
  0
LINE
  8
0
  5
4A8FD
 10
112.515541
 20
256.662714
 30
0.0
 11
112.486656
 21
256.676525
 31
0.0
  0
LINE
  8
0
  5
4A8FE
 10
112.486656
 20
256.676525
 30
0.0
 11
112.457772
 21
256.690336
 31
0.0
  0
LINE
  8
0
  5
4A8FF
 10
112.457772
 20
256.690336
 30
0.0
 11
112.428887
 21
256.704148
 31
0.0
  0
LINE
  8
0
  5
4A900
 10
112.428887
 20
256.704148
 30
0.0
 11
112.400002
 21
256.71796
 31
0.0
  0
LINE
  8
0
  5
4A901
 10
112.515541
 20
257.038109
 30
0.0
 11
112.486656
 21
257.051307
 31
0.0
  0
LINE
  8
0
  5
4A902
 10
112.486656
 20
257.051307
 30
0.0
 11
112.457772
 21
257.064505
 31
0.0
  0
LINE
  8
0
  5
4A903
 10
112.457772
 20
257.064505
 30
0.0
 11
112.428887
 21
257.077702
 31
0.0
  0
LINE
  8
0
  5
4A904
 10
112.428887
 20
257.077702
 30
0.0
 11
112.400002
 21
257.090899
 31
0.0
  0
LINE
  8
0
  5
4A905
 10
111.921596
 20
258.617923
 30
0.0
 11
111.926823
 21
258.604675
 31
0.0
  0
LINE
  8
0
  5
4A906
 10
111.926823
 20
258.604675
 30
0.0
 11
111.934266
 21
258.592162
 31
0.0
  0
LINE
  8
0
  5
4A907
 10
112.638217
 20
259.111001
 30
0.0
 11
112.643444
 21
259.097753
 31
0.0
  0
LINE
  8
0
  5
4A908
 10
112.643444
 20
259.097753
 30
0.0
 11
112.650887
 21
259.085239
 31
0.0
  0
LINE
  8
0
  5
4A909
 10
115.223169
 20
260.889602
 30
0.0
 11
115.228397
 21
260.876354
 31
0.0
  0
LINE
  8
0
  5
4A90A
 10
115.228397
 20
260.876354
 30
0.0
 11
115.23584
 21
260.86384
 31
0.0
  0
LINE
  8
0
  5
4A90B
 10
116.443305
 20
259.365248
 30
0.0
 11
116.41442
 21
259.379059
 31
0.0
  0
LINE
  8
0
  5
4A90C
 10
116.41442
 20
259.379059
 30
0.0
 11
116.385535
 21
259.39287
 31
0.0
  0
LINE
  8
0
  5
4A90D
 10
116.385535
 20
259.39287
 30
0.0
 11
116.35665
 21
259.406682
 31
0.0
  0
LINE
  8
0
  5
4A90E
 10
116.35665
 20
259.406682
 30
0.0
 11
116.327765
 21
259.420494
 31
0.0
  0
LINE
  8
0
  5
4A90F
 10
116.443305
 20
259.740643
 30
0.0
 11
116.41442
 21
259.753841
 31
0.0
  0
LINE
  8
0
  5
4A910
 10
116.41442
 20
259.753841
 30
0.0
 11
116.385535
 21
259.767039
 31
0.0
  0
LINE
  8
0
  5
4A911
 10
116.385535
 20
259.767039
 30
0.0
 11
116.35665
 21
259.780236
 31
0.0
  0
LINE
  8
0
  5
4A912
 10
116.35665
 20
259.780236
 30
0.0
 11
116.327765
 21
259.793433
 31
0.0
  0
VIEWPORT
  8
0
  5
4635C
 67
     1
 68
    -1
 10
6.0
 20
4.5
 30
0.0
 40
12.0
 41
9.0
 69
     1
1001
ACAD
1000
MVIEW
1002
{
1070
    16
1010
0.0
1020
0.0
1030
0.0
1010
0.0
1020
0.0
1030
1.0
1040
0.0
1040
9.0
1040
6.0
1040
4.5
1040
50.0
1040
0.0
1040
0.0
1070
     0
1070
   100
1070
     1
1070
     1
1070
     0
1070
     0
1070
     0
1070
     0
1040
0.0
1040
0.0
1040
0.0
1040
1.0
1040
1.0
1040
0.0
1040
0.0
1070
     0
1002
{
1002
}
1002
}
  0
ENDSEC
  0
EOF
