  0
SECTION
  2
HEADER
  9
$ACADVER
  1
AC1009
  9
$INSBASE
 10
0.0
 20
0.0
 30
0.0
  9
$EXTMIN
 10
108.260371
 20
251.325626
 30
0.0
  9
$EXTMAX
 10
118.56367
 20
263.207964
 30
0.0
  9
$LIMMIN
 10
108.260371
 20
251.325626
  9
$LIMMAX
 10
118.56367
 20
263.207964
  9
$ORTHOMODE
 70
     0
  9
$REGENMODE
 70
     1
  9
$FILLMODE
 70
     1
  9
$QTEXTMODE
 70
     0
  9
$MIRRTEXT
 70
     1
  9
$DRAGMODE
 70
     2
  9
$LTSCALE
 40
1.0
  9
$OSMODE
 70
     0
  9
$ATTMODE
 70
     1
  9
$TEXTSIZE
 40
3.5
  9
$TRACEWID
 40
0.5
  9
$TEXTSTYLE
  7
STANDARD
  9
$CLAYER
  8
0
  9
$CELTYPE
  6
BYLAYER
  9
$CECOLOR
 62
   256
  9
$DIMSCALE
 40
1.0
  9
$DIMASZ
 40
0.18
  9
$DIMEXO
 40
0.0625
  9
$DIMDLI
 40
0.38
  9
$DIMRND
 40
0.0
  9
$DIMDLE
 40
0.0
  9
$DIMEXE
 40
0.18
  9
$DIMTP
 40
0.0
  9
$DIMTM
 40
0.0
  9
$DIMTXT
 40
0.18
  9
$DIMCEN
 40
0.09
  9
$DIMTSZ
 40
0.0
  9
$DIMTOL
 70
     0
  9
$DIMLIM
 70
     0
  9
$DIMTIH
 70
     1
  9
$DIMTOH
 70
     1
  9
$DIMSE1
 70
     0
  9
$DIMSE2
 70
     0
  9
$DIMTAD
 70
     0
  9
$DIMZIN
 70
     0
  9
$DIMBLK
  1

  9
$DIMASO
 70
     1
  9
$DIMSHO
 70
     1
  9
$DIMPOST
  1

  9
$DIMAPOST
  1

  9
$DIMALT
 70
     0
  9
$DIMALTD
 70
     2
  9
$DIMALTF
 40
25.4
  9
$DIMLFAC
 40
1.0
  9
$DIMTOFL
 70
     0
  9
$DIMTVP
 40
0.0
  9
$DIMTIX
 70
     0
  9
$DIMSOXD
 70
     0
  9
$DIMSAH
 70
     0
  9
$DIMBLK1
  1

  9
$DIMBLK2
  1

  9
$DIMSTYLE
  2
*UNNAMED
  9
$DIMCLRD
 70
     0
  9
$DIMCLRE
 70
     0
  9
$DIMCLRT
 70
     0
  9
$DIMTFAC
 40
1.0
  9
$DIMGAP
 40
0.09
  9
$LUNITS
 70
     2
  9
$LUPREC
 70
     4
  9
$SKETCHINC
 40
0.1
  9
$FILLETRAD
 40
2.0
  9
$AUNITS
 70
     0
  9
$AUPREC
 70
     0
  9
$MENU
  1
ACAD
  9
$ELEVATION
 40
0.0
  9
$PELEVATION
 40
0.0
  9
$THICKNESS
 40
0.0
  9
$LIMCHECK
 70
     0
  9
$BLIPMODE
 70
     1
  9
$CHAMFERA
 40
0.0
  9
$CHAMFERB
 40
0.0
  9
$SKPOLY
 70
     0
  9
$TDCREATE
 40
2450948.668670139
  9
$TDUPDATE
 40
2450948.668670139
  9
$TDINDWG
 40
0.0000000000
  9
$TDUSRTIMER
 40
0.0000000000
  9
$USRTIMER
 70
     1
  9
$ANGBASE
 50
0.0
  9
$ANGDIR
 70
     0
  9
$PDMODE
 70
     0
  9
$PDSIZE
 40
0.0
  9
$PLINEWID
 40
0.0
  9
$COORDS
 70
     2
  9
$SPLFRAME
 70
     0
  9
$SPLINETYPE
 70
     6
  9
$SPLINESEGS
 70
     8
  9
$ATTDIA
 70
     0
  9
$ATTREQ
 70
     1
  9
$HANDLING
 70
     0
  9
$HANDSEED
  5
0
  9
$SURFTAB1
 70
     6
  9
$SURFTAB2
 70
     6
  9
$SURFTYPE
 70
     6
  9
$SURFU
 70
     6
  9
$SURFV
 70
     6
  9
$UCSNAME
  2

  9
$UCSORG
 10
0.0
 20
0.0
 30
0.0
  9
$UCSXDIR
 10
1.0
 20
0.0
 30
0.0
  9
$UCSYDIR
 10
0.0
 20
1.0
 30
0.0
  9
$PUCSNAME
  2

  9
$PUCSORG
 10
0.0
 20
0.0
 30
0.0
  9
$PUCSXDIR
 10
1.0
 20
0.0
 30
0.0
  9
$PUCSYDIR
 10
0.0
 20
1.0
 30
0.0
  9
$USERI1
 70
     0
  9
$USERI2
 70
     0
  9
$USERI3
 70
     0
  9
$USERI4
 70
     0
  9
$USERI5
 70
     0
  9
$USERR1
 40
0.0
  9
$USERR2
 40
0.0
  9
$USERR3
 40
0.0
  9
$USERR4
 40
0.0
  9
$USERR5
 40
0.0
  9
$WORLDVIEW
 70
     1
  9
$SHADEDGE
 70
     3
  9
$SHADEDIF
 70
    70
  9
$TILEMODE
 70
     1
  9
$MAXACTVP
 70
    16
  9
$PINSBASE
 10
0.0
 20
0.0
 30
0.0
  9
$PLIMCHECK
 70
     0
  9
$PEXTMIN
 10
1.000000E+20
 20
1.000000E+20
 30
1.000000E+20
  9
$PEXTMAX
 10
-1.000000E+20
 20
-1.000000E+20
 30
-1.000000E+20
  9
$PLIMMIN
 10
0.0
 20
0.0
  9
$PLIMMAX
 10
420.0
 20
297.0
  9
$UNITMODE
 70
     0
  9
$VISRETAIN
 70
     0
  9
$PLINEGEN
 70
     0
  9
$PSLTSCALE
 70
     1
  9
$TREEDEPTH
 70
  3020
  9
$DWGCODEPAGE
  3
iso8859-1
  0
ENDSEC
  0
SECTION
  2
TABLES
  0
TABLE
  2
VPORT
 70
     2
  0
VPORT
  2
*ACTIVE
 70
     0
 10
0.0
 20
0.0
 11
1.0
 21
1.0
 12
117.778387
 22
257.326997
 13
0.0
 23
0.0
 14
1.0
 24
1.0
 15
0.0
 25
0.0
 16
0.0
 26
0.0
 36
1.0
 17
0.0
 27
0.0
 37
0.0
 40
15.223961
 41
1.748359
 42
50.0
 43
0.0
 44
0.0
 50
0.0
 51
0.0
 71
     0
 72
   100
 73
     1
 74
     0
 75
     0
 76
     0
 77
     0
 78
     0
  0
ENDTAB
  0
TABLE
  2
LTYPE
 70
     1
  0
LTYPE
  2
CONTINUOUS
 70
    64
  3
Solid line
 72
    65
 73
     0
 40
0.0
  0
ENDTAB
  0
TABLE
  2
LAYER
 70
     1
  0
LAYER
  2
0
 70
    64
 62
     7
  6
CONTINUOUS
  0
ENDTAB
  0
TABLE
  2
STYLE
 70
     1
  0
STYLE
  2
STANDARD
 70
     0
 40
0.0
 41
1.0
 50
0.0
 71
     0
 42
3.5
  3
txt
  4

  0
ENDTAB
  0
TABLE
  2
VIEW
 70
     0
  0
ENDTAB
  0
TABLE
  2
UCS
 70
     0
  0
ENDTAB
  0
TABLE
  2
APPID
 70
     1
  0
APPID
  2
ACAD
 70
    64
  0
ENDTAB
  0
TABLE
  2
DIMSTYLE
 70
     0
  0
ENDTAB
  0
ENDSEC
  0
SECTION
  2
BLOCKS
  0
ENDSEC
  0
SECTION
  2
ENTITIES
  0
LINE
  8
0
  6
CONTINUOUS
 10
109.678334
 20
251.329218
 30
0.0
 11
118.530749
 21
257.89386
 31
0.0
  0
LINE
  8
0
  6
CONTINUOUS
 10
117.820144
 20
257.741065
 30
0.0
 11
118.350459
 21
258.135191
 31
0.0
  0
LINE
  8
0
  6
CONTINUOUS
 10
110.760698
 20
252.494551
 30
0.0
 11
117.436728
 21
257.456114
 31
0.0
  0
LINE
  8
0
  6
CONTINUOUS
 10
109.865728
 20
251.829418
 30
0.0
 11
110.377282
 21
252.2096
 31
0.0
  0
LINE
  8
0
  6
CONTINUOUS
 10
117.714862
 20
261.771111
 30
0.0
 11
117.714862
 21
261.773389
 31
0.0
  0
LINE
  8
0
  6
CONTINUOUS
 10
117.651065
 20
261.723302
 30
0.0
 11
117.714544
 21
261.770479
 31
0.0
  0
LINE
  8
0
  6
CONTINUOUS
 10
117.699425
 20
261.759238
 30
0.0
 11
117.704472
 21
261.757026
 31
0.0
  0
LINE
  8
0
  6
CONTINUOUS
 10
117.780295
 20
261.813418
 30
0.0
 11
117.823996
 21
261.797435
 31
0.0
  0
LINE
  8
0
  6
CONTINUOUS
 10
117.44058
 20
261.512484
 30
0.0
 11
117.823996
 21
261.797435
 31
0.0
  0
LINE
  8
0
  6
CONTINUOUS
 10
118.414473
 20
261.597913
 30
0.0
 11
109.907919
 21
255.275922
 31
0.0
  0
LINE
  8
0
  6
CONTINUOUS
 10
118.414473
 20
261.99792
 30
0.0
 11
109.907919
 21
255.675928
 31
0.0
  0
LINE
  8
0
  6
CONTINUOUS
 10
118.414109
 20
262.024705
 30
0.0
 11
109.907572
 21
255.702727
 31
0.0
  0
LINE
  8
0
  6
CONTINUOUS
 10
118.414473
 20
261.891251
 30
0.0
 11
109.907919
 21
255.56926
 31
0.0
  0
LINE
  8
0
  6
CONTINUOUS
 10
118.414473
 20
261.917918
 30
0.0
 11
109.907919
 21
255.595927
 31
0.0
  0
LINE
  8
0
  6
CONTINUOUS
 10
118.414473
 20
261.784583
 30
0.0
 11
109.907919
 21
255.462592
 31
0.0
  0
LINE
  8
0
  6
CONTINUOUS
 10
118.414473
 20
261.81125
 30
0.0
 11
109.907919
 21
255.489259
 31
0.0
  0
LINE
  8
0
  6
CONTINUOUS
 10
118.414473
 20
261.677914
 30
0.0
 11
109.907919
 21
255.355923
 31
0.0
  0
LINE
  8
0
  6
CONTINUOUS
 10
118.414473
 20
261.704582
 30
0.0
 11
109.907919
 21
255.38259
 31
0.0
  0
LINE
  8
0
  6
CONTINUOUS
 10
118.414473
 20
261.597913
 30
0.0
 11
118.414473
 21
261.677914
 31
0.0
  0
LINE
  8
0
  6
CONTINUOUS
 10
118.414473
 20
261.704582
 30
0.0
 11
118.414473
 21
261.784583
 31
0.0
  0
LINE
  8
0
  6
CONTINUOUS
 10
118.414473
 20
261.81125
 30
0.0
 11
118.414473
 21
261.891251
 31
0.0
  0
LINE
  8
0
  6
CONTINUOUS
 10
118.414473
 20
261.917918
 30
0.0
 11
118.414473
 21
261.99792
 31
0.0
  0
LINE
  8
0
  6
CONTINUOUS
 10
118.414473
 20
258.371193
 30
0.0
 11
118.414473
 21
258.291192
 31
0.0
  0
LINE
  8
0
  6
CONTINUOUS
 10
118.414473
 20
258.291192
 30
0.0
 11
109.907919
 21
251.969201
 31
0.0
  0
LINE
  8
0
  6
CONTINUOUS
 10
118.414473
 20
258.477862
 30
0.0
 11
118.414473
 21
258.39786
 31
0.0
  0
LINE
  8
0
  6
CONTINUOUS
 10
118.414473
 20
258.58453
 30
0.0
 11
118.414473
 21
258.504529
 31
0.0
  0
LINE
  8
0
  6
CONTINUOUS
 10
118.414473
 20
258.691199
 30
0.0
 11
118.414473
 21
258.611197
 31
0.0
  0
LINE
  8
0
  6
CONTINUOUS
 10
118.414473
 20
258.691199
 30
0.0
 11
109.907919
 21
252.369207
 31
0.0
  0
LINE
  8
0
  6
CONTINUOUS
 10
118.414473
 20
258.58453
 30
0.0
 11
109.907919
 21
252.262539
 31
0.0
  0
LINE
  8
0
  6
CONTINUOUS
 10
118.414473
 20
258.611197
 30
0.0
 11
109.907919
 21
252.289206
 31
0.0
  0
LINE
  8
0
  6
CONTINUOUS
 10
118.414473
 20
258.477862
 30
0.0
 11
109.907919
 21
252.15587
 31
0.0
  0
LINE
  8
0
  6
CONTINUOUS
 10
118.414473
 20
258.504529
 30
0.0
 11
109.907919
 21
252.182537
 31
0.0
  0
LINE
  8
0
  6
CONTINUOUS
 10
118.414473
 20
258.371193
 30
0.0
 11
109.907919
 21
252.049202
 31
0.0
  0
LINE
  8
0
  6
CONTINUOUS
 10
118.414473
 20
258.39786
 30
0.0
 11
109.907919
 21
252.075869
 31
0.0
  0
LINE
  8
0
  6
CONTINUOUS
 10
118.414473
 20
261.571246
 30
0.0
 11
109.907919
 21
255.249255
 31
0.0
  0
LINE
  8
0
  6
CONTINUOUS
 10
118.414473
 20
261.571246
 30
0.0
 11
118.414473
 21
258.717866
 31
0.0
  0
LINE
  8
0
  6
CONTINUOUS
 10
118.414473
 20
258.717866
 30
0.0
 11
109.907919
 21
252.395874
 31
0.0
  0
LINE
  8
0
  6
CONTINUOUS
 10
117.44058
 20
257.459084
 30
0.0
 11
117.823996
 21
257.744035
 31
0.0
  0
LINE
  8
0
  6
CONTINUOUS
 10
110.76455
 20
252.497521
 30
0.0
 11
110.381134
 21
252.21257
 31
0.0
  0
LINE
  8
0
  6
CONTINUOUS
 10
118.414109
 20
258.264653
 30
0.0
 11
109.907572
 21
251.942675
 31
0.0
  0
LINE
  8
0
  6
CONTINUOUS
 10
109.907919
 20
255.595927
 30
0.0
 11
109.907919
 21
255.675928
 31
0.0
  0
LINE
  8
0
  6
CONTINUOUS
 10
109.907919
 20
255.489259
 30
0.0
 11
109.907919
 21
255.56926
 31
0.0
  0
LINE
  8
0
  6
CONTINUOUS
 10
109.907919
 20
255.38259
 30
0.0
 11
109.907919
 21
255.462592
 31
0.0
  0
LINE
  8
0
  6
CONTINUOUS
 10
109.907919
 20
255.275922
 30
0.0
 11
109.907919
 21
255.355923
 31
0.0
  0
LINE
  8
0
  6
CONTINUOUS
 10
109.907919
 20
255.249255
 30
0.0
 11
109.907919
 21
252.395874
 31
0.0
  0
LINE
  8
0
  6
CONTINUOUS
 10
109.907919
 20
252.369207
 30
0.0
 11
109.907919
 21
252.289206
 31
0.0
  0
LINE
  8
0
  6
CONTINUOUS
 10
109.907919
 20
252.262539
 30
0.0
 11
109.907919
 21
252.182537
 31
0.0
  0
LINE
  8
0
  6
CONTINUOUS
 10
109.907919
 20
252.15587
 30
0.0
 11
109.907919
 21
252.075869
 31
0.0
  0
LINE
  8
0
  6
CONTINUOUS
 10
109.907919
 20
252.049202
 30
0.0
 11
109.907919
 21
251.969201
 31
0.0
  0
LINE
  8
0
  6
CONTINUOUS
 10
117.654403
 20
261.719829
 30
0.0
 11
117.645856
 21
261.722113
 31
0.0
  0
LINE
  8
0
  6
CONTINUOUS
 10
117.780295
 20
261.813418
 30
0.0
 11
117.417756
 21
261.543982
 31
0.0
  0
LINE
  8
0
  6
CONTINUOUS
 10
110.76455
 20
256.550921
 30
0.0
 11
110.381134
 21
256.26597
 31
0.0
  0
LINE
  8
0
  6
CONTINUOUS
 10
110.35831
 20
256.297468
 30
0.0
 11
110.720849
 21
256.566904
 31
0.0
  0
LINE
  8
0
  6
CONTINUOUS
 10
110.720849
 20
256.566904
 30
0.0
 11
110.76455
 21
256.550921
 31
0.0
  0
LINE
  8
0
  6
CONTINUOUS
 10
108.260371
 20
253.133416
 30
0.0
 11
108.32769
 21
253.183447
 31
0.0
  0
LINE
  8
0
  6
CONTINUOUS
 10
108.341626
 20
253.063623
 30
0.0
 11
108.280226
 21
253.080478
 31
0.0
  0
LINE
  8
0
  6
CONTINUOUS
 10
108.341626
 20
252.743618
 30
0.0
 11
108.341626
 21
253.063623
 31
0.0
  0
LINE
  8
0
  6
CONTINUOUS
 10
108.341626
 20
253.063623
 30
0.0
 11
108.400022
 21
253.107023
 31
0.0
  0
LINE
  8
0
  6
CONTINUOUS
 10
108.341626
 20
252.743618
 30
0.0
 11
108.280226
 21
252.771672
 31
0.0
  0
LINE
  8
0
  6
CONTINUOUS
 10
108.341626
 20
252.743618
 30
0.0
 11
108.400022
 21
252.787017
 31
0.0
  0
LINE
  8
0
  6
CONTINUOUS
 10
108.260371
 20
252.836742
 30
0.0
 11
108.260371
 21
253.133416
 31
0.0
  0
LINE
  8
0
  6
CONTINUOUS
 10
108.280226
 20
253.080478
 30
0.0
 11
108.260371
 21
253.133416
 31
0.0
  0
LINE
  8
0
  6
CONTINUOUS
 10
108.280226
 20
252.771672
 30
0.0
 11
108.280226
 21
253.080478
 31
0.0
  0
LINE
  8
0
  6
CONTINUOUS
 10
108.280226
 20
252.771672
 30
0.0
 11
108.260371
 21
252.836742
 31
0.0
  0
LINE
  8
0
  6
CONTINUOUS
 10
112.971775
 20
259.964658
 30
0.0
 11
112.971775
 21
260.051432
 31
0.0
  0
LINE
  8
0
  6
CONTINUOUS
 10
112.914144
 20
260.076687
 30
0.0
 11
112.85171
 21
260.034713
 31
0.0
  0
LINE
  8
0
  6
CONTINUOUS
 10
113.546057
 20
260.391459
 30
0.0
 11
113.546057
 21
260.478233
 31
0.0
  0
LINE
  8
0
  6
CONTINUOUS
 10
113.48089
 20
260.497887
 30
0.0
 11
113.410292
 21
260.449845
 31
0.0
  0
LINE
  8
0
  6
CONTINUOUS
 10
113.546057
 20
260.478233
 30
0.0
 11
112.971775
 21
260.051432
 31
0.0
  0
LINE
  8
0
  6
CONTINUOUS
 10
112.971775
 20
260.051432
 30
0.0
 11
112.914144
 21
260.076687
 31
0.0
  0
LINE
  8
0
  6
CONTINUOUS
 10
113.48089
 20
260.497887
 30
0.0
 11
112.914144
 21
260.076687
 31
0.0
  0
LINE
  8
0
  6
CONTINUOUS
 10
113.546057
 20
260.478233
 30
0.0
 11
113.48089
 21
260.497887
 31
0.0
  0
LINE
  8
0
  6
CONTINUOUS
 10
113.410292
 20
260.449845
 30
0.0
 11
112.85171
 21
260.034713
 31
0.0
  0
LINE
  8
0
  6
CONTINUOUS
 10
112.85171
 20
260.034713
 30
0.0
 11
112.85171
 21
259.93468
 31
0.0
  0
LINE
  8
0
  6
CONTINUOUS
 10
115.570577
 20
262.055349
 30
0.0
 11
116.039427
 21
262.403794
 31
0.0
  0
LINE
  8
0
  6
CONTINUOUS
 10
116.110025
 20
262.451836
 30
0.0
 11
116.039427
 21
262.403794
 31
0.0
  0
LINE
  8
0
  6
CONTINUOUS
 10
116.175193
 20
262.345408
 30
0.0
 11
116.175193
 21
262.432182
 31
0.0
  0
LINE
  8
0
  6
CONTINUOUS
 10
116.175193
 20
262.432182
 30
0.0
 11
115.690642
 21
262.072068
 31
0.0
  0
LINE
  8
0
  6
CONTINUOUS
 10
115.633011
 20
262.097324
 30
0.0
 11
116.110025
 21
262.451836
 31
0.0
  0
LINE
  8
0
  6
CONTINUOUS
 10
116.175193
 20
262.432182
 30
0.0
 11
116.110025
 21
262.451836
 31
0.0
  0
LINE
  8
0
  6
CONTINUOUS
 10
115.570577
 20
262.055349
 30
0.0
 11
115.570577
 21
261.955317
 31
0.0
  0
LINE
  8
0
  6
CONTINUOUS
 10
115.633011
 20
262.097324
 30
0.0
 11
115.570577
 21
262.055349
 31
0.0
  0
LINE
  8
0
  6
CONTINUOUS
 10
115.690642
 20
262.072068
 30
0.0
 11
115.633011
 21
262.097324
 31
0.0
  0
LINE
  8
0
  6
CONTINUOUS
 10
115.690642
 20
261.985295
 30
0.0
 11
115.690642
 21
262.072068
 31
0.0
  0
LINE
  8
0
  6
CONTINUOUS
 10
109.531264
 20
257.562562
 30
0.0
 11
109.46883
 21
257.520588
 31
0.0
  0
LINE
  8
0
  6
CONTINUOUS
 10
109.937679
 20
257.869032
 30
0.0
 11
109.46883
 21
257.520588
 31
0.0
  0
LINE
  8
0
  6
CONTINUOUS
 10
109.46883
 20
257.520588
 30
0.0
 11
109.46883
 21
257.420555
 31
0.0
  0
LINE
  8
0
  6
CONTINUOUS
 10
110.008278
 20
257.917074
 30
0.0
 11
109.937679
 21
257.869032
 31
0.0
  0
LINE
  8
0
  6
CONTINUOUS
 10
109.588895
 20
257.537307
 30
0.0
 11
109.531264
 21
257.562562
 31
0.0
  0
LINE
  8
0
  6
CONTINUOUS
 10
110.008278
 20
257.917074
 30
0.0
 11
109.531264
 21
257.562562
 31
0.0
  0
LINE
  8
0
  6
CONTINUOUS
 10
110.073445
 20
257.89742
 30
0.0
 11
110.008278
 21
257.917074
 31
0.0
  0
LINE
  8
0
  6
CONTINUOUS
 10
112.21803
 20
259.491256
 30
0.0
 11
112.792312
 21
259.918057
 31
0.0
  0
LINE
  8
0
  6
CONTINUOUS
 10
112.21803
 20
259.491256
 30
0.0
 11
112.160399
 21
259.516511
 31
0.0
  0
LINE
  8
0
  6
CONTINUOUS
 10
112.21803
 20
259.404482
 30
0.0
 11
112.21803
 21
259.491256
 31
0.0
  0
LINE
  8
0
  6
CONTINUOUS
 10
112.160399
 20
259.516511
 30
0.0
 11
112.727145
 21
259.937711
 31
0.0
  0
LINE
  8
0
  6
CONTINUOUS
 10
112.160399
 20
259.516511
 30
0.0
 11
112.097965
 21
259.474536
 31
0.0
  0
LINE
  8
0
  6
CONTINUOUS
 10
112.097965
 20
259.474536
 30
0.0
 11
112.656546
 21
259.889669
 31
0.0
  0
LINE
  8
0
  6
CONTINUOUS
 10
112.097965
 20
259.474536
 30
0.0
 11
112.097965
 21
259.374504
 31
0.0
  0
LINE
  8
0
  6
CONTINUOUS
 10
109.588895
 20
257.450533
 30
0.0
 11
109.588895
 21
257.537307
 31
0.0
  0
LINE
  8
0
  6
CONTINUOUS
 10
109.588895
 20
257.537307
 30
0.0
 11
110.073445
 21
257.89742
 31
0.0
  0
LINE
  8
0
  6
CONTINUOUS
 10
110.073445
 20
257.810646
 30
0.0
 11
110.073445
 21
257.89742
 31
0.0
  0
LINE
  8
0
  6
CONTINUOUS
 10
109.588895
 20
257.450533
 30
0.0
 11
110.073445
 21
257.810646
 31
0.0
  0
LINE
  8
0
  6
CONTINUOUS
 10
112.21803
 20
259.404482
 30
0.0
 11
110.073445
 21
257.810646
 31
0.0
  0
LINE
  8
0
  6
CONTINUOUS
 10
112.21803
 20
259.404482
 30
0.0
 11
112.792312
 21
259.831283
 31
0.0
  0
LINE
  8
0
  6
CONTINUOUS
 10
112.792312
 20
259.831283
 30
0.0
 11
112.971775
 21
259.964658
 31
0.0
  0
LINE
  8
0
  6
CONTINUOUS
 10
113.546057
 20
260.391459
 30
0.0
 11
112.971775
 21
259.964658
 31
0.0
  0
LINE
  8
0
  6
CONTINUOUS
 10
113.546057
 20
260.391459
 30
0.0
 11
115.690642
 21
261.985295
 31
0.0
  0
LINE
  8
0
  6
CONTINUOUS
 10
116.175193
 20
262.345408
 30
0.0
 11
115.690642
 21
261.985295
 31
0.0
  0
LINE
  8
0
  6
CONTINUOUS
 10
116.175193
 20
262.345408
 30
0.0
 11
117.328194
 21
263.202308
 31
0.0
  0
LINE
  8
0
  6
CONTINUOUS
 10
109.588895
 20
257.450533
 30
0.0
 11
108.435893
 21
256.593633
 31
0.0
  0
LINE
  8
0
  6
CONTINUOUS
 10
108.260371
 20
255.480121
 30
0.0
 11
108.260371
 21
255.183447
 31
0.0
  0
LINE
  8
0
  6
CONTINUOUS
 10
108.280226
 20
255.427184
 30
0.0
 11
108.280226
 21
255.118377
 31
0.0
  0
LINE
  8
0
  6
CONTINUOUS
 10
108.341626
 20
255.410328
 30
0.0
 11
108.341626
 21
255.090323
 31
0.0
  0
LINE
  8
0
  6
CONTINUOUS
 10
108.341626
 20
255.410328
 30
0.0
 11
108.400022
 21
255.453728
 31
0.0
  0
LINE
  8
0
  6
CONTINUOUS
 10
108.341626
 20
255.410328
 30
0.0
 11
108.280226
 21
255.427184
 31
0.0
  0
LINE
  8
0
  6
CONTINUOUS
 10
108.280226
 20
255.427184
 30
0.0
 11
108.260371
 21
255.480121
 31
0.0
  0
LINE
  8
0
  6
CONTINUOUS
 10
108.32769
 20
255.530153
 30
0.0
 11
108.260371
 21
255.480121
 31
0.0
  0
LINE
  8
0
  6
CONTINUOUS
 10
108.280226
 20
255.118377
 30
0.0
 11
108.260371
 21
255.183447
 31
0.0
  0
LINE
  8
0
  6
CONTINUOUS
 10
108.341626
 20
255.090323
 30
0.0
 11
108.280226
 21
255.118377
 31
0.0
  0
LINE
  8
0
  6
CONTINUOUS
 10
108.341626
 20
255.090323
 30
0.0
 11
108.400022
 21
255.133723
 31
0.0
  0
LINE
  8
0
  6
CONTINUOUS
 10
108.400022
 20
252.787017
 30
0.0
 11
108.400022
 21
253.107023
 31
0.0
  0
LINE
  8
0
  6
CONTINUOUS
 10
108.400022
 20
255.133723
 30
0.0
 11
108.400022
 21
253.107023
 31
0.0
  0
LINE
  8
0
  6
CONTINUOUS
 10
108.400022
 20
255.453728
 30
0.0
 11
108.400022
 21
255.133723
 31
0.0
  0
LINE
  8
0
  6
CONTINUOUS
 10
108.400022
 20
255.453728
 30
0.0
 11
108.400022
 21
256.513672
 31
0.0
  0
LINE
  8
0
  6
CONTINUOUS
 10
112.792312
 20
259.831283
 30
0.0
 11
112.792312
 21
259.918057
 31
0.0
  0
LINE
  8
0
  6
CONTINUOUS
 10
112.792312
 20
259.918057
 30
0.0
 11
112.727145
 21
259.937711
 31
0.0
  0
LINE
  8
0
  6
CONTINUOUS
 10
112.727145
 20
259.937711
 30
0.0
 11
112.656546
 21
259.889669
 31
0.0
  0
LINE
  8
0
  6
CONTINUOUS
 10
108.400022
 20
252.787017
 30
0.0
 11
108.400022
 21
251.727073
 31
0.0
  0
LINE
  8
0
  6
CONTINUOUS
 10
109.779832
 20
251.43034
 30
0.0
 11
109.783419
 21
251.433006
 31
0.0
  0
LINE
  8
0
  6
CONTINUOUS
 10
109.783419
 20
251.433006
 30
0.0
 11
111.935853
 21
253.032675
 31
0.0
  0
LINE
  8
0
  6
CONTINUOUS
 10
111.935853
 20
253.032675
 30
0.0
 11
114.161196
 21
254.686529
 31
0.0
  0
LINE
  8
0
  6
CONTINUOUS
 10
109.779832
 20
256.024402
 30
0.0
 11
109.783419
 21
256.027068
 31
0.0
  0
LINE
  8
0
  6
CONTINUOUS
 10
109.783419
 20
256.027068
 30
0.0
 11
111.935853
 21
257.626737
 31
0.0
  0
LINE
  8
0
  6
CONTINUOUS
 10
111.935853
 20
257.626737
 30
0.0
 11
114.161196
 21
259.280591
 31
0.0
  0
LINE
  8
0
  6
CONTINUOUS
 10
109.927053
 20
256.005657
 30
0.0
 11
112.025584
 21
257.565266
 31
0.0
  0
LINE
  8
0
  6
CONTINUOUS
 10
112.025584
 20
257.565266
 30
0.0
 11
114.161196
 21
259.152433
 31
0.0
  0
LINE
  8
0
  6
CONTINUOUS
 10
109.927053
 20
251.667912
 30
0.0
 11
112.025584
 21
253.227521
 31
0.0
  0
LINE
  8
0
  6
CONTINUOUS
 10
112.025584
 20
253.227521
 30
0.0
 11
114.161196
 21
254.814688
 31
0.0
  0
LINE
  8
0
  6
CONTINUOUS
 10
109.877673
 20
251.739273
 30
0.0
 11
111.976204
 21
253.298882
 31
0.0
  0
LINE
  8
0
  6
CONTINUOUS
 10
111.976204
 20
253.298882
 30
0.0
 11
114.111816
 21
254.886049
 31
0.0
  0
LINE
  8
0
  6
CONTINUOUS
 10
109.6452
 20
256.140466
 30
0.0
 11
109.684658
 21
256.16979
 31
0.0
  0
LINE
  8
0
  6
CONTINUOUS
 10
109.684658
 20
256.16979
 30
0.0
 11
111.837092
 21
257.769459
 31
0.0
  0
LINE
  8
0
  6
CONTINUOUS
 10
111.837092
 20
257.769459
 30
0.0
 11
114.062435
 21
259.423313
 31
0.0
  0
LINE
  8
0
  6
CONTINUOUS
 10
109.912703
 20
255.974944
 30
0.0
 11
112.029774
 21
257.548332
 31
0.0
  0
LINE
  8
0
  6
CONTINUOUS
 10
112.029774
 20
257.548332
 30
0.0
 11
114.146845
 21
259.121719
 31
0.0
  0
LINE
  8
0
  6
CONTINUOUS
 10
109.779832
 20
251.43034
 30
0.0
 11
109.779832
 21
251.43567
 31
0.0
  0
LINE
  8
0
  6
CONTINUOUS
 10
109.779832
 20
251.43567
 30
0.0
 11
109.779832
 21
252.527351
 31
0.0
  0
LINE
  8
0
  6
CONTINUOUS
 10
109.779832
 20
252.527351
 30
0.0
 11
109.779832
 21
253.727371
 31
0.0
  0
LINE
  8
0
  6
CONTINUOUS
 10
109.855312
 20
251.721198
 30
0.0
 11
109.855312
 21
252.724783
 31
0.0
  0
LINE
  8
0
  6
CONTINUOUS
 10
109.855312
 20
252.724783
 30
0.0
 11
109.855312
 21
253.783467
 31
0.0
  0
LINE
  8
0
  6
CONTINUOUS
 10
109.609329
 20
251.359839
 30
0.0
 11
109.609329
 21
251.418471
 31
0.0
  0
LINE
  8
0
  6
CONTINUOUS
 10
109.609329
 20
251.418471
 30
0.0
 11
109.609329
 21
252.510152
 31
0.0
  0
LINE
  8
0
  6
CONTINUOUS
 10
109.609329
 20
252.510152
 30
0.0
 11
109.609329
 21
253.710172
 31
0.0
  0
LINE
  8
0
  6
CONTINUOUS
 10
109.865858
 20
251.739372
 30
0.0
 11
109.865858
 21
252.770506
 31
0.0
  0
LINE
  8
0
  6
CONTINUOUS
 10
109.865858
 20
252.770506
 30
0.0
 11
109.865858
 21
253.801641
 31
0.0
  0
LINE
  8
0
  6
CONTINUOUS
 10
108.400022
 20
251.727073
 30
0.0
 11
109.053441
 21
251.528648
 31
0.0
  0
LINE
  8
0
  6
CONTINUOUS
 10
109.053441
 20
251.528648
 30
0.0
 11
109.609329
 21
251.359839
 31
0.0
  0
LINE
  8
0
  6
CONTINUOUS
 10
108.41606
 20
251.695428
 30
0.0
 11
109.021026
 21
251.511717
 31
0.0
  0
LINE
  8
0
  6
CONTINUOUS
 10
109.021026
 20
251.511717
 30
0.0
 11
109.626043
 21
251.327989
 31
0.0
  0
LINE
  8
0
  6
CONTINUOUS
 10
108.400022
 20
251.727073
 30
0.0
 11
108.402994
 21
251.709143
 31
0.0
  0
LINE
  8
0
  6
CONTINUOUS
 10
108.402994
 20
251.709143
 30
0.0
 11
108.410918
 21
251.69804
 31
0.0
  0
LINE
  8
0
  6
CONTINUOUS
 10
108.410918
 20
251.69804
 30
0.0
 11
108.416057
 21
251.695432
 31
0.0
  0
LINE
  8
0
  6
CONTINUOUS
 10
108.32769
 20
253.183447
 30
0.0
 11
108.360022
 21
253.196764
 31
0.0
  0
LINE
  8
0
  6
CONTINUOUS
 10
108.360022
 20
253.196764
 30
0.0
 11
108.400103
 21
253.198823
 31
0.0
  0
LINE
  8
0
  6
CONTINUOUS
 10
109.877096
 20
251.663155
 30
0.0
 11
109.855312
 21
251.721198
 31
0.0
  0
LINE
  8
0
  6
CONTINUOUS
 10
109.91218
 20
251.709885
 30
0.0
 11
109.927053
 21
251.667912
 31
0.0
  0
LINE
  8
0
  6
CONTINUOUS
 10
109.877096
 20
251.663155
 30
0.0
 11
109.878255
 21
251.705025
 31
0.0
  0
LINE
  8
0
  6
CONTINUOUS
 10
109.73215
 20
251.354824
 30
0.0
 11
109.6452
 21
251.333197
 31
0.0
  0
LINE
  8
0
  6
CONTINUOUS
 10
109.609329
 20
251.359839
 30
0.0
 11
109.700914
 21
251.378024
 31
0.0
  0
LINE
  8
0
  6
CONTINUOUS
 10
109.700914
 20
251.378024
 30
0.0
 11
109.688401
 21
251.338679
 31
0.0
  0
LINE
  8
0
  6
CONTINUOUS
 10
109.688401
 20
251.338679
 30
0.0
 11
109.731738
 21
251.354523
 31
0.0
  0
LINE
  8
0
  6
CONTINUOUS
 10
109.626603
 20
251.327831
 30
0.0
 11
109.630439
 21
251.327001
 31
0.0
  0
LINE
  8
0
  6
CONTINUOUS
 10
109.630439
 20
251.327001
 30
0.0
 11
109.635401
 21
251.326291
 31
0.0
  0
LINE
  8
0
  6
CONTINUOUS
 10
109.635401
 20
251.326291
 30
0.0
 11
109.648098
 21
251.325626
 31
0.0
  0
LINE
  8
0
  6
CONTINUOUS
 10
109.648098
 20
251.325626
 30
0.0
 11
109.678334
 21
251.329218
 31
0.0
  0
LINE
  8
0
  6
CONTINUOUS
 10
109.678334
 20
251.329218
 30
0.0
 11
109.702001
 21
251.337364
 31
0.0
  0
LINE
  8
0
  6
CONTINUOUS
 10
109.702001
 20
251.337364
 30
0.0
 11
109.717608
 21
251.345392
 31
0.0
  0
LINE
  8
0
  6
CONTINUOUS
 10
109.717608
 20
251.345392
 30
0.0
 11
109.731738
 21
251.354523
 31
0.0
  0
LINE
  8
0
  6
CONTINUOUS
 10
109.620935
 20
251.330593
 30
0.0
 11
109.609329
 21
251.359839
 31
0.0
  0
LINE
  8
0
  6
CONTINUOUS
 10
109.620935
 20
251.330593
 30
0.0
 11
109.688401
 21
251.338679
 31
0.0
  0
LINE
  8
0
  6
CONTINUOUS
 10
109.626577
 20
251.327837
 30
0.0
 11
109.620935
 21
251.330593
 31
0.0
  0
LINE
  8
0
  6
CONTINUOUS
 10
109.779832
 20
251.43034
 30
0.0
 11
109.73215
 21
251.354824
 31
0.0
  0
LINE
  8
0
  6
CONTINUOUS
 10
109.700914
 20
251.378024
 30
0.0
 11
109.779832
 21
251.43034
 31
0.0
  0
LINE
  8
0
  6
CONTINUOUS
 10
109.733689
 20
251.355952
 30
0.0
 11
109.731738
 21
251.354523
 31
0.0
  0
LINE
  8
0
  6
CONTINUOUS
 10
109.927053
 20
251.667912
 30
0.0
 11
109.877096
 21
251.663155
 31
0.0
  0
LINE
  8
0
  6
CONTINUOUS
 10
109.907919
 20
252.15587
 30
0.0
 11
109.900585
 21
252.161303
 31
0.0
  0
LINE
  8
0
  6
CONTINUOUS
 10
109.900585
 20
252.161303
 30
0.0
 11
109.896052
 21
252.169754
 31
0.0
  0
LINE
  8
0
  6
CONTINUOUS
 10
109.896052
 20
252.169754
 30
0.0
 11
109.896052
 21
252.177995
 31
0.0
  0
LINE
  8
0
  6
CONTINUOUS
 10
109.896052
 20
252.177995
 30
0.0
 11
109.900585
 21
252.182878
 31
0.0
  0
LINE
  8
0
  6
CONTINUOUS
 10
109.900585
 20
252.182878
 30
0.0
 11
109.907919
 21
252.182537
 31
0.0
  0
LINE
  8
0
  6
CONTINUOUS
 10
109.907572
 20
251.942675
 30
0.0
 11
109.895132
 21
251.881076
 31
0.0
  0
LINE
  8
0
  6
CONTINUOUS
 10
109.895132
 20
251.881076
 30
0.0
 11
109.865783
 21
251.832505
 31
0.0
  0
LINE
  8
0
  6
CONTINUOUS
 10
109.877673
 20
251.739273
 30
0.0
 11
109.91218
 21
251.709885
 31
0.0
  0
LINE
  8
0
  6
CONTINUOUS
 10
109.91218
 20
251.709885
 30
0.0
 11
109.878255
 21
251.705025
 31
0.0
  0
LINE
  8
0
  6
CONTINUOUS
 10
109.878255
 20
251.705025
 30
0.0
 11
109.868133
 21
251.718794
 31
0.0
  0
LINE
  8
0
  6
CONTINUOUS
 10
109.866617
 20
251.727102
 30
0.0
 11
109.878255
 21
251.705025
 31
0.0
  0
LINE
  8
0
  6
CONTINUOUS
 10
109.855312
 20
251.721198
 30
0.0
 11
109.865858
 21
251.739382
 31
0.0
  0
LINE
  8
0
  6
CONTINUOUS
 10
109.866002
 20
251.734135
 30
0.0
 11
109.877673
 21
251.739273
 31
0.0
  0
LINE
  8
0
  6
CONTINUOUS
 10
109.855445
 20
251.735192
 30
0.0
 11
109.855488
 21
251.735174
 31
0.0
  0
LINE
  8
0
  6
CONTINUOUS
 10
109.865823
 20
251.744379
 30
0.0
 11
109.877673
 21
251.739273
 31
0.0
  0
LINE
  8
0
  6
CONTINUOUS
 10
109.861276
 20
251.731728
 30
0.0
 11
109.862302
 21
251.730817
 31
0.0
  0
LINE
  8
0
  6
CONTINUOUS
 10
109.862302
 20
251.730817
 30
0.0
 11
109.864401
 21
251.728134
 31
0.0
  0
LINE
  8
0
  6
CONTINUOUS
 10
109.864401
 20
251.728134
 30
0.0
 11
109.866659
 21
251.723347
 31
0.0
  0
LINE
  8
0
  6
CONTINUOUS
 10
109.866659
 20
251.723347
 30
0.0
 11
109.867453
 21
251.720965
 31
0.0
  0
LINE
  8
0
  6
CONTINUOUS
 10
109.867453
 20
251.720965
 30
0.0
 11
109.868034
 21
251.719106
 31
0.0
  0
LINE
  8
0
  6
CONTINUOUS
 10
109.855479
 20
251.735178
 30
0.0
 11
109.855619
 21
251.735114
 31
0.0
  0
LINE
  8
0
  6
CONTINUOUS
 10
109.855619
 20
251.735114
 30
0.0
 11
109.856103
 21
251.734879
 31
0.0
  0
LINE
  8
0
  6
CONTINUOUS
 10
109.856103
 20
251.734879
 30
0.0
 11
109.857719
 21
251.734012
 31
0.0
  0
LINE
  8
0
  6
CONTINUOUS
 10
109.857719
 20
251.734012
 30
0.0
 11
109.860307
 21
251.732409
 31
0.0
  0
LINE
  8
0
  6
CONTINUOUS
 10
109.860307
 20
251.732409
 30
0.0
 11
109.861276
 21
251.731728
 31
0.0
  0
LINE
  8
0
  6
CONTINUOUS
 10
109.868135
 20
251.718776
 30
0.0
 11
109.868129
 21
251.718799
 31
0.0
  0
LINE
  8
0
  6
CONTINUOUS
 10
109.868129
 20
251.718799
 30
0.0
 11
109.867954
 21
251.719466
 31
0.0
  0
LINE
  8
0
  6
CONTINUOUS
 10
109.867954
 20
251.719466
 30
0.0
 11
109.867274
 21
251.722726
 31
0.0
  0
LINE
  8
0
  6
CONTINUOUS
 10
109.867274
 20
251.722726
 30
0.0
 11
109.866171
 21
251.731776
 31
0.0
  0
LINE
  8
0
  6
CONTINUOUS
 10
109.866171
 20
251.731776
 30
0.0
 11
109.865887
 21
251.737298
 31
0.0
  0
LINE
  8
0
  6
CONTINUOUS
 10
109.865887
 20
251.737298
 30
0.0
 11
109.865858
 21
251.739349
 31
0.0
  0
LINE
  8
0
  6
CONTINUOUS
 10
109.907572
 20
251.942675
 30
0.0
 11
109.900362
 21
251.948231
 31
0.0
  0
LINE
  8
0
  6
CONTINUOUS
 10
109.900362
 20
251.948231
 30
0.0
 11
109.895989
 21
251.956654
 31
0.0
  0
LINE
  8
0
  6
CONTINUOUS
 10
109.895989
 20
251.956654
 30
0.0
 11
109.896095
 21
251.964781
 31
0.0
  0
LINE
  8
0
  6
CONTINUOUS
 10
109.896095
 20
251.964781
 30
0.0
 11
109.900641
 21
251.969562
 31
0.0
  0
LINE
  8
0
  6
CONTINUOUS
 10
109.900641
 20
251.969562
 30
0.0
 11
109.907919
 21
251.969201
 31
0.0
  0
LINE
  8
0
  6
CONTINUOUS
 10
109.907919
 20
252.049202
 30
0.0
 11
109.900585
 21
252.054635
 31
0.0
  0
LINE
  8
0
  6
CONTINUOUS
 10
109.900585
 20
252.054635
 30
0.0
 11
109.896052
 21
252.063086
 31
0.0
  0
LINE
  8
0
  6
CONTINUOUS
 10
109.896052
 20
252.063086
 30
0.0
 11
109.896052
 21
252.071326
 31
0.0
  0
LINE
  8
0
  6
CONTINUOUS
 10
109.896052
 20
252.071326
 30
0.0
 11
109.900585
 21
252.076209
 31
0.0
  0
LINE
  8
0
  6
CONTINUOUS
 10
109.900585
 20
252.076209
 30
0.0
 11
109.907919
 21
252.075869
 31
0.0
  0
LINE
  8
0
  6
CONTINUOUS
 10
109.907919
 20
252.369207
 30
0.0
 11
109.900585
 21
252.37464
 31
0.0
  0
LINE
  8
0
  6
CONTINUOUS
 10
109.900585
 20
252.37464
 30
0.0
 11
109.896052
 21
252.383091
 31
0.0
  0
LINE
  8
0
  6
CONTINUOUS
 10
109.896052
 20
252.383091
 30
0.0
 11
109.896052
 21
252.391332
 31
0.0
  0
LINE
  8
0
  6
CONTINUOUS
 10
109.896052
 20
252.391332
 30
0.0
 11
109.900585
 21
252.396214
 31
0.0
  0
LINE
  8
0
  6
CONTINUOUS
 10
109.900585
 20
252.396214
 30
0.0
 11
109.907919
 21
252.395874
 31
0.0
  0
LINE
  8
0
  6
CONTINUOUS
 10
109.907919
 20
252.262539
 30
0.0
 11
109.900585
 21
252.267972
 31
0.0
  0
LINE
  8
0
  6
CONTINUOUS
 10
109.900585
 20
252.267972
 30
0.0
 11
109.896052
 21
252.276423
 31
0.0
  0
LINE
  8
0
  6
CONTINUOUS
 10
109.896052
 20
252.276423
 30
0.0
 11
109.896052
 21
252.284663
 31
0.0
  0
LINE
  8
0
  6
CONTINUOUS
 10
109.896052
 20
252.284663
 30
0.0
 11
109.900585
 21
252.289546
 31
0.0
  0
LINE
  8
0
  6
CONTINUOUS
 10
109.900585
 20
252.289546
 30
0.0
 11
109.907919
 21
252.289206
 31
0.0
  0
LINE
  8
0
  6
CONTINUOUS
 10
108.400022
 20
256.513672
 30
0.0
 11
109.053441
 21
256.268815
 31
0.0
  0
LINE
  8
0
  6
CONTINUOUS
 10
109.053441
 20
256.268815
 30
0.0
 11
109.609329
 21
256.060505
 31
0.0
  0
LINE
  8
0
  6
CONTINUOUS
 10
108.435893
 20
256.593633
 30
0.0
 11
109.089312
 21
256.348775
 31
0.0
  0
LINE
  8
0
  6
CONTINUOUS
 10
109.089312
 20
256.348775
 30
0.0
 11
109.6452
 21
256.140466
 31
0.0
  0
LINE
  8
0
  6
CONTINUOUS
 10
108.32769
 20
255.530153
 30
0.0
 11
108.360022
 21
255.543469
 31
0.0
  0
LINE
  8
0
  6
CONTINUOUS
 10
108.360022
 20
255.543469
 30
0.0
 11
108.400103
 21
255.545528
 31
0.0
  0
LINE
  8
0
  6
CONTINUOUS
 10
108.400022
 20
256.513672
 30
0.0
 11
108.402994
 21
256.536019
 31
0.0
  0
LINE
  8
0
  6
CONTINUOUS
 10
108.402994
 20
256.536019
 30
0.0
 11
108.410918
 21
256.558901
 31
0.0
  0
LINE
  8
0
  6
CONTINUOUS
 10
108.410918
 20
256.558901
 30
0.0
 11
108.422346
 21
256.579153
 31
0.0
  0
LINE
  8
0
  6
CONTINUOUS
 10
108.422346
 20
256.579153
 30
0.0
 11
108.435893
 21
256.593633
 31
0.0
  0
LINE
  8
0
  6
CONTINUOUS
 10
109.779832
 20
256.024402
 30
0.0
 11
109.779832
 21
256.019072
 31
0.0
  0
LINE
  8
0
  6
CONTINUOUS
 10
109.779832
 20
256.019072
 30
0.0
 11
109.779832
 21
254.927391
 31
0.0
  0
LINE
  8
0
  6
CONTINUOUS
 10
109.779832
 20
254.927391
 30
0.0
 11
109.779832
 21
253.727371
 31
0.0
  0
LINE
  8
0
  6
CONTINUOUS
 10
109.855312
 20
255.845736
 30
0.0
 11
109.855312
 21
254.842151
 31
0.0
  0
LINE
  8
0
  6
CONTINUOUS
 10
109.855312
 20
254.842151
 30
0.0
 11
109.855312
 21
253.783467
 31
0.0
  0
LINE
  8
0
  6
CONTINUOUS
 10
109.609329
 20
256.060505
 30
0.0
 11
109.609329
 21
256.001873
 31
0.0
  0
LINE
  8
0
  6
CONTINUOUS
 10
109.609329
 20
256.001873
 30
0.0
 11
109.609329
 21
254.910192
 31
0.0
  0
LINE
  8
0
  6
CONTINUOUS
 10
109.609329
 20
254.910192
 30
0.0
 11
109.609329
 21
253.710172
 31
0.0
  0
LINE
  8
0
  6
CONTINUOUS
 10
109.865858
 20
255.86391
 30
0.0
 11
109.865858
 21
254.832775
 31
0.0
  0
LINE
  8
0
  6
CONTINUOUS
 10
109.865858
 20
254.832775
 30
0.0
 11
109.865858
 21
253.801641
 31
0.0
  0
LINE
  8
0
  6
CONTINUOUS
 10
109.779832
 20
253.727371
 30
0.0
 11
109.745166
 21
253.710582
 31
0.0
  0
LINE
  8
0
  6
CONTINUOUS
 10
109.745166
 20
253.710582
 30
0.0
 11
109.700884
 21
253.701703
 31
0.0
  0
LINE
  8
0
  6
CONTINUOUS
 10
109.700884
 20
253.701703
 30
0.0
 11
109.653486
 21
253.701338
 31
0.0
  0
LINE
  8
0
  6
CONTINUOUS
 10
109.653486
 20
253.701338
 30
0.0
 11
109.609329
 21
253.710172
 31
0.0
  0
LINE
  8
0
  6
CONTINUOUS
 10
109.855312
 20
253.783467
 30
0.0
 11
109.864552
 21
253.794822
 31
0.0
  0
LINE
  8
0
  6
CONTINUOUS
 10
109.864552
 20
253.794822
 30
0.0
 11
109.865856
 21
253.801653
 31
0.0
  0
LINE
  8
0
  6
CONTINUOUS
 10
109.907919
 20
255.275922
 30
0.0
 11
109.900585
 21
255.276262
 31
0.0
  0
LINE
  8
0
  6
CONTINUOUS
 10
109.900585
 20
255.276262
 30
0.0
 11
109.896052
 21
255.271379
 31
0.0
  0
LINE
  8
0
  6
CONTINUOUS
 10
109.896052
 20
255.271379
 30
0.0
 11
109.896052
 21
255.263139
 31
0.0
  0
LINE
  8
0
  6
CONTINUOUS
 10
109.896052
 20
255.263139
 30
0.0
 11
109.900585
 21
255.254688
 31
0.0
  0
LINE
  8
0
  6
CONTINUOUS
 10
109.900585
 20
255.254688
 30
0.0
 11
109.907919
 21
255.249255
 31
0.0
  0
LINE
  8
0
  6
CONTINUOUS
 10
109.907919
 20
255.38259
 30
0.0
 11
109.900585
 21
255.38293
 31
0.0
  0
LINE
  8
0
  6
CONTINUOUS
 10
109.900585
 20
255.38293
 30
0.0
 11
109.896052
 21
255.378048
 31
0.0
  0
LINE
  8
0
  6
CONTINUOUS
 10
109.896052
 20
255.378048
 30
0.0
 11
109.896052
 21
255.369807
 31
0.0
  0
LINE
  8
0
  6
CONTINUOUS
 10
109.896052
 20
255.369807
 30
0.0
 11
109.900585
 21
255.361356
 31
0.0
  0
LINE
  8
0
  6
CONTINUOUS
 10
109.900585
 20
255.361356
 30
0.0
 11
109.907919
 21
255.355923
 31
0.0
  0
LINE
  8
0
  6
CONTINUOUS
 10
109.73215
 20
256.095017
 30
0.0
 11
109.6452
 21
256.140466
 31
0.0
  0
LINE
  8
0
  6
CONTINUOUS
 10
109.6452
 20
256.140466
 30
0.0
 11
109.620935
 21
256.10545
 31
0.0
  0
LINE
  8
0
  6
CONTINUOUS
 10
109.688401
 20
256.076278
 30
0.0
 11
109.73215
 21
256.095017
 31
0.0
  0
LINE
  8
0
  6
CONTINUOUS
 10
109.700914
 20
256.025388
 30
0.0
 11
109.688401
 21
256.076278
 31
0.0
  0
LINE
  8
0
  6
CONTINUOUS
 10
109.609329
 20
256.060505
 30
0.0
 11
109.700914
 21
256.025388
 31
0.0
  0
LINE
  8
0
  6
CONTINUOUS
 10
109.620935
 20
256.10545
 30
0.0
 11
109.688401
 21
256.076278
 31
0.0
  0
LINE
  8
0
  6
CONTINUOUS
 10
109.620935
 20
256.10545
 30
0.0
 11
109.609329
 21
256.060505
 31
0.0
  0
LINE
  8
0
  6
CONTINUOUS
 10
109.779832
 20
256.024402
 30
0.0
 11
109.73215
 21
256.095017
 31
0.0
  0
LINE
  8
0
  6
CONTINUOUS
 10
109.700914
 20
256.025388
 30
0.0
 11
109.779832
 21
256.024402
 31
0.0
  0
LINE
  8
0
  6
CONTINUOUS
 10
109.877096
 20
255.936159
 30
0.0
 11
109.855312
 21
255.845736
 31
0.0
  0
LINE
  8
0
  6
CONTINUOUS
 10
109.88185
 20
255.930232
 30
0.0
 11
109.874461
 21
255.912173
 31
0.0
  0
LINE
  8
0
  6
CONTINUOUS
 10
109.874461
 20
255.912173
 30
0.0
 11
109.868901
 21
255.891896
 31
0.0
  0
LINE
  8
0
  6
CONTINUOUS
 10
109.868901
 20
255.891896
 30
0.0
 11
109.866845
 21
255.878974
 31
0.0
  0
LINE
  8
0
  6
CONTINUOUS
 10
109.866845
 20
255.878974
 30
0.0
 11
109.865878
 21
255.865646
 31
0.0
  0
LINE
  8
0
  6
CONTINUOUS
 10
109.865878
 20
255.865646
 30
0.0
 11
109.865858
 21
255.863933
 31
0.0
  0
LINE
  8
0
  6
CONTINUOUS
 10
109.907919
 20
255.489259
 30
0.0
 11
109.900585
 21
255.489599
 31
0.0
  0
LINE
  8
0
  6
CONTINUOUS
 10
109.900585
 20
255.489599
 30
0.0
 11
109.896052
 21
255.484716
 31
0.0
  0
LINE
  8
0
  6
CONTINUOUS
 10
109.896052
 20
255.484716
 30
0.0
 11
109.896052
 21
255.476475
 31
0.0
  0
LINE
  8
0
  6
CONTINUOUS
 10
109.896052
 20
255.476475
 30
0.0
 11
109.900585
 21
255.468025
 31
0.0
  0
LINE
  8
0
  6
CONTINUOUS
 10
109.900585
 20
255.468025
 30
0.0
 11
109.907919
 21
255.462592
 31
0.0
  0
LINE
  8
0
  6
CONTINUOUS
 10
109.907919
 20
255.595927
 30
0.0
 11
109.900585
 21
255.596267
 31
0.0
  0
LINE
  8
0
  6
CONTINUOUS
 10
109.900585
 20
255.596267
 30
0.0
 11
109.896052
 21
255.591384
 31
0.0
  0
LINE
  8
0
  6
CONTINUOUS
 10
109.896052
 20
255.591384
 30
0.0
 11
109.896052
 21
255.583144
 31
0.0
  0
LINE
  8
0
  6
CONTINUOUS
 10
109.896052
 20
255.583144
 30
0.0
 11
109.900585
 21
255.574693
 31
0.0
  0
LINE
  8
0
  6
CONTINUOUS
 10
109.900585
 20
255.574693
 30
0.0
 11
109.907919
 21
255.56926
 31
0.0
  0
LINE
  8
0
  6
CONTINUOUS
 10
109.907572
 20
255.702727
 30
0.0
 11
109.895149
 21
255.774059
 31
0.0
  0
LINE
  8
0
  6
CONTINUOUS
 10
109.895149
 20
255.774059
 30
0.0
 11
109.865843
 21
255.845679
 31
0.0
  0
LINE
  8
0
  6
CONTINUOUS
 10
109.855312
 20
255.845736
 30
0.0
 11
109.865858
 21
255.863943
 31
0.0
  0
LINE
  8
0
  6
CONTINUOUS
 10
109.907572
 20
255.702727
 30
0.0
 11
109.900362
 21
255.702846
 31
0.0
  0
LINE
  8
0
  6
CONTINUOUS
 10
109.900362
 20
255.702846
 30
0.0
 11
109.895989
 21
255.697866
 31
0.0
  0
LINE
  8
0
  6
CONTINUOUS
 10
109.895989
 20
255.697866
 30
0.0
 11
109.896095
 21
255.689654
 31
0.0
  0
LINE
  8
0
  6
CONTINUOUS
 10
109.896095
 20
255.689654
 30
0.0
 11
109.900641
 21
255.681296
 31
0.0
  0
LINE
  8
0
  6
CONTINUOUS
 10
109.900641
 20
255.681296
 30
0.0
 11
109.907919
 21
255.675928
 31
0.0
  0
LINE
  8
0
  6
CONTINUOUS
 10
109.927053
 20
256.005657
 30
0.0
 11
109.877096
 21
255.936159
 31
0.0
  0
LINE
  8
0
  6
CONTINUOUS
 10
109.912702
 20
255.974944
 30
0.0
 11
109.911797
 21
255.974248
 31
0.0
  0
LINE
  8
0
  6
CONTINUOUS
 10
109.911797
 20
255.974248
 30
0.0
 11
109.91023
 21
255.972944
 31
0.0
  0
LINE
  8
0
  6
CONTINUOUS
 10
109.91023
 20
255.972944
 30
0.0
 11
109.900687
 21
255.962943
 31
0.0
  0
LINE
  8
0
  6
CONTINUOUS
 10
109.900687
 20
255.962943
 30
0.0
 11
109.891881
 21
255.950242
 31
0.0
  0
LINE
  8
0
  6
CONTINUOUS
 10
109.891881
 20
255.950242
 30
0.0
 11
109.88185
 21
255.930232
 31
0.0
  0
LINE
  8
0
  6
CONTINUOUS
 10
109.877096
 20
255.936159
 30
0.0
 11
109.88185
 21
255.930232
 31
0.0
  0
LINE
  8
0
  6
CONTINUOUS
 10
109.912701
 20
255.974943
 30
0.0
 11
109.927053
 21
256.005657
 31
0.0
  0
LINE
  8
0
  6
CONTINUOUS
 10
110.381134
 20
252.21257
 30
0.0
 11
110.379202
 21
252.211053
 31
0.0
  0
LINE
  8
0
  6
CONTINUOUS
 10
110.379202
 20
252.211053
 30
0.0
 11
110.377244
 21
252.209571
 31
0.0
  0
LINE
  8
0
  6
CONTINUOUS
 10
110.76455
 20
252.497521
 30
0.0
 11
110.760829
 21
252.494648
 31
0.0
  0
LINE
  8
0
  6
CONTINUOUS
 10
110.760829
 20
252.494648
 30
0.0
 11
110.757011
 21
252.491905
 31
0.0
  0
LINE
  8
0
  6
CONTINUOUS
 10
110.353957
 20
256.302813
 30
0.0
 11
110.368071
 21
256.284776
 31
0.0
  0
LINE
  8
0
  6
CONTINUOUS
 10
110.368071
 20
256.284776
 30
0.0
 11
110.381134
 21
256.26597
 31
0.0
  0
LINE
  8
0
  6
CONTINUOUS
 10
110.737301
 20
256.58785
 30
0.0
 11
110.751454
 21
256.569773
 31
0.0
  0
LINE
  8
0
  6
CONTINUOUS
 10
110.751454
 20
256.569773
 30
0.0
 11
110.76455
 21
256.550921
 31
0.0
  0
LINE
  8
0
  6
CONTINUOUS
 10
110.66683
 20
256.535492
 30
0.0
 11
110.669149
 21
256.532892
 31
0.0
  0
LINE
  8
0
  6
CONTINUOUS
 10
110.669149
 20
256.532892
 30
0.0
 11
110.67143
 21
256.530252
 31
0.0
  0
LINE
  8
0
  6
CONTINUOUS
 10
109.485133
 20
257.373368
 30
0.0
 11
109.473095
 21
257.396713
 31
0.0
  0
LINE
  8
0
  6
CONTINUOUS
 10
109.473095
 20
257.396713
 30
0.0
 11
109.46883
 21
257.420555
 31
0.0
  0
LINE
  8
0
  6
CONTINUOUS
 10
112.114268
 20
259.327317
 30
0.0
 11
112.10223
 21
259.350662
 31
0.0
  0
LINE
  8
0
  6
CONTINUOUS
 10
112.10223
 20
259.350662
 30
0.0
 11
112.097965
 21
259.374504
 31
0.0
  0
LINE
  8
0
  6
CONTINUOUS
 10
112.868014
 20
259.887493
 30
0.0
 11
112.855976
 21
259.910838
 31
0.0
  0
LINE
  8
0
  6
CONTINUOUS
 10
112.855976
 20
259.910838
 30
0.0
 11
112.85171
 21
259.93468
 31
0.0
  0
LINE
  8
0
  6
CONTINUOUS
 10
118.54256
 20
257.942718
 30
0.0
 11
118.538973
 21
257.940052
 31
0.0
  0
LINE
  8
0
  6
CONTINUOUS
 10
118.538973
 20
257.940052
 30
0.0
 11
116.386539
 21
256.340383
 31
0.0
  0
LINE
  8
0
  6
CONTINUOUS
 10
116.386539
 20
256.340383
 30
0.0
 11
114.161196
 21
254.686529
 31
0.0
  0
LINE
  8
0
  6
CONTINUOUS
 10
118.395339
 20
257.961463
 30
0.0
 11
116.296808
 21
256.401854
 31
0.0
  0
LINE
  8
0
  6
CONTINUOUS
 10
116.296808
 20
256.401854
 30
0.0
 11
114.161196
 21
254.814688
 31
0.0
  0
LINE
  8
0
  6
CONTINUOUS
 10
118.345958
 20
258.032824
 30
0.0
 11
116.247427
 21
256.473215
 31
0.0
  0
LINE
  8
0
  6
CONTINUOUS
 10
116.247427
 20
256.473215
 30
0.0
 11
114.111816
 21
254.886049
 31
0.0
  0
LINE
  8
0
  6
CONTINUOUS
 10
114.161196
 20
254.686529
 30
0.0
 11
114.153103
 21
254.650003
 31
0.0
  0
LINE
  8
0
  6
CONTINUOUS
 10
114.153103
 20
254.650003
 30
0.0
 11
114.131433
 21
254.624329
 31
0.0
  0
LINE
  8
0
  6
CONTINUOUS
 10
114.131433
 20
254.624329
 30
0.0
 11
114.099995
 21
254.612109
 31
0.0
  0
LINE
  8
0
  6
CONTINUOUS
 10
114.099995
 20
254.612109
 30
0.0
 11
114.062435
 21
254.616044
 31
0.0
  0
LINE
  8
0
  6
CONTINUOUS
 10
114.161196
 20
254.814688
 30
0.0
 11
114.157149
 21
254.835911
 31
0.0
  0
LINE
  8
0
  6
CONTINUOUS
 10
114.157149
 20
254.835911
 30
0.0
 11
114.146314
 21
254.856673
 31
0.0
  0
LINE
  8
0
  6
CONTINUOUS
 10
114.146314
 20
254.856673
 30
0.0
 11
114.130596
 21
254.87428
 31
0.0
  0
LINE
  8
0
  6
CONTINUOUS
 10
114.130596
 20
254.87428
 30
0.0
 11
114.111816
 21
254.886049
 31
0.0
  0
LINE
  8
0
  6
CONTINUOUS
 10
118.54256
 20
262.53678
 30
0.0
 11
118.538973
 21
262.534114
 31
0.0
  0
LINE
  8
0
  6
CONTINUOUS
 10
118.538973
 20
262.534114
 30
0.0
 11
116.386539
 21
260.934445
 31
0.0
  0
LINE
  8
0
  6
CONTINUOUS
 10
116.386539
 20
260.934445
 30
0.0
 11
114.161196
 21
259.280591
 31
0.0
  0
LINE
  8
0
  6
CONTINUOUS
 10
118.395339
 20
262.299208
 30
0.0
 11
116.296808
 21
260.739599
 31
0.0
  0
LINE
  8
0
  6
CONTINUOUS
 10
116.296808
 20
260.739599
 30
0.0
 11
114.161196
 21
259.152433
 31
0.0
  0
LINE
  8
0
  6
CONTINUOUS
 10
118.47967
 20
262.706161
 30
0.0
 11
118.440212
 21
262.676836
 31
0.0
  0
LINE
  8
0
  6
CONTINUOUS
 10
118.440212
 20
262.676836
 30
0.0
 11
116.287778
 21
261.077168
 31
0.0
  0
LINE
  8
0
  6
CONTINUOUS
 10
116.287778
 20
261.077168
 30
0.0
 11
114.062435
 21
259.423313
 31
0.0
  0
LINE
  8
0
  6
CONTINUOUS
 10
118.380988
 20
262.268495
 30
0.0
 11
116.263917
 21
260.695107
 31
0.0
  0
LINE
  8
0
  6
CONTINUOUS
 10
116.263917
 20
260.695107
 30
0.0
 11
114.146845
 21
259.121719
 31
0.0
  0
LINE
  8
0
  6
CONTINUOUS
 10
114.161196
 20
259.152433
 30
0.0
 11
114.157149
 21
259.134169
 31
0.0
  0
LINE
  8
0
  6
CONTINUOUS
 10
114.157149
 20
259.134169
 30
0.0
 11
114.146841
 21
259.121717
 31
0.0
  0
LINE
  8
0
  6
CONTINUOUS
 10
114.161196
 20
259.280591
 30
0.0
 11
114.153103
 21
259.323037
 31
0.0
  0
LINE
  8
0
  6
CONTINUOUS
 10
114.153103
 20
259.323037
 30
0.0
 11
114.131433
 21
259.364561
 31
0.0
  0
LINE
  8
0
  6
CONTINUOUS
 10
114.131433
 20
259.364561
 30
0.0
 11
114.099995
 21
259.399776
 31
0.0
  0
LINE
  8
0
  6
CONTINUOUS
 10
114.099995
 20
259.399776
 30
0.0
 11
114.062435
 21
259.423313
 31
0.0
  0
LINE
  8
0
  6
CONTINUOUS
 10
115.58688
 20
261.90813
 30
0.0
 11
115.574842
 21
261.931475
 31
0.0
  0
LINE
  8
0
  6
CONTINUOUS
 10
115.574842
 20
261.931475
 30
0.0
 11
115.570577
 21
261.955317
 31
0.0
  0
LINE
  8
0
  6
CONTINUOUS
 10
118.54256
 20
262.53678
 30
0.0
 11
118.54256
 21
262.53145
 31
0.0
  0
LINE
  8
0
  6
CONTINUOUS
 10
118.54256
 20
262.53145
 30
0.0
 11
118.54256
 21
261.439769
 31
0.0
  0
LINE
  8
0
  6
CONTINUOUS
 10
118.54256
 20
261.439769
 30
0.0
 11
118.54256
 21
260.239749
 31
0.0
  0
LINE
  8
0
  6
CONTINUOUS
 10
118.46708
 20
262.245922
 30
0.0
 11
118.46708
 21
261.242337
 31
0.0
  0
LINE
  8
0
  6
CONTINUOUS
 10
118.46708
 20
261.242337
 30
0.0
 11
118.46708
 21
260.183653
 31
0.0
  0
LINE
  8
0
  6
CONTINUOUS
 10
118.563654
 20
262.593258
 30
0.0
 11
118.563654
 21
261.437938
 31
0.0
  0
LINE
  8
0
  6
CONTINUOUS
 10
118.563654
 20
261.437938
 30
0.0
 11
118.563654
 21
260.276097
 31
0.0
  0
LINE
  8
0
  6
CONTINUOUS
 10
117.44058
 20
257.459084
 30
0.0
 11
117.438648
 21
257.457567
 31
0.0
  0
LINE
  8
0
  6
CONTINUOUS
 10
117.438648
 20
257.457567
 30
0.0
 11
117.436689
 21
257.456085
 31
0.0
  0
LINE
  8
0
  6
CONTINUOUS
 10
117.823996
 20
257.744035
 30
0.0
 11
117.820274
 21
257.741162
 31
0.0
  0
LINE
  8
0
  6
CONTINUOUS
 10
117.820274
 20
257.741162
 30
0.0
 11
117.816457
 21
257.738419
 31
0.0
  0
LINE
  8
0
  6
CONTINUOUS
 10
118.54256
 20
257.942718
 30
0.0
 11
118.54256
 21
257.948048
 31
0.0
  0
LINE
  8
0
  6
CONTINUOUS
 10
118.54256
 20
257.948048
 30
0.0
 11
118.54256
 21
259.039729
 31
0.0
  0
LINE
  8
0
  6
CONTINUOUS
 10
118.54256
 20
259.039729
 30
0.0
 11
118.54256
 21
260.239749
 31
0.0
  0
LINE
  8
0
  6
CONTINUOUS
 10
118.46708
 20
258.121384
 30
0.0
 11
118.46708
 21
259.124969
 31
0.0
  0
LINE
  8
0
  6
CONTINUOUS
 10
118.46708
 20
259.124969
 30
0.0
 11
118.46708
 21
260.183653
 31
0.0
  0
LINE
  8
0
  6
CONTINUOUS
 10
118.563654
 20
257.958935
 30
0.0
 11
118.563654
 21
259.114256
 31
0.0
  0
LINE
  8
0
  6
CONTINUOUS
 10
118.563654
 20
259.114256
 30
0.0
 11
118.563654
 21
260.276097
 31
0.0
  0
LINE
  8
0
  6
CONTINUOUS
 10
118.414109
 20
258.264653
 30
0.0
 11
118.3954
 21
258.189785
 31
0.0
  0
LINE
  8
0
  6
CONTINUOUS
 10
118.3954
 20
258.189785
 30
0.0
 11
118.350501
 21
258.135222
 31
0.0
  0
LINE
  8
0
  6
CONTINUOUS
 10
118.395339
 20
257.961463
 30
0.0
 11
118.445296
 21
258.030961
 31
0.0
  0
LINE
  8
0
  6
CONTINUOUS
 10
118.445296
 20
258.030961
 30
0.0
 11
118.414015
 21
258.048722
 31
0.0
  0
LINE
  8
0
  6
CONTINUOUS
 10
118.46708
 20
258.121384
 30
0.0
 11
118.427621
 21
258.108552
 31
0.0
  0
LINE
  8
0
  6
CONTINUOUS
 10
118.380466
 20
258.003435
 30
0.0
 11
118.395339
 21
257.961463
 31
0.0
  0
LINE
  8
0
  6
CONTINUOUS
 10
118.340935
 20
258.128109
 30
0.0
 11
118.381829
 21
258.112785
 31
0.0
  0
LINE
  8
0
  6
CONTINUOUS
 10
118.345958
 20
258.032824
 30
0.0
 11
118.280429
 21
258.05738
 31
0.0
  0
LINE
  8
0
  6
CONTINUOUS
 10
118.280429
 20
258.05738
 30
0.0
 11
118.25739
 21
258.066013
 31
0.0
  0
LINE
  8
0
  6
CONTINUOUS
 10
118.370223
 20
258.067839
 30
0.0
 11
118.345958
 21
258.032824
 31
0.0
  0
LINE
  8
0
  6
CONTINUOUS
 10
118.381829
 20
258.112785
 30
0.0
 11
118.370223
 21
258.067839
 31
0.0
  0
LINE
  8
0
  6
CONTINUOUS
 10
118.370223
 20
258.067839
 30
0.0
 11
118.414015
 21
258.048722
 31
0.0
  0
LINE
  8
0
  6
CONTINUOUS
 10
118.414015
 20
258.048722
 30
0.0
 11
118.427621
 21
258.108552
 31
0.0
  0
LINE
  8
0
  6
CONTINUOUS
 10
118.427621
 20
258.108552
 30
0.0
 11
118.381829
 21
258.112785
 31
0.0
  0
LINE
  8
0
  6
CONTINUOUS
 10
118.381829
 20
258.167089
 30
0.0
 11
118.381829
 21
258.112785
 31
0.0
  0
LINE
  8
0
  6
CONTINUOUS
 10
118.380466
 20
258.003435
 30
0.0
 11
118.414015
 21
258.048722
 31
0.0
  0
LINE
  8
0
  6
CONTINUOUS
 10
118.345958
 20
258.032824
 30
0.0
 11
118.380466
 21
258.003435
 31
0.0
  0
LINE
  8
0
  6
CONTINUOUS
 10
118.563654
 20
257.958935
 30
0.0
 11
118.54256
 21
257.942718
 31
0.0
  0
LINE
  8
0
  6
CONTINUOUS
 10
118.563649
 20
257.959174
 30
0.0
 11
118.56367
 21
257.957398
 31
0.0
  0
LINE
  8
0
  6
CONTINUOUS
 10
118.56367
 20
257.957398
 30
0.0
 11
118.563603
 21
257.955265
 31
0.0
  0
LINE
  8
0
  6
CONTINUOUS
 10
118.563603
 20
257.955265
 30
0.0
 11
118.563168
 21
257.950132
 31
0.0
  0
LINE
  8
0
  6
CONTINUOUS
 10
118.563168
 20
257.950132
 30
0.0
 11
118.560841
 21
257.937696
 31
0.0
  0
LINE
  8
0
  6
CONTINUOUS
 10
118.560841
 20
257.937696
 30
0.0
 11
118.554267
 21
257.920441
 31
0.0
  0
LINE
  8
0
  6
CONTINUOUS
 10
118.554267
 20
257.920441
 30
0.0
 11
118.544175
 21
257.905948
 31
0.0
  0
LINE
  8
0
  6
CONTINUOUS
 10
118.544175
 20
257.905948
 30
0.0
 11
118.535379
 21
257.897488
 31
0.0
  0
LINE
  8
0
  6
CONTINUOUS
 10
118.535379
 20
257.897488
 30
0.0
 11
118.532591
 21
257.895233
 31
0.0
  0
LINE
  8
0
  6
CONTINUOUS
 10
118.532591
 20
257.895233
 30
0.0
 11
118.531392
 21
257.894322
 31
0.0
  0
LINE
  8
0
  6
CONTINUOUS
 10
118.54256
 20
257.942718
 30
0.0
 11
118.530749
 21
257.89386
 31
0.0
  0
LINE
  8
0
  6
CONTINUOUS
 10
118.530749
 20
257.89386
 30
0.0
 11
118.47967
 21
257.898892
 31
0.0
  0
LINE
  8
0
  6
CONTINUOUS
 10
118.445296
 20
258.030961
 30
0.0
 11
118.46708
 21
258.121384
 31
0.0
  0
LINE
  8
0
  6
CONTINUOUS
 10
118.414473
 20
258.371193
 30
0.0
 11
118.405491
 21
258.377864
 31
0.0
  0
LINE
  8
0
  6
CONTINUOUS
 10
118.405491
 20
258.377864
 30
0.0
 11
118.401392
 21
258.388157
 31
0.0
  0
LINE
  8
0
  6
CONTINUOUS
 10
118.414109
 20
258.264653
 30
0.0
 11
118.405358
 21
258.27137
 31
0.0
  0
LINE
  8
0
  6
CONTINUOUS
 10
118.405358
 20
258.27137
 30
0.0
 11
118.401392
 21
258.281492
 31
0.0
  0
LINE
  8
0
  6
CONTINUOUS
 10
118.414473
 20
258.477862
 30
0.0
 11
118.405491
 21
258.484533
 31
0.0
  0
LINE
  8
0
  6
CONTINUOUS
 10
118.405491
 20
258.484533
 30
0.0
 11
118.401392
 21
258.494826
 31
0.0
  0
LINE
  8
0
  6
CONTINUOUS
 10
118.414473
 20
258.58453
 30
0.0
 11
118.405491
 21
258.591201
 31
0.0
  0
LINE
  8
0
  6
CONTINUOUS
 10
118.405491
 20
258.591201
 30
0.0
 11
118.401392
 21
258.601494
 31
0.0
  0
LINE
  8
0
  6
CONTINUOUS
 10
118.414473
 20
258.691199
 30
0.0
 11
118.405491
 21
258.69787
 31
0.0
  0
LINE
  8
0
  6
CONTINUOUS
 10
118.405491
 20
258.69787
 30
0.0
 11
118.401392
 21
258.708163
 31
0.0
  0
LINE
  8
0
  6
CONTINUOUS
 10
118.46708
 20
260.183653
 30
0.0
 11
118.449747
 21
260.175259
 31
0.0
  0
LINE
  8
0
  6
CONTINUOUS
 10
118.449747
 20
260.175259
 30
0.0
 11
118.427606
 21
260.170819
 31
0.0
  0
LINE
  8
0
  6
CONTINUOUS
 10
118.427606
 20
260.170819
 30
0.0
 11
118.414466
 21
260.170173
 31
0.0
  0
LINE
  8
0
  6
CONTINUOUS
 10
118.54256
 20
260.239749
 30
0.0
 11
118.56104
 21
260.262458
 31
0.0
  0
LINE
  8
0
  6
CONTINUOUS
 10
118.56104
 20
260.262458
 30
0.0
 11
118.563648
 21
260.276121
 31
0.0
  0
LINE
  8
0
  6
CONTINUOUS
 10
117.328194
 20
263.202308
 30
0.0
 11
117.950365
 21
262.934228
 31
0.0
  0
LINE
  8
0
  6
CONTINUOUS
 10
117.950365
 20
262.934228
 30
0.0
 11
118.47967
 21
262.706161
 31
0.0
  0
LINE
  8
0
  6
CONTINUOUS
 10
118.50188
 20
262.71025
 30
0.0
 11
117.925796
 21
262.958472
 31
0.0
  0
LINE
  8
0
  6
CONTINUOUS
 10
117.925796
 20
262.958472
 30
0.0
 11
117.34974
 21
263.206683
 31
0.0
  0
LINE
  8
0
  6
CONTINUOUS
 10
117.413318
 20
261.549428
 30
0.0
 11
117.427478
 21
261.531344
 31
0.0
  0
LINE
  8
0
  6
CONTINUOUS
 10
117.427478
 20
261.531344
 30
0.0
 11
117.44058
 21
261.512484
 31
0.0
  0
LINE
  8
0
  6
CONTINUOUS
 10
117.714544
 20
261.770479
 30
0.0
 11
117.714848
 21
261.771284
 31
0.0
  0
LINE
  8
0
  6
CONTINUOUS
 10
117.714848
 20
261.771284
 30
0.0
 11
117.714221
 21
261.772542
 31
0.0
  0
LINE
  8
0
  6
CONTINUOUS
 10
117.661735
 20
261.733886
 30
0.0
 11
117.655275
 21
261.726812
 31
0.0
  0
LINE
  8
0
  6
CONTINUOUS
 10
117.655275
 20
261.726812
 30
0.0
 11
117.648252
 21
261.721373
 31
0.0
  0
LINE
  8
0
  6
CONTINUOUS
 10
117.726285
 20
261.781996
 30
0.0
 11
117.728599
 21
261.779401
 31
0.0
  0
LINE
  8
0
  6
CONTINUOUS
 10
117.728599
 20
261.779401
 30
0.0
 11
117.730876
 21
261.776766
 31
0.0
  0
LINE
  8
0
  6
CONTINUOUS
 10
117.796734
 20
261.834379
 30
0.0
 11
117.810894
 21
261.816295
 31
0.0
  0
LINE
  8
0
  6
CONTINUOUS
 10
117.810894
 20
261.816295
 30
0.0
 11
117.823996
 21
261.797435
 31
0.0
  0
LINE
  8
0
  6
CONTINUOUS
 10
118.232146
 20
262.309552
 30
0.0
 11
118.23212
 21
262.30956
 31
0.0
  0
LINE
  8
0
  6
CONTINUOUS
 10
117.349763
 20
263.206671
 30
0.0
 11
117.341741
 21
263.207964
 31
0.0
  0
LINE
  8
0
  6
CONTINUOUS
 10
117.341741
 20
263.207964
 30
0.0
 11
117.328194
 21
263.202308
 31
0.0
  0
LINE
  8
0
  6
CONTINUOUS
 10
118.401392
 20
261.58821
 30
0.0
 11
118.405491
 21
261.577917
 31
0.0
  0
LINE
  8
0
  6
CONTINUOUS
 10
118.405491
 20
261.577917
 30
0.0
 11
118.414473
 21
261.571246
 31
0.0
  0
LINE
  8
0
  6
CONTINUOUS
 10
118.401392
 20
261.908215
 30
0.0
 11
118.405491
 21
261.897922
 31
0.0
  0
LINE
  8
0
  6
CONTINUOUS
 10
118.405491
 20
261.897922
 30
0.0
 11
118.414473
 21
261.891251
 31
0.0
  0
LINE
  8
0
  6
CONTINUOUS
 10
118.401392
 20
261.801547
 30
0.0
 11
118.405491
 21
261.791254
 31
0.0
  0
LINE
  8
0
  6
CONTINUOUS
 10
118.405491
 20
261.791254
 30
0.0
 11
118.414473
 21
261.784583
 31
0.0
  0
LINE
  8
0
  6
CONTINUOUS
 10
118.401392
 20
261.694879
 30
0.0
 11
118.405491
 21
261.684585
 31
0.0
  0
LINE
  8
0
  6
CONTINUOUS
 10
118.405491
 20
261.684585
 30
0.0
 11
118.414473
 21
261.677914
 31
0.0
  0
LINE
  8
0
  6
CONTINUOUS
 10
118.395339
 20
262.299208
 30
0.0
 11
118.445296
 21
262.303966
 31
0.0
  0
LINE
  8
0
  6
CONTINUOUS
 10
118.445296
 20
262.303966
 30
0.0
 11
118.414015
 21
262.273111
 31
0.0
  0
LINE
  8
0
  6
CONTINUOUS
 10
118.46708
 20
262.245922
 30
0.0
 11
118.427621
 21
262.23309
 31
0.0
  0
LINE
  8
0
  6
CONTINUOUS
 10
118.414109
 20
262.024705
 30
0.0
 11
118.388429
 21
262.129711
 31
0.0
  0
LINE
  8
0
  6
CONTINUOUS
 10
118.388429
 20
262.129711
 30
0.0
 11
118.326481
 21
262.228073
 31
0.0
  0
LINE
  8
0
  6
CONTINUOUS
 10
118.401375
 20
262.015248
 30
0.0
 11
118.405363
 21
262.004758
 31
0.0
  0
LINE
  8
0
  6
CONTINUOUS
 10
118.405363
 20
262.004758
 30
0.0
 11
118.414473
 21
261.99792
 31
0.0
  0
LINE
  8
0
  6
CONTINUOUS
 10
118.380988
 20
262.268495
 30
0.0
 11
118.395339
 21
262.299208
 31
0.0
  0
LINE
  8
0
  6
CONTINUOUS
 10
118.381937
 20
262.269183
 30
0.0
 11
118.414015
 21
262.273111
 31
0.0
  0
LINE
  8
0
  6
CONTINUOUS
 10
118.381829
 20
262.237323
 30
0.0
 11
118.373752
 21
262.263204
 31
0.0
  0
LINE
  8
0
  6
CONTINUOUS
 10
118.427621
 20
262.23309
 30
0.0
 11
118.381829
 21
262.237323
 31
0.0
  0
LINE
  8
0
  6
CONTINUOUS
 10
118.414015
 20
262.273111
 30
0.0
 11
118.427621
 21
262.23309
 31
0.0
  0
LINE
  8
0
  6
CONTINUOUS
 10
118.376492
 20
262.265186
 30
0.0
 11
118.414015
 21
262.273111
 31
0.0
  0
LINE
  8
0
  6
CONTINUOUS
 10
118.351464
 20
262.246544
 30
0.0
 11
118.381829
 21
262.237323
 31
0.0
  0
LINE
  8
0
  6
CONTINUOUS
 10
118.381829
 20
262.144046
 30
0.0
 11
118.381829
 21
262.237323
 31
0.0
  0
LINE
  8
0
  6
CONTINUOUS
 10
118.381945
 20
262.269189
 30
0.0
 11
118.380988
 21
262.268495
 31
0.0
  0
LINE
  8
0
  6
CONTINUOUS
 10
118.381945
 20
262.269189
 30
0.0
 11
118.384516
 21
262.270886
 31
0.0
  0
LINE
  8
0
  6
CONTINUOUS
 10
118.384516
 20
262.270886
 30
0.0
 11
118.384889
 21
262.271101
 31
0.0
  0
LINE
  8
0
  6
CONTINUOUS
 10
118.445296
 20
262.303966
 30
0.0
 11
118.46708
 21
262.245922
 31
0.0
  0
LINE
  8
0
  6
CONTINUOUS
 10
118.54256
 20
262.53678
 30
0.0
 11
118.530749
 21
262.634054
 31
0.0
  0
LINE
  8
0
  6
CONTINUOUS
 10
118.563537
 20
262.588651
 30
0.0
 11
118.563652
 21
262.596168
 31
0.0
  0
LINE
  8
0
  6
CONTINUOUS
 10
118.563652
 20
262.596168
 30
0.0
 11
118.563336
 21
262.603053
 31
0.0
  0
LINE
  8
0
  6
CONTINUOUS
 10
118.563336
 20
262.603053
 30
0.0
 11
118.56192
 21
262.616401
 31
0.0
  0
LINE
  8
0
  6
CONTINUOUS
 10
118.56192
 20
262.616401
 30
0.0
 11
118.560307
 21
262.626636
 31
0.0
  0
LINE
  8
0
  6
CONTINUOUS
 10
118.563537
 20
262.588651
 30
0.0
 11
118.54256
 21
262.53678
 31
0.0
  0
LINE
  8
0
  6
CONTINUOUS
 10
118.547315
 20
262.66014
 30
0.0
 11
118.530749
 21
262.634054
 31
0.0
  0
LINE
  8
0
  6
CONTINUOUS
 10
118.526673
 20
262.691059
 30
0.0
 11
118.547315
 21
262.66014
 31
0.0
  0
LINE
  8
0
  6
CONTINUOUS
 10
118.560307
 20
262.626636
 30
0.0
 11
118.553383
 21
262.651887
 31
0.0
  0
LINE
  8
0
  6
CONTINUOUS
 10
118.553383
 20
262.651887
 30
0.0
 11
118.542208
 21
262.672514
 31
0.0
  0
LINE
  8
0
  6
CONTINUOUS
 10
118.542208
 20
262.672514
 30
0.0
 11
118.531825
 21
262.685593
 31
0.0
  0
LINE
  8
0
  6
CONTINUOUS
 10
118.531825
 20
262.685593
 30
0.0
 11
118.526878
 21
262.690868
 31
0.0
  0
LINE
  8
0
  6
CONTINUOUS
 10
118.526878
 20
262.690868
 30
0.0
 11
118.525993
 21
262.691765
 31
0.0
  0
LINE
  8
0
  6
CONTINUOUS
 10
118.525993
 20
262.691765
 30
0.0
 11
118.525625
 21
262.692135
 31
0.0
  0
LINE
  8
0
  6
CONTINUOUS
 10
118.525625
 20
262.692135
 30
0.0
 11
118.525586
 21
262.692174
 31
0.0
  0
LINE
  8
0
  6
CONTINUOUS
 10
118.47967
 20
262.706161
 30
0.0
 11
118.502158
 21
262.710127
 31
0.0
  0
LINE
  8
0
  6
CONTINUOUS
 10
118.530749
 20
262.634054
 30
0.0
 11
118.47967
 21
262.706161
 31
0.0
  0
LINE
  8
0
  6
CONTINUOUS
 10
118.526673
 20
262.691059
 30
0.0
 11
118.52177
 21
262.695883
 31
0.0
  0
LINE
  8
0
  6
CONTINUOUS
 10
118.52177
 20
262.695883
 30
0.0
 11
118.511413
 21
262.704501
 31
0.0
  0
LINE
  8
0
  6
CONTINUOUS
 10
118.511413
 20
262.704501
 30
0.0
 11
118.507633
 21
262.707104
 31
0.0
  0
LINE
  8
0
  6
CONTINUOUS
 10
118.507633
 20
262.707104
 30
0.0
 11
118.505004
 21
262.708686
 31
0.0
  0
LINE
  8
0
  6
CONTINUOUS
 10
118.505004
 20
262.708686
 30
0.0
 11
118.502158
 21
262.710127
 31
0.0
  0
LINE
  8
0
  6
CONTINUOUS
 10
118.525337
 20
262.692423
 30
0.0
 11
118.525353
 21
262.692407
 31
0.0
  0
LINE
  8
0
  6
CONTINUOUS
 10
118.525353
 20
262.692407
 30
0.0
 11
118.525596
 21
262.692162
 31
0.0
  0
LINE
  8
0
  6
CONTINUOUS
 10
118.525596
 20
262.692162
 30
0.0
 11
118.526673
 21
262.691059
 31
0.0
  0
LINE
  8
0
  6
CONTINUOUS
 10
118.560304
 20
262.62665
 30
0.0
 11
118.547315
 21
262.66014
 31
0.0
  0
ENDSEC
  0
EOF
