  0
SECTION
  2
HEADER
  9
$ACADVER
  1
AC1009
  9
$INSBASE
 10
0.0
 20
0.0
 30
0.0
  9
$EXTMIN
 10
131.851389
 20
252.53963
 30
0.0
  9
$EXTMAX
 10
143.723179
 20
264.827884
 30
0.0
  9
$LIMMIN
 10
131.742761
 20
252.204478
  9
$LIMMAX
 10
144.113945
 20
265.107784
  9
$ORTHOMODE
 70
     0
  9
$REGENMODE
 70
     1
  9
$FILLMODE
 70
     1
  9
$QTEXTMODE
 70
     0
  9
$MIRRTEXT
 70
     1
  9
$DRAGMODE
 70
     2
  9
$LTSCALE
 40
1.0
  9
$OSMODE
 70
    55
  9
$ATTMODE
 70
     1
  9
$TEXTSIZE
 40
0.2
  9
$TRACEWID
 40
0.05
  9
$TEXTSTYLE
  7
STANDARD
  9
$CLAYER
  8
0
  9
$CELTYPE
  6
BYLAYER
  9
$CECOLOR
 62
   256
  9
$DIMSCALE
 40
4.5
  9
$DIMASZ
 40
0.18
  9
$DIMEXO
 40
0.0625
  9
$DIMDLI
 40
0.38
  9
$DIMRND
 40
0.0
  9
$DIMDLE
 40
0.0
  9
$DIMEXE
 40
0.18
  9
$DIMTP
 40
0.0
  9
$DIMTM
 40
0.0
  9
$DIMTXT
 40
0.45
  9
$DIMCEN
 40
0.09
  9
$DIMTSZ
 40
0.0
  9
$DIMTOL
 70
     0
  9
$DIMLIM
 70
     0
  9
$DIMTIH
 70
     1
  9
$DIMTOH
 70
     1
  9
$DIMSE1
 70
     0
  9
$DIMSE2
 70
     0
  9
$DIMTAD
 70
     1
  9
$DIMZIN
 70
     0
  9
$DIMBLK
  1

  9
$DIMASO
 70
     1
  9
$DIMSHO
 70
     1
  9
$DIMPOST
  1

  9
$DIMAPOST
  1

  9
$DIMALT
 70
     0
  9
$DIMALTD
 70
     2
  9
$DIMALTF
 40
25.4
  9
$DIMLFAC
 40
1.0
  9
$DIMTOFL
 70
     0
  9
$DIMTVP
 40
0.0
  9
$DIMTIX
 70
     0
  9
$DIMSOXD
 70
     0
  9
$DIMSAH
 70
     0
  9
$DIMBLK1
  1

  9
$DIMBLK2
  1

  9
$DIMSTYLE
  2
*UNNAMED
  9
$DIMCLRD
 70
     0
  9
$DIMCLRE
 70
     0
  9
$DIMCLRT
 70
     0
  9
$DIMTFAC
 40
1.0
  9
$DIMGAP
 40
0.09
  9
$LUNITS
 70
     2
  9
$LUPREC
 70
     4
  9
$SKETCHINC
 40
0.1
  9
$FILLETRAD
 40
0.0
  9
$AUNITS
 70
     0
  9
$AUPREC
 70
     0
  9
$MENU
  1
acad
  9
$ELEVATION
 40
0.0
  9
$PELEVATION
 40
0.0
  9
$THICKNESS
 40
0.0
  9
$LIMCHECK
 70
     0
  9
$BLIPMODE
 70
     1
  9
$CHAMFERA
 40
0.0
  9
$CHAMFERB
 40
0.0
  9
$SKPOLY
 70
     0
  9
$TDCREATE
 40
2451218.675731597
  9
$TDUPDATE
 40
2451218.679632986
  9
$TDINDWG
 40
0.0008748843
  9
$TDUSRTIMER
 40
0.0008748843
  9
$USRTIMER
 70
     1
  9
$ANGBASE
 50
0.0
  9
$ANGDIR
 70
     0
  9
$PDMODE
 70
     0
  9
$PDSIZE
 40
0.0
  9
$PLINEWID
 40
0.0
  9
$COORDS
 70
     0
  9
$SPLFRAME
 70
     0
  9
$SPLINETYPE
 70
     6
  9
$SPLINESEGS
 70
     8
  9
$ATTDIA
 70
     0
  9
$ATTREQ
 70
     1
  9
$HANDLING
 70
     1
  9
$HANDSEED
  5
E5EDF
  9
$SURFTAB1
 70
     6
  9
$SURFTAB2
 70
     6
  9
$SURFTYPE
 70
     6
  9
$SURFU
 70
     6
  9
$SURFV
 70
     6
  9
$UCSNAME
  2

  9
$UCSORG
 10
131.6570488434415
 20
252.2901191724506
 30
0.0
  9
$UCSXDIR
 10
1.0
 20
0.0
 30
0.0
  9
$UCSYDIR
 10
0.0
 20
1.0
 30
0.0
  9
$PUCSNAME
  2

  9
$PUCSORG
 10
0.0
 20
0.0
 30
0.0
  9
$PUCSXDIR
 10
1.0
 20
0.0
 30
0.0
  9
$PUCSYDIR
 10
0.0
 20
1.0
 30
0.0
  9
$USERI1
 70
     0
  9
$USERI2
 70
     0
  9
$USERI3
 70
     0
  9
$USERI4
 70
     0
  9
$USERI5
 70
     0
  9
$USERR1
 40
0.0
  9
$USERR2
 40
0.0
  9
$USERR3
 40
0.0
  9
$USERR4
 40
0.0
  9
$USERR5
 40
0.0
  9
$WORLDVIEW
 70
     1
  9
$SHADEDGE
 70
     3
  9
$SHADEDIF
 70
    70
  9
$TILEMODE
 70
     1
  9
$MAXACTVP
 70
    16
  9
$PINSBASE
 10
0.0
 20
0.0
 30
0.0
  9
$PLIMCHECK
 70
     0
  9
$PEXTMIN
 10
1.000000E+20
 20
1.000000E+20
 30
1.000000E+20
  9
$PEXTMAX
 10
-1.000000E+20
 20
-1.000000E+20
 30
-1.000000E+20
  9
$PLIMMIN
 10
0.0
 20
0.0
  9
$PLIMMAX
 10
12.0
 20
9.0
  9
$UNITMODE
 70
     0
  9
$VISRETAIN
 70
     0
  9
$PLINEGEN
 70
     0
  9
$PSLTSCALE
 70
     1
  9
$TREEDEPTH
 70
  3020
  9
$DWGCODEPAGE
  3
iso8859-1
  0
ENDSEC
  0
SECTION
  2
TABLES
  0
TABLE
  2
VPORT
 70
     3
  0
VPORT
  2
*ACTIVE
 70
     0
 10
0.0
 20
0.0
 11
1.0
 21
1.0
 12
142.441414
 22
258.656131
 13
0.0
 23
0.0
 14
1.0
 24
1.0
 15
0.0
 25
0.0
 16
0.0
 26
0.0
 36
1.0
 17
0.0
 27
0.0
 37
0.0
 40
12.903306
 41
1.658281
 42
50.0
 43
0.0
 44
0.0
 50
0.0
 51
0.0
 71
     0
 72
   100
 73
     1
 74
     1
 75
     0
 76
     0
 77
     0
 78
     0
  0
ENDTAB
  0
TABLE
  2
LTYPE
 70
     1
  0
LTYPE
  2
CONTINUOUS
 70
    64
  3
Solid line
 72
    65
 73
     0
 40
0.0
  0
ENDTAB
  0
TABLE
  2
LAYER
 70
     1
  0
LAYER
  2
0
 70
    64
 62
     7
  6
CONTINUOUS
  0
ENDTAB
  0
TABLE
  2
STYLE
 70
     1
  0
STYLE
  2
STANDARD
 70
     0
 40
0.0
 41
1.0
 50
0.0
 71
     0
 42
0.2
  3
txt
  4

  0
ENDTAB
  0
TABLE
  2
VIEW
 70
     0
  0
ENDTAB
  0
TABLE
  2
UCS
 70
     0
  0
ENDTAB
  0
TABLE
  2
APPID
 70
     1
  0
APPID
  2
ACAD
 70
    64
  0
ENDTAB
  0
TABLE
  2
DIMSTYLE
 70
     0
  0
ENDTAB
  0
ENDSEC
  0
SECTION
  2
BLOCKS
  0
BLOCK
  8
0
  5
E5ED9
  2
73830
 70
    64
 10
440.848374
 20
1407.449189
 30
0.0
  3
73830
  0
ENDBLK
  8
0
  5
E5EDA
  0
BLOCK
  8
0
  5
E5EDB
  2
DF
 70
    64
 10
922.739764
 20
276.264907
 30
0.0
  3
DF
  0
ENDBLK
  8
0
  5
E5EDC
  0
BLOCK
  8
0
  5
E5EDD
  2
IU
 70
    64
 10
924.839764
 20
266.864907
 30
0.0
  3
IU
  0
ENDBLK
  8
0
  5
E5EDE
  0
ENDSEC
  0
SECTION
  2
ENTITIES
  0
INSERT
  8
0
  5
3AA11
  2
73830
 10
177.999828
 20
709.671176
 30
0.0
 41
0.5
 42
0.5
 43
0.5
  0
INSERT
  8
0
  5
3AA12
  2
DF
 10
418.945523
 20
144.079035
 30
0.0
 41
0.5
 42
0.5
 43
0.5
  0
INSERT
  8
0
  5
3AA13
  2
IU
 10
419.995523
 20
139.379035
 30
0.0
 41
0.5
 42
0.5
 43
0.5
  0
INSERT
  8
0
  5
3AC95
  2
73830
 10
238.823284
 20
747.308767
 30
0.0
 41
0.5
 42
0.5
 43
0.5
  0
INSERT
  8
0
  5
3AC96
  2
DF
 10
479.768979
 20
181.716626
 30
0.0
 41
0.5
 42
0.5
 43
0.5
  0
INSERT
  8
0
  5
3AC97
  2
IU
 10
480.818979
 20
177.016626
 30
0.0
 41
0.5
 42
0.5
 43
0.5
  0
LINE
  8
0
  5
47F87
 10
138.00283
 20
261.136611
 30
0.0
 11
137.94668
 21
261.159311
 31
0.0
  0
LINE
  8
0
  5
47F88
 10
138.00283
 20
261.136611
 30
0.0
 11
137.417581
 21
260.733925
 31
0.0
  0
LINE
  8
0
  5
47F89
 10
138.00283
 20
261.066326
 30
0.0
 11
138.00283
 21
261.136611
 31
0.0
  0
LINE
  8
0
  5
47F8A
 10
136.600971
 20
260.233384
 30
0.0
 11
137.17854
 21
260.630786
 31
0.0
  0
LINE
  8
0
  5
47F8B
 10
137.17854
 20
260.630786
 30
0.0
 11
137.234691
 21
260.608086
 31
0.0
  0
LINE
  8
0
  5
47F8C
 10
137.11771
 20
260.594975
 30
0.0
 11
137.17854
 21
260.630786
 31
0.0
  0
LINE
  8
0
  5
47F8D
 10
136.649442
 20
260.2054
 30
0.0
 11
137.234691
 21
260.608086
 31
0.0
  0
LINE
  8
0
  5
47F8E
 10
137.234691
 20
260.608086
 30
0.0
 11
137.234691
 21
260.5378
 31
0.0
  0
LINE
  8
0
  5
47F90
 10
137.316601
 20
260.731824
 30
0.0
 11
137.316601
 21
260.631633
 31
0.0
  0
LINE
  8
0
  5
47F91
 10
137.417581
 20
260.733925
 30
0.0
 11
137.369111
 21
260.76191
 31
0.0
  0
LINE
  8
0
  5
47F92
 10
137.417581
 20
260.663639
 30
0.0
 11
137.417581
 21
260.733925
 31
0.0
  0
LINE
  8
0
  5
47F93
 10
137.88585
 20
261.123501
 30
0.0
 11
137.316601
 21
260.731824
 31
0.0
  0
LINE
  8
0
  5
47F94
 10
137.94668
 20
261.159311
 30
0.0
 11
137.88585
 21
261.123501
 31
0.0
  0
LINE
  8
0
  5
47F95
 10
137.94668
 20
261.159311
 30
0.0
 11
137.369111
 21
260.76191
 31
0.0
  0
LINE
  8
0
  5
47F96
 10
137.369111
 20
260.76191
 30
0.0
 11
137.316601
 21
260.731824
 31
0.0
  0
LINE
  8
0
  5
47F97
 10
134.346921
 20
258.688508
 30
0.0
 11
133.869117
 21
258.359751
 31
0.0
  0
LINE
  8
0
  5
47F98
 10
134.407751
 20
258.724318
 30
0.0
 11
133.921627
 21
258.389836
 31
0.0
  0
LINE
  8
0
  5
47F99
 10
134.407751
 20
258.724318
 30
0.0
 11
134.463901
 21
258.701618
 31
0.0
  0
LINE
  8
0
  5
47F9A
 10
134.346921
 20
258.688508
 30
0.0
 11
134.407751
 21
258.724318
 31
0.0
  0
LINE
  8
0
  5
47F9B
 10
133.970097
 20
258.361852
 30
0.0
 11
134.463901
 21
258.701618
 31
0.0
  0
LINE
  8
0
  5
47F9C
 10
134.463901
 20
258.701618
 30
0.0
 11
134.463901
 21
258.631333
 31
0.0
  0
LINE
  8
0
  5
47F9E
 10
133.869117
 20
258.259559
 30
0.0
 11
133.869117
 21
258.359751
 31
0.0
  0
LINE
  8
0
  5
47F9F
 10
133.869117
 20
258.359751
 30
0.0
 11
133.921627
 21
258.389836
 31
0.0
  0
LINE
  8
0
  5
47FA0
 10
133.921627
 20
258.389836
 30
0.0
 11
133.970097
 21
258.361852
 31
0.0
  0
LINE
  8
0
  5
47FA1
 10
133.970097
 20
258.361852
 30
0.0
 11
133.970097
 21
258.291566
 31
0.0
  0
LINE
  8
0
  5
47FA3
 10
132.646698
 20
256.462313
 30
0.0
 11
132.699009
 21
256.441849
 31
0.0
  0
LINE
  8
0
  5
47FA4
 10
132.63758
 20
256.517201
 30
0.0
 11
132.646698
 21
256.462313
 31
0.0
  0
LINE
  8
0
  5
47FA5
 10
132.646698
 20
256.462313
 30
0.0
 11
132.646698
 21
256.198244
 31
0.0
  0
LINE
  8
0
  5
47FA6
 10
132.716456
 20
256.571472
 30
0.0
 11
132.63758
 21
256.517201
 31
0.0
  0
LINE
  8
0
  5
47FA7
 10
132.63758
 20
256.517201
 30
0.0
 11
132.63758
 21
256.269067
 31
0.0
  0
LINE
  8
0
  5
47FA8
 10
132.63758
 20
256.269067
 30
0.0
 11
132.646698
 21
256.198244
 31
0.0
  0
LINE
  8
0
  5
47FA9
 10
132.646698
 20
256.198244
 30
0.0
 11
132.699009
 21
256.163071
 31
0.0
  0
LINE
  8
0
  5
47FAA
 10
132.699009
 20
254.118696
 30
0.0
 11
132.699009
 21
254.397475
 31
0.0
  0
LINE
  8
0
  5
47FAB
 10
132.646698
 20
254.148916
 30
0.0
 11
132.646698
 21
254.417939
 31
0.0
  0
LINE
  8
0
  5
47FAC
 10
132.63758
 20
254.214373
 30
0.0
 11
132.63758
 21
254.472826
 31
0.0
  0
LINE
  8
0
  5
47FAD
 10
132.646698
 20
254.148916
 30
0.0
 11
132.63758
 21
254.214373
 31
0.0
  0
LINE
  8
0
  5
47FAE
 10
132.699009
 20
254.118696
 30
0.0
 11
132.646698
 21
254.148916
 31
0.0
  0
LINE
  8
0
  5
47FAF
 10
132.699009
 20
254.118696
 30
0.0
 11
132.754342
 21
254.156768
 31
0.0
  0
LINE
  8
0
  5
47FB0
 10
132.699009
 20
254.397475
 30
0.0
 11
132.754342
 21
254.435547
 31
0.0
  0
LINE
  8
0
  5
47FB1
 10
132.699009
 20
254.397475
 30
0.0
 11
132.646698
 21
254.417939
 31
0.0
  0
LINE
  8
0
  5
47FB2
 10
132.646698
 20
254.417939
 30
0.0
 11
132.63758
 21
254.472826
 31
0.0
  0
LINE
  8
0
  5
47FB3
 10
132.63758
 20
254.472826
 30
0.0
 11
132.716456
 21
254.527097
 31
0.0
  0
LINE
  8
0
  5
47FB5
 10
140.087391
 20
262.638291
 30
0.0
 11
140.565194
 21
262.967048
 31
0.0
  0
LINE
  8
0
  5
47FB6
 10
140.682175
 20
262.909873
 30
0.0
 11
140.682175
 21
262.980159
 31
0.0
  0
LINE
  8
0
  5
47FB7
 10
140.626024
 20
263.002859
 30
0.0
 11
140.565194
 21
262.967048
 31
0.0
  0
LINE
  8
0
  5
47FB8
 10
140.682175
 20
262.980159
 30
0.0
 11
140.188371
 21
262.640393
 31
0.0
  0
LINE
  8
0
  5
47FB9
 10
140.1399
 20
262.668377
 30
0.0
 11
140.626024
 21
263.002859
 31
0.0
  0
LINE
  8
0
  5
47FBA
 10
140.682175
 20
262.980159
 30
0.0
 11
140.626024
 21
263.002859
 31
0.0
  0
LINE
  8
0
  5
47FBC
 10
140.087391
 20
262.638291
 30
0.0
 11
140.087391
 21
262.5381
 31
0.0
  0
LINE
  8
0
  5
47FBD
 10
140.1399
 20
262.668377
 30
0.0
 11
140.087391
 21
262.638291
 31
0.0
  0
LINE
  8
0
  5
47FBE
 10
140.188371
 20
262.640393
 30
0.0
 11
140.1399
 21
262.668377
 31
0.0
  0
LINE
  8
0
  5
47FBF
 10
140.188371
 20
262.570107
 30
0.0
 11
140.188371
 21
262.640393
 31
0.0
  0
LINE
  8
0
  5
47FC4
 10
132.699009
 20
256.163071
 30
0.0
 11
132.754342
 21
256.201143
 31
0.0
  0
LINE
  8
0
  5
47FC5
 10
132.699009
 20
256.441849
 30
0.0
 11
132.699009
 21
256.163071
 31
0.0
  0
LINE
  8
0
  5
47FC6
 10
132.699009
 20
256.441849
 30
0.0
 11
132.754342
 21
256.479921
 31
0.0
  0
LINE
  8
0
  5
47FC7
 10
133.970097
 20
258.291566
 30
0.0
 11
132.754342
 21
257.455054
 31
0.0
  0
LINE
  8
0
  5
47FC8
 10
133.970097
 20
258.291566
 30
0.0
 11
134.463901
 21
258.631333
 31
0.0
  0
LINE
  8
0
  5
47FC9
 10
136.649442
 20
260.135114
 30
0.0
 11
137.234691
 21
260.5378
 31
0.0
  0
LINE
  8
0
  5
47FCA
 10
137.234691
 20
260.5378
 30
0.0
 11
137.417581
 21
260.663639
 31
0.0
  0
LINE
  8
0
  5
47FCB
 10
138.00283
 20
261.066326
 30
0.0
 11
137.417581
 21
260.663639
 31
0.0
  0
LINE
  8
0
  5
47FCC
 10
138.00283
 20
261.066326
 30
0.0
 11
140.188371
 21
262.570107
 31
0.0
  0
LINE
  8
0
  5
47FCD
 10
140.682175
 20
262.909873
 30
0.0
 11
140.188371
 21
262.570107
 31
0.0
  0
LINE
  8
0
  5
47FCE
 10
140.682175
 20
262.909873
 30
0.0
 11
141.897931
 21
263.746385
 31
0.0
  0
LINE
  8
0
  5
47FCF
 10
142.070495
 20
263.65652
 30
0.0
 11
141.897931
 21
263.746385
 31
0.0
  0
LINE
  8
0
  5
47FD1
 10
132.932036
 20
257.368719
 30
0.0
 11
142.070495
 21
263.65652
 31
0.0
  0
LINE
  8
0
  5
47FD3
 10
136.649442
 20
260.135114
 30
0.0
 11
134.463901
 21
258.631333
 31
0.0
  0
LINE
  8
0
  5
47FD5
 10
136.548462
 20
260.203298
 30
0.0
 11
136.600971
 21
260.233384
 31
0.0
  0
LINE
  8
0
  5
47FD6
 10
136.600971
 20
260.233384
 30
0.0
 11
136.649442
 21
260.2054
 31
0.0
  0
LINE
  8
0
  5
47FD7
 10
136.649442
 20
260.2054
 30
0.0
 11
136.649442
 21
260.135114
 31
0.0
  0
LINE
  8
0
  5
47FD8
 10
136.548462
 20
260.203298
 30
0.0
 11
137.11771
 21
260.594975
 31
0.0
  0
LINE
  8
0
  5
47FD9
 10
136.548462
 20
260.103107
 30
0.0
 11
136.548462
 21
260.203298
 31
0.0
  0
LINE
  8
0
  5
47FDA
 10
133.011439
 20
253.152687
 30
0.0
 11
133.011439
 21
257.326677
 31
0.0
  0
LINE
  8
0
  5
47FDB
 10
133.011439
 20
257.326677
 30
0.0
 11
142.076753
 21
263.56415
 31
0.0
  0
LINE
  8
0
  5
47FDC
 10
142.076753
 20
263.56415
 30
0.0
 11
142.076753
 21
259.39016
 31
0.0
  0
LINE
  8
0
  5
47FDD
 10
132.932036
 20
253.101816
 30
0.0
 11
132.754342
 21
253.181635
 31
0.0
  0
LINE
  8
0
  5
47FDE
 10
132.754342
 20
253.181635
 30
0.0
 11
132.754342
 21
254.156768
 31
0.0
  0
LINE
  8
0
  5
47FDF
 10
132.754342
 20
254.435547
 30
0.0
 11
132.754342
 21
254.156768
 31
0.0
  0
LINE
  8
0
  5
47FE0
 10
132.754342
 20
254.435547
 30
0.0
 11
132.754342
 21
256.201143
 31
0.0
  0
LINE
  8
0
  5
47FE1
 10
132.754342
 20
256.201143
 30
0.0
 11
132.754342
 21
256.479921
 31
0.0
  0
LINE
  8
0
  5
47FE2
 10
132.754342
 20
257.455054
 30
0.0
 11
132.754342
 21
256.479921
 31
0.0
  0
LINE
  8
0
  5
47FE3
 10
132.754342
 20
257.455054
 30
0.0
 11
132.932036
 21
257.368719
 31
0.0
  0
LINE
  8
0
  5
47FE4
 10
132.932036
 20
253.101816
 30
0.0
 11
132.932036
 21
257.368719
 31
0.0
  0
LINE
  8
0
  5
47FE7
 10
142.076753
 20
259.39016
 30
0.0
 11
133.011439
 21
253.152687
 31
0.0
  0
LINE
  8
0
  5
47FE8
 10
136.245152
 20
256.074626
 30
0.0
 11
136.245152
 21
258.862409
 31
0.0
  0
LINE
  8
0
  5
47FEA
 10
136.537777
 20
259.435457
 30
0.0
 11
138.732462
 21
260.94553
 31
0.0
  0
LINE
  8
0
  5
47FED
 10
138.937902
 20
258.029622
 30
0.0
 11
138.937902
 21
260.817405
 31
0.0
  0
LINE
  8
0
  5
47FEE
 10
138.937902
 20
260.817405
 30
0.0
 11
139.025086
 21
260.775168
 31
0.0
  0
LINE
  8
0
  5
47FEF
 10
139.025086
 20
260.775168
 30
0.0
 11
139.025086
 21
257.987385
 31
0.0
  0
LINE
  8
0
  5
47FF1
 10
139.025086
 20
257.987385
 30
0.0
 11
138.937902
 21
258.029622
 31
0.0
  0
LINE
  8
0
  5
47FF3
 10
136.450593
 20
255.946501
 30
0.0
 11
138.645278
 21
257.456574
 31
0.0
  0
LINE
  8
0
  5
47FF4
 10
138.645278
 20
257.456574
 30
0.0
 11
138.732462
 21
257.414338
 31
0.0
  0
LINE
  8
0
  5
47FF5
 10
138.732462
 20
257.414338
 30
0.0
 11
136.537777
 21
255.904264
 31
0.0
  0
LINE
  8
0
  5
47FF7
 10
136.537777
 20
255.904264
 30
0.0
 11
136.450593
 21
255.946501
 31
0.0
  0
LINE
  8
0
  5
47FF9
 10
132.975499
 20
253.109996
 30
0.0
 11
142.090022
 21
259.381327
 31
0.0
  0
LINE
  8
0
  5
47FFA
 10
142.090067
 20
259.381412
 30
0.0
 11
142.090067
 21
263.615134
 31
0.0
  0
LINE
  8
0
  5
47FFB
 10
137.126292
 20
256.411925
 30
0.0
 11
136.55587
 21
256.01944
 31
0.0
  0
LINE
  8
0
  5
47FFC
 10
137.894431
 20
256.94045
 30
0.0
 11
137.324009
 21
256.547966
 31
0.0
  0
LINE
  8
0
  5
4B43C
 10
132.932036
 20
253.101816
 30
0.0
 11
132.973301
 21
253.108536
 31
0.0
  0
LINE
  8
0
  5
4B43D
 10
132.973301
 20
253.108536
 30
0.0
 11
133.011439
 21
253.152687
 31
0.0
  0
LINE
  8
0
  5
4B43E
 10
132.932036
 20
257.368719
 30
0.0
 11
132.973301
 21
257.347659
 31
0.0
  0
LINE
  8
0
  5
4B43F
 10
132.973301
 20
257.347659
 30
0.0
 11
133.011439
 21
257.326677
 31
0.0
  0
LINE
  8
0
  5
4B440
 10
132.716456
 20
254.527097
 30
0.0
 11
132.73495
 21
254.531228
 31
0.0
  0
LINE
  8
0
  5
4B441
 10
132.73495
 20
254.531228
 30
0.0
 11
132.754342
 21
254.531925
 31
0.0
  0
LINE
  8
0
  5
4B442
 10
132.716456
 20
256.571472
 30
0.0
 11
132.73495
 21
256.575603
 31
0.0
  0
LINE
  8
0
  5
4B443
 10
132.73495
 20
256.575603
 30
0.0
 11
132.754342
 21
256.576299
 31
0.0
  0
LINE
  8
0
  5
4B444
 10
133.869117
 20
258.259559
 30
0.0
 11
133.874815
 21
258.245168
 31
0.0
  0
LINE
  8
0
  5
4B445
 10
133.874815
 20
258.245168
 30
0.0
 11
133.882945
 21
258.2316
 31
0.0
  0
LINE
  8
0
  5
4B446
 10
137.320955
 20
256.545362
 30
0.0
 11
137.324009
 21
256.547966
 31
0.0
  0
LINE
  8
0
  5
4B447
 10
137.324009
 20
256.547966
 30
0.0
 11
137.327498
 21
256.549864
 31
0.0
  0
LINE
  8
0
  5
4B448
 10
136.552815
 20
256.016836
 30
0.0
 11
136.55587
 21
256.01944
 31
0.0
  0
LINE
  8
0
  5
4B449
 10
136.55587
 20
256.01944
 30
0.0
 11
136.559359
 21
256.021339
 31
0.0
  0
LINE
  8
0
  5
4B44A
 10
137.126292
 20
256.411925
 30
0.0
 11
137.128253
 21
256.413149
 31
0.0
  0
LINE
  8
0
  5
4B44B
 10
137.128253
 20
256.413149
 30
0.0
 11
137.130334
 21
256.414203
 31
0.0
  0
LINE
  8
0
  5
4B44C
 10
136.548462
 20
260.103107
 30
0.0
 11
136.554159
 21
260.088716
 31
0.0
  0
LINE
  8
0
  5
4B44D
 10
136.554159
 20
260.088716
 30
0.0
 11
136.562289
 21
260.075148
 31
0.0
  0
LINE
  8
0
  5
4B44E
 10
137.316601
 20
260.631633
 30
0.0
 11
137.322299
 21
260.617241
 31
0.0
  0
LINE
  8
0
  5
4B44F
 10
137.322299
 20
260.617241
 30
0.0
 11
137.330429
 21
260.603673
 31
0.0
  0
LINE
  8
0
  5
4B450
 10
137.894431
 20
256.94045
 30
0.0
 11
137.896393
 21
256.941674
 31
0.0
  0
LINE
  8
0
  5
4B451
 10
137.896393
 20
256.941674
 30
0.0
 11
137.898474
 21
256.942729
 31
0.0
  0
LINE
  8
0
  5
4B452
 10
140.087391
 20
262.5381
 30
0.0
 11
140.093088
 21
262.523709
 31
0.0
  0
LINE
  8
0
  5
4B453
 10
140.093088
 20
262.523709
 30
0.0
 11
140.101218
 21
262.510141
 31
0.0
  0
LINE
  8
0
  5
4B454
 10
142.090022
 20
259.381327
 30
0.0
 11
142.08701
 21
259.383902
 31
0.0
  0
LINE
  8
0
  5
4B455
 10
142.08701
 20
259.383902
 30
0.0
 11
142.076753
 21
259.39016
 31
0.0
  0
LINE
  8
0
  5
4B456
 10
142.070495
 20
263.65652
 30
0.0
 11
142.089891
 21
263.620413
 31
0.0
  0
LINE
  8
0
  5
4B457
 10
142.089891
 20
263.620413
 30
0.0
 11
142.076753
 21
263.56415
 31
0.0
  0
VIEWPORT
  8
0
  5
4635C
 67
     1
 68
    -1
 10
6.0
 20
4.5
 30
0.0
 40
12.0
 41
9.0
 69
     1
1001
ACAD
1000
MVIEW
1002
{
1070
    16
1010
0.0
1020
0.0
1030
0.0
1010
0.0
1020
0.0
1030
1.0
1040
0.0
1040
9.0
1040
6.0
1040
4.5
1040
50.0
1040
0.0
1040
0.0
1070
     0
1070
   100
1070
     1
1070
     1
1070
     0
1070
     0
1070
     0
1070
     0
1040
0.0
1040
0.0
1040
0.0
1040
1.0
1040
1.0
1040
0.0
1040
0.0
1070
     0
1002
{
1002
}
1002
}
  0
INSERT
  8
0
  5
E5699
  2
73830
 10
184.890875
 20
611.811304
 30
0.0
 41
0.386886
 42
0.386886
 43
0.386886
  0
INSERT
  8
0
  5
E569A
  2
DF
 10
371.327766
 20
174.172275
 30
0.0
 41
0.386886
 42
0.386886
 43
0.386886
  0
INSERT
  8
0
  5
E569B
  2
IU
 10
372.140226
 20
170.535549
 30
0.0
 41
0.386886
 42
0.386886
 43
0.386886
  0
INSERT
  8
0
  5
E569C
  2
73830
 10
231.954327
 20
640.934196
 30
0.0
 41
0.386886
 42
0.386886
 43
0.386886
  0
INSERT
  8
0
  5
E569D
  2
DF
 10
418.391217
 20
203.295167
 30
0.0
 41
0.386886
 42
0.386886
 43
0.386886
  0
INSERT
  8
0
  5
E569E
  2
IU
 10
419.203677
 20
199.658441
 30
0.0
 41
0.386886
 42
0.386886
 43
0.386886
  0
LINE
  8
0
  5
E569F
 10
134.069807
 20
262.574729
 30
0.0
 11
132.278266
 21
263.442649
 31
0.0
  0
LINE
  8
0
  5
E56A0
 10
134.251833
 20
264.80058
 30
0.0
 11
136.043374
 21
263.93266
 31
0.0
  0
POLYLINE
  8
0
  5
E56A1
 66
     1
 10
0.0
 20
0.0
 30
0.0
 70
   128
  0
VERTEX
  8
0
  5
E56A2
 10
134.359786
 20
264.821245
 30
0.0
  0
VERTEX
  8
0
  5
E56A3
 10
134.336249
 20
264.827884
 30
0.0
  0
VERTEX
  8
0
  5
E56A4
 10
134.309789
 20
264.826577
 30
0.0
  0
VERTEX
  8
0
  5
E56A5
 10
134.281322
 20
264.81737
 30
0.0
  0
VERTEX
  8
0
  5
E56A6
 10
134.251833
 20
264.80058
 30
0.0
  0
SEQEND
  8
0
  5
E56A7
  0
LINE
  8
0
  5
E56A8
 10
134.251833
 20
264.80058
 30
0.0
 11
132.278266
 21
263.442649
 31
0.0
  0
POLYLINE
  8
0
  5
E56A9
 66
     1
 10
0.0
 20
0.0
 30
0.0
 70
   128
  0
VERTEX
  8
0
  5
E56AA
 10
132.278266
 20
263.442649
 30
0.0
  0
VERTEX
  8
0
  5
E56AB
 10
132.250629
 20
263.420562
 30
0.0
  0
VERTEX
  8
0
  5
E56AC
 10
132.223831
 20
263.393002
 30
0.0
  0
VERTEX
  8
0
  5
E56AD
 10
132.198687
 20
263.360808
 30
0.0
  0
VERTEX
  8
0
  5
E56AE
 10
132.175961
 20
263.324958
 30
0.0
  0
VERTEX
  8
0
  5
E56AF
 10
132.156344
 20
263.286542
 30
0.0
  0
VERTEX
  8
0
  5
E56B0
 10
132.140431
 20
263.246725
 30
0.0
  0
VERTEX
  8
0
  5
E56B1
 10
132.128706
 20
263.206719
 30
0.0
  0
VERTEX
  8
0
  5
E56B2
 10
132.121526
 20
263.167739
 30
0.0
  0
VERTEX
  8
0
  5
E56B3
 10
132.119108
 20
263.130969
 30
0.0
  0
SEQEND
  8
0
  5
E56B4
  0
LINE
  8
0
  5
E56B5
 10
132.119108
 20
261.089985
 30
0.0
 11
132.240757
 21
261.173687
 31
0.0
  0
LINE
  8
0
  5
E56B6
 10
133.738435
 20
261.8999
 30
0.0
 11
133.711736
 21
261.88153
 31
0.0
  0
LINE
  8
0
  5
E56B7
 10
134.537867
 20
262.449957
 30
0.0
 11
133.953167
 21
262.047649
 31
0.0
  0
LINE
  8
0
  5
E56B8
 10
132.119108
 20
261.089985
 30
0.0
 11
132.119108
 21
260.624059
 31
0.0
  0
LINE
  8
0
  5
E56B9
 10
132.233776
 20
261.034434
 30
0.0
 11
132.119108
 21
261.089985
 31
0.0
  0
LINE
  8
0
  5
E56BA
 10
132.233776
 20
261.142413
 30
0.0
 11
132.233776
 21
261.034434
 31
0.0
  0
LINE
  8
0
  5
E56BB
 10
132.232915
 20
262.654562
 30
0.0
 11
132.232915
 21
262.529924
 31
0.0
  0
LINE
  8
0
  5
E56BC
 10
132.119108
 20
262.709696
 30
0.0
 11
132.232915
 21
262.654562
 31
0.0
  0
LINE
  8
0
  5
E56BD
 10
132.119108
 20
263.130969
 30
0.0
 11
132.119108
 21
262.709696
 31
0.0
  0
LINE
  8
0
  5
E56BE
 10
132.119108
 20
263.130969
 30
0.0
 11
133.910649
 21
262.263049
 31
0.0
  0
POLYLINE
  8
0
  5
E56BF
 66
     1
 10
0.0
 20
0.0
 30
0.0
 70
   128
  0
VERTEX
  8
0
  5
E56C0
 10
132.119108
 20
260.624059
 30
0.0
  0
VERTEX
  8
0
  5
E56C1
 10
132.121271
 20
260.592325
 30
0.0
  0
VERTEX
  8
0
  5
E56C2
 10
132.127704
 20
260.564432
 30
0.0
  0
VERTEX
  8
0
  5
E56C3
 10
132.138229
 20
260.541137
 30
0.0
  0
VERTEX
  8
0
  5
E56C4
 10
132.152562
 20
260.523074
 30
0.0
  0
VERTEX
  8
0
  5
E56C5
 10
132.170313
 20
260.510735
 30
0.0
  0
SEQEND
  8
0
  5
E56C6
  0
LINE
  8
0
  5
E56C7
 10
133.910649
 20
259.756139
 30
0.0
 11
132.119108
 21
260.624059
 31
0.0
  0
LINE
  8
0
  5
E56C8
 10
133.897144
 20
262.028512
 30
0.0
 11
133.910649
 21
262.072115
 31
0.0
  0
LINE
  8
0
  5
E56C9
 10
133.874471
 20
261.833997
 30
0.0
 11
133.890387
 21
261.844948
 31
0.0
  0
LINE
  8
0
  5
E56CA
 10
133.194924
 20
262.163207
 30
0.0
 11
133.21084
 21
262.174158
 31
0.0
  0
LINE
  8
0
  5
E56CB
 10
136.054944
 20
263.284326
 30
0.0
 11
136.07086
 21
263.295277
 31
0.0
  0
LINE
  8
0
  5
E56CC
 10
136.133986
 20
262.948854
 30
0.0
 11
136.149902
 21
262.959805
 31
0.0
  0
LINE
  8
0
  5
E56CD
 10
136.202533
 20
262.981274
 30
0.0
 11
136.202533
 21
262.88649
 31
0.0
  0
LINE
  8
0
  5
E56CE
 10
136.138869
 20
262.946489
 30
0.0
 11
136.154785
 21
262.95744
 31
0.0
  0
LINE
  8
0
  5
E56CF
 10
136.138869
 20
262.842686
 30
0.0
 11
136.202533
 21
262.88649
 31
0.0
  0
LINE
  8
0
  5
E56D0
 10
136.202533
 20
262.88649
 30
0.0
 11
136.284
 21
262.847023
 31
0.0
  0
LINE
  8
0
  5
E56D1
 10
133.992116
 20
261.270071
 30
0.0
 11
133.910649
 21
261.309538
 31
0.0
  0
LINE
  8
0
  5
E56D2
 10
133.910649
 20
260.747707
 30
0.0
 11
133.992116
 21
260.70824
 31
0.0
  0
LINE
  8
0
  5
E56D3
 10
133.906682
 20
260.649769
 30
0.0
 11
133.910649
 21
260.647847
 31
0.0
  0
LINE
  8
0
  5
E56D4
 10
133.8978
 20
260.621091
 30
0.0
 11
133.906682
 21
260.649769
 31
0.0
  0
LINE
  8
0
  5
E56D5
 10
133.874471
 20
260.424458
 30
0.0
 11
133.890387
 21
260.435409
 31
0.0
  0
LINE
  8
0
  5
E56D6
 10
133.194924
 20
260.753667
 30
0.0
 11
133.21084
 21
260.764618
 31
0.0
  0
LINE
  8
0
  5
E56D7
 10
134.919304
 20
262.316033
 30
0.0
 11
134.93522
 21
262.326984
 31
0.0
  0
LINE
  8
0
  5
E56D8
 10
135.147503
 20
262.20548
 30
0.0
 11
135.163419
 21
262.216431
 31
0.0
  0
LINE
  8
0
  5
E56D9
 10
135.244864
 20
262.267233
 30
0.0
 11
135.26078
 21
262.278184
 31
0.0
  0
LINE
  8
0
  5
E56DA
 10
135.375396
 20
262.203996
 30
0.0
 11
135.391312
 21
262.214947
 31
0.0
  0
LINE
  8
0
  5
E56DB
 10
135.52545
 20
262.131302
 30
0.0
 11
135.541366
 21
262.142253
 31
0.0
  0
LINE
  8
0
  5
E56DC
 10
136.199401
 20
261.575687
 30
0.0
 11
136.202533
 21
261.562395
 31
0.0
  0
LINE
  8
0
  5
E56DD
 10
136.054944
 20
261.874786
 30
0.0
 11
136.07086
 21
261.885738
 31
0.0
  0
LINE
  8
0
  5
E56DE
 10
134.069807
 20
260.054427
 30
0.0
 11
133.95531
 21
260.109895
 31
0.0
  0
LINE
  8
0
  5
E56DF
 10
134.327704
 20
262.243521
 30
0.0
 11
134.4232
 21
262.309228
 31
0.0
  0
LINE
  8
0
  5
E56E0
 10
134.179089
 20
261.831186
 30
0.0
 11
134.179089
 21
261.952488
 31
0.0
  0
LINE
  8
0
  5
E56E1
 10
136.043374
 20
261.412358
 30
0.0
 11
134.327704
 21
262.243521
 31
0.0
  0
LINE
  8
0
  5
E56E2
 10
135.894759
 20
261.121324
 30
0.0
 11
134.179089
 21
261.952488
 31
0.0
  0
POLYLINE
  8
0
  5
E56E3
 66
     1
 10
0.0
 20
0.0
 30
0.0
 70
   128
210
0.0000000000000001
220
-0.0000000000000001
230
-1.0
  0
VERTEX
  8
0
  5
E56E4
 10
-134.179089
 20
261.952488
 30
0.0
  0
VERTEX
  8
0
  5
E56E5
 10
-134.181347
 20
261.986823
 30
0.0
  0
VERTEX
  8
0
  5
E56E6
 10
-134.188052
 20
262.023221
 30
0.0
  0
VERTEX
  8
0
  5
E56E7
 10
-134.199
 20
262.060577
 30
0.0
  0
VERTEX
  8
0
  5
E56E8
 10
-134.213859
 20
262.097755
 30
0.0
  0
VERTEX
  8
0
  5
E56E9
 10
-134.232176
 20
262.133627
 30
0.0
  0
VERTEX
  8
0
  5
E56EA
 10
-134.253397
 20
262.167102
 30
0.0
  0
VERTEX
  8
0
  5
E56EB
 10
-134.276875
 20
262.197163
 30
0.0
  0
VERTEX
  8
0
  5
E56EC
 10
-134.301898
 20
262.222897
 30
0.0
  0
VERTEX
  8
0
  5
E56ED
 10
-134.327704
 20
262.243521
 30
0.0
  0
SEQEND
  8
0
  5
E56EE
  0
LINE
  8
0
  5
E56EF
 10
134.218422
 20
262.596117
 30
0.0
 11
134.218422
 21
262.474815
 31
0.0
  0
POLYLINE
  8
0
  5
E56F0
 66
     1
 10
0.0
 20
0.0
 30
0.0
 70
   128
210
0.0000000000000001
220
-0.0000000000000001
230
-1.0
  0
VERTEX
  8
0
  5
E56F1
 10
-134.218422
 20
262.474815
 30
0.0
  0
VERTEX
  8
0
  5
E56F2
 10
-134.216165
 20
262.440481
 30
0.0
  0
VERTEX
  8
0
  5
E56F3
 10
-134.20946
 20
262.404083
 30
0.0
  0
VERTEX
  8
0
  5
E56F4
 10
-134.198512
 20
262.366727
 30
0.0
  0
VERTEX
  8
0
  5
E56F5
 10
-134.183653
 20
262.329548
 30
0.0
  0
VERTEX
  8
0
  5
E56F6
 10
-134.165335
 20
262.293676
 30
0.0
  0
VERTEX
  8
0
  5
E56F7
 10
-134.144115
 20
262.260201
 30
0.0
  0
VERTEX
  8
0
  5
E56F8
 10
-134.120637
 20
262.23014
 30
0.0
  0
VERTEX
  8
0
  5
E56F9
 10
-134.095614
 20
262.204407
 30
0.0
  0
VERTEX
  8
0
  5
E56FA
 10
-134.069807
 20
262.183782
 30
0.0
  0
SEQEND
  8
0
  5
E56FB
  0
LINE
  8
0
  5
E56FC
 10
134.069807
 20
262.183782
 30
0.0
 11
133.974312
 21
262.118076
 31
0.0
  0
LINE
  8
0
  5
E56FD
 10
133.910649
 20
262.072115
 30
0.0
 11
133.974312
 21
262.11592
 31
0.0
  0
LINE
  8
0
  5
E56FE
 10
133.910649
 20
262.072115
 30
0.0
 11
133.910649
 21
262.263049
 31
0.0
  0
POLYLINE
  8
0
  5
E56FF
 66
     1
 10
0.0
 20
0.0
 30
0.0
 70
   128
210
0.0000000000000001
220
0.0
230
-1.0
  0
VERTEX
  8
0
  5
E5700
 10
-133.910649
 20
262.263049
 30
0.0
  0
VERTEX
  8
0
  5
E5701
 10
-133.913067
 20
262.299819
 30
0.0
  0
VERTEX
  8
0
  5
E5702
 10
-133.920247
 20
262.338799
 30
0.0
  0
VERTEX
  8
0
  5
E5703
 10
-133.931972
 20
262.378805
 30
0.0
  0
VERTEX
  8
0
  5
E5704
 10
-133.947885
 20
262.418622
 30
0.0
  0
VERTEX
  8
0
  5
E5705
 10
-133.967502
 20
262.457039
 30
0.0
  0
VERTEX
  8
0
  5
E5706
 10
-133.990228
 20
262.492888
 30
0.0
  0
VERTEX
  8
0
  5
E5707
 10
-134.015372
 20
262.525082
 30
0.0
  0
VERTEX
  8
0
  5
E5708
 10
-134.04217
 20
262.552642
 30
0.0
  0
VERTEX
  8
0
  5
E5709
 10
-134.069807
 20
262.574729
 30
0.0
  0
SEQEND
  8
0
  5
E570A
  0
LINE
  8
0
  5
E570B
 10
134.069807
 20
262.574729
 30
0.0
 11
136.043374
 21
263.93266
 31
0.0
  0
POLYLINE
  8
0
  5
E570C
 66
     1
 10
0.0
 20
0.0
 30
0.0
 70
   128
210
0.0000000000000001
220
0.0
230
-1.0
  0
VERTEX
  8
0
  5
E570D
 10
-136.043374
 20
263.93266
 30
0.0
  0
VERTEX
  8
0
  5
E570E
 10
-136.071012
 20
263.948605
 30
0.0
  0
VERTEX
  8
0
  5
E570F
 10
-136.09781
 20
263.957923
 30
0.0
  0
VERTEX
  8
0
  5
E5710
 10
-136.122953
 20
263.96033
 30
0.0
  0
VERTEX
  8
0
  5
E5711
 10
-136.145679
 20
263.955754
 30
0.0
  0
VERTEX
  8
0
  5
E5712
 10
-136.165297
 20
263.944333
 30
0.0
  0
VERTEX
  8
0
  5
E5713
 10
-136.18121
 20
263.926414
 30
0.0
  0
VERTEX
  8
0
  5
E5714
 10
-136.192934
 20
263.902543
 30
0.0
  0
VERTEX
  8
0
  5
E5715
 10
-136.200115
 20
263.873444
 30
0.0
  0
VERTEX
  8
0
  5
E5716
 10
-136.202533
 20
263.840001
 30
0.0
  0
SEQEND
  8
0
  5
E5717
  0
LINE
  8
0
  5
E5718
 10
136.202533
 20
263.840001
 30
0.0
 11
136.202533
 21
263.649067
 31
0.0
  0
LINE
  8
0
  5
E5719
 10
136.138869
 20
263.607419
 30
0.0
 11
136.043374
 21
263.541713
 31
0.0
  0
POLYLINE
  8
0
  5
E571A
 66
     1
 10
0.0
 20
0.0
 30
0.0
 70
   128
210
0.0000000000000002
220
-0.0000000000000001
230
-1.0
  0
VERTEX
  8
0
  5
E571B
 10
-136.043374
 20
263.541713
 30
0.0
  0
VERTEX
  8
0
  5
E571C
 10
-136.017567
 20
263.526824
 30
0.0
  0
VERTEX
  8
0
  5
E571D
 10
-135.992545
 20
263.518124
 30
0.0
  0
VERTEX
  8
0
  5
E571E
 10
-135.969067
 20
263.515876
 30
0.0
  0
VERTEX
  8
0
  5
E571F
 10
-135.947846
 20
263.52015
 30
0.0
  0
VERTEX
  8
0
  5
E5720
 10
-135.929528
 20
263.530814
 30
0.0
  0
VERTEX
  8
0
  5
E5721
 10
-135.91467
 20
263.547545
 30
0.0
  0
VERTEX
  8
0
  5
E5722
 10
-135.903722
 20
263.569835
 30
0.0
  0
VERTEX
  8
0
  5
E5723
 10
-135.897017
 20
263.597007
 30
0.0
  0
VERTEX
  8
0
  5
E5724
 10
-135.894759
 20
263.628234
 30
0.0
  0
SEQEND
  8
0
  5
E5725
  0
LINE
  8
0
  5
E5726
 10
135.894759
 20
263.628234
 30
0.0
 11
135.894759
 21
263.749536
 31
0.0
  0
LINE
  8
0
  5
E5727
 10
135.894759
 20
263.628234
 30
0.0
 11
135.791304
 21
263.678353
 31
0.0
  0
POLYLINE
  8
0
  5
E5728
 66
     1
 10
0.0
 20
0.0
 30
0.0
 70
   129
210
0.0000000000000002
220
-0.0000000000000001
230
-1.0
  0
VERTEX
  8
0
  5
E5729
 10
-135.979711
 20
263.686686
 30
0.0
  0
VERTEX
  8
0
  5
E572A
 10
-135.980861
 20
263.702782
 30
0.0
  0
VERTEX
  8
0
  5
E572B
 10
-135.984271
 20
263.719879
 30
0.0
  0
VERTEX
  8
0
  5
E572C
 10
-135.989817
 20
263.73736
 30
0.0
  0
VERTEX
  8
0
  5
E572D
 10
-135.997299
 20
263.754593
 30
0.0
  0
VERTEX
  8
0
  5
E572E
 10
-136.006446
 20
263.770954
 30
0.0
  0
VERTEX
  8
0
  5
E572F
 10
-136.016927
 20
263.785853
 30
0.0
  0
VERTEX
  8
0
  5
E5730
 10
-136.028365
 20
263.798751
 30
0.0
  0
VERTEX
  8
0
  5
E5731
 10
-136.040345
 20
263.809182
 30
0.0
  0
VERTEX
  8
0
  5
E5732
 10
-136.052434
 20
263.816769
 30
0.0
  0
VERTEX
  8
0
  5
E5733
 10
-136.064196
 20
263.821238
 30
0.0
  0
VERTEX
  8
0
  5
E5734
 10
-136.075206
 20
263.822426
 30
0.0
  0
VERTEX
  8
0
  5
E5735
 10
-136.085065
 20
263.820292
 30
0.0
  0
VERTEX
  8
0
  5
E5736
 10
-136.093417
 20
263.814912
 30
0.0
  0
VERTEX
  8
0
  5
E5737
 10
-136.09996
 20
263.806481
 30
0.0
  0
VERTEX
  8
0
  5
E5738
 10
-136.104459
 20
263.795303
 30
0.0
  0
VERTEX
  8
0
  5
E5739
 10
-136.106749
 20
263.781783
 30
0.0
  0
VERTEX
  8
0
  5
E573A
 10
-136.106749
 20
263.766409
 30
0.0
  0
VERTEX
  8
0
  5
E573B
 10
-136.104459
 20
263.749737
 30
0.0
  0
VERTEX
  8
0
  5
E573C
 10
-136.09996
 20
263.732369
 30
0.0
  0
VERTEX
  8
0
  5
E573D
 10
-136.093417
 20
263.714933
 30
0.0
  0
VERTEX
  8
0
  5
E573E
 10
-136.085065
 20
263.69806
 30
0.0
  0
VERTEX
  8
0
  5
E573F
 10
-136.075206
 20
263.682359
 30
0.0
  0
VERTEX
  8
0
  5
E5740
 10
-136.064196
 20
263.668397
 30
0.0
  0
VERTEX
  8
0
  5
E5741
 10
-136.052434
 20
263.656679
 30
0.0
  0
VERTEX
  8
0
  5
E5742
 10
-136.040345
 20
263.647629
 30
0.0
  0
VERTEX
  8
0
  5
E5743
 10
-136.028365
 20
263.641574
 30
0.0
  0
VERTEX
  8
0
  5
E5744
 10
-136.016927
 20
263.638733
 30
0.0
  0
VERTEX
  8
0
  5
E5745
 10
-136.006446
 20
263.639208
 30
0.0
  0
VERTEX
  8
0
  5
E5746
 10
-135.997299
 20
263.642982
 30
0.0
  0
VERTEX
  8
0
  5
E5747
 10
-135.989817
 20
263.649919
 30
0.0
  0
VERTEX
  8
0
  5
E5748
 10
-135.984271
 20
263.659768
 30
0.0
  0
VERTEX
  8
0
  5
E5749
 10
-135.980861
 20
263.672173
 30
0.0
  0
SEQEND
  8
0
  5
E574A
  0
POLYLINE
  8
0
  5
E574B
 66
     1
 10
0.0
 20
0.0
 30
0.0
 70
   129
210
0.0000000000000002
220
-0.0000000000000001
230
-1.0
  0
VERTEX
  8
0
  5
E574C
 10
-134.006144
 20
262.328755
 30
0.0
  0
VERTEX
  8
0
  5
E574D
 10
-134.007294
 20
262.344851
 30
0.0
  0
VERTEX
  8
0
  5
E574E
 10
-134.010704
 20
262.361948
 30
0.0
  0
VERTEX
  8
0
  5
E574F
 10
-134.01625
 20
262.379429
 30
0.0
  0
VERTEX
  8
0
  5
E5750
 10
-134.023732
 20
262.396662
 30
0.0
  0
VERTEX
  8
0
  5
E5751
 10
-134.032879
 20
262.413024
 30
0.0
  0
VERTEX
  8
0
  5
E5752
 10
-134.043361
 20
262.427923
 30
0.0
  0
VERTEX
  8
0
  5
E5753
 10
-134.054798
 20
262.440821
 30
0.0
  0
VERTEX
  8
0
  5
E5754
 10
-134.066778
 20
262.451251
 30
0.0
  0
VERTEX
  8
0
  5
E5755
 10
-134.078868
 20
262.458838
 30
0.0
  0
VERTEX
  8
0
  5
E5756
 10
-134.09063
 20
262.463307
 30
0.0
  0
VERTEX
  8
0
  5
E5757
 10
-134.101639
 20
262.464495
 30
0.0
  0
VERTEX
  8
0
  5
E5758
 10
-134.111498
 20
262.462361
 30
0.0
  0
VERTEX
  8
0
  5
E5759
 10
-134.11985
 20
262.456981
 30
0.0
  0
VERTEX
  8
0
  5
E575A
 10
-134.126394
 20
262.44855
 30
0.0
  0
VERTEX
  8
0
  5
E575B
 10
-134.130892
 20
262.437372
 30
0.0
  0
VERTEX
  8
0
  5
E575C
 10
-134.133183
 20
262.423852
 30
0.0
  0
VERTEX
  8
0
  5
E575D
 10
-134.133183
 20
262.408478
 30
0.0
  0
VERTEX
  8
0
  5
E575E
 10
-134.130892
 20
262.391806
 30
0.0
  0
VERTEX
  8
0
  5
E575F
 10
-134.126394
 20
262.374438
 30
0.0
  0
VERTEX
  8
0
  5
E5760
 10
-134.11985
 20
262.357002
 30
0.0
  0
VERTEX
  8
0
  5
E5761
 10
-134.111498
 20
262.340129
 30
0.0
  0
VERTEX
  8
0
  5
E5762
 10
-134.101639
 20
262.324428
 30
0.0
  0
VERTEX
  8
0
  5
E5763
 10
-134.09063
 20
262.310466
 30
0.0
  0
VERTEX
  8
0
  5
E5764
 10
-134.078868
 20
262.298748
 30
0.0
  0
VERTEX
  8
0
  5
E5765
 10
-134.066778
 20
262.289699
 30
0.0
  0
VERTEX
  8
0
  5
E5766
 10
-134.054798
 20
262.283644
 30
0.0
  0
VERTEX
  8
0
  5
E5767
 10
-134.043361
 20
262.280802
 30
0.0
  0
VERTEX
  8
0
  5
E5768
 10
-134.032879
 20
262.281277
 30
0.0
  0
VERTEX
  8
0
  5
E5769
 10
-134.023732
 20
262.285051
 30
0.0
  0
VERTEX
  8
0
  5
E576A
 10
-134.01625
 20
262.291988
 30
0.0
  0
VERTEX
  8
0
  5
E576B
 10
-134.010704
 20
262.301837
 30
0.0
  0
VERTEX
  8
0
  5
E576C
 10
-134.007294
 20
262.314242
 30
0.0
  0
SEQEND
  8
0
  5
E576D
  0
LINE
  8
0
  5
E576E
 10
136.054944
 20
261.924752
 30
0.0
 11
136.07086
 21
261.935704
 31
0.0
  0
LINE
  8
0
  5
E576F
 10
135.375397
 20
262.253962
 30
0.0
 11
135.391313
 21
262.264913
 31
0.0
  0
LINE
  8
0
  5
E5770
 10
134.803612
 20
262.505983
 30
0.0
 11
134.819528
 21
262.516934
 31
0.0
  0
LINE
  8
0
  5
E5771
 10
136.136763
 20
261.606032
 30
0.0
 11
136.199401
 21
261.575687
 31
0.0
  0
LINE
  8
0
  5
E5772
 10
136.199401
 20
261.575687
 30
0.0
 11
136.152217
 21
261.540443
 31
0.0
  0
LINE
  8
0
  5
E5773
 10
136.07086
 20
261.885738
 30
0.0
 11
135.541366
 21
262.142253
 31
0.0
  0
POLYLINE
  8
0
  5
E5774
 66
     1
 10
0.0
 20
0.0
 30
0.0
 70
   128
210
0.0000000000000001
220
0.0
230
-1.0
  0
VERTEX
  8
0
  5
E5775
 10
-135.513601
 20
262.102392
 30
0.0
  0
VERTEX
  8
0
  5
E5776
 10
-135.501385
 20
262.099798
 30
0.0
  0
VERTEX
  8
0
  5
E5777
 10
-135.487862
 20
262.100498
 30
0.0
  0
VERTEX
  8
0
  5
E5778
 10
-135.473536
 20
262.104468
 30
0.0
  0
VERTEX
  8
0
  5
E5779
 10
-135.458942
 20
262.111559
 30
0.0
  0
VERTEX
  8
0
  5
E577A
 10
-135.444623
 20
262.121507
 30
0.0
  0
VERTEX
  8
0
  5
E577B
 10
-135.431115
 20
262.13394
 30
0.0
  0
VERTEX
  8
0
  5
E577C
 10
-135.418921
 20
262.148395
 30
0.0
  0
VERTEX
  8
0
  5
E577D
 10
-135.408496
 20
262.164331
 30
0.0
  0
VERTEX
  8
0
  5
E577E
 10
-135.400229
 20
262.181156
 30
0.0
  0
VERTEX
  8
0
  5
E577F
 10
-135.394429
 20
262.19824
 30
0.0
  0
VERTEX
  8
0
  5
E5780
 10
-135.391312
 20
262.214947
 30
0.0
  0
SEQEND
  8
0
  5
E5781
  0
LINE
  8
0
  5
E5782
 10
135.391312
 20
262.214947
 30
0.0
 11
135.26078
 21
262.278184
 31
0.0
  0
POLYLINE
  8
0
  5
E5783
 66
     1
 10
0.0
 20
0.0
 30
0.0
 70
   128
210
0.0
220
0.0000000000000001
230
-1.0
  0
VERTEX
  8
0
  5
E5784
 10
-135.222809
 20
262.217823
 30
0.0
  0
VERTEX
  8
0
  5
E5785
 10
-135.204947
 20
262.212429
 30
0.0
  0
VERTEX
  8
0
  5
E5786
 10
-135.184907
 20
262.211959
 30
0.0
  0
VERTEX
  8
0
  5
E5787
 10
-135.163419
 20
262.216431
 30
0.0
  0
SEQEND
  8
0
  5
E5788
  0
LINE
  8
0
  5
E5789
 10
135.163419
 20
262.216431
 30
0.0
 11
134.93522
 21
262.326984
 31
0.0
  0
POLYLINE
  8
0
  5
E578A
 66
     1
 10
0.0
 20
0.0
 30
0.0
 70
   128
210
-0.0000000000000001
220
0.0
230
-1.0
  0
VERTEX
  8
0
  5
E578B
 10
-134.93522
 20
262.326984
 30
0.0
  0
VERTEX
  8
0
  5
E578C
 10
-134.914017
 20
262.339337
 30
0.0
  0
VERTEX
  8
0
  5
E578D
 10
-134.893528
 20
262.355437
 30
0.0
  0
VERTEX
  8
0
  5
E578E
 10
-134.874441
 20
262.374742
 30
0.0
  0
VERTEX
  8
0
  5
E578F
 10
-134.857399
 20
262.396604
 30
0.0
  0
VERTEX
  8
0
  5
E5790
 10
-134.842976
 20
262.420285
 30
0.0
  0
VERTEX
  8
0
  5
E5791
 10
-134.831655
 20
262.444991
 30
0.0
  0
VERTEX
  8
0
  5
E5792
 10
-134.823819
 20
262.469889
 30
0.0
  0
VERTEX
  8
0
  5
E5793
 10
-134.819731
 20
262.494142
 30
0.0
  0
VERTEX
  8
0
  5
E5794
 10
-134.819528
 20
262.516934
 30
0.0
  0
SEQEND
  8
0
  5
E5795
  0
POLYLINE
  8
0
  5
E5796
 66
     1
 10
0.0
 20
0.0
 30
0.0
 70
   128
210
-0.0000000000000001
220
0.0
230
-1.0
  0
VERTEX
  8
0
  5
E5797
 10
-134.819528
 20
262.516934
 30
0.0
  0
VERTEX
  8
0
  5
E5798
 10
-134.819683
 20
262.539038
 30
0.0
  0
VERTEX
  8
0
  5
E5799
 10
-134.82355
 20
262.558958
 30
0.0
  0
VERTEX
  8
0
  5
E579A
 10
-134.831006
 20
262.576053
 30
0.0
  0
VERTEX
  8
0
  5
E579B
 10
-134.841811
 20
262.589774
 30
0.0
  0
SEQEND
  8
0
  5
E579C
  0
POLYLINE
  8
0
  5
E579D
 66
     1
 10
0.0
 20
0.0
 30
0.0
 70
   128
210
0.0000000000000001
220
-0.0000000000000002
230
-1.0
  0
VERTEX
  8
0
  5
E579E
 10
-135.391313
 20
262.264913
 30
0.0
  0
VERTEX
  8
0
  5
E579F
 10
-135.393571
 20
262.275973
 30
0.0
  0
VERTEX
  8
0
  5
E57A0
 10
-135.397552
 20
262.285686
 30
0.0
  0
VERTEX
  8
0
  5
E57A1
 10
-135.403162
 20
262.293821
 30
0.0
  0
SEQEND
  8
0
  5
E57A2
  0
LINE
  8
0
  5
E57A3
 10
136.07086
 20
261.935704
 30
0.0
 11
136.148988
 21
262.187957
 31
0.0
  0
LINE
  8
0
  5
E57A4
 10
136.152217
 20
261.540443
 30
0.0
 11
136.07086
 21
261.885738
 31
0.0
  0
LINE
  8
0
  5
E57A5
 10
136.138869
 20
263.605263
 30
0.0
 11
136.202533
 21
263.649067
 31
0.0
  0
LINE
  8
0
  5
E57A6
 10
136.202533
 20
263.649067
 30
0.0
 11
136.197539
 21
263.632945
 31
0.0
  0
LINE
  8
0
  5
E57A7
 10
136.054944
 20
263.334292
 30
0.0
 11
136.07086
 21
263.345243
 31
0.0
  0
LINE
  8
0
  5
E57A8
 10
136.150362
 20
263.601934
 30
0.0
 11
136.197539
 21
263.632945
 31
0.0
  0
LINE
  8
0
  5
E57A9
 10
136.13741
 20
263.012823
 30
0.0
 11
136.202533
 21
262.981274
 31
0.0
  0
LINE
  8
0
  5
E57AA
 10
136.202533
 20
262.981274
 30
0.0
 11
136.154785
 21
262.946303
 31
0.0
  0
LINE
  8
0
  5
E57AB
 10
136.154785
 20
262.95744
 30
0.0
 11
136.149902
 21
262.959805
 31
0.0
  0
LINE
  8
0
  5
E57AC
 10
136.149902
 20
262.959805
 30
0.0
 11
136.07086
 21
263.295277
 31
0.0
  0
LINE
  8
0
  5
E57AD
 10
136.07086
 20
263.295277
 30
0.0
 11
135.580096
 21
263.533029
 31
0.0
  0
LINE
  8
0
  5
E57AE
 10
136.07086
 20
263.345243
 30
0.0
 11
136.150362
 21
263.601934
 31
0.0
  0
LINE
  8
0
  5
E57AF
 10
136.154785
 20
262.946303
 30
0.0
 11
136.154785
 21
262.95744
 31
0.0
  0
LINE
  8
0
  5
E57B0
 10
133.910649
 20
261.309538
 30
0.0
 11
133.974312
 21
261.353342
 31
0.0
  0
LINE
  8
0
  5
E57B1
 10
133.910649
 20
261.309538
 30
0.0
 11
133.910649
 21
261.372718
 31
0.0
  0
LINE
  8
0
  5
E57B2
 10
133.958396
 20
261.446194
 30
0.0
 11
133.974312
 21
261.457145
 31
0.0
  0
LINE
  8
0
  5
E57B3
 10
133.953513
 20
261.44856
 30
0.0
 11
133.969429
 21
261.459511
 31
0.0
  0
LINE
  8
0
  5
E57B4
 10
133.874471
 20
261.784031
 30
0.0
 11
133.890387
 21
261.794982
 31
0.0
  0
LINE
  8
0
  5
E57B5
 10
133.344977
 20
262.040546
 30
0.0
 11
133.360893
 21
262.051498
 31
0.0
  0
LINE
  8
0
  5
E57B6
 10
133.194924
 20
262.113241
 30
0.0
 11
133.21084
 21
262.124192
 31
0.0
  0
LINE
  8
0
  5
E57B7
 10
133.064391
 20
262.176478
 30
0.0
 11
133.080307
 21
262.187429
 31
0.0
  0
LINE
  8
0
  5
E57B8
 10
132.96703
 20
262.114725
 30
0.0
 11
132.982946
 21
262.125676
 31
0.0
  0
LINE
  8
0
  5
E57B9
 10
132.738831
 20
262.225277
 30
0.0
 11
132.754747
 21
262.236228
 31
0.0
  0
LINE
  8
0
  5
E57BA
 10
132.623558
 20
262.419458
 30
0.0
 11
132.639474
 21
262.430409
 31
0.0
  0
LINE
  8
0
  5
E57BB
 10
133.910649
 20
261.372718
 30
0.0
 11
132.686586
 21
261.96572
 31
0.0
  0
LINE
  8
0
  5
E57BC
 10
133.958396
 20
261.403453
 30
0.0
 11
133.910649
 21
261.372718
 31
0.0
  0
LINE
  8
0
  5
E57BD
 10
132.686586
 20
261.96572
 30
0.0
 11
132.734334
 21
261.996456
 31
0.0
  0
POLYLINE
  8
0
  5
E57BE
 66
     1
 10
0.0
 20
0.0
 30
0.0
 70
   128
210
-0.0000000000000001
220
0.0
230
-1.0
  0
VERTEX
  8
0
  5
E57BF
 10
-132.686586
 20
261.96572
 30
0.0
  0
VERTEX
  8
0
  5
E57C0
 10
-132.630622
 20
261.99836
 30
0.0
  0
VERTEX
  8
0
  5
E57C1
 10
-132.576564
 20
262.040942
 30
0.0
  0
VERTEX
  8
0
  5
E57C2
 10
-132.526252
 20
262.092018
 30
0.0
  0
VERTEX
  8
0
  5
E57C3
 10
-132.4814
 20
262.149848
 30
0.0
  0
VERTEX
  8
0
  5
E57C4
 10
-132.443536
 20
262.212462
 30
0.0
  0
VERTEX
  8
0
  5
E57C5
 10
-132.413949
 20
262.277729
 30
0.0
  0
VERTEX
  8
0
  5
E57C6
 10
-132.393645
 20
262.343425
 30
0.0
  0
VERTEX
  8
0
  5
E57C7
 10
-132.383318
 20
262.407313
 30
0.0
  0
VERTEX
  8
0
  5
E57C8
 10
-132.383318
 20
262.467219
 30
0.0
  0
VERTEX
  8
0
  5
E57C9
 10
-132.393645
 20
262.521101
 30
0.0
  0
VERTEX
  8
0
  5
E57CA
 10
-132.413949
 20
262.567125
 30
0.0
  0
VERTEX
  8
0
  5
E57CB
 10
-132.443536
 20
262.603724
 30
0.0
  0
VERTEX
  8
0
  5
E57CC
 10
-132.4814
 20
262.629651
 30
0.0
  0
VERTEX
  8
0
  5
E57CD
 10
-132.526252
 20
262.644024
 30
0.0
  0
VERTEX
  8
0
  5
E57CE
 10
-132.576564
 20
262.646352
 30
0.0
  0
VERTEX
  8
0
  5
E57CF
 10
-132.630622
 20
262.636557
 30
0.0
  0
VERTEX
  8
0
  5
E57D0
 10
-132.686586
 20
262.614973
 30
0.0
  0
SEQEND
  8
0
  5
E57D1
  0
LINE
  8
0
  5
E57D2
 10
132.686586
 20
262.614973
 30
0.0
 11
133.897144
 21
262.028512
 31
0.0
  0
LINE
  8
0
  5
E57D3
 10
133.897144
 20
262.028512
 30
0.0
 11
133.945462
 21
262.063207
 31
0.0
  0
LINE
  8
0
  5
E57D4
 10
133.874471
 20
261.833997
 30
0.0
 11
133.344977
 21
262.090512
 31
0.0
  0
POLYLINE
  8
0
  5
E57D5
 66
     1
 10
0.0
 20
0.0
 30
0.0
 70
   128
  0
VERTEX
  8
0
  5
E57D6
 10
133.344977
 20
262.090512
 30
0.0
  0
VERTEX
  8
0
  5
E57D7
 10
133.341856
 20
262.107235
 30
0.0
  0
VERTEX
  8
0
  5
E57D8
 10
133.336047
 20
262.124335
 30
0.0
  0
VERTEX
  8
0
  5
E57D9
 10
133.327767
 20
262.141173
 30
0.0
  0
VERTEX
  8
0
  5
E57DA
 10
133.317326
 20
262.15712
 30
0.0
  0
VERTEX
  8
0
  5
E57DB
 10
133.305115
 20
262.17158
 30
0.0
  0
VERTEX
  8
0
  5
E57DC
 10
133.291589
 20
262.184013
 30
0.0
  0
VERTEX
  8
0
  5
E57DD
 10
133.277254
 20
262.193953
 30
0.0
  0
VERTEX
  8
0
  5
E57DE
 10
133.262647
 20
262.20103
 30
0.0
  0
VERTEX
  8
0
  5
E57DF
 10
133.248312
 20
262.204979
 30
0.0
  0
VERTEX
  8
0
  5
E57E0
 10
133.234786
 20
262.205651
 30
0.0
  0
VERTEX
  8
0
  5
E57E1
 10
133.222575
 20
262.203023
 30
0.0
  0
VERTEX
  8
0
  5
E57E2
 10
133.212134
 20
262.197192
 30
0.0
  0
VERTEX
  8
0
  5
E57E3
 10
133.203854
 20
262.188376
 30
0.0
  0
VERTEX
  8
0
  5
E57E4
 10
133.198045
 20
262.176904
 30
0.0
  0
VERTEX
  8
0
  5
E57E5
 10
133.194924
 20
262.163207
 30
0.0
  0
SEQEND
  8
0
  5
E57E6
  0
LINE
  8
0
  5
E57E7
 10
133.194924
 20
262.163207
 30
0.0
 11
133.06645
 21
262.225446
 31
0.0
  0
POLYLINE
  8
0
  5
E57E8
 66
     1
 10
0.0
 20
0.0
 30
0.0
 70
   128
  0
VERTEX
  8
0
  5
E57E9
 10
133.06645
 20
262.225446
 30
0.0
  0
VERTEX
  8
0
  5
E57EA
 10
133.062833
 20
262.25097
 30
0.0
  0
VERTEX
  8
0
  5
E57EB
 10
133.054976
 20
262.277356
 30
0.0
  0
VERTEX
  8
0
  5
E57EC
 10
133.043174
 20
262.303609
 30
0.0
  0
VERTEX
  8
0
  5
E57ED
 10
133.027872
 20
262.328741
 30
0.0
  0
VERTEX
  8
0
  5
E57EE
 10
133.009647
 20
262.351804
 30
0.0
  0
VERTEX
  8
0
  5
E57EF
 10
132.989185
 20
262.371929
 30
0.0
  0
VERTEX
  8
0
  5
E57F0
 10
132.967257
 20
262.388358
 30
0.0
  0
SEQEND
  8
0
  5
E57F1
  0
LINE
  8
0
  5
E57F2
 10
132.967257
 20
262.388358
 30
0.0
 11
132.739124
 21
262.498878
 31
0.0
  0
POLYLINE
  8
0
  5
E57F3
 66
     1
 10
0.0
 20
0.0
 30
0.0
 70
   128
  0
VERTEX
  8
0
  5
E57F4
 10
132.739124
 20
262.498878
 30
0.0
  0
VERTEX
  8
0
  5
E57F5
 10
132.717767
 20
262.507113
 30
0.0
  0
VERTEX
  8
0
  5
E57F6
 10
132.697139
 20
262.510842
 30
0.0
  0
VERTEX
  8
0
  5
E57F7
 10
132.677944
 20
262.509939
 30
0.0
  0
VERTEX
  8
0
  5
E57F8
 10
132.660838
 20
262.504433
 30
0.0
  0
VERTEX
  8
0
  5
E57F9
 10
132.646405
 20
262.494515
 30
0.0
  0
VERTEX
  8
0
  5
E57FA
 10
132.635137
 20
262.48052
 30
0.0
  0
VERTEX
  8
0
  5
E57FB
 10
132.627419
 20
262.462929
 30
0.0
  0
VERTEX
  8
0
  5
E57FC
 10
132.623515
 20
262.442341
 30
0.0
  0
VERTEX
  8
0
  5
E57FD
 10
132.623558
 20
262.419458
 30
0.0
  0
SEQEND
  8
0
  5
E57FE
  0
POLYLINE
  8
0
  5
E57FF
 66
     1
 10
0.0
 20
0.0
 30
0.0
 70
   128
  0
VERTEX
  8
0
  5
E5800
 10
132.623558
 20
262.419458
 30
0.0
  0
VERTEX
  8
0
  5
E5801
 10
132.623025
 20
262.396536
 30
0.0
  0
VERTEX
  8
0
  5
E5802
 10
132.62656
 20
262.371944
 30
0.0
  0
VERTEX
  8
0
  5
E5803
 10
132.634037
 20
262.346546
 30
0.0
  0
VERTEX
  8
0
  5
E5804
 10
132.645195
 20
262.321235
 30
0.0
  0
VERTEX
  8
0
  5
E5805
 10
132.659642
 20
262.2969
 30
0.0
  0
VERTEX
  8
0
  5
E5806
 10
132.676869
 20
262.274394
 30
0.0
  0
VERTEX
  8
0
  5
E5807
 10
132.696273
 20
262.254509
 30
0.0
  0
VERTEX
  8
0
  5
E5808
 10
132.717172
 20
262.237943
 30
0.0
  0
VERTEX
  8
0
  5
E5809
 10
132.738831
 20
262.225277
 30
0.0
  0
SEQEND
  8
0
  5
E580A
  0
LINE
  8
0
  5
E580B
 10
132.738831
 20
262.225277
 30
0.0
 11
132.96703
 21
262.114725
 31
0.0
  0
POLYLINE
  8
0
  5
E580C
 66
     1
 10
0.0
 20
0.0
 30
0.0
 70
   128
  0
VERTEX
  8
0
  5
E580D
 10
132.96703
 20
262.114725
 30
0.0
  0
VERTEX
  8
0
  5
E580E
 10
132.987984
 20
262.110306
 30
0.0
  0
VERTEX
  8
0
  5
E580F
 10
133.00758
 20
262.110578
 30
0.0
  0
VERTEX
  8
0
  5
E5810
 10
133.025142
 20
262.115532
 30
0.0
  0
VERTEX
  8
0
  5
E5811
 10
133.040064
 20
262.124996
 30
0.0
  0
VERTEX
  8
0
  5
E5812
 10
133.05183
 20
262.138644
 30
0.0
  0
VERTEX
  8
0
  5
E5813
 10
133.060033
 20
262.156005
 30
0.0
  0
VERTEX
  8
0
  5
E5814
 10
133.064391
 20
262.176478
 30
0.0
  0
SEQEND
  8
0
  5
E5815
  0
LINE
  8
0
  5
E5816
 10
133.064391
 20
262.176478
 30
0.0
 11
133.194924
 21
262.113241
 31
0.0
  0
POLYLINE
  8
0
  5
E5817
 66
     1
 10
0.0
 20
0.0
 30
0.0
 70
   128
  0
VERTEX
  8
0
  5
E5818
 10
133.194924
 20
262.113241
 30
0.0
  0
VERTEX
  8
0
  5
E5819
 10
133.198045
 20
262.096518
 30
0.0
  0
VERTEX
  8
0
  5
E581A
 10
133.203854
 20
262.079419
 30
0.0
  0
VERTEX
  8
0
  5
E581B
 10
133.212134
 20
262.06258
 30
0.0
  0
VERTEX
  8
0
  5
E581C
 10
133.222575
 20
262.046633
 30
0.0
  0
VERTEX
  8
0
  5
E581D
 10
133.234786
 20
262.032173
 30
0.0
  0
VERTEX
  8
0
  5
E581E
 10
133.248312
 20
262.01974
 30
0.0
  0
VERTEX
  8
0
  5
E581F
 10
133.262647
 20
262.0098
 30
0.0
  0
VERTEX
  8
0
  5
E5820
 10
133.277254
 20
262.002723
 30
0.0
  0
VERTEX
  8
0
  5
E5821
 10
133.291589
 20
261.998775
 30
0.0
  0
VERTEX
  8
0
  5
E5822
 10
133.305115
 20
261.998102
 30
0.0
  0
VERTEX
  8
0
  5
E5823
 10
133.317326
 20
262.00073
 30
0.0
  0
VERTEX
  8
0
  5
E5824
 10
133.327767
 20
262.006562
 30
0.0
  0
VERTEX
  8
0
  5
E5825
 10
133.336047
 20
262.015378
 30
0.0
  0
VERTEX
  8
0
  5
E5826
 10
133.341856
 20
262.026849
 30
0.0
  0
VERTEX
  8
0
  5
E5827
 10
133.344977
 20
262.040546
 30
0.0
  0
SEQEND
  8
0
  5
E5828
  0
LINE
  8
0
  5
E5829
 10
133.344977
 20
262.040546
 30
0.0
 11
133.874471
 21
261.784031
 31
0.0
  0
LINE
  8
0
  5
E582A
 10
133.874471
 20
261.784031
 30
0.0
 11
133.953513
 21
261.44856
 31
0.0
  0
LINE
  8
0
  5
E582B
 10
133.953513
 20
261.44856
 30
0.0
 11
133.958396
 21
261.446194
 31
0.0
  0
LINE
  8
0
  5
E582C
 10
133.958396
 20
261.446194
 30
0.0
 11
133.958396
 21
261.403453
 31
0.0
  0
LINE
  8
0
  5
E582D
 10
132.734334
 20
261.996456
 30
0.0
 11
133.958396
 21
261.403453
 31
0.0
  0
POLYLINE
  8
0
  5
E582E
 66
     1
 10
0.0
 20
0.0
 30
0.0
 70
   128
  0
VERTEX
  8
0
  5
E582F
 10
132.480222
 20
262.629071
 30
0.0
  0
VERTEX
  8
0
  5
E5830
 10
132.453584
 20
262.590424
 30
0.0
  0
VERTEX
  8
0
  5
E5831
 10
132.436054
 20
262.543107
 30
0.0
  0
VERTEX
  8
0
  5
E5832
 10
132.428202
 20
262.488655
 30
0.0
  0
VERTEX
  8
0
  5
E5833
 10
132.430282
 20
262.428835
 30
0.0
  0
VERTEX
  8
0
  5
E5834
 10
132.442226
 20
262.365588
 30
0.0
  0
VERTEX
  8
0
  5
E5835
 10
132.463648
 20
262.300965
 30
0.0
  0
VERTEX
  8
0
  5
E5836
 10
132.493852
 20
262.237065
 30
0.0
  0
VERTEX
  8
0
  5
E5837
 10
132.531858
 20
262.175958
 30
0.0
  0
VERTEX
  8
0
  5
E5838
 10
132.576434
 20
262.119629
 30
0.0
  0
VERTEX
  8
0
  5
E5839
 10
132.626132
 20
262.069904
 30
0.0
  0
VERTEX
  8
0
  5
E583A
 10
132.679341
 20
262.028398
 30
0.0
  0
VERTEX
  8
0
  5
E583B
 10
132.734334
 20
261.996456
 30
0.0
  0
SEQEND
  8
0
  5
E583C
  0
LINE
  8
0
  5
E583D
 10
133.945462
 20
262.063207
 30
0.0
 11
133.874471
 21
261.833997
 31
0.0
  0
POLYLINE
  8
0
  5
E583E
 66
     1
 10
0.0
 20
0.0
 30
0.0
 70
   129
210
0.0000000000000001
220
0.0
230
-1.0
  0
VERTEX
  8
0
  5
E583F
 10
-135.979711
 20
261.179776
 30
0.0
  0
VERTEX
  8
0
  5
E5840
 10
-135.980861
 20
261.195872
 30
0.0
  0
VERTEX
  8
0
  5
E5841
 10
-135.984271
 20
261.21297
 30
0.0
  0
VERTEX
  8
0
  5
E5842
 10
-135.989817
 20
261.230451
 30
0.0
  0
VERTEX
  8
0
  5
E5843
 10
-135.997299
 20
261.247683
 30
0.0
  0
VERTEX
  8
0
  5
E5844
 10
-136.006446
 20
261.264045
 30
0.0
  0
VERTEX
  8
0
  5
E5845
 10
-136.016927
 20
261.278944
 30
0.0
  0
VERTEX
  8
0
  5
E5846
 10
-136.028365
 20
261.291842
 30
0.0
  0
VERTEX
  8
0
  5
E5847
 10
-136.040345
 20
261.302273
 30
0.0
  0
VERTEX
  8
0
  5
E5848
 10
-136.052434
 20
261.309859
 30
0.0
  0
VERTEX
  8
0
  5
E5849
 10
-136.064196
 20
261.314328
 30
0.0
  0
VERTEX
  8
0
  5
E584A
 10
-136.075206
 20
261.315516
 30
0.0
  0
VERTEX
  8
0
  5
E584B
 10
-136.085065
 20
261.313382
 30
0.0
  0
VERTEX
  8
0
  5
E584C
 10
-136.093417
 20
261.308002
 30
0.0
  0
VERTEX
  8
0
  5
E584D
 10
-136.09996
 20
261.299571
 30
0.0
  0
VERTEX
  8
0
  5
E584E
 10
-136.104459
 20
261.288393
 30
0.0
  0
VERTEX
  8
0
  5
E584F
 10
-136.106749
 20
261.274873
 30
0.0
  0
VERTEX
  8
0
  5
E5850
 10
-136.106749
 20
261.259499
 30
0.0
  0
VERTEX
  8
0
  5
E5851
 10
-136.104459
 20
261.242827
 30
0.0
  0
VERTEX
  8
0
  5
E5852
 10
-136.09996
 20
261.225459
 30
0.0
  0
VERTEX
  8
0
  5
E5853
 10
-136.093417
 20
261.208024
 30
0.0
  0
VERTEX
  8
0
  5
E5854
 10
-136.085065
 20
261.19115
 30
0.0
  0
VERTEX
  8
0
  5
E5855
 10
-136.075206
 20
261.175449
 30
0.0
  0
VERTEX
  8
0
  5
E5856
 10
-136.064196
 20
261.161487
 30
0.0
  0
VERTEX
  8
0
  5
E5857
 10
-136.052434
 20
261.149769
 30
0.0
  0
VERTEX
  8
0
  5
E5858
 10
-136.040345
 20
261.14072
 30
0.0
  0
VERTEX
  8
0
  5
E5859
 10
-136.028365
 20
261.134665
 30
0.0
  0
VERTEX
  8
0
  5
E585A
 10
-136.016927
 20
261.131823
 30
0.0
  0
VERTEX
  8
0
  5
E585B
 10
-136.006446
 20
261.132298
 30
0.0
  0
VERTEX
  8
0
  5
E585C
 10
-135.997299
 20
261.136072
 30
0.0
  0
VERTEX
  8
0
  5
E585D
 10
-135.989817
 20
261.143009
 30
0.0
  0
VERTEX
  8
0
  5
E585E
 10
-135.984271
 20
261.152858
 30
0.0
  0
VERTEX
  8
0
  5
E585F
 10
-135.980861
 20
261.165263
 30
0.0
  0
SEQEND
  8
0
  5
E5860
  0
POLYLINE
  8
0
  5
E5861
 66
     1
 10
0.0
 20
0.0
 30
0.0
 70
   129
210
0.0000000000000001
220
0.0
230
-1.0
  0
VERTEX
  8
0
  5
E5862
 10
-134.006144
 20
259.821845
 30
0.0
  0
VERTEX
  8
0
  5
E5863
 10
-134.007294
 20
259.837941
 30
0.0
  0
VERTEX
  8
0
  5
E5864
 10
-134.010704
 20
259.855039
 30
0.0
  0
VERTEX
  8
0
  5
E5865
 10
-134.01625
 20
259.87252
 30
0.0
  0
VERTEX
  8
0
  5
E5866
 10
-134.023732
 20
259.889752
 30
0.0
  0
VERTEX
  8
0
  5
E5867
 10
-134.032879
 20
259.906114
 30
0.0
  0
VERTEX
  8
0
  5
E5868
 10
-134.043361
 20
259.921013
 30
0.0
  0
VERTEX
  8
0
  5
E5869
 10
-134.054798
 20
259.933911
 30
0.0
  0
VERTEX
  8
0
  5
E586A
 10
-134.066778
 20
259.944342
 30
0.0
  0
VERTEX
  8
0
  5
E586B
 10
-134.078868
 20
259.951928
 30
0.0
  0
VERTEX
  8
0
  5
E586C
 10
-134.09063
 20
259.956397
 30
0.0
  0
VERTEX
  8
0
  5
E586D
 10
-134.101639
 20
259.957585
 30
0.0
  0
VERTEX
  8
0
  5
E586E
 10
-134.111498
 20
259.955451
 30
0.0
  0
VERTEX
  8
0
  5
E586F
 10
-134.11985
 20
259.950071
 30
0.0
  0
VERTEX
  8
0
  5
E5870
 10
-134.126394
 20
259.94164
 30
0.0
  0
VERTEX
  8
0
  5
E5871
 10
-134.130892
 20
259.930462
 30
0.0
  0
VERTEX
  8
0
  5
E5872
 10
-134.133183
 20
259.916942
 30
0.0
  0
VERTEX
  8
0
  5
E5873
 10
-134.133183
 20
259.901568
 30
0.0
  0
VERTEX
  8
0
  5
E5874
 10
-134.130892
 20
259.884896
 30
0.0
  0
VERTEX
  8
0
  5
E5875
 10
-134.126394
 20
259.867528
 30
0.0
  0
VERTEX
  8
0
  5
E5876
 10
-134.11985
 20
259.850093
 30
0.0
  0
VERTEX
  8
0
  5
E5877
 10
-134.111498
 20
259.833219
 30
0.0
  0
VERTEX
  8
0
  5
E5878
 10
-134.101639
 20
259.817518
 30
0.0
  0
VERTEX
  8
0
  5
E5879
 10
-134.09063
 20
259.803556
 30
0.0
  0
VERTEX
  8
0
  5
E587A
 10
-134.078868
 20
259.791839
 30
0.0
  0
VERTEX
  8
0
  5
E587B
 10
-134.066778
 20
259.782789
 30
0.0
  0
VERTEX
  8
0
  5
E587C
 10
-134.054798
 20
259.776734
 30
0.0
  0
VERTEX
  8
0
  5
E587D
 10
-134.043361
 20
259.773892
 30
0.0
  0
VERTEX
  8
0
  5
E587E
 10
-134.032879
 20
259.774367
 30
0.0
  0
VERTEX
  8
0
  5
E587F
 10
-134.023732
 20
259.778141
 30
0.0
  0
VERTEX
  8
0
  5
E5880
 10
-134.01625
 20
259.785078
 30
0.0
  0
VERTEX
  8
0
  5
E5881
 10
-134.010704
 20
259.794927
 30
0.0
  0
VERTEX
  8
0
  5
E5882
 10
-134.007294
 20
259.807332
 30
0.0
  0
SEQEND
  8
0
  5
E5883
  0
LINE
  8
0
  5
E5884
 10
135.894759
 20
261.000022
 30
0.0
 11
135.894759
 21
261.121324
 31
0.0
  0
POLYLINE
  8
0
  5
E5885
 66
     1
 10
0.0
 20
0.0
 30
0.0
 70
   128
210
0.0000000000000001
220
-0.0000000000000001
230
-1.0
  0
VERTEX
  8
0
  5
E5886
 10
-135.894759
 20
261.121324
 30
0.0
  0
VERTEX
  8
0
  5
E5887
 10
-135.897017
 20
261.155659
 30
0.0
  0
VERTEX
  8
0
  5
E5888
 10
-135.903722
 20
261.192057
 30
0.0
  0
VERTEX
  8
0
  5
E5889
 10
-135.91467
 20
261.229413
 30
0.0
  0
VERTEX
  8
0
  5
E588A
 10
-135.929528
 20
261.266591
 30
0.0
  0
VERTEX
  8
0
  5
E588B
 10
-135.947846
 20
261.302463
 30
0.0
  0
VERTEX
  8
0
  5
E588C
 10
-135.969067
 20
261.335938
 30
0.0
  0
VERTEX
  8
0
  5
E588D
 10
-135.992545
 20
261.365999
 30
0.0
  0
VERTEX
  8
0
  5
E588E
 10
-136.017567
 20
261.391733
 30
0.0
  0
VERTEX
  8
0
  5
E588F
 10
-136.043374
 20
261.412358
 30
0.0
  0
SEQEND
  8
0
  5
E5890
  0
LINE
  8
0
  5
E5891
 10
136.043374
 20
261.412358
 30
0.0
 11
136.138869
 21
261.478064
 31
0.0
  0
LINE
  8
0
  5
E5892
 10
136.138869
 20
261.518591
 30
0.0
 11
136.202533
 21
261.562395
 31
0.0
  0
LINE
  8
0
  5
E5893
 10
136.202533
 20
261.562395
 30
0.0
 11
136.202533
 21
261.333091
 31
0.0
  0
POLYLINE
  8
0
  5
E5894
 66
     1
 10
0.0
 20
0.0
 30
0.0
 70
   128
210
0.0
220
0.0
230
-1.0
  0
VERTEX
  8
0
  5
E5895
 10
-136.202533
 20
261.333091
 30
0.0
  0
VERTEX
  8
0
  5
E5896
 10
-136.200115
 20
261.296321
 30
0.0
  0
VERTEX
  8
0
  5
E5897
 10
-136.192934
 20
261.25734
 30
0.0
  0
VERTEX
  8
0
  5
E5898
 10
-136.18121
 20
261.217334
 30
0.0
  0
VERTEX
  8
0
  5
E5899
 10
-136.165297
 20
261.177518
 30
0.0
  0
VERTEX
  8
0
  5
E589A
 10
-136.145679
 20
261.139101
 30
0.0
  0
VERTEX
  8
0
  5
E589B
 10
-136.122953
 20
261.103251
 30
0.0
  0
VERTEX
  8
0
  5
E589C
 10
-136.09781
 20
261.071057
 30
0.0
  0
VERTEX
  8
0
  5
E589D
 10
-136.071012
 20
261.043498
 30
0.0
  0
VERTEX
  8
0
  5
E589E
 10
-136.043374
 20
261.02141
 30
0.0
  0
SEQEND
  8
0
  5
E589F
  0
LINE
  8
0
  5
E58A0
 10
136.043374
 20
261.02141
 30
0.0
 11
135.332616
 21
260.532367
 31
0.0
  0
LINE
  8
0
  5
E58A1
 10
134.87748
 20
260.219206
 30
0.0
 11
134.069807
 21
259.663479
 31
0.0
  0
POLYLINE
  8
0
  5
E58A2
 66
     1
 10
0.0
 20
0.0
 30
0.0
 70
   128
210
-0.0000000000000001
220
-0.0000000000000001
230
-1.0
  0
VERTEX
  8
0
  5
E58A3
 10
-134.069807
 20
259.663479
 30
0.0
  0
VERTEX
  8
0
  5
E58A4
 10
-134.04217
 20
259.647534
 30
0.0
  0
VERTEX
  8
0
  5
E58A5
 10
-134.015372
 20
259.638217
 30
0.0
  0
VERTEX
  8
0
  5
E58A6
 10
-133.990228
 20
259.63581
 30
0.0
  0
VERTEX
  8
0
  5
E58A7
 10
-133.967502
 20
259.640386
 30
0.0
  0
VERTEX
  8
0
  5
E58A8
 10
-133.947885
 20
259.651807
 30
0.0
  0
VERTEX
  8
0
  5
E58A9
 10
-133.931972
 20
259.669725
 30
0.0
  0
VERTEX
  8
0
  5
E58AA
 10
-133.920247
 20
259.693597
 30
0.0
  0
VERTEX
  8
0
  5
E58AB
 10
-133.913067
 20
259.722696
 30
0.0
  0
VERTEX
  8
0
  5
E58AC
 10
-133.910649
 20
259.756139
 30
0.0
  0
SEQEND
  8
0
  5
E58AD
  0
LINE
  8
0
  5
E58AE
 10
133.910649
 20
259.756139
 30
0.0
 11
133.910649
 21
259.965614
 31
0.0
  0
LINE
  8
0
  5
E58AF
 10
133.974312
 20
259.98872
 30
0.0
 11
134.069807
 21
260.054427
 31
0.0
  0
POLYLINE
  8
0
  5
E58B0
 66
     1
 10
0.0
 20
0.0
 30
0.0
 70
   128
210
0.0000000000000002
220
-0.0000000000000001
230
-1.0
  0
VERTEX
  8
0
  5
E58B1
 10
-134.069807
 20
260.054427
 30
0.0
  0
VERTEX
  8
0
  5
E58B2
 10
-134.095614
 20
260.069315
 30
0.0
  0
VERTEX
  8
0
  5
E58B3
 10
-134.120637
 20
260.078016
 30
0.0
  0
VERTEX
  8
0
  5
E58B4
 10
-134.144115
 20
260.080263
 30
0.0
  0
VERTEX
  8
0
  5
E58B5
 10
-134.165335
 20
260.07599
 30
0.0
  0
VERTEX
  8
0
  5
E58B6
 10
-134.183653
 20
260.065326
 30
0.0
  0
VERTEX
  8
0
  5
E58B7
 10
-134.198512
 20
260.048594
 30
0.0
  0
VERTEX
  8
0
  5
E58B8
 10
-134.20946
 20
260.026304
 30
0.0
  0
VERTEX
  8
0
  5
E58B9
 10
-134.216165
 20
259.999133
 30
0.0
  0
VERTEX
  8
0
  5
E58BA
 10
-134.218422
 20
259.967905
 30
0.0
  0
SEQEND
  8
0
  5
E58BB
  0
LINE
  8
0
  5
E58BC
 10
134.218422
 20
259.967905
 30
0.0
 11
134.218422
 21
259.846603
 31
0.0
  0
LINE
  8
0
  5
E58BD
 10
133.958396
 20
260.018296
 30
0.0
 11
133.974312
 21
260.029247
 31
0.0
  0
LINE
  8
0
  5
E58BE
 10
133.874471
 20
260.374492
 30
0.0
 11
133.890387
 21
260.385443
 31
0.0
  0
LINE
  8
0
  5
E58BF
 10
133.344977
 20
260.631007
 30
0.0
 11
133.360893
 21
260.641958
 31
0.0
  0
LINE
  8
0
  5
E58C0
 10
133.194923
 20
260.703702
 30
0.0
 11
133.210839
 21
260.714653
 31
0.0
  0
LINE
  8
0
  5
E58C1
 10
133.064391
 20
260.766938
 30
0.0
 11
133.080307
 21
260.77789
 31
0.0
  0
LINE
  8
0
  5
E58C2
 10
132.96703
 20
260.705186
 30
0.0
 11
132.982946
 21
260.716137
 31
0.0
  0
LINE
  8
0
  5
E58C3
 10
132.738831
 20
260.815738
 30
0.0
 11
132.754747
 21
260.826689
 31
0.0
  0
LINE
  8
0
  5
E58C4
 10
132.623139
 20
261.005688
 30
0.0
 11
132.639055
 21
261.016639
 31
0.0
  0
LINE
  8
0
  5
E58C5
 10
133.910649
 20
259.965614
 30
0.0
 11
132.686586
 21
260.558616
 31
0.0
  0
LINE
  8
0
  5
E58C6
 10
133.958396
 20
259.996349
 30
0.0
 11
133.910649
 21
259.965614
 31
0.0
  0
LINE
  8
0
  5
E58C7
 10
132.686586
 20
260.558616
 30
0.0
 11
132.734334
 21
260.589351
 31
0.0
  0
POLYLINE
  8
0
  5
E58C8
 66
     1
 10
0.0
 20
0.0
 30
0.0
 70
   128
210
-0.0000000000000001
220
0.0
230
-1.0
  0
VERTEX
  8
0
  5
E58C9
 10
-132.686586
 20
260.558616
 30
0.0
  0
VERTEX
  8
0
  5
E58CA
 10
-132.630622
 20
260.591256
 30
0.0
  0
VERTEX
  8
0
  5
E58CB
 10
-132.576564
 20
260.633838
 30
0.0
  0
VERTEX
  8
0
  5
E58CC
 10
-132.526252
 20
260.684914
 30
0.0
  0
VERTEX
  8
0
  5
E58CD
 10
-132.4814
 20
260.742744
 30
0.0
  0
VERTEX
  8
0
  5
E58CE
 10
-132.443536
 20
260.805358
 30
0.0
  0
VERTEX
  8
0
  5
E58CF
 10
-132.413949
 20
260.870624
 30
0.0
  0
VERTEX
  8
0
  5
E58D0
 10
-132.393645
 20
260.93632
 30
0.0
  0
VERTEX
  8
0
  5
E58D1
 10
-132.383318
 20
261.000209
 30
0.0
  0
VERTEX
  8
0
  5
E58D2
 10
-132.383318
 20
261.060114
 30
0.0
  0
VERTEX
  8
0
  5
E58D3
 10
-132.393645
 20
261.113997
 30
0.0
  0
VERTEX
  8
0
  5
E58D4
 10
-132.413949
 20
261.160021
 30
0.0
  0
VERTEX
  8
0
  5
E58D5
 10
-132.443536
 20
261.19662
 30
0.0
  0
VERTEX
  8
0
  5
E58D6
 10
-132.4814
 20
261.222547
 30
0.0
  0
VERTEX
  8
0
  5
E58D7
 10
-132.526252
 20
261.236919
 30
0.0
  0
VERTEX
  8
0
  5
E58D8
 10
-132.576564
 20
261.239248
 30
0.0
  0
VERTEX
  8
0
  5
E58D9
 10
-132.630622
 20
261.229453
 30
0.0
  0
VERTEX
  8
0
  5
E58DA
 10
-132.686586
 20
261.207868
 30
0.0
  0
SEQEND
  8
0
  5
E58DB
  0
LINE
  8
0
  5
E58DC
 10
132.686586
 20
261.207868
 30
0.0
 11
133.8978
 21
260.621091
 31
0.0
  0
LINE
  8
0
  5
E58DD
 10
133.8978
 20
260.621091
 30
0.0
 11
133.946118
 21
260.655785
 31
0.0
  0
LINE
  8
0
  5
E58DE
 10
133.874471
 20
260.424458
 30
0.0
 11
133.344977
 21
260.680973
 31
0.0
  0
POLYLINE
  8
0
  5
E58DF
 66
     1
 10
0.0
 20
0.0
 30
0.0
 70
   128
  0
VERTEX
  8
0
  5
E58E0
 10
133.344977
 20
260.680973
 30
0.0
  0
VERTEX
  8
0
  5
E58E1
 10
133.341856
 20
260.697695
 30
0.0
  0
VERTEX
  8
0
  5
E58E2
 10
133.336047
 20
260.714795
 30
0.0
  0
VERTEX
  8
0
  5
E58E3
 10
133.327767
 20
260.731633
 30
0.0
  0
VERTEX
  8
0
  5
E58E4
 10
133.317326
 20
260.747581
 30
0.0
  0
VERTEX
  8
0
  5
E58E5
 10
133.305115
 20
260.762041
 30
0.0
  0
VERTEX
  8
0
  5
E58E6
 10
133.291589
 20
260.774474
 30
0.0
  0
VERTEX
  8
0
  5
E58E7
 10
133.277254
 20
260.784414
 30
0.0
  0
VERTEX
  8
0
  5
E58E8
 10
133.262647
 20
260.791491
 30
0.0
  0
VERTEX
  8
0
  5
E58E9
 10
133.248312
 20
260.795439
 30
0.0
  0
VERTEX
  8
0
  5
E58EA
 10
133.234786
 20
260.796112
 30
0.0
  0
VERTEX
  8
0
  5
E58EB
 10
133.222575
 20
260.793483
 30
0.0
  0
VERTEX
  8
0
  5
E58EC
 10
133.212134
 20
260.787652
 30
0.0
  0
VERTEX
  8
0
  5
E58ED
 10
133.203854
 20
260.778836
 30
0.0
  0
VERTEX
  8
0
  5
E58EE
 10
133.198045
 20
260.767365
 30
0.0
  0
VERTEX
  8
0
  5
E58EF
 10
133.194924
 20
260.753667
 30
0.0
  0
SEQEND
  8
0
  5
E58F0
  0
LINE
  8
0
  5
E58F1
 10
133.194924
 20
260.753667
 30
0.0
 11
133.064391
 21
260.816904
 31
0.0
  0
POLYLINE
  8
0
  5
E58F2
 66
     1
 10
0.0
 20
0.0
 30
0.0
 70
   128
  0
VERTEX
  8
0
  5
E58F3
 10
133.064391
 20
260.816904
 30
0.0
  0
VERTEX
  8
0
  5
E58F4
 10
133.060033
 20
260.8416
 30
0.0
  0
VERTEX
  8
0
  5
E58F5
 10
133.05183
 20
260.866909
 30
0.0
  0
VERTEX
  8
0
  5
E58F6
 10
133.040064
 20
260.891957
 30
0.0
  0
VERTEX
  8
0
  5
E58F7
 10
133.025142
 20
260.915879
 30
0.0
  0
VERTEX
  8
0
  5
E58F8
 10
133.00758
 20
260.937849
 30
0.0
  0
VERTEX
  8
0
  5
E58F9
 10
132.987984
 20
260.957108
 30
0.0
  0
VERTEX
  8
0
  5
E58FA
 10
132.96703
 20
260.972991
 30
0.0
  0
SEQEND
  8
0
  5
E58FB
  0
LINE
  8
0
  5
E58FC
 10
132.96703
 20
260.972991
 30
0.0
 11
132.738831
 21
261.083543
 31
0.0
  0
POLYLINE
  8
0
  5
E58FD
 66
     1
 10
0.0
 20
0.0
 30
0.0
 70
   128
  0
VERTEX
  8
0
  5
E58FE
 10
132.738831
 20
261.083543
 30
0.0
  0
VERTEX
  8
0
  5
E58FF
 10
132.717628
 20
261.091734
 30
0.0
  0
VERTEX
  8
0
  5
E5900
 10
132.697139
 20
261.095486
 30
0.0
  0
VERTEX
  8
0
  5
E5901
 10
132.678052
 20
261.094674
 30
0.0
  0
VERTEX
  8
0
  5
E5902
 10
132.66101
 20
261.089324
 30
0.0
  0
VERTEX
  8
0
  5
E5903
 10
132.646587
 20
261.079618
 30
0.0
  0
VERTEX
  8
0
  5
E5904
 10
132.635266
 20
261.06588
 30
0.0
  0
VERTEX
  8
0
  5
E5905
 10
132.62743
 20
261.048575
 30
0.0
  0
VERTEX
  8
0
  5
E5906
 10
132.623342
 20
261.028283
 30
0.0
  0
VERTEX
  8
0
  5
E5907
 10
132.623139
 20
261.005688
 30
0.0
  0
SEQEND
  8
0
  5
E5908
  0
POLYLINE
  8
0
  5
E5909
 66
     1
 10
0.0
 20
0.0
 30
0.0
 70
   128
  0
VERTEX
  8
0
  5
E590A
 10
132.623139
 20
261.005688
 30
0.0
  0
VERTEX
  8
0
  5
E590B
 10
132.623342
 20
260.982896
 30
0.0
  0
VERTEX
  8
0
  5
E590C
 10
132.62743
 20
260.958643
 30
0.0
  0
VERTEX
  8
0
  5
E590D
 10
132.635266
 20
260.933745
 30
0.0
  0
VERTEX
  8
0
  5
E590E
 10
132.646587
 20
260.90904
 30
0.0
  0
VERTEX
  8
0
  5
E590F
 10
132.66101
 20
260.885358
 30
0.0
  0
VERTEX
  8
0
  5
E5910
 10
132.678052
 20
260.863496
 30
0.0
  0
VERTEX
  8
0
  5
E5911
 10
132.697139
 20
260.844191
 30
0.0
  0
VERTEX
  8
0
  5
E5912
 10
132.717628
 20
260.828091
 30
0.0
  0
VERTEX
  8
0
  5
E5913
 10
132.738831
 20
260.815738
 30
0.0
  0
SEQEND
  8
0
  5
E5914
  0
LINE
  8
0
  5
E5915
 10
132.738831
 20
260.815738
 30
0.0
 11
132.96703
 21
260.705186
 31
0.0
  0
POLYLINE
  8
0
  5
E5916
 66
     1
 10
0.0
 20
0.0
 30
0.0
 70
   128
  0
VERTEX
  8
0
  5
E5917
 10
132.96703
 20
260.705186
 30
0.0
  0
VERTEX
  8
0
  5
E5918
 10
132.987984
 20
260.700767
 30
0.0
  0
VERTEX
  8
0
  5
E5919
 10
133.00758
 20
260.701039
 30
0.0
  0
VERTEX
  8
0
  5
E591A
 10
133.025142
 20
260.705993
 30
0.0
  0
VERTEX
  8
0
  5
E591B
 10
133.040064
 20
260.715457
 30
0.0
  0
VERTEX
  8
0
  5
E591C
 10
133.05183
 20
260.729105
 30
0.0
  0
VERTEX
  8
0
  5
E591D
 10
133.060033
 20
260.746465
 30
0.0
  0
VERTEX
  8
0
  5
E591E
 10
133.064391
 20
260.766938
 30
0.0
  0
SEQEND
  8
0
  5
E591F
  0
LINE
  8
0
  5
E5920
 10
133.064391
 20
260.766938
 30
0.0
 11
133.194923
 21
260.703702
 31
0.0
  0
POLYLINE
  8
0
  5
E5921
 66
     1
 10
0.0
 20
0.0
 30
0.0
 70
   128
  0
VERTEX
  8
0
  5
E5922
 10
133.194923
 20
260.703702
 30
0.0
  0
VERTEX
  8
0
  5
E5923
 10
133.198044
 20
260.686979
 30
0.0
  0
VERTEX
  8
0
  5
E5924
 10
133.203854
 20
260.669879
 30
0.0
  0
VERTEX
  8
0
  5
E5925
 10
133.212133
 20
260.65304
 30
0.0
  0
VERTEX
  8
0
  5
E5926
 10
133.222574
 20
260.637093
 30
0.0
  0
VERTEX
  8
0
  5
E5927
 10
133.234785
 20
260.622632
 30
0.0
  0
VERTEX
  8
0
  5
E5928
 10
133.248312
 20
260.610199
 30
0.0
  0
VERTEX
  8
0
  5
E5929
 10
133.262646
 20
260.600259
 30
0.0
  0
VERTEX
  8
0
  5
E592A
 10
133.277254
 20
260.593182
 30
0.0
  0
VERTEX
  8
0
  5
E592B
 10
133.291589
 20
260.589233
 30
0.0
  0
VERTEX
  8
0
  5
E592C
 10
133.305115
 20
260.588561
 30
0.0
  0
VERTEX
  8
0
  5
E592D
 10
133.317327
 20
260.591189
 30
0.0
  0
VERTEX
  8
0
  5
E592E
 10
133.327767
 20
260.597021
 30
0.0
  0
VERTEX
  8
0
  5
E592F
 10
133.336047
 20
260.605837
 30
0.0
  0
VERTEX
  8
0
  5
E5930
 10
133.341856
 20
260.617309
 30
0.0
  0
VERTEX
  8
0
  5
E5931
 10
133.344977
 20
260.631007
 30
0.0
  0
SEQEND
  8
0
  5
E5932
  0
LINE
  8
0
  5
E5933
 10
133.344977
 20
260.631007
 30
0.0
 11
133.874471
 21
260.374492
 31
0.0
  0
LINE
  8
0
  5
E5934
 10
133.874471
 20
260.374492
 30
0.0
 11
133.958396
 21
260.018296
 31
0.0
  0
LINE
  8
0
  5
E5935
 10
133.958396
 20
260.018296
 30
0.0
 11
133.958396
 21
259.996349
 31
0.0
  0
LINE
  8
0
  5
E5936
 10
132.734334
 20
260.589351
 30
0.0
 11
133.958396
 21
259.996349
 31
0.0
  0
POLYLINE
  8
0
  5
E5937
 66
     1
 10
0.0
 20
0.0
 30
0.0
 70
   128
  0
VERTEX
  8
0
  5
E5938
 10
132.480222
 20
261.221967
 30
0.0
  0
VERTEX
  8
0
  5
E5939
 10
132.453584
 20
261.18332
 30
0.0
  0
VERTEX
  8
0
  5
E593A
 10
132.436054
 20
261.136002
 30
0.0
  0
VERTEX
  8
0
  5
E593B
 10
132.428202
 20
261.081551
 30
0.0
  0
VERTEX
  8
0
  5
E593C
 10
132.430282
 20
261.021731
 30
0.0
  0
VERTEX
  8
0
  5
E593D
 10
132.442226
 20
260.958484
 30
0.0
  0
VERTEX
  8
0
  5
E593E
 10
132.463648
 20
260.893861
 30
0.0
  0
VERTEX
  8
0
  5
E593F
 10
132.493852
 20
260.82996
 30
0.0
  0
VERTEX
  8
0
  5
E5940
 10
132.531858
 20
260.768854
 30
0.0
  0
VERTEX
  8
0
  5
E5941
 10
132.576434
 20
260.712525
 30
0.0
  0
VERTEX
  8
0
  5
E5942
 10
132.626132
 20
260.6628
 30
0.0
  0
VERTEX
  8
0
  5
E5943
 10
132.679341
 20
260.621293
 30
0.0
  0
VERTEX
  8
0
  5
E5944
 10
132.734334
 20
260.589351
 30
0.0
  0
SEQEND
  8
0
  5
E5945
  0
LINE
  8
0
  5
E5946
 10
133.946118
 20
260.655785
 30
0.0
 11
133.874471
 21
260.424458
 31
0.0
  0
LINE
  8
0
  5
E5947
 10
132.331419
 20
261.579804
 30
0.0
 11
132.233776
 21
261.142413
 31
0.0
  0
LINE
  8
0
  5
E5948
 10
136.134903
 20
262.182916
 30
0.0
 11
136.138869
 21
262.180995
 31
0.0
  0
LINE
  8
0
  5
E5949
 10
136.054944
 20
261.924752
 30
0.0
 11
136.134903
 21
262.182916
 31
0.0
  0
LINE
  8
0
  5
E594A
 10
135.52545
 20
262.181268
 30
0.0
 11
136.054944
 21
261.924752
 31
0.0
  0
POLYLINE
  8
0
  5
E594B
 66
     1
 10
0.0
 20
0.0
 30
0.0
 70
   128
210
0.0000000000000001
220
0.0
230
-1.0
  0
VERTEX
  8
0
  5
E594C
 10
-135.375397
 20
262.253962
 30
0.0
  0
VERTEX
  8
0
  5
E594D
 10
-135.378518
 20
262.26766
 30
0.0
  0
VERTEX
  8
0
  5
E594E
 10
-135.384327
 20
262.279131
 30
0.0
  0
VERTEX
  8
0
  5
E594F
 10
-135.392607
 20
262.287947
 30
0.0
  0
VERTEX
  8
0
  5
E5950
 10
-135.403048
 20
262.293778
 30
0.0
  0
VERTEX
  8
0
  5
E5951
 10
-135.415259
 20
262.296407
 30
0.0
  0
VERTEX
  8
0
  5
E5952
 10
-135.428785
 20
262.295734
 30
0.0
  0
VERTEX
  8
0
  5
E5953
 10
-135.44312
 20
262.291785
 30
0.0
  0
VERTEX
  8
0
  5
E5954
 10
-135.457727
 20
262.284709
 30
0.0
  0
VERTEX
  8
0
  5
E5955
 10
-135.472062
 20
262.274768
 30
0.0
  0
VERTEX
  8
0
  5
E5956
 10
-135.485588
 20
262.262336
 30
0.0
  0
VERTEX
  8
0
  5
E5957
 10
-135.497799
 20
262.247875
 30
0.0
  0
VERTEX
  8
0
  5
E5958
 10
-135.50824
 20
262.231928
 30
0.0
  0
VERTEX
  8
0
  5
E5959
 10
-135.51652
 20
262.21509
 30
0.0
  0
VERTEX
  8
0
  5
E595A
 10
-135.522329
 20
262.19799
 30
0.0
  0
VERTEX
  8
0
  5
E595B
 10
-135.52545
 20
262.181268
 30
0.0
  0
SEQEND
  8
0
  5
E595C
  0
LINE
  8
0
  5
E595D
 10
135.244864
 20
262.317199
 30
0.0
 11
135.375397
 21
262.253962
 31
0.0
  0
POLYLINE
  8
0
  5
E595E
 66
     1
 10
0.0
 20
0.0
 30
0.0
 70
   128
210
0.0000000000000001
220
0.0
230
-1.0
  0
VERTEX
  8
0
  5
E595F
 10
-135.147503
 20
262.473286
 30
0.0
  0
VERTEX
  8
0
  5
E5960
 10
-135.168457
 20
262.457403
 30
0.0
  0
VERTEX
  8
0
  5
E5961
 10
-135.188053
 20
262.438144
 30
0.0
  0
VERTEX
  8
0
  5
E5962
 10
-135.205615
 20
262.416174
 30
0.0
  0
VERTEX
  8
0
  5
E5963
 10
-135.220537
 20
262.392252
 30
0.0
  0
VERTEX
  8
0
  5
E5964
 10
-135.232303
 20
262.367203
 30
0.0
  0
VERTEX
  8
0
  5
E5965
 10
-135.240506
 20
262.341895
 30
0.0
  0
VERTEX
  8
0
  5
E5966
 10
-135.244864
 20
262.317199
 30
0.0
  0
SEQEND
  8
0
  5
E5967
  0
LINE
  8
0
  5
E5968
 10
134.919304
 20
262.583838
 30
0.0
 11
135.147503
 21
262.473286
 31
0.0
  0
POLYLINE
  8
0
  5
E5969
 66
     1
 10
0.0
 20
0.0
 30
0.0
 70
   128
210
0.0
220
0.0
230
-1.0
  0
VERTEX
  8
0
  5
E596A
 10
-134.803612
 20
262.505983
 30
0.0
  0
VERTEX
  8
0
  5
E596B
 10
-134.803815
 20
262.528578
 30
0.0
  0
VERTEX
  8
0
  5
E596C
 10
-134.807903
 20
262.54887
 30
0.0
  0
VERTEX
  8
0
  5
E596D
 10
-134.815739
 20
262.566175
 30
0.0
  0
VERTEX
  8
0
  5
E596E
 10
-134.82706
 20
262.579912
 30
0.0
  0
VERTEX
  8
0
  5
E596F
 10
-134.841484
 20
262.589619
 30
0.0
  0
VERTEX
  8
0
  5
E5970
 10
-134.858525
 20
262.594968
 30
0.0
  0
VERTEX
  8
0
  5
E5971
 10
-134.877612
 20
262.595781
 30
0.0
  0
VERTEX
  8
0
  5
E5972
 10
-134.898101
 20
262.592028
 30
0.0
  0
VERTEX
  8
0
  5
E5973
 10
-134.919304
 20
262.583838
 30
0.0
  0
SEQEND
  8
0
  5
E5974
  0
POLYLINE
  8
0
  5
E5975
 66
     1
 10
0.0
 20
0.0
 30
0.0
 70
   128
210
0.0
220
0.0
230
-1.0
  0
VERTEX
  8
0
  5
E5976
 10
-134.919304
 20
262.316033
 30
0.0
  0
VERTEX
  8
0
  5
E5977
 10
-134.898101
 20
262.328386
 30
0.0
  0
VERTEX
  8
0
  5
E5978
 10
-134.877612
 20
262.344486
 30
0.0
  0
VERTEX
  8
0
  5
E5979
 10
-134.858525
 20
262.363791
 30
0.0
  0
VERTEX
  8
0
  5
E597A
 10
-134.841484
 20
262.385652
 30
0.0
  0
VERTEX
  8
0
  5
E597B
 10
-134.82706
 20
262.409334
 30
0.0
  0
VERTEX
  8
0
  5
E597C
 10
-134.815739
 20
262.43404
 30
0.0
  0
VERTEX
  8
0
  5
E597D
 10
-134.807903
 20
262.458938
 30
0.0
  0
VERTEX
  8
0
  5
E597E
 10
-134.803815
 20
262.483191
 30
0.0
  0
VERTEX
  8
0
  5
E597F
 10
-134.803612
 20
262.505983
 30
0.0
  0
SEQEND
  8
0
  5
E5980
  0
LINE
  8
0
  5
E5981
 10
135.147503
 20
262.20548
 30
0.0
 11
134.919304
 21
262.316033
 31
0.0
  0
POLYLINE
  8
0
  5
E5982
 66
     1
 10
0.0
 20
0.0
 30
0.0
 70
   128
210
-0.0000000000000001
220
0.0
230
-1.0
  0
VERTEX
  8
0
  5
E5983
 10
-135.244864
 20
262.267233
 30
0.0
  0
VERTEX
  8
0
  5
E5984
 10
-135.240506
 20
262.24676
 30
0.0
  0
VERTEX
  8
0
  5
E5985
 10
-135.232303
 20
262.2294
 30
0.0
  0
VERTEX
  8
0
  5
E5986
 10
-135.220537
 20
262.215752
 30
0.0
  0
VERTEX
  8
0
  5
E5987
 10
-135.205615
 20
262.206287
 30
0.0
  0
VERTEX
  8
0
  5
E5988
 10
-135.188053
 20
262.201333
 30
0.0
  0
VERTEX
  8
0
  5
E5989
 10
-135.168457
 20
262.201061
 30
0.0
  0
VERTEX
  8
0
  5
E598A
 10
-135.147503
 20
262.20548
 30
0.0
  0
SEQEND
  8
0
  5
E598B
  0
LINE
  8
0
  5
E598C
 10
135.375396
 20
262.203996
 30
0.0
 11
135.244864
 21
262.267233
 31
0.0
  0
POLYLINE
  8
0
  5
E598D
 66
     1
 10
0.0
 20
0.0
 30
0.0
 70
   128
210
0.0
220
0.0
230
-1.0
  0
VERTEX
  8
0
  5
E598E
 10
-135.52545
 20
262.131302
 30
0.0
  0
VERTEX
  8
0
  5
E598F
 10
-135.522329
 20
262.117604
 30
0.0
  0
VERTEX
  8
0
  5
E5990
 10
-135.51652
 20
262.106132
 30
0.0
  0
VERTEX
  8
0
  5
E5991
 10
-135.50824
 20
262.097316
 30
0.0
  0
VERTEX
  8
0
  5
E5992
 10
-135.4978
 20
262.091484
 30
0.0
  0
VERTEX
  8
0
  5
E5993
 10
-135.485588
 20
262.088855
 30
0.0
  0
VERTEX
  8
0
  5
E5994
 10
-135.472062
 20
262.089528
 30
0.0
  0
VERTEX
  8
0
  5
E5995
 10
-135.457727
 20
262.093476
 30
0.0
  0
VERTEX
  8
0
  5
E5996
 10
-135.443119
 20
262.100553
 30
0.0
  0
VERTEX
  8
0
  5
E5997
 10
-135.428785
 20
262.110494
 30
0.0
  0
VERTEX
  8
0
  5
E5998
 10
-135.415259
 20
262.122927
 30
0.0
  0
VERTEX
  8
0
  5
E5999
 10
-135.403047
 20
262.137388
 30
0.0
  0
VERTEX
  8
0
  5
E599A
 10
-135.392606
 20
262.153335
 30
0.0
  0
VERTEX
  8
0
  5
E599B
 10
-135.384327
 20
262.170174
 30
0.0
  0
VERTEX
  8
0
  5
E599C
 10
-135.378518
 20
262.187274
 30
0.0
  0
VERTEX
  8
0
  5
E599D
 10
-135.375396
 20
262.203996
 30
0.0
  0
SEQEND
  8
0
  5
E599E
  0
LINE
  8
0
  5
E599F
 10
136.054944
 20
261.874786
 30
0.0
 11
135.52545
 21
262.131302
 31
0.0
  0
LINE
  8
0
  5
E59A0
 10
136.138869
 20
261.518591
 30
0.0
 11
136.054944
 21
261.874786
 31
0.0
  0
LINE
  8
0
  5
E59A1
 10
136.138869
 20
261.478064
 30
0.0
 11
136.138869
 21
261.518591
 31
0.0
  0
LINE
  8
0
  5
E59A2
 10
134.4232
 20
262.309228
 30
0.0
 11
136.138869
 21
261.478064
 31
0.0
  0
LINE
  8
0
  5
E59A3
 10
134.4232
 20
262.371059
 30
0.0
 11
134.4232
 21
262.309228
 31
0.0
  0
LINE
  8
0
  5
E59A4
 10
134.537867
 20
262.449957
 30
0.0
 11
134.537867
 21
262.63022
 31
0.0
  0
LINE
  8
0
  5
E59A5
 10
136.138869
 20
263.605263
 30
0.0
 11
136.138869
 21
263.607419
 31
0.0
  0
LINE
  8
0
  5
E59A6
 10
136.054944
 20
263.334292
 30
0.0
 11
136.138869
 21
263.605263
 31
0.0
  0
LINE
  8
0
  5
E59A7
 10
135.606795
 20
263.5514
 30
0.0
 11
136.054944
 21
263.334292
 31
0.0
  0
LINE
  8
0
  5
E59A8
 10
136.054944
 20
263.284326
 30
0.0
 11
135.56418
 21
263.522078
 31
0.0
  0
LINE
  8
0
  5
E59A9
 10
136.133986
 20
262.948854
 30
0.0
 11
136.054944
 21
263.284326
 31
0.0
  0
LINE
  8
0
  5
E59AA
 10
136.138869
 20
262.946489
 30
0.0
 11
136.133986
 21
262.948854
 31
0.0
  0
LINE
  8
0
  5
E59AB
 10
136.138869
 20
262.842686
 30
0.0
 11
136.138869
 21
262.946489
 31
0.0
  0
LINE
  8
0
  5
E59AC
 10
136.220337
 20
262.803219
 30
0.0
 11
136.138869
 21
262.842686
 31
0.0
  0
LINE
  8
0
  5
E59AD
 10
136.220337
 20
262.466432
 30
0.0
 11
136.220337
 21
262.561224
 31
0.0
  0
LINE
  8
0
  5
E59AE
 10
136.220337
 20
262.261295
 30
0.0
 11
136.220337
 21
262.382597
 31
0.0
  0
LINE
  8
0
  5
E59AF
 10
136.220337
 20
262.798886
 30
0.0
 11
136.220337
 21
262.803219
 31
0.0
  0
LINE
  8
0
  5
E59B0
 10
136.220337
 20
262.803219
 30
0.0
 11
136.284
 21
262.847023
 31
0.0
  0
LINE
  8
0
  5
E59B1
 10
136.284
 20
262.847023
 30
0.0
 11
136.284
 21
262.285192
 31
0.0
  0
LINE
  8
0
  5
E59B2
 10
134.537867
 20
262.63022
 30
0.0
 11
134.586845
 21
262.849614
 31
0.0
  0
LINE
  8
0
  5
E59B3
 10
133.584694
 20
261.974381
 30
0.0
 11
133.557996
 21
261.95601
 31
0.0
  0
LINE
  8
0
  5
E59B4
 10
134.537867
 20
262.63022
 30
0.0
 11
134.209509
 21
262.404291
 31
0.0
  0
LINE
  8
0
  5
E59B5
 10
136.138869
 20
262.180995
 30
0.0
 11
136.154431
 21
262.191702
 31
0.0
  0
LINE
  8
0
  5
E59B6
 10
136.138869
 20
262.180995
 30
0.0
 11
136.138869
 21
262.197963
 31
0.0
  0
LINE
  8
0
  5
E59B7
 10
136.220679
 20
262.241623
 30
0.0
 11
136.284
 21
262.285192
 31
0.0
  0
LINE
  8
0
  5
E59B8
 10
136.10309
 20
262.331182
 30
0.0
 11
136.064412
 21
262.275311
 31
0.0
  0
LINE
  8
0
  5
E59B9
 10
136.064412
 20
262.275311
 30
0.0
 11
136.03258
 21
262.253409
 31
0.0
  0
LINE
  8
0
  5
E59BA
 10
136.03258
 20
262.253409
 30
0.0
 11
136.03258
 21
262.531631
 31
0.0
  0
LINE
  8
0
  5
E59BB
 10
136.03258
 20
262.253409
 30
0.0
 11
134.675704
 21
262.910754
 31
0.0
  0
LINE
  8
0
  5
E59BC
 10
136.03258
 20
262.531631
 30
0.0
 11
136.074349
 21
262.56037
 31
0.0
  0
LINE
  8
0
  5
E59BD
 10
136.03258
 20
262.531631
 30
0.0
 11
135.026872
 21
263.01885
 31
0.0
  0
LINE
  8
0
  5
E59BE
 10
136.074349
 20
262.56037
 30
0.0
 11
136.10309
 21
262.535832
 31
0.0
  0
LINE
  8
0
  5
E59BF
 10
136.074349
 20
262.56037
 30
0.0
 11
135.031457
 21
263.065603
 31
0.0
  0
LINE
  8
0
  5
E59C0
 10
136.10309
 20
262.535832
 30
0.0
 11
136.10309
 21
262.580145
 31
0.0
  0
LINE
  8
0
  5
E59C1
 10
136.10309
 20
262.580145
 30
0.0
 11
136.186279
 21
262.637384
 31
0.0
  0
LINE
  8
0
  5
E59C2
 10
136.10309
 20
262.580145
 30
0.0
 11
135.060199
 21
263.085379
 31
0.0
  0
LINE
  8
0
  5
E59C3
 10
136.173322
 20
262.766537
 30
0.0
 11
136.220337
 21
262.798886
 31
0.0
  0
LINE
  8
0
  5
E59C4
 10
135.341074
 20
263.224848
 30
0.0
 11
136.220337
 21
262.798886
 31
0.0
  0
LINE
  8
0
  5
E59C5
 10
136.173322
 20
262.766537
 30
0.0
 11
135.248184
 21
263.214724
 31
0.0
  0
LINE
  8
0
  5
E59C6
 10
136.106057
 20
262.669372
 30
0.0
 11
136.173322
 21
262.766537
 31
0.0
  0
LINE
  8
0
  5
E59C7
 10
136.106057
 20
262.669372
 30
0.0
 11
135.137524
 21
263.138583
 31
0.0
  0
LINE
  8
0
  5
E59C8
 10
136.180277
 20
262.72044
 30
0.0
 11
136.106057
 21
262.669372
 31
0.0
  0
POLYLINE
  8
0
  5
E59C9
 66
     1
 10
0.0
 20
0.0
 30
0.0
 70
   128
  0
VERTEX
  8
0
  5
E59CA
 10
136.186279
 20
262.637384
 30
0.0
  0
VERTEX
  8
0
  5
E59CB
 10
136.192455
 20
262.643781
 30
0.0
  0
VERTEX
  8
0
  5
E59CC
 10
136.198214
 20
262.651301
 30
0.0
  0
VERTEX
  8
0
  5
E59CD
 10
136.203358
 20
262.659686
 30
0.0
  0
VERTEX
  8
0
  5
E59CE
 10
136.20771
 20
262.668647
 30
0.0
  0
VERTEX
  8
0
  5
E59CF
 10
136.211122
 20
262.677878
 30
0.0
  0
VERTEX
  8
0
  5
E59D0
 10
136.213476
 20
262.687063
 30
0.0
  0
VERTEX
  8
0
  5
E59D1
 10
136.214691
 20
262.695885
 30
0.0
  0
VERTEX
  8
0
  5
E59D2
 10
136.214726
 20
262.704044
 30
0.0
  0
VERTEX
  8
0
  5
E59D3
 10
136.21358
 20
262.711258
 30
0.0
  0
VERTEX
  8
0
  5
E59D4
 10
136.211292
 20
262.717281
 30
0.0
  0
VERTEX
  8
0
  5
E59D5
 10
136.20794
 20
262.721906
 30
0.0
  0
VERTEX
  8
0
  5
E59D6
 10
136.20364
 20
262.724974
 30
0.0
  0
VERTEX
  8
0
  5
E59D7
 10
136.198539
 20
262.726381
 30
0.0
  0
VERTEX
  8
0
  5
E59D8
 10
136.192811
 20
262.726077
 30
0.0
  0
VERTEX
  8
0
  5
E59D9
 10
136.186653
 20
262.724074
 30
0.0
  0
VERTEX
  8
0
  5
E59DA
 10
136.180277
 20
262.72044
 30
0.0
  0
SEQEND
  8
0
  5
E59DB
  0
LINE
  8
0
  5
E59DC
 10
136.186279
 20
262.637384
 30
0.0
 11
136.111921
 21
262.673407
 31
0.0
  0
POLYLINE
  8
0
  5
E59DD
 66
     1
 10
0.0
 20
0.0
 30
0.0
 70
   128
  0
VERTEX
  8
0
  5
E59DE
 10
136.207733
 20
262.552552
 30
0.0
  0
VERTEX
  8
0
  5
E59DF
 10
136.199843
 20
262.557524
 30
0.0
  0
VERTEX
  8
0
  5
E59E0
 10
136.190549
 20
262.55945
 30
0.0
  0
VERTEX
  8
0
  5
E59E1
 10
136.180185
 20
262.558261
 30
0.0
  0
VERTEX
  8
0
  5
E59E2
 10
136.169124
 20
262.553999
 30
0.0
  0
VERTEX
  8
0
  5
E59E3
 10
136.157764
 20
262.546818
 30
0.0
  0
VERTEX
  8
0
  5
E59E4
 10
136.146514
 20
262.536977
 30
0.0
  0
VERTEX
  8
0
  5
E59E5
 10
136.135779
 20
262.524829
 30
0.0
  0
VERTEX
  8
0
  5
E59E6
 10
136.125945
 20
262.510812
 30
0.0
  0
VERTEX
  8
0
  5
E59E7
 10
136.117366
 20
262.495429
 30
0.0
  0
VERTEX
  8
0
  5
E59E8
 10
136.11035
 20
262.479235
 30
0.0
  0
VERTEX
  8
0
  5
E59E9
 10
136.10515
 20
262.462813
 30
0.0
  0
VERTEX
  8
0
  5
E59EA
 10
136.101954
 20
262.446752
 30
0.0
  0
VERTEX
  8
0
  5
E59EB
 10
136.100875
 20
262.431632
 30
0.0
  0
VERTEX
  8
0
  5
E59EC
 10
136.101954
 20
262.417995
 30
0.0
  0
VERTEX
  8
0
  5
E59ED
 10
136.10515
 20
262.406334
 30
0.0
  0
VERTEX
  8
0
  5
E59EE
 10
136.11035
 20
262.397066
 30
0.0
  0
VERTEX
  8
0
  5
E59EF
 10
136.117366
 20
262.390527
 30
0.0
  0
VERTEX
  8
0
  5
E59F0
 10
136.125945
 20
262.386951
 30
0.0
  0
VERTEX
  8
0
  5
E59F1
 10
136.135779
 20
262.386466
 30
0.0
  0
VERTEX
  8
0
  5
E59F2
 10
136.146514
 20
262.389091
 30
0.0
  0
VERTEX
  8
0
  5
E59F3
 10
136.157764
 20
262.394731
 30
0.0
  0
VERTEX
  8
0
  5
E59F4
 10
136.169124
 20
262.403183
 30
0.0
  0
VERTEX
  8
0
  5
E59F5
 10
136.180185
 20
262.414142
 30
0.0
  0
VERTEX
  8
0
  5
E59F6
 10
136.190549
 20
262.427215
 30
0.0
  0
VERTEX
  8
0
  5
E59F7
 10
136.199843
 20
262.441931
 30
0.0
  0
VERTEX
  8
0
  5
E59F8
 10
136.207733
 20
262.45776
 30
0.0
  0
SEQEND
  8
0
  5
E59F9
  0
LINE
  8
0
  5
E59FA
 10
136.207733
 20
262.552552
 30
0.0
 11
136.194264
 21
262.559077
 31
0.0
  0
LINE
  8
0
  5
E59FB
 10
136.220337
 20
262.561224
 30
0.0
 11
136.207733
 21
262.552552
 31
0.0
  0
LINE
  8
0
  5
E59FC
 10
136.10309
 20
262.21236
 30
0.0
 11
136.10309
 21
262.331182
 31
0.0
  0
LINE
  8
0
  5
E59FD
 10
136.10309
 20
262.21236
 30
0.0
 11
134.669827
 21
262.90671
 31
0.0
  0
LINE
  8
0
  5
E59FE
 10
136.163308
 20
262.18813
 30
0.0
 11
136.10309
 21
262.21236
 31
0.0
  0
LINE
  8
0
  5
E59FF
 10
136.207733
 20
262.45776
 30
0.0
 11
136.220337
 21
262.466432
 31
0.0
  0
LINE
  8
0
  5
E5A00
 10
136.207733
 20
262.45776
 30
0.0
 11
136.119877
 21
262.500322
 31
0.0
  0
LINE
  8
0
  5
E5A01
 10
136.126597
 20
262.511845
 30
0.0
 11
136.220337
 21
262.466432
 31
0.0
  0
LINE
  8
0
  5
E5A02
 10
136.220679
 20
262.227604
 30
0.0
 11
136.163308
 21
262.18813
 31
0.0
  0
LINE
  8
0
  5
E5A03
 10
136.220337
 20
262.382597
 30
0.0
 11
136.159907
 21
262.341018
 31
0.0
  0
LINE
  8
0
  5
E5A04
 10
136.220679
 20
262.241623
 30
0.0
 11
136.220679
 21
262.227604
 31
0.0
  0
LINE
  8
0
  5
E5A05
 10
136.159907
 20
262.341018
 30
0.0
 11
136.159907
 21
262.219716
 31
0.0
  0
LINE
  8
0
  5
E5A06
 10
136.159907
 20
262.219716
 30
0.0
 11
136.220337
 21
262.261295
 31
0.0
  0
LINE
  8
0
  5
E5A07
 10
136.159907
 20
262.29057
 30
0.0
 11
136.220337
 21
262.261295
 31
0.0
  0
LINE
  8
0
  5
E5A08
 10
132.232915
 20
262.529924
 30
0.0
 11
132.345663
 21
261.977488
 31
0.0
  0
LINE
  8
0
  5
E5A09
 10
132.058749
 20
261.934562
 30
0.0
 11
132.138081
 21
261.89613
 31
0.0
  0
LINE
  8
0
  5
E5A0A
 10
131.983429
 20
262.174321
 30
0.0
 11
132.058749
 21
261.934562
 31
0.0
  0
LINE
  8
0
  5
E5A0B
 10
131.907841
 20
262.21094
 30
0.0
 11
131.983429
 21
262.174321
 31
0.0
  0
LINE
  8
0
  5
E5A0C
 10
131.907841
 20
262.12184
 30
0.0
 11
131.907841
 21
262.21094
 31
0.0
  0
LINE
  8
0
  5
E5A0D
 10
131.851389
 20
262.18763
 30
0.0
 11
131.907841
 21
262.12184
 31
0.0
  0
LINE
  8
0
  5
E5A0E
 10
131.907841
 20
262.12184
 30
0.0
 11
131.983551
 21
262.173933
 31
0.0
  0
LINE
  8
0
  5
E5A0F
 10
131.851389
 20
262.407646
 30
0.0
 11
131.851389
 21
262.18763
 31
0.0
  0
LINE
  8
0
  5
E5A10
 10
132.055693
 20
262.447783
 30
0.0
 11
131.851389
 21
262.407646
 31
0.0
  0
LINE
  8
0
  5
E5A11
 10
131.851389
 20
262.407646
 30
0.0
 11
132.169706
 21
262.626667
 31
0.0
  0
LINE
  8
0
  5
E5A12
 10
132.232915
 20
262.639085
 30
0.0
 11
132.169706
 21
262.626667
 31
0.0
  0
POLYLINE
  8
0
  5
E5A13
 66
     1
 10
0.0
 20
0.0
 30
0.0
 70
   128
  0
VERTEX
  8
0
  5
E5A14
 10
132.192388
 20
262.221256
 30
0.0
  0
VERTEX
  8
0
  5
E5A15
 10
132.200177
 20
262.237495
 30
0.0
  0
VERTEX
  8
0
  5
E5A16
 10
132.20431
 20
262.256706
 30
0.0
  0
VERTEX
  8
0
  5
E5A17
 10
132.204641
 20
262.27821
 30
0.0
  0
VERTEX
  8
0
  5
E5A18
 10
132.201157
 20
262.301244
 30
0.0
  0
VERTEX
  8
0
  5
E5A19
 10
132.193982
 20
262.324992
 30
0.0
  0
VERTEX
  8
0
  5
E5A1A
 10
132.183371
 20
262.348613
 30
0.0
  0
VERTEX
  8
0
  5
E5A1B
 10
132.169699
 20
262.37127
 30
0.0
  0
VERTEX
  8
0
  5
E5A1C
 10
132.15345
 20
262.392161
 30
0.0
  0
VERTEX
  8
0
  5
E5A1D
 10
132.135201
 20
262.410545
 30
0.0
  0
VERTEX
  8
0
  5
E5A1E
 10
132.115597
 20
262.425772
 30
0.0
  0
VERTEX
  8
0
  5
E5A1F
 10
132.095332
 20
262.437303
 30
0.0
  0
VERTEX
  8
0
  5
E5A20
 10
132.075126
 20
262.444727
 30
0.0
  0
VERTEX
  8
0
  5
E5A21
 10
132.055693
 20
262.447783
 30
0.0
  0
SEQEND
  8
0
  5
E5A22
  0
LINE
  8
0
  5
E5A23
 10
132.055693
 20
262.447783
 30
0.0
 11
132.232915
 21
262.569722
 31
0.0
  0
LINE
  8
0
  5
E5A24
 10
132.097682
 20
262.076735
 30
0.0
 11
132.192388
 21
262.221256
 31
0.0
  0
LINE
  8
0
  5
E5A25
 10
132.192388
 20
262.221256
 30
0.0
 11
132.283164
 21
262.283715
 31
0.0
  0
POLYLINE
  8
0
  5
E5A26
 66
     1
 10
0.0
 20
0.0
 30
0.0
 70
   128
210
-0.0000000000000002
220
0.0
230
-1.0
  0
VERTEX
  8
0
  5
E5A27
 10
-132.097898
 20
261.713612
 30
0.0
  0
VERTEX
  8
0
  5
E5A28
 10
-132.092727
 20
261.724252
 30
0.0
  0
VERTEX
  8
0
  5
E5A29
 10
-132.089104
 20
261.735042
 30
0.0
  0
VERTEX
  8
0
  5
E5A2A
 10
-132.087163
 20
261.745589
 30
0.0
  0
VERTEX
  8
0
  5
E5A2B
 10
-132.086973
 20
261.755505
 30
0.0
  0
VERTEX
  8
0
  5
E5A2C
 10
-132.088542
 20
261.764427
 30
0.0
  0
VERTEX
  8
0
  5
E5A2D
 10
-132.091813
 20
261.772029
 30
0.0
  0
VERTEX
  8
0
  5
E5A2E
 10
-132.096666
 20
261.778033
 30
0.0
  0
VERTEX
  8
0
  5
E5A2F
 10
-132.102923
 20
261.782218
 30
0.0
  0
VERTEX
  8
0
  5
E5A30
 10
-132.110355
 20
261.784431
 30
0.0
  0
VERTEX
  8
0
  5
E5A31
 10
-132.11869
 20
261.784592
 30
0.0
  0
VERTEX
  8
0
  5
E5A32
 10
-132.127623
 20
261.782694
 30
0.0
  0
VERTEX
  8
0
  5
E5A33
 10
-132.136826
 20
261.778807
 30
0.0
  0
VERTEX
  8
0
  5
E5A34
 10
-132.145963
 20
261.773073
 30
0.0
  0
VERTEX
  8
0
  5
E5A35
 10
-132.154699
 20
261.765702
 30
0.0
  0
VERTEX
  8
0
  5
E5A36
 10
-132.162715
 20
261.756965
 30
0.0
  0
VERTEX
  8
0
  5
E5A37
 10
-132.169716
 20
261.74718
 30
0.0
  0
VERTEX
  8
0
  5
E5A38
 10
-132.175446
 20
261.736707
 30
0.0
  0
VERTEX
  8
0
  5
E5A39
 10
-132.179696
 20
261.725928
 30
0.0
  0
VERTEX
  8
0
  5
E5A3A
 10
-132.18231
 20
261.715239
 30
0.0
  0
VERTEX
  8
0
  5
E5A3B
 10
-132.183192
 20
261.705031
 30
0.0
  0
SEQEND
  8
0
  5
E5A3C
  0
POLYLINE
  8
0
  5
E5A3D
 66
     1
 10
0.0
 20
0.0
 30
0.0
 70
   128
  0
VERTEX
  8
0
  5
E5A3E
 10
132.055689
 20
261.35598
 30
0.0
  0
VERTEX
  8
0
  5
E5A3F
 10
132.074686
 20
261.340515
 30
0.0
  0
VERTEX
  8
0
  5
E5A40
 10
132.094438
 20
261.328502
 30
0.0
  0
VERTEX
  8
0
  5
E5A41
 10
132.114275
 20
261.320349
 30
0.0
  0
VERTEX
  8
0
  5
E5A42
 10
132.133526
 20
261.316332
 30
0.0
  0
VERTEX
  8
0
  5
E5A43
 10
132.151537
 20
261.316586
 30
0.0
  0
VERTEX
  8
0
  5
E5A44
 10
132.167698
 20
261.321104
 30
0.0
  0
VERTEX
  8
0
  5
E5A45
 10
132.181462
 20
261.329732
 30
0.0
  0
VERTEX
  8
0
  5
E5A46
 10
132.192362
 20
261.342178
 30
0.0
  0
VERTEX
  8
0
  5
E5A47
 10
132.200028
 20
261.358019
 30
0.0
  0
VERTEX
  8
0
  5
E5A48
 10
132.204201
 20
261.37672
 30
0.0
  0
VERTEX
  8
0
  5
E5A49
 10
132.204739
 20
261.397645
 30
0.0
  0
VERTEX
  8
0
  5
E5A4A
 10
132.201624
 20
261.420086
 30
0.0
  0
VERTEX
  8
0
  5
E5A4B
 10
132.194962
 20
261.443283
 30
0.0
  0
SEQEND
  8
0
  5
E5A4C
  0
LINE
  8
0
  5
E5A4D
 10
131.851389
 20
261.594073
 30
0.0
 11
132.055689
 21
261.35598
 31
0.0
  0
LINE
  8
0
  5
E5A4E
 10
131.851389
 20
261.814089
 30
0.0
 11
131.851389
 21
261.594073
 31
0.0
  0
LINE
  8
0
  5
E5A4F
 10
131.907841
 20
261.82518
 30
0.0
 11
131.851389
 21
261.814089
 31
0.0
  0
LINE
  8
0
  5
E5A50
 10
131.851389
 20
261.814089
 30
0.0
 11
132.053014
 21
261.952819
 31
0.0
  0
LINE
  8
0
  5
E5A51
 10
131.907841
 20
261.73608
 30
0.0
 11
131.907841
 21
261.82518
 31
0.0
  0
LINE
  8
0
  5
E5A52
 10
131.907841
 20
261.82518
 30
0.0
 11
132.063481
 21
261.93227
 31
0.0
  0
LINE
  8
0
  5
E5A53
 10
131.983429
 20
261.699461
 30
0.0
 11
131.907841
 21
261.73608
 31
0.0
  0
LINE
  8
0
  5
E5A54
 10
131.907841
 20
261.73608
 30
0.0
 11
132.041498
 21
261.828044
 31
0.0
  0
LINE
  8
0
  5
E5A55
 10
132.058749
 20
261.866242
 30
0.0
 11
131.983429
 21
261.699461
 31
0.0
  0
POLYLINE
  8
0
  5
E5A56
 66
     1
 10
0.0
 20
0.0
 30
0.0
 70
   129
210
0.0000000000000001
220
0.0000000000000001
230
-1.0
  0
VERTEX
  8
0
  5
E5A57
 10
-133.219669
 20
263.641457
 30
0.0
  0
VERTEX
  8
0
  5
E5A58
 10
-133.274566
 20
263.667626
 30
0.0
  0
VERTEX
  8
0
  5
E5A59
 10
-133.337049
 20
263.687325
 30
0.0
  0
VERTEX
  8
0
  5
E5A5A
 10
-133.404859
 20
263.69984
 30
0.0
  0
VERTEX
  8
0
  5
E5A5B
 10
-133.475547
 20
263.704719
 30
0.0
  0
VERTEX
  8
0
  5
E5A5C
 10
-133.546556
 20
263.701787
 30
0.0
  0
VERTEX
  8
0
  5
E5A5D
 10
-133.615321
 20
263.691149
 30
0.0
  0
VERTEX
  8
0
  5
E5A5E
 10
-133.679357
 20
263.67319
 30
0.0
  0
VERTEX
  8
0
  5
E5A5F
 10
-133.736348
 20
263.648558
 30
0.0
  0
VERTEX
  8
0
  5
E5A60
 10
-133.784235
 20
263.618145
 30
0.0
  0
VERTEX
  8
0
  5
E5A61
 10
-133.821288
 20
263.583048
 30
0.0
  0
VERTEX
  8
0
  5
E5A62
 10
-133.846167
 20
263.544538
 30
0.0
  0
VERTEX
  8
0
  5
E5A63
 10
-133.857972
 20
263.504005
 30
0.0
  0
VERTEX
  8
0
  5
E5A64
 10
-133.856278
 20
263.462914
 30
0.0
  0
VERTEX
  8
0
  5
E5A65
 10
-133.841145
 20
263.422751
 30
0.0
  0
VERTEX
  8
0
  5
E5A66
 10
-133.813121
 20
263.384968
 30
0.0
  0
VERTEX
  8
0
  5
E5A67
 10
-133.773218
 20
263.350929
 30
0.0
  0
VERTEX
  8
0
  5
E5A68
 10
-133.722878
 20
263.321866
 30
0.0
  0
VERTEX
  8
0
  5
E5A69
 10
-133.663922
 20
263.298828
 30
0.0
  0
VERTEX
  8
0
  5
E5A6A
 10
-133.598479
 20
263.282648
 30
0.0
  0
VERTEX
  8
0
  5
E5A6B
 10
-133.528915
 20
263.273911
 30
0.0
  0
VERTEX
  8
0
  5
E5A6C
 10
-133.457744
 20
263.272933
 30
0.0
  0
VERTEX
  8
0
  5
E5A6D
 10
-133.387539
 20
263.279749
 30
0.0
  0
VERTEX
  8
0
  5
E5A6E
 10
-133.320836
 20
263.294112
 30
0.0
  0
VERTEX
  8
0
  5
E5A6F
 10
-133.260048
 20
263.315505
 30
0.0
  0
VERTEX
  8
0
  5
E5A70
 10
-133.20737
 20
263.343152
 30
0.0
  0
VERTEX
  8
0
  5
E5A71
 10
-133.164707
 20
263.376056
 30
0.0
  0
VERTEX
  8
0
  5
E5A72
 10
-133.1336
 20
263.413027
 30
0.0
  0
VERTEX
  8
0
  5
E5A73
 10
-133.115175
 20
263.452729
 30
0.0
  0
VERTEX
  8
0
  5
E5A74
 10
-133.110096
 20
263.493726
 30
0.0
  0
VERTEX
  8
0
  5
E5A75
 10
-133.118548
 20
263.534538
 30
0.0
  0
VERTEX
  8
0
  5
E5A76
 10
-133.140224
 20
263.573688
 30
0.0
  0
VERTEX
  8
0
  5
E5A77
 10
-133.174343
 20
263.609762
 30
0.0
  0
SEQEND
  8
0
  5
E5A78
  0
POLYLINE
  8
0
  5
E5A79
 66
     1
 10
0.0
 20
0.0
 30
0.0
 70
   128
  0
VERTEX
  8
0
  5
E5A7A
 10
133.855093
 20
263.457723
 30
0.0
  0
VERTEX
  8
0
  5
E5A7B
 10
133.845225
 20
263.498122
 30
0.0
  0
VERTEX
  8
0
  5
E5A7C
 10
133.822268
 20
263.536708
 30
0.0
  0
VERTEX
  8
0
  5
E5A7D
 10
133.787057
 20
263.572081
 30
0.0
  0
VERTEX
  8
0
  5
E5A7E
 10
133.740867
 20
263.602958
 30
0.0
  0
VERTEX
  8
0
  5
E5A7F
 10
133.685375
 20
263.628219
 30
0.0
  0
VERTEX
  8
0
  5
E5A80
 10
133.622595
 20
263.646946
 30
0.0
  0
VERTEX
  8
0
  5
E5A81
 10
133.554802
 20
263.658462
 30
0.0
  0
VERTEX
  8
0
  5
E5A82
 10
133.484458
 20
263.662347
 30
0.0
  0
VERTEX
  8
0
  5
E5A83
 10
133.414114
 20
263.658462
 30
0.0
  0
VERTEX
  8
0
  5
E5A84
 10
133.346322
 20
263.646946
 30
0.0
  0
VERTEX
  8
0
  5
E5A85
 10
133.283541
 20
263.628219
 30
0.0
  0
VERTEX
  8
0
  5
E5A86
 10
133.228049
 20
263.602958
 30
0.0
  0
VERTEX
  8
0
  5
E5A87
 10
133.18186
 20
263.572081
 30
0.0
  0
VERTEX
  8
0
  5
E5A88
 10
133.146648
 20
263.536708
 30
0.0
  0
VERTEX
  8
0
  5
E5A89
 10
133.123692
 20
263.498122
 30
0.0
  0
VERTEX
  8
0
  5
E5A8A
 10
133.113824
 20
263.457723
 30
0.0
  0
SEQEND
  8
0
  5
E5A8B
  0
POLYLINE
  8
0
  5
E5A8C
 66
     1
 10
0.0
 20
0.0
 30
0.0
 70
   129
210
0.0000000000000001
220
0.0000000000000001
230
-1.0
  0
VERTEX
  8
0
  5
E5A8D
 10
-134.1485
 20
264.280547
 30
0.0
  0
VERTEX
  8
0
  5
E5A8E
 10
-134.203396
 20
264.306717
 30
0.0
  0
VERTEX
  8
0
  5
E5A8F
 10
-134.265879
 20
264.326415
 30
0.0
  0
VERTEX
  8
0
  5
E5A90
 10
-134.33369
 20
264.33893
 30
0.0
  0
VERTEX
  8
0
  5
E5A91
 10
-134.404377
 20
264.34381
 30
0.0
  0
VERTEX
  8
0
  5
E5A92
 10
-134.475387
 20
264.340877
 30
0.0
  0
VERTEX
  8
0
  5
E5A93
 10
-134.544152
 20
264.330239
 30
0.0
  0
VERTEX
  8
0
  5
E5A94
 10
-134.608187
 20
264.31228
 30
0.0
  0
VERTEX
  8
0
  5
E5A95
 10
-134.665178
 20
264.287648
 30
0.0
  0
VERTEX
  8
0
  5
E5A96
 10
-134.713066
 20
264.257235
 30
0.0
  0
VERTEX
  8
0
  5
E5A97
 10
-134.750118
 20
264.222139
 30
0.0
  0
VERTEX
  8
0
  5
E5A98
 10
-134.774997
 20
264.183628
 30
0.0
  0
VERTEX
  8
0
  5
E5A99
 10
-134.786803
 20
264.143095
 30
0.0
  0
VERTEX
  8
0
  5
E5A9A
 10
-134.785108
 20
264.102004
 30
0.0
  0
VERTEX
  8
0
  5
E5A9B
 10
-134.769976
 20
264.061842
 30
0.0
  0
VERTEX
  8
0
  5
E5A9C
 10
-134.741951
 20
264.024058
 30
0.0
  0
VERTEX
  8
0
  5
E5A9D
 10
-134.702048
 20
263.990019
 30
0.0
  0
VERTEX
  8
0
  5
E5A9E
 10
-134.651709
 20
263.960956
 30
0.0
  0
VERTEX
  8
0
  5
E5A9F
 10
-134.592752
 20
263.937918
 30
0.0
  0
VERTEX
  8
0
  5
E5AA0
 10
-134.527309
 20
263.921738
 30
0.0
  0
VERTEX
  8
0
  5
E5AA1
 10
-134.457745
 20
263.913001
 30
0.0
  0
VERTEX
  8
0
  5
E5AA2
 10
-134.386574
 20
263.912023
 30
0.0
  0
VERTEX
  8
0
  5
E5AA3
 10
-134.316369
 20
263.918839
 30
0.0
  0
VERTEX
  8
0
  5
E5AA4
 10
-134.249667
 20
263.933203
 30
0.0
  0
VERTEX
  8
0
  5
E5AA5
 10
-134.188878
 20
263.954595
 30
0.0
  0
VERTEX
  8
0
  5
E5AA6
 10
-134.1362
 20
263.982243
 30
0.0
  0
VERTEX
  8
0
  5
E5AA7
 10
-134.093537
 20
264.015147
 30
0.0
  0
VERTEX
  8
0
  5
E5AA8
 10
-134.062431
 20
264.052118
 30
0.0
  0
VERTEX
  8
0
  5
E5AA9
 10
-134.044005
 20
264.091819
 30
0.0
  0
VERTEX
  8
0
  5
E5AAA
 10
-134.038926
 20
264.132817
 30
0.0
  0
VERTEX
  8
0
  5
E5AAB
 10
-134.047378
 20
264.173628
 30
0.0
  0
VERTEX
  8
0
  5
E5AAC
 10
-134.069055
 20
264.212778
 30
0.0
  0
VERTEX
  8
0
  5
E5AAD
 10
-134.103173
 20
264.248853
 30
0.0
  0
SEQEND
  8
0
  5
E5AAE
  0
POLYLINE
  8
0
  5
E5AAF
 66
     1
 10
0.0
 20
0.0
 30
0.0
 70
   128
  0
VERTEX
  8
0
  5
E5AB0
 10
134.783923
 20
264.096814
 30
0.0
  0
VERTEX
  8
0
  5
E5AB1
 10
134.774055
 20
264.137213
 30
0.0
  0
VERTEX
  8
0
  5
E5AB2
 10
134.751099
 20
264.175799
 30
0.0
  0
VERTEX
  8
0
  5
E5AB3
 10
134.715887
 20
264.211172
 30
0.0
  0
VERTEX
  8
0
  5
E5AB4
 10
134.669698
 20
264.242048
 30
0.0
  0
VERTEX
  8
0
  5
E5AB5
 10
134.614206
 20
264.267309
 30
0.0
  0
VERTEX
  8
0
  5
E5AB6
 10
134.551425
 20
264.286037
 30
0.0
  0
VERTEX
  8
0
  5
E5AB7
 10
134.483633
 20
264.297552
 30
0.0
  0
VERTEX
  8
0
  5
E5AB8
 10
134.413289
 20
264.301437
 30
0.0
  0
VERTEX
  8
0
  5
E5AB9
 10
134.342944
 20
264.297552
 30
0.0
  0
VERTEX
  8
0
  5
E5ABA
 10
134.275152
 20
264.286037
 30
0.0
  0
VERTEX
  8
0
  5
E5ABB
 10
134.212371
 20
264.267309
 30
0.0
  0
VERTEX
  8
0
  5
E5ABC
 10
134.156879
 20
264.242048
 30
0.0
  0
VERTEX
  8
0
  5
E5ABD
 10
134.11069
 20
264.211172
 30
0.0
  0
VERTEX
  8
0
  5
E5ABE
 10
134.075478
 20
264.175799
 30
0.0
  0
VERTEX
  8
0
  5
E5ABF
 10
134.052522
 20
264.137213
 30
0.0
  0
VERTEX
  8
0
  5
E5AC0
 10
134.042654
 20
264.096814
 30
0.0
  0
SEQEND
  8
0
  5
E5AC1
  0
POLYLINE
  8
0
  5
E5AC2
 66
     1
 10
0.0
 20
0.0
 30
0.0
 70
   128
210
-0.0000000000000002
220
0.0
230
-1.0
  0
VERTEX
  8
0
  5
E5AC3
 10
-132.183192
 20
262.002851
 30
0.0
  0
VERTEX
  8
0
  5
E5AC4
 10
-132.182313
 20
261.993514
 30
0.0
  0
VERTEX
  8
0
  5
E5AC5
 10
-132.179709
 20
261.985368
 30
0.0
  0
VERTEX
  8
0
  5
E5AC6
 10
-132.175474
 20
261.978712
 30
0.0
  0
VERTEX
  8
0
  5
E5AC7
 10
-132.169763
 20
261.973788
 30
0.0
  0
VERTEX
  8
0
  5
E5AC8
 10
-132.162784
 20
261.970776
 30
0.0
  0
VERTEX
  8
0
  5
E5AC9
 10
-132.154793
 20
261.969785
 30
0.0
  0
VERTEX
  8
0
  5
E5ACA
 10
-132.14608
 20
261.970853
 30
0.0
  0
VERTEX
  8
0
  5
E5ACB
 10
-132.136963
 20
261.973939
 30
0.0
  0
VERTEX
  8
0
  5
E5ACC
 10
-132.127775
 20
261.978931
 30
0.0
  0
VERTEX
  8
0
  5
E5ACD
 10
-132.118851
 20
261.985647
 30
0.0
  0
VERTEX
  8
0
  5
E5ACE
 10
-132.110517
 20
261.993842
 30
0.0
  0
VERTEX
  8
0
  5
E5ACF
 10
-132.103076
 20
262.003218
 30
0.0
  0
VERTEX
  8
0
  5
E5AD0
 10
-132.096801
 20
262.013431
 30
0.0
  0
VERTEX
  8
0
  5
E5AD1
 10
-132.09192
 20
262.02411
 30
0.0
  0
VERTEX
  8
0
  5
E5AD2
 10
-132.088611
 20
262.034865
 30
0.0
  0
VERTEX
  8
0
  5
E5AD3
 10
-132.086994
 20
262.045304
 30
0.0
  0
VERTEX
  8
0
  5
E5AD4
 10
-132.08713
 20
262.055045
 30
0.0
  0
VERTEX
  8
0
  5
E5AD5
 10
-132.089012
 20
262.063734
 30
0.0
  0
VERTEX
  8
0
  5
E5AD6
 10
-132.092573
 20
262.071053
 30
0.0
  0
VERTEX
  8
0
  5
E5AD7
 10
-132.097682
 20
262.076735
 30
0.0
  0
SEQEND
  8
0
  5
E5AD8
  0
LINE
  8
0
  5
E5AD9
 10
132.097682
 20
262.076735
 30
0.0
 11
132.206323
 21
262.151487
 31
0.0
  0
LINE
  8
0
  5
E5ADA
 10
132.296844
 20
262.21377
 30
0.0
 11
132.297366
 21
262.21413
 31
0.0
  0
LINE
  8
0
  5
E5ADB
 10
132.183192
 20
261.705031
 30
0.0
 11
132.183192
 21
261.651613
 31
0.0
  0
LINE
  8
0
  5
E5ADC
 10
132.183192
 20
261.651613
 30
0.0
 11
132.331419
 21
261.579804
 31
0.0
  0
POLYLINE
  8
0
  5
E5ADD
 66
     1
 10
0.0
 20
0.0
 30
0.0
 70
   128
210
-0.0000000000000001
220
0.0000000000000001
230
-1.0
  0
VERTEX
  8
0
  5
E5ADE
 10
-132.138081
 20
261.89613
 30
0.0
  0
VERTEX
  8
0
  5
E5ADF
 10
-132.14397
 20
261.892695
 30
0.0
  0
VERTEX
  8
0
  5
E5AE0
 10
-132.149658
 20
261.888214
 30
0.0
  0
VERTEX
  8
0
  5
E5AE1
 10
-132.154953
 20
261.882839
 30
0.0
  0
VERTEX
  8
0
  5
E5AE2
 10
-132.159672
 20
261.876754
 30
0.0
  0
VERTEX
  8
0
  5
E5AE3
 10
-132.163657
 20
261.870165
 30
0.0
  0
VERTEX
  8
0
  5
E5AE4
 10
-132.16677
 20
261.863297
 30
0.0
  0
VERTEX
  8
0
  5
E5AE5
 10
-132.168907
 20
261.856384
 30
0.0
  0
VERTEX
  8
0
  5
E5AE6
 10
-132.169994
 20
261.849661
 30
0.0
  0
VERTEX
  8
0
  5
E5AE7
 10
-132.169994
 20
261.843357
 30
0.0
  0
VERTEX
  8
0
  5
E5AE8
 10
-132.168907
 20
261.837687
 30
0.0
  0
VERTEX
  8
0
  5
E5AE9
 10
-132.16677
 20
261.832844
 30
0.0
  0
VERTEX
  8
0
  5
E5AEA
 10
-132.163657
 20
261.828993
 30
0.0
  0
VERTEX
  8
0
  5
E5AEB
 10
-132.159672
 20
261.826265
 30
0.0
  0
VERTEX
  8
0
  5
E5AEC
 10
-132.154953
 20
261.824752
 30
0.0
  0
VERTEX
  8
0
  5
E5AED
 10
-132.149658
 20
261.824507
 30
0.0
  0
VERTEX
  8
0
  5
E5AEE
 10
-132.14397
 20
261.825538
 30
0.0
  0
VERTEX
  8
0
  5
E5AEF
 10
-132.138081
 20
261.827809
 30
0.0
  0
SEQEND
  8
0
  5
E5AF0
  0
LINE
  8
0
  5
E5AF1
 10
132.138081
 20
261.827809
 30
0.0
 11
132.169985
 21
261.849761
 31
0.0
  0
LINE
  8
0
  5
E5AF2
 10
132.138081
 20
261.827809
 30
0.0
 11
132.058749
 21
261.866242
 31
0.0
  0
LINE
  8
0
  5
E5AF3
 10
132.058749
 20
261.866242
 30
0.0
 11
132.117017
 21
261.906334
 31
0.0
  0
LINE
  8
0
  5
E5AF4
 10
133.279489
 20
262.192603
 30
0.0
 11
133.192779
 21
262.132941
 31
0.0
  0
LINE
  8
0
  5
E5AF5
 10
133.011136
 20
262.350125
 30
0.0
 11
132.808063
 21
262.210399
 31
0.0
  0
LINE
  8
0
  5
E5AF6
 10
133.974312
 20
261.353342
 30
0.0
 11
134.055779
 21
261.313875
 31
0.0
  0
LINE
  8
0
  5
E5AF7
 10
133.974312
 20
261.457145
 30
0.0
 11
133.974312
 21
261.353342
 31
0.0
  0
LINE
  8
0
  5
E5AF8
 10
133.969429
 20
261.459511
 30
0.0
 11
133.974312
 21
261.457145
 31
0.0
  0
LINE
  8
0
  5
E5AF9
 10
133.890387
 20
261.794982
 30
0.0
 11
133.969429
 21
261.459511
 31
0.0
  0
LINE
  8
0
  5
E5AFA
 10
133.360893
 20
262.051498
 30
0.0
 11
133.890387
 21
261.794982
 31
0.0
  0
POLYLINE
  8
0
  5
E5AFB
 66
     1
 10
0.0
 20
0.0
 30
0.0
 70
   128
  0
VERTEX
  8
0
  5
E5AFC
 10
133.21084
 20
262.124192
 30
0.0
  0
VERTEX
  8
0
  5
E5AFD
 10
133.213957
 20
262.107485
 30
0.0
  0
VERTEX
  8
0
  5
E5AFE
 10
133.219757
 20
262.090401
 30
0.0
  0
VERTEX
  8
0
  5
E5AFF
 10
133.228024
 20
262.073576
 30
0.0
  0
VERTEX
  8
0
  5
E5B00
 10
133.238449
 20
262.05764
 30
0.0
  0
VERTEX
  8
0
  5
E5B01
 10
133.250643
 20
262.043186
 30
0.0
  0
VERTEX
  8
0
  5
E5B02
 10
133.264152
 20
262.030753
 30
0.0
  0
VERTEX
  8
0
  5
E5B03
 10
133.27847
 20
262.020805
 30
0.0
  0
VERTEX
  8
0
  5
E5B04
 10
133.293064
 20
262.013715
 30
0.0
  0
VERTEX
  8
0
  5
E5B05
 10
133.30739
 20
262.009745
 30
0.0
  0
VERTEX
  8
0
  5
E5B06
 10
133.320913
 20
262.009044
 30
0.0
  0
VERTEX
  8
0
  5
E5B07
 10
133.333128
 20
262.011639
 30
0.0
  0
SEQEND
  8
0
  5
E5B08
  0
LINE
  8
0
  5
E5B09
 10
133.080307
 20
262.187429
 30
0.0
 11
133.21084
 21
262.124192
 31
0.0
  0
POLYLINE
  8
0
  5
E5B0A
 66
     1
 10
0.0
 20
0.0
 30
0.0
 70
   128
  0
VERTEX
  8
0
  5
E5B0B
 10
132.982946
 20
262.125676
 30
0.0
  0
VERTEX
  8
0
  5
E5B0C
 10
133.004434
 20
262.121204
 30
0.0
  0
VERTEX
  8
0
  5
E5B0D
 10
133.024474
 20
262.121674
 30
0.0
  0
VERTEX
  8
0
  5
E5B0E
 10
133.042336
 20
262.127068
 30
0.0
  0
SEQEND
  8
0
  5
E5B0F
  0
LINE
  8
0
  5
E5B10
 10
132.754747
 20
262.236228
 30
0.0
 11
132.982946
 21
262.125676
 31
0.0
  0
POLYLINE
  8
0
  5
E5B11
 66
     1
 10
0.0
 20
0.0
 30
0.0
 70
   128
  0
VERTEX
  8
0
  5
E5B12
 10
132.639474
 20
262.430409
 30
0.0
  0
VERTEX
  8
0
  5
E5B13
 10
132.638941
 20
262.407487
 30
0.0
  0
VERTEX
  8
0
  5
E5B14
 10
132.642475
 20
262.382895
 30
0.0
  0
VERTEX
  8
0
  5
E5B15
 10
132.649953
 20
262.357497
 30
0.0
  0
VERTEX
  8
0
  5
E5B16
 10
132.661111
 20
262.332186
 30
0.0
  0
VERTEX
  8
0
  5
E5B17
 10
132.675557
 20
262.307851
 30
0.0
  0
VERTEX
  8
0
  5
E5B18
 10
132.692785
 20
262.285345
 30
0.0
  0
VERTEX
  8
0
  5
E5B19
 10
132.712189
 20
262.26546
 30
0.0
  0
VERTEX
  8
0
  5
E5B1A
 10
132.733087
 20
262.248894
 30
0.0
  0
VERTEX
  8
0
  5
E5B1B
 10
132.754747
 20
262.236228
 30
0.0
  0
SEQEND
  8
0
  5
E5B1C
  0
POLYLINE
  8
0
  5
E5B1D
 66
     1
 10
0.0
 20
0.0
 30
0.0
 70
   128
  0
VERTEX
  8
0
  5
E5B1E
 10
132.661632
 20
262.504814
 30
0.0
  0
VERTEX
  8
0
  5
E5B1F
 10
132.650671
 20
262.490829
 30
0.0
  0
VERTEX
  8
0
  5
E5B20
 10
132.64318
 20
262.473364
 30
0.0
  0
VERTEX
  8
0
  5
E5B21
 10
132.639405
 20
262.452998
 30
0.0
  0
VERTEX
  8
0
  5
E5B22
 10
132.639474
 20
262.430409
 30
0.0
  0
SEQEND
  8
0
  5
E5B23
  0
POLYLINE
  8
0
  5
E5B24
 66
     1
 10
0.0
 20
0.0
 30
0.0
 70
   128
  0
VERTEX
  8
0
  5
E5B25
 10
133.222689
 20
262.203065
 30
0.0
  0
VERTEX
  8
0
  5
E5B26
 10
133.217079
 20
262.19493
 30
0.0
  0
VERTEX
  8
0
  5
E5B27
 10
133.213098
 20
262.185218
 30
0.0
  0
VERTEX
  8
0
  5
E5B28
 10
133.21084
 20
262.174158
 30
0.0
  0
SEQEND
  8
0
  5
E5B29
  0
LINE
  8
0
  5
E5B2A
 10
133.974312
 20
262.11592
 30
0.0
 11
133.890387
 21
261.844948
 31
0.0
  0
LINE
  8
0
  5
E5B2B
 10
133.974312
 20
262.118076
 30
0.0
 11
133.974312
 21
262.11592
 31
0.0
  0
LINE
  8
0
  5
E5B2C
 10
133.974312
 20
260.029247
 30
0.0
 11
133.974312
 21
259.98872
 31
0.0
  0
LINE
  8
0
  5
E5B2D
 10
133.890387
 20
260.385443
 30
0.0
 11
133.974312
 21
260.029247
 31
0.0
  0
LINE
  8
0
  5
E5B2E
 10
133.360893
 20
260.641958
 30
0.0
 11
133.890387
 21
260.385443
 31
0.0
  0
POLYLINE
  8
0
  5
E5B2F
 66
     1
 10
0.0
 20
0.0
 30
0.0
 70
   128
  0
VERTEX
  8
0
  5
E5B30
 10
133.210839
 20
260.714653
 30
0.0
  0
VERTEX
  8
0
  5
E5B31
 10
133.213956
 20
260.697946
 30
0.0
  0
VERTEX
  8
0
  5
E5B32
 10
133.219756
 20
260.680861
 30
0.0
  0
VERTEX
  8
0
  5
E5B33
 10
133.228023
 20
260.664037
 30
0.0
  0
VERTEX
  8
0
  5
E5B34
 10
133.238448
 20
260.6481
 30
0.0
  0
VERTEX
  8
0
  5
E5B35
 10
133.250642
 20
260.633645
 30
0.0
  0
VERTEX
  8
0
  5
E5B36
 10
133.26415
 20
260.621212
 30
0.0
  0
VERTEX
  8
0
  5
E5B37
 10
133.278469
 20
260.611265
 30
0.0
  0
VERTEX
  8
0
  5
E5B38
 10
133.293063
 20
260.604173
 30
0.0
  0
VERTEX
  8
0
  5
E5B39
 10
133.307389
 20
260.600204
 30
0.0
  0
VERTEX
  8
0
  5
E5B3A
 10
133.320912
 20
260.599503
 30
0.0
  0
VERTEX
  8
0
  5
E5B3B
 10
133.333128
 20
260.602098
 30
0.0
  0
SEQEND
  8
0
  5
E5B3C
  0
LINE
  8
0
  5
E5B3D
 10
133.080307
 20
260.77789
 30
0.0
 11
133.210839
 21
260.714653
 31
0.0
  0
POLYLINE
  8
0
  5
E5B3E
 66
     1
 10
0.0
 20
0.0
 30
0.0
 70
   128
  0
VERTEX
  8
0
  5
E5B3F
 10
132.982946
 20
260.716137
 30
0.0
  0
VERTEX
  8
0
  5
E5B40
 10
133.004434
 20
260.711664
 30
0.0
  0
VERTEX
  8
0
  5
E5B41
 10
133.024474
 20
260.712134
 30
0.0
  0
VERTEX
  8
0
  5
E5B42
 10
133.042336
 20
260.717529
 30
0.0
  0
SEQEND
  8
0
  5
E5B43
  0
LINE
  8
0
  5
E5B44
 10
132.754747
 20
260.826689
 30
0.0
 11
132.982946
 21
260.716137
 31
0.0
  0
POLYLINE
  8
0
  5
E5B45
 66
     1
 10
0.0
 20
0.0
 30
0.0
 70
   128
  0
VERTEX
  8
0
  5
E5B46
 10
132.639055
 20
261.016639
 30
0.0
  0
VERTEX
  8
0
  5
E5B47
 10
132.639258
 20
260.993847
 30
0.0
  0
VERTEX
  8
0
  5
E5B48
 10
132.643346
 20
260.969594
 30
0.0
  0
VERTEX
  8
0
  5
E5B49
 10
132.651182
 20
260.944696
 30
0.0
  0
VERTEX
  8
0
  5
E5B4A
 10
132.662503
 20
260.919991
 30
0.0
  0
VERTEX
  8
0
  5
E5B4B
 10
132.676926
 20
260.896309
 30
0.0
  0
VERTEX
  8
0
  5
E5B4C
 10
132.693968
 20
260.874447
 30
0.0
  0
VERTEX
  8
0
  5
E5B4D
 10
132.713055
 20
260.855142
 30
0.0
  0
VERTEX
  8
0
  5
E5B4E
 10
132.733544
 20
260.839042
 30
0.0
  0
VERTEX
  8
0
  5
E5B4F
 10
132.754747
 20
260.826689
 30
0.0
  0
SEQEND
  8
0
  5
E5B50
  0
POLYLINE
  8
0
  5
E5B51
 66
     1
 10
0.0
 20
0.0
 30
0.0
 70
   128
  0
VERTEX
  8
0
  5
E5B52
 10
132.661338
 20
261.08948
 30
0.0
  0
VERTEX
  8
0
  5
E5B53
 10
132.650533
 20
261.075758
 30
0.0
  0
VERTEX
  8
0
  5
E5B54
 10
132.643077
 20
261.058663
 30
0.0
  0
VERTEX
  8
0
  5
E5B55
 10
132.63921
 20
261.038743
 30
0.0
  0
VERTEX
  8
0
  5
E5B56
 10
132.639055
 20
261.016639
 30
0.0
  0
SEQEND
  8
0
  5
E5B57
  0
POLYLINE
  8
0
  5
E5B58
 66
     1
 10
0.0
 20
0.0
 30
0.0
 70
   128
  0
VERTEX
  8
0
  5
E5B59
 10
133.222689
 20
260.793526
 30
0.0
  0
VERTEX
  8
0
  5
E5B5A
 10
133.217079
 20
260.785391
 30
0.0
  0
VERTEX
  8
0
  5
E5B5B
 10
133.213098
 20
260.775679
 30
0.0
  0
VERTEX
  8
0
  5
E5B5C
 10
133.21084
 20
260.764618
 30
0.0
  0
SEQEND
  8
0
  5
E5B5D
  0
LINE
  8
0
  5
E5B5E
 10
133.968515
 20
260.687662
 30
0.0
 11
133.890387
 21
260.435409
 31
0.0
  0
LINE
  8
0
  5
E5B5F
 10
133.992116
 20
260.70824
 30
0.0
 11
134.055437
 21
260.751809
 31
0.0
  0
LINE
  8
0
  5
E5B60
 10
133.992116
 20
260.70824
 30
0.0
 11
133.992116
 21
261.270071
 31
0.0
  0
LINE
  8
0
  5
E5B61
 10
133.992116
 20
261.270071
 30
0.0
 11
134.055779
 21
261.313875
 31
0.0
  0
LINE
  8
0
  5
E5B62
 10
134.055779
 20
261.313875
 30
0.0
 11
134.055779
 21
261.289837
 31
0.0
  0
LINE
  8
0
  5
E5B63
 10
134.055779
 20
261.050773
 30
0.0
 11
134.055779
 21
260.955981
 31
0.0
  0
LINE
  8
0
  5
E5B64
 10
134.055779
 20
261.255911
 30
0.0
 11
134.055779
 21
261.134609
 31
0.0
  0
LINE
  8
0
  5
E5B65
 10
132.194962
 20
261.443283
 30
0.0
 11
132.320176
 21
261.529438
 31
0.0
  0
LINE
  8
0
  5
E5B66
 10
132.194962
 20
261.443283
 30
0.0
 11
132.097898
 21
261.713612
 31
0.0
  0
LINE
  8
0
  5
E5B67
 10
132.097898
 20
261.713612
 30
0.0
 11
132.16122
 21
261.757181
 31
0.0
  0
LINE
  8
0
  5
E5B68
 10
132.183192
 20
262.056198
 30
0.0
 11
132.183192
 21
262.002851
 31
0.0
  0
LINE
  8
0
  5
E5B69
 10
132.345663
 20
261.977488
 30
0.0
 11
132.183192
 21
262.056198
 31
0.0
  0
LINE
  8
0
  5
E5B6A
 10
132.183192
 20
262.056198
 30
0.0
 11
132.274018
 21
262.118692
 31
0.0
  0
LINE
  8
0
  5
E5B6B
 10
134.173026
 20
261.186024
 30
0.0
 11
134.211704
 21
261.241894
 31
0.0
  0
LINE
  8
0
  5
E5B6C
 10
134.211704
 20
261.241894
 30
0.0
 11
134.243536
 21
261.263796
 31
0.0
  0
LINE
  8
0
  5
E5B6D
 10
134.211704
 20
261.241894
 30
0.0
 11
134.173026
 21
261.260632
 31
0.0
  0
LINE
  8
0
  5
E5B6E
 10
134.243536
 20
261.263796
 30
0.0
 11
134.243536
 21
260.985575
 31
0.0
  0
LINE
  8
0
  5
E5B6F
 10
134.243536
 20
261.263796
 30
0.0
 11
134.173026
 21
261.297955
 31
0.0
  0
LINE
  8
0
  5
E5B70
 10
134.243536
 20
260.985575
 30
0.0
 11
134.201767
 21
260.956836
 31
0.0
  0
POLYLINE
  8
0
  5
E5B71
 66
     1
 10
0.0
 20
0.0
 30
0.0
 70
   128
210
-0.0000000000000002
220
0.0
230
-1.0
  0
VERTEX
  8
0
  5
E5B72
 10
-132.183192
 20
262.028349
 30
0.0
  0
VERTEX
  8
0
  5
E5B73
 10
-132.176068
 20
262.035011
 30
0.0
  0
VERTEX
  8
0
  5
E5B74
 10
-132.169518
 20
262.04257
 30
0.0
  0
VERTEX
  8
0
  5
E5B75
 10
-132.163711
 20
262.050829
 30
0.0
  0
SEQEND
  8
0
  5
E5B76
  0
LINE
  8
0
  5
E5B77
 10
132.183192
 20
262.041391
 30
0.0
 11
132.163711
 21
262.050829
 31
0.0
  0
LINE
  8
0
  5
E5B78
 10
132.163711
 20
262.050829
 30
0.0
 11
132.224482
 21
262.092643
 31
0.0
  0
LINE
  8
0
  5
E5B79
 10
132.231334
 20
262.089323
 30
0.0
 11
132.224482
 21
262.092643
 31
0.0
  0
LINE
  8
0
  5
E5B7A
 10
132.224482
 20
262.092643
 30
0.0
 11
132.21943
 21
262.101668
 31
0.0
  0
LINE
  8
0
  5
E5B7B
 10
132.21943
 20
262.145137
 30
0.0
 11
132.21943
 21
262.101668
 31
0.0
  0
LINE
  8
0
  5
E5B7C
 10
134.201767
 20
260.956836
 30
0.0
 11
134.173026
 21
260.981374
 31
0.0
  0
LINE
  8
0
  5
E5B7D
 10
134.201767
 20
260.956836
 30
0.0
 11
134.173026
 21
260.97076
 31
0.0
  0
LINE
  8
0
  5
E5B7E
 10
132.326079
 20
261.55588
 30
0.0
 11
132.214003
 21
261.610175
 31
0.0
  0
LINE
  8
0
  5
E5B7F
 10
132.214003
 20
261.610175
 30
0.0
 11
132.202479
 21
261.642269
 31
0.0
  0
LINE
  8
0
  5
E5B80
 10
132.183192
 20
261.695987
 30
0.0
 11
132.16122
 21
261.757181
 31
0.0
  0
LINE
  8
0
  5
E5B81
 10
132.16122
 20
261.757181
 30
0.0
 11
132.15907
 21
261.761208
 31
0.0
  0
LINE
  8
0
  5
E5B82
 10
134.055437
 20
260.718084
 30
0.0
 11
134.055437
 21
260.751809
 31
0.0
  0
LINE
  8
0
  5
E5B83
 10
134.173026
 20
260.981374
 30
0.0
 11
134.173026
 21
260.93706
 31
0.0
  0
LINE
  8
0
  5
E5B84
 10
134.055437
 20
260.718084
 30
0.0
 11
134.026675
 21
260.732019
 31
0.0
  0
LINE
  8
0
  5
E5B85
 10
134.102794
 20
260.750668
 30
0.0
 11
134.055437
 21
260.718084
 31
0.0
  0
LINE
  8
0
  5
E5B86
 10
134.173026
 20
260.93706
 30
0.0
 11
134.089837
 21
260.879821
 31
0.0
  0
LINE
  8
0
  5
E5B87
 10
134.170059
 20
260.847833
 30
0.0
 11
134.102794
 21
260.750668
 31
0.0
  0
LINE
  8
0
  5
E5B88
 10
134.170059
 20
260.847833
 30
0.0
 11
134.095701
 21
260.883856
 31
0.0
  0
LINE
  8
0
  5
E5B89
 10
134.095839
 20
260.796765
 30
0.0
 11
134.170059
 21
260.847833
 31
0.0
  0
LINE
  8
0
  5
E5B8A
 10
134.095839
 20
260.796765
 30
0.0
 11
134.061369
 21
260.813464
 31
0.0
  0
POLYLINE
  8
0
  5
E5B8B
 66
     1
 10
0.0
 20
0.0
 30
0.0
 70
   128
  0
VERTEX
  8
0
  5
E5B8C
 10
134.089837
 20
260.879821
 30
0.0
  0
VERTEX
  8
0
  5
E5B8D
 10
134.083661
 20
260.873424
 30
0.0
  0
VERTEX
  8
0
  5
E5B8E
 10
134.077902
 20
260.865904
 30
0.0
  0
VERTEX
  8
0
  5
E5B8F
 10
134.072758
 20
260.85752
 30
0.0
  0
VERTEX
  8
0
  5
E5B90
 10
134.068405
 20
260.848558
 30
0.0
  0
VERTEX
  8
0
  5
E5B91
 10
134.064994
 20
260.839327
 30
0.0
  0
VERTEX
  8
0
  5
E5B92
 10
134.06264
 20
260.830143
 30
0.0
  0
VERTEX
  8
0
  5
E5B93
 10
134.061425
 20
260.82132
 30
0.0
  0
VERTEX
  8
0
  5
E5B94
 10
134.061389
 20
260.813162
 30
0.0
  0
VERTEX
  8
0
  5
E5B95
 10
134.062536
 20
260.805947
 30
0.0
  0
VERTEX
  8
0
  5
E5B96
 10
134.064824
 20
260.799924
 30
0.0
  0
VERTEX
  8
0
  5
E5B97
 10
134.068175
 20
260.795299
 30
0.0
  0
VERTEX
  8
0
  5
E5B98
 10
134.072476
 20
260.792231
 30
0.0
  0
VERTEX
  8
0
  5
E5B99
 10
134.077577
 20
260.790824
 30
0.0
  0
VERTEX
  8
0
  5
E5B9A
 10
134.083305
 20
260.791128
 30
0.0
  0
VERTEX
  8
0
  5
E5B9B
 10
134.089463
 20
260.793131
 30
0.0
  0
VERTEX
  8
0
  5
E5B9C
 10
134.095839
 20
260.796765
 30
0.0
  0
SEQEND
  8
0
  5
E5B9D
  0
POLYLINE
  8
0
  5
E5B9E
 66
     1
 10
0.0
 20
0.0
 30
0.0
 70
   128
  0
VERTEX
  8
0
  5
E5B9F
 10
134.068383
 20
260.964653
 30
0.0
  0
VERTEX
  8
0
  5
E5BA0
 10
134.076273
 20
260.959682
 30
0.0
  0
VERTEX
  8
0
  5
E5BA1
 10
134.085567
 20
260.957756
 30
0.0
  0
VERTEX
  8
0
  5
E5BA2
 10
134.095931
 20
260.958945
 30
0.0
  0
VERTEX
  8
0
  5
E5BA3
 10
134.106992
 20
260.963207
 30
0.0
  0
VERTEX
  8
0
  5
E5BA4
 10
134.118352
 20
260.970387
 30
0.0
  0
VERTEX
  8
0
  5
E5BA5
 10
134.129602
 20
260.980229
 30
0.0
  0
VERTEX
  8
0
  5
E5BA6
 10
134.140337
 20
260.992376
 30
0.0
  0
VERTEX
  8
0
  5
E5BA7
 10
134.150171
 20
261.006394
 30
0.0
  0
VERTEX
  8
0
  5
E5BA8
 10
134.15875
 20
261.021776
 30
0.0
  0
VERTEX
  8
0
  5
E5BA9
 10
134.165766
 20
261.03797
 30
0.0
  0
VERTEX
  8
0
  5
E5BAA
 10
134.170966
 20
261.054393
 30
0.0
  0
VERTEX
  8
0
  5
E5BAB
 10
134.174162
 20
261.070453
 30
0.0
  0
VERTEX
  8
0
  5
E5BAC
 10
134.175241
 20
261.085574
 30
0.0
  0
VERTEX
  8
0
  5
E5BAD
 10
134.174162
 20
261.09921
 30
0.0
  0
VERTEX
  8
0
  5
E5BAE
 10
134.170966
 20
261.110872
 30
0.0
  0
VERTEX
  8
0
  5
E5BAF
 10
134.165766
 20
261.120139
 30
0.0
  0
VERTEX
  8
0
  5
E5BB0
 10
134.15875
 20
261.126678
 30
0.0
  0
VERTEX
  8
0
  5
E5BB1
 10
134.150171
 20
261.130255
 30
0.0
  0
VERTEX
  8
0
  5
E5BB2
 10
134.140337
 20
261.130739
 30
0.0
  0
VERTEX
  8
0
  5
E5BB3
 10
134.129602
 20
261.128114
 30
0.0
  0
VERTEX
  8
0
  5
E5BB4
 10
134.118352
 20
261.122474
 30
0.0
  0
VERTEX
  8
0
  5
E5BB5
 10
134.106992
 20
261.114023
 30
0.0
  0
VERTEX
  8
0
  5
E5BB6
 10
134.095931
 20
261.103063
 30
0.0
  0
VERTEX
  8
0
  5
E5BB7
 10
134.085567
 20
261.08999
 30
0.0
  0
VERTEX
  8
0
  5
E5BB8
 10
134.076273
 20
261.075275
 30
0.0
  0
VERTEX
  8
0
  5
E5BB9
 10
134.068383
 20
261.059445
 30
0.0
  0
SEQEND
  8
0
  5
E5BBA
  0
LINE
  8
0
  5
E5BBB
 10
134.173026
 20
261.304846
 30
0.0
 11
134.173026
 21
261.186024
 31
0.0
  0
LINE
  8
0
  5
E5BBC
 10
132.26168
 20
262.225863
 30
0.0
 11
132.289236
 21
262.217456
 31
0.0
  0
LINE
  8
0
  5
E5BBD
 10
132.297505
 20
262.21345
 30
0.0
 11
132.289236
 21
262.217456
 31
0.0
  0
LINE
  8
0
  5
E5BBE
 10
134.173026
 20
261.304846
 30
0.0
 11
133.974312
 21
261.401113
 31
0.0
  0
LINE
  8
0
  5
E5BBF
 10
134.112808
 20
261.329076
 30
0.0
 11
134.173026
 21
261.304846
 31
0.0
  0
LINE
  8
0
  5
E5BC0
 10
132.204309
 20
262.186389
 30
0.0
 11
132.26168
 21
262.225863
 31
0.0
  0
LINE
  8
0
  5
E5BC1
 10
132.298625
 20
262.207965
 30
0.0
 11
132.26168
 21
262.225863
 31
0.0
  0
LINE
  8
0
  5
E5BC2
 10
134.112808
 20
261.329076
 30
0.0
 11
133.974312
 21
261.396171
 31
0.0
  0
LINE
  8
0
  5
E5BC3
 10
134.055779
 20
261.289837
 30
0.0
 11
134.112808
 21
261.329076
 31
0.0
  0
LINE
  8
0
  5
E5BC4
 10
134.116209
 20
261.29749
 30
0.0
 11
134.055779
 21
261.255911
 31
0.0
  0
LINE
  8
0
  5
E5BC5
 10
134.116209
 20
261.176188
 30
0.0
 11
134.116209
 21
261.29749
 31
0.0
  0
LINE
  8
0
  5
E5BC6
 10
134.068383
 20
260.964653
 30
0.0
 11
134.055779
 21
260.970759
 31
0.0
  0
LINE
  8
0
  5
E5BC7
 10
134.055779
 20
260.955981
 30
0.0
 11
134.068383
 21
260.964653
 31
0.0
  0
LINE
  8
0
  5
E5BC8
 10
134.116209
 20
261.176188
 30
0.0
 11
134.055779
 21
261.205463
 31
0.0
  0
LINE
  8
0
  5
E5BC9
 10
134.055779
 20
261.134609
 30
0.0
 11
134.116209
 21
261.176188
 31
0.0
  0
LINE
  8
0
  5
E5BCA
 10
134.068383
 20
261.059445
 30
0.0
 11
134.055779
 21
261.050773
 31
0.0
  0
LINE
  8
0
  5
E5BCB
 10
132.321544
 20
262.095668
 30
0.0
 11
132.187434
 21
262.160638
 31
0.0
  0
LINE
  8
0
  5
E5BCC
 10
132.187434
 20
262.160638
 30
0.0
 11
132.204309
 21
262.186389
 31
0.0
  0
LINE
  8
0
  5
E5BCD
 10
132.31386
 20
262.133317
 30
0.0
 11
132.204309
 21
262.186389
 31
0.0
  0
LINE
  8
0
  5
E5BCE
 10
135.894759
 20
263.749536
 30
0.0
 11
135.304672
 21
263.343521
 31
0.0
  0
LINE
  8
0
  5
E5BCF
 10
134.8656
 20
263.041414
 30
0.0
 11
134.218422
 21
262.596117
 31
0.0
  0
LINE
  8
0
  5
E5BD0
 10
134.8656
 20
263.041414
 30
0.0
 11
134.8656
 21
263.108354
 31
0.0
  0
LINE
  8
0
  5
E5BD1
 10
134.8656
 20
263.108354
 30
0.0
 11
134.972109
 21
263.056755
 31
0.0
  0
LINE
  8
0
  5
E5BD2
 10
134.8656
 20
263.108354
 30
0.0
 11
135.247581
 21
263.371179
 31
0.0
  0
LINE
  8
0
  5
E5BD3
 10
135.35409
 20
263.319581
 30
0.0
 11
135.247581
 21
263.371179
 31
0.0
  0
LINE
  8
0
  5
E5BD4
 10
134.218422
 20
259.846603
 30
0.0
 11
134.8656
 21
260.2919
 31
0.0
  0
LINE
  8
0
  5
E5BD5
 10
132.735363
 20
260.837817
 30
0.0
 11
132.946368
 21
260.983001
 31
0.0
  0
LINE
  8
0
  5
E5BD6
 10
133.923321
 20
261.655202
 30
0.0
 11
134.179089
 21
261.831186
 31
0.0
  0
LINE
  8
0
  5
E5BD7
 10
135.894759
 20
261.000022
 30
0.0
 11
134.179089
 21
261.831186
 31
0.0
  0
LINE
  8
0
  5
E5BD8
 10
135.263646
 20
260.565779
 30
0.0
 11
135.894759
 21
261.000022
 31
0.0
  0
LINE
  8
0
  5
E5BD9
 10
134.972109
 20
260.173362
 30
0.0
 11
134.8656
 21
260.224961
 31
0.0
  0
LINE
  8
0
  5
E5BDA
 10
134.8656
 20
260.224961
 30
0.0
 11
134.8656
 21
260.2919
 31
0.0
  0
LINE
  8
0
  5
E5BDB
 10
134.8656
 20
260.2919
 30
0.0
 11
134.822651
 21
260.312707
 31
0.0
  0
LINE
  8
0
  5
E5BDC
 10
134.972109
 20
262.970979
 30
0.0
 11
134.849535
 21
263.03036
 31
0.0
  0
LINE
  8
0
  5
E5BDD
 10
135.026872
 20
263.008659
 30
0.0
 11
134.972109
 21
262.970979
 31
0.0
  0
LINE
  8
0
  5
E5BDE
 10
134.972109
 20
263.056755
 30
0.0
 11
134.972109
 21
262.970979
 31
0.0
  0
LINE
  8
0
  5
E5BDF
 10
134.972109
 20
263.056755
 30
0.0
 11
135.35409
 21
263.319581
 31
0.0
  0
LINE
  8
0
  5
E5BE0
 10
135.35409
 20
263.233804
 30
0.0
 11
135.35409
 21
263.319581
 31
0.0
  0
LINE
  8
0
  5
E5BE1
 10
135.35409
 20
263.233804
 30
0.0
 11
135.296616
 21
263.194259
 31
0.0
  0
LINE
  8
0
  5
E5BE2
 10
135.296616
 20
263.248048
 30
0.0
 11
135.296616
 21
263.194259
 31
0.0
  0
LINE
  8
0
  5
E5BE3
 10
135.296616
 20
263.194259
 30
0.0
 11
135.250742
 21
263.216483
 31
0.0
  0
LINE
  8
0
  5
E5BE4
 10
135.026872
 20
263.062448
 30
0.0
 11
135.296616
 21
263.248048
 31
0.0
  0
LINE
  8
0
  5
E5BE5
 10
135.026872
 20
263.008659
 30
0.0
 11
135.026872
 21
263.062448
 31
0.0
  0
LINE
  8
0
  5
E5BE6
 10
135.35409
 20
260.521964
 30
0.0
 11
135.204632
 21
260.594369
 31
0.0
  0
LINE
  8
0
  5
E5BE7
 10
134.822651
 20
260.331544
 30
0.0
 11
134.972109
 21
260.259138
 31
0.0
  0
LINE
  8
0
  5
E5BE8
 10
135.299326
 20
260.484283
 30
0.0
 11
135.35409
 21
260.521964
 31
0.0
  0
LINE
  8
0
  5
E5BE9
 10
135.35409
 20
260.436187
 30
0.0
 11
135.35409
 21
260.521964
 31
0.0
  0
LINE
  8
0
  5
E5BEA
 10
135.35409
 20
260.436187
 30
0.0
 11
134.972109
 21
260.173362
 31
0.0
  0
LINE
  8
0
  5
E5BEB
 10
134.972109
 20
260.259138
 30
0.0
 11
134.972109
 21
260.173362
 31
0.0
  0
LINE
  8
0
  5
E5BEC
 10
134.972109
 20
260.259138
 30
0.0
 11
135.029582
 21
260.298683
 31
0.0
  0
LINE
  8
0
  5
E5BED
 10
135.149869
 20
260.556689
 30
0.0
 11
135.204632
 21
260.594369
 31
0.0
  0
LINE
  8
0
  5
E5BEE
 10
134.822651
 20
260.331544
 30
0.0
 11
134.880125
 21
260.371089
 31
0.0
  0
LINE
  8
0
  5
E5BEF
 10
134.822651
 20
260.312707
 30
0.0
 11
134.822651
 21
260.331544
 31
0.0
  0
LINE
  8
0
  5
E5BF0
 10
134.790299
 20
260.395768
 30
0.0
 11
135.060043
 21
260.581368
 31
0.0
  0
LINE
  8
0
  5
E5BF1
 10
135.029582
 20
260.244895
 30
0.0
 11
135.029582
 21
260.298683
 31
0.0
  0
LINE
  8
0
  5
E5BF2
 10
135.029582
 20
260.298683
 30
0.0
 11
134.880125
 21
260.371089
 31
0.0
  0
LINE
  8
0
  5
E5BF3
 10
134.864059
 20
260.360035
 30
0.0
 11
134.790299
 21
260.395768
 31
0.0
  0
LINE
  8
0
  5
E5BF4
 10
134.820109
 20
260.381327
 30
0.0
 11
135.060043
 21
260.546416
 31
0.0
  0
LINE
  8
0
  5
E5BF5
 10
135.299326
 20
260.430495
 30
0.0
 11
135.029582
 21
260.244895
 31
0.0
  0
LINE
  8
0
  5
E5BF6
 10
135.149869
 20
260.537852
 30
0.0
 11
135.149869
 21
260.556689
 31
0.0
  0
LINE
  8
0
  5
E5BF7
 10
135.149869
 20
260.556689
 30
0.0
 11
135.299326
 21
260.484283
 31
0.0
  0
LINE
  8
0
  5
E5BF8
 10
135.299326
 20
260.484283
 30
0.0
 11
135.299326
 21
260.430495
 31
0.0
  0
LINE
  8
0
  5
E5BF9
 10
135.299326
 20
260.430495
 30
0.0
 11
135.060043
 21
260.546416
 31
0.0
  0
LINE
  8
0
  5
E5BFA
 10
135.060043
 20
260.546416
 30
0.0
 11
135.060043
 21
260.581368
 31
0.0
  0
LINE
  8
0
  5
E5BFB
 10
135.060043
 20
260.581368
 30
0.0
 11
135.149869
 21
260.537852
 31
0.0
  0
LINE
  8
0
  5
E5BFC
 10
136.298038
 20
262.872063
 30
0.0
 11
136.298038
 21
262.922592
 31
0.0
  0
LINE
  8
0
  5
E5BFD
 10
136.270881
 20
262.853378
 30
0.0
 11
136.298038
 21
262.872063
 31
0.0
  0
LINE
  8
0
  5
E5BFE
 10
136.298038
 20
262.922592
 30
0.0
 11
136.202533
 21
262.96886
 31
0.0
  0
LINE
  8
0
  5
E5BFF
 10
136.298038
 20
262.922592
 30
0.0
 11
136.227787
 21
262.874256
 31
0.0
  0
LINE
  8
0
  5
E5C00
 10
133.974312
 20
260.716865
 30
0.0
 11
133.974312
 21
260.691651
 31
0.0
  0
LINE
  8
0
  5
E5C01
 10
133.910649
 20
260.647847
 30
0.0
 11
133.974312
 21
260.691651
 31
0.0
  0
LINE
  8
0
  5
E5C02
 10
133.910649
 20
260.647847
 30
0.0
 11
133.910649
 21
260.73926
 31
0.0
  0
LINE
  8
0
  5
E5C03
 10
133.910649
 20
260.789789
 30
0.0
 11
133.910649
 21
260.747707
 31
0.0
  0
LINE
  8
0
  5
E5C04
 10
133.815144
 20
260.724076
 30
0.0
 11
133.815144
 21
260.673548
 31
0.0
  0
LINE
  8
0
  5
E5C05
 10
133.910649
 20
260.789789
 30
0.0
 11
133.815144
 21
260.724076
 31
0.0
  0
LINE
  8
0
  5
E5C06
 10
133.815144
 20
260.724076
 30
0.0
 11
133.549595
 21
260.852723
 31
0.0
  0
LINE
  8
0
  5
E5C07
 10
133.6451
 20
260.918436
 30
0.0
 11
133.910649
 21
260.789789
 31
0.0
  0
LINE
  8
0
  5
E5C08
 10
133.815144
 20
260.673548
 30
0.0
 11
133.549595
 21
260.802194
 31
0.0
  0
LINE
  8
0
  5
E5C09
 10
133.815144
 20
260.673548
 30
0.0
 11
133.910649
 21
260.73926
 31
0.0
  0
LINE
  8
0
  5
E5C0A
 10
133.6451
 20
260.918436
 30
0.0
 11
133.549595
 21
260.852723
 31
0.0
  0
LINE
  8
0
  5
E5C0B
 10
133.549595
 20
260.852723
 30
0.0
 11
133.549595
 21
260.802194
 31
0.0
  0
LINE
  8
0
  5
E5C0C
 10
132.176882
 20
261.326214
 30
0.0
 11
132.292579
 21
261.405821
 31
0.0
  0
LINE
  8
0
  5
E5C0D
 10
135.720812
 20
263.62985
 30
0.0
 11
135.942572
 21
263.522417
 31
0.0
  0
LINE
  8
0
  5
E5C0E
 10
134.170609
 20
260.073722
 30
0.0
 11
133.937189
 21
260.186803
 31
0.0
  0
LINE
  8
0
  5
E5C0F
 10
132.170313
 20
260.510735
 30
0.0
 11
133.961854
 21
259.642815
 31
0.0
  0
LINE
  8
0
  5
E5C10
 10
136.151327
 20
263.953325
 30
0.0
 11
134.359786
 21
264.821245
 31
0.0
  0
INSERT
  8
0
  5
E5C11
  2
73830
 10
155.353563
 20
645.84623
 30
0.0
 41
0.432524
 42
0.432524
 43
0.432524
  0
INSERT
  8
0
  5
E5C12
  2
DF
 10
363.783155
 20
156.581879
 30
0.0
 41
0.432524
 42
0.432524
 43
0.432524
  0
INSERT
  8
0
  5
E5C13
  2
IU
 10
364.691456
 20
152.516153
 30
0.0
 41
0.432524
 42
0.432524
 43
0.432524
  0
INSERT
  8
0
  5
E5C14
  2
73830
 10
207.968772
 20
678.404553
 30
0.0
 41
0.432524
 42
0.432524
 43
0.432524
  0
INSERT
  8
0
  5
E5C15
  2
DF
 10
416.398364
 20
189.140202
 30
0.0
 41
0.432524
 42
0.432524
 43
0.432524
  0
INSERT
  8
0
  5
E5C16
  2
IU
 10
417.306665
 20
185.074476
 30
0.0
 41
0.432524
 42
0.432524
 43
0.432524
  0
POLYLINE
  8
0
  5
E5C17
 66
     1
 10
0.0
 20
0.0
 30
0.0
 70
   128
210
0.0000000000000002
220
0.0
230
-1.0
  0
VERTEX
  8
0
  5
E5C18
 10
-143.071943
 20
258.568261
 30
0.0
  0
VERTEX
  8
0
  5
E5C19
 10
-143.131153
 20
258.601974
 30
0.0
  0
VERTEX
  8
0
  5
E5C1A
 10
-143.188314
 20
258.620462
 30
0.0
  0
VERTEX
  8
0
  5
E5C1B
 10
-143.241445
 20
258.623086
 30
0.0
  0
VERTEX
  8
0
  5
E5C1C
 10
-143.288707
 20
258.609754
 30
0.0
  0
SEQEND
  8
0
  5
E5C1D
  0
LINE
  8
0
  5
E5C1E
 10
140.515289
 20
256.809132
 30
0.0
 11
143.071943
 21
258.568261
 31
0.0
  0
LINE
  8
0
  5
E5C1F
 10
143.071943
 20
258.568261
 30
0.0
 11
143.381394
 21
258.418347
 31
0.0
  0
LINE
  8
0
  5
E5C20
 10
143.305221
 20
254.548013
 30
0.0
 11
143.429001
 21
254.488047
 31
0.0
  0
LINE
  8
0
  5
E5C21
 10
140.748567
 20
252.788884
 30
0.0
 11
140.872347
 21
252.728918
 31
0.0
  0
LINE
  8
0
  5
E5C22
 10
143.50496
 20
254.939162
 30
0.0
 11
143.62874
 21
254.879196
 31
0.0
  0
LINE
  8
0
  5
E5C23
 10
143.50496
 20
258.186734
 30
0.0
 11
143.62874
 21
258.126768
 31
0.0
  0
LINE
  8
0
  5
E5C24
 10
143.305221
 20
254.548013
 30
0.0
 11
140.748567
 21
252.788884
 31
0.0
  0
POLYLINE
  8
0
  5
E5C25
 66
     1
 10
0.0
 20
0.0
 30
0.0
 70
   128
210
-0.0000000000000001
220
0.0000000000000001
230
-1.0
  0
VERTEX
  8
0
  5
E5C26
 10
-140.748567
 20
252.788884
 30
0.0
  0
VERTEX
  8
0
  5
E5C27
 10
-140.71772
 20
252.770703
 30
0.0
  0
VERTEX
  8
0
  5
E5C28
 10
-140.687614
 20
252.759047
 30
0.0
  0
SEQEND
  8
0
  5
E5C29
  0
POLYLINE
  8
0
  5
E5C2A
 66
     1
 10
0.0
 20
0.0
 30
0.0
 70
   128
210
-0.0000000000000001
220
0.0000000000000001
230
-1.0
  0
VERTEX
  8
0
  5
E5C2B
 10
-143.489955
 20
258.27289
 30
0.0
  0
VERTEX
  8
0
  5
E5C2C
 10
-143.501172
 20
258.233301
 30
0.0
  0
VERTEX
  8
0
  5
E5C2D
 10
-143.50496
 20
258.186734
 30
0.0
  0
SEQEND
  8
0
  5
E5C2E
  0
LINE
  8
0
  5
E5C2F
 10
143.50496
 20
258.186734
 30
0.0
 11
143.50496
 21
254.939162
 31
0.0
  0
POLYLINE
  8
0
  5
E5C30
 66
     1
 10
0.0
 20
0.0
 30
0.0
 70
   128
210
-0.0000000000000001
220
0.0000000000000001
230
-1.0
  0
VERTEX
  8
0
  5
E5C31
 10
-143.50496
 20
254.939162
 30
0.0
  0
VERTEX
  8
0
  5
E5C32
 10
-143.501122
 20
254.887023
 30
0.0
  0
VERTEX
  8
0
  5
E5C33
 10
-143.489755
 20
254.831607
 30
0.0
  0
VERTEX
  8
0
  5
E5C34
 10
-143.471298
 20
254.775043
 30
0.0
  0
VERTEX
  8
0
  5
E5C35
 10
-143.446457
 20
254.719504
 30
0.0
  0
VERTEX
  8
0
  5
E5C36
 10
-143.41619
 20
254.667125
 30
0.0
  0
VERTEX
  8
0
  5
E5C37
 10
-143.381658
 20
254.619919
 30
0.0
  0
VERTEX
  8
0
  5
E5C38
 10
-143.344188
 20
254.5797
 30
0.0
  0
VERTEX
  8
0
  5
E5C39
 10
-143.305221
 20
254.548013
 30
0.0
  0
SEQEND
  8
0
  5
E5C3A
  0
POLYLINE
  8
0
  5
E5C3B
 66
     1
 10
0.0
 20
0.0
 30
0.0
 70
   128
  0
VERTEX
  8
0
  5
E5C3C
 10
141.148044
 20
253.520438
 30
0.0
  0
VERTEX
  8
0
  5
E5C3D
 10
141.144403
 20
253.570801
 30
0.0
  0
VERTEX
  8
0
  5
E5C3E
 10
141.133589
 20
253.614623
 30
0.0
  0
VERTEX
  8
0
  5
E5C3F
 10
141.115932
 20
253.650573
 30
0.0
  0
VERTEX
  8
0
  5
E5C40
 10
141.091968
 20
253.677557
 30
0.0
  0
VERTEX
  8
0
  5
E5C41
 10
141.062425
 20
253.694756
 30
0.0
  0
VERTEX
  8
0
  5
E5C42
 10
141.028201
 20
253.701648
 30
0.0
  0
VERTEX
  8
0
  5
E5C43
 10
140.990335
 20
253.698023
 30
0.0
  0
VERTEX
  8
0
  5
E5C44
 10
140.949979
 20
253.683991
 30
0.0
  0
VERTEX
  8
0
  5
E5C45
 10
140.908358
 20
253.659979
 30
0.0
  0
SEQEND
  8
0
  5
E5C46
  0
LINE
  8
0
  5
E5C47
 10
140.908358
 20
253.659979
 30
0.0
 11
140.836946
 21
253.694575
 31
0.0
  0
LINE
  8
0
  5
E5C48
 10
140.908358
 20
253.659979
 30
0.0
 11
140.828462
 21
253.605006
 31
0.0
  0
LINE
  8
0
  5
E5C49
 10
140.757051
 20
253.639602
 30
0.0
 11
140.836946
 21
253.694575
 31
0.0
  0
LINE
  8
0
  5
E5C4A
 10
140.828462
 20
253.605006
 30
0.0
 11
140.757051
 21
253.639602
 31
0.0
  0
POLYLINE
  8
0
  5
E5C4B
 66
     1
 10
0.0
 20
0.0
 30
0.0
 70
   128
210
0.0000000000000002
220
0.0
230
-1.0
  0
VERTEX
  8
0
  5
E5C4C
 10
-140.828462
 20
253.605006
 30
0.0
  0
VERTEX
  8
0
  5
E5C4D
 10
-140.814589
 20
253.597002
 30
0.0
  0
VERTEX
  8
0
  5
E5C4E
 10
-140.801137
 20
253.592325
 30
0.0
  0
VERTEX
  8
0
  5
E5C4F
 10
-140.788515
 20
253.591117
 30
0.0
  0
VERTEX
  8
0
  5
E5C50
 10
-140.777107
 20
253.593414
 30
0.0
  0
VERTEX
  8
0
  5
E5C51
 10
-140.767259
 20
253.599147
 30
0.0
  0
VERTEX
  8
0
  5
E5C52
 10
-140.759271
 20
253.608142
 30
0.0
  0
VERTEX
  8
0
  5
E5C53
 10
-140.753385
 20
253.620125
 30
0.0
  0
VERTEX
  8
0
  5
E5C54
 10
-140.749781
 20
253.634732
 30
0.0
  0
VERTEX
  8
0
  5
E5C55
 10
-140.748567
 20
253.65152
 30
0.0
  0
SEQEND
  8
0
  5
E5C56
  0
LINE
  8
0
  5
E5C57
 10
140.74974
 20
253.634998
 30
0.0
 11
140.757051
 21
253.639602
 31
0.0
  0
LINE
  8
0
  5
E5C58
 10
140.748567
 20
253.65152
 30
0.0
 11
140.748567
 21
255.681253
 31
0.0
  0
POLYLINE
  8
0
  5
E5C59
 66
     1
 10
0.0
 20
0.0
 30
0.0
 70
   128
210
0.0000000000000002
220
0.0
230
-1.0
  0
VERTEX
  8
0
  5
E5C5A
 10
-140.748567
 20
255.681253
 30
0.0
  0
VERTEX
  8
0
  5
E5C5B
 10
-140.749781
 20
255.699711
 30
0.0
  0
VERTEX
  8
0
  5
E5C5C
 10
-140.753385
 20
255.719279
 30
0.0
  0
VERTEX
  8
0
  5
E5C5D
 10
-140.759271
 20
255.739361
 30
0.0
  0
VERTEX
  8
0
  5
E5C5E
 10
-140.767259
 20
255.759348
 30
0.0
  0
VERTEX
  8
0
  5
E5C5F
 10
-140.777107
 20
255.778633
 30
0.0
  0
VERTEX
  8
0
  5
E5C60
 10
-140.788515
 20
255.796629
 30
0.0
  0
VERTEX
  8
0
  5
E5C61
 10
-140.801137
 20
255.81279
 30
0.0
  0
VERTEX
  8
0
  5
E5C62
 10
-140.814589
 20
255.826625
 30
0.0
  0
VERTEX
  8
0
  5
E5C63
 10
-140.828462
 20
255.837712
 30
0.0
  0
SEQEND
  8
0
  5
E5C64
  0
LINE
  8
0
  5
E5C65
 10
140.828462
 20
255.837712
 30
0.0
 11
140.908358
 21
255.892685
 31
0.0
  0
POLYLINE
  8
0
  5
E5C66
 66
     1
 10
0.0
 20
0.0
 30
0.0
 70
   128
  0
VERTEX
  8
0
  5
E5C67
 10
140.908358
 20
255.892685
 30
0.0
  0
VERTEX
  8
0
  5
E5C68
 10
140.949979
 20
255.925948
 30
0.0
  0
VERTEX
  8
0
  5
E5C69
 10
140.990335
 20
255.967452
 30
0.0
  0
VERTEX
  8
0
  5
E5C6A
 10
141.028201
 20
256.015934
 30
0.0
  0
VERTEX
  8
0
  5
E5C6B
 10
141.062425
 20
256.069923
 30
0.0
  0
VERTEX
  8
0
  5
E5C6C
 10
141.091968
 20
256.127777
 30
0.0
  0
VERTEX
  8
0
  5
E5C6D
 10
141.115932
 20
256.187739
 30
0.0
  0
VERTEX
  8
0
  5
E5C6E
 10
141.133589
 20
256.247986
 30
0.0
  0
VERTEX
  8
0
  5
E5C6F
 10
141.144403
 20
256.306689
 30
0.0
  0
VERTEX
  8
0
  5
E5C70
 10
141.148044
 20
256.362063
 30
0.0
  0
SEQEND
  8
0
  5
E5C71
  0
LINE
  8
0
  5
E5C72
 10
141.148044
 20
256.362063
 30
0.0
 11
141.148044
 21
256.46355
 31
0.0
  0
POLYLINE
  8
0
  5
E5C73
 66
     1
 10
0.0
 20
0.0
 30
0.0
 70
   128
210
0.0000000000000002
220
0.0
230
-1.0
  0
VERTEX
  8
0
  5
E5C74
 10
-141.148044
 20
256.46355
 30
0.0
  0
VERTEX
  8
0
  5
E5C75
 10
-141.149579
 20
256.484405
 30
0.0
  0
VERTEX
  8
0
  5
E5C76
 10
-141.154126
 20
256.506572
 30
0.0
  0
VERTEX
  8
0
  5
E5C77
 10
-141.161509
 20
256.529198
 30
0.0
  0
VERTEX
  8
0
  5
E5C78
 10
-141.171445
 20
256.551413
 30
0.0
  0
VERTEX
  8
0
  5
E5C79
 10
-141.183552
 20
256.572365
 30
0.0
  0
VERTEX
  8
0
  5
E5C7A
 10
-141.197365
 20
256.591247
 30
0.0
  0
VERTEX
  8
0
  5
E5C7B
 10
-141.212353
 20
256.607335
 30
0.0
  0
VERTEX
  8
0
  5
E5C7C
 10
-141.22794
 20
256.620009
 30
0.0
  0
SEQEND
  8
0
  5
E5C7D
  0
LINE
  8
0
  5
E5C7E
 10
141.22794
 20
256.620009
 30
0.0
 11
142.825848
 21
257.719465
 31
0.0
  0
POLYLINE
  8
0
  5
E5C7F
 66
     1
 10
0.0
 20
0.0
 30
0.0
 70
   128
210
0.0000000000000002
220
0.0
230
-1.0
  0
VERTEX
  8
0
  5
E5C80
 10
-142.825848
 20
257.719465
 30
0.0
  0
VERTEX
  8
0
  5
E5C81
 10
-142.839722
 20
257.727469
 30
0.0
  0
VERTEX
  8
0
  5
E5C82
 10
-142.853174
 20
257.732147
 30
0.0
  0
VERTEX
  8
0
  5
E5C83
 10
-142.865796
 20
257.733355
 30
0.0
  0
VERTEX
  8
0
  5
E5C84
 10
-142.877204
 20
257.731058
 30
0.0
  0
VERTEX
  8
0
  5
E5C85
 10
-142.887052
 20
257.725325
 30
0.0
  0
VERTEX
  8
0
  5
E5C86
 10
-142.89504
 20
257.71633
 30
0.0
  0
VERTEX
  8
0
  5
E5C87
 10
-142.900925
 20
257.704347
 30
0.0
  0
VERTEX
  8
0
  5
E5C88
 10
-142.90453
 20
257.689739
 30
0.0
  0
VERTEX
  8
0
  5
E5C89
 10
-142.905744
 20
257.672951
 30
0.0
  0
SEQEND
  8
0
  5
E5C8A
  0
LINE
  8
0
  5
E5C8B
 10
142.834332
 20
257.707547
 30
0.0
 11
142.833159
 21
257.72407
 31
0.0
  0
LINE
  8
0
  5
E5C8C
 10
142.905744
 20
257.672951
 30
0.0
 11
142.834332
 21
257.707547
 31
0.0
  0
LINE
  8
0
  5
E5C8D
 10
142.905744
 20
257.672951
 30
0.0
 11
142.905744
 21
257.571465
 31
0.0
  0
LINE
  8
0
  5
E5C8E
 10
142.834332
 20
257.606061
 30
0.0
 11
142.834332
 21
257.707547
 31
0.0
  0
LINE
  8
0
  5
E5C8F
 10
142.905744
 20
257.571465
 30
0.0
 11
142.834332
 21
257.606061
 31
0.0
  0
POLYLINE
  8
0
  5
E5C90
 66
     1
 10
0.0
 20
0.0
 30
0.0
 70
   128
  0
VERTEX
  8
0
  5
E5C91
 10
142.905744
 20
257.571465
 30
0.0
  0
VERTEX
  8
0
  5
E5C92
 10
142.909385
 20
257.521101
 30
0.0
  0
VERTEX
  8
0
  5
E5C93
 10
142.920199
 20
257.477279
 30
0.0
  0
VERTEX
  8
0
  5
E5C94
 10
142.937856
 20
257.44133
 30
0.0
  0
VERTEX
  8
0
  5
E5C95
 10
142.96182
 20
257.414345
 30
0.0
  0
VERTEX
  8
0
  5
E5C96
 10
142.991363
 20
257.397146
 30
0.0
  0
VERTEX
  8
0
  5
E5C97
 10
143.025587
 20
257.390254
 30
0.0
  0
VERTEX
  8
0
  5
E5C98
 10
143.063453
 20
257.393879
 30
0.0
  0
VERTEX
  8
0
  5
E5C99
 10
143.103809
 20
257.407911
 30
0.0
  0
VERTEX
  8
0
  5
E5C9A
 10
143.14543
 20
257.431923
 30
0.0
  0
SEQEND
  8
0
  5
E5C9B
  0
LINE
  8
0
  5
E5C9C
 10
143.14543
 20
257.431923
 30
0.0
 11
143.225326
 21
257.486896
 31
0.0
  0
POLYLINE
  8
0
  5
E5C9D
 66
     1
 10
0.0
 20
0.0
 30
0.0
 70
   128
210
0.0000000000000002
220
0.0
230
-1.0
  0
VERTEX
  8
0
  5
E5C9E
 10
-143.225326
 20
257.486896
 30
0.0
  0
VERTEX
  8
0
  5
E5C9F
 10
-143.239199
 20
257.4949
 30
0.0
  0
VERTEX
  8
0
  5
E5CA0
 10
-143.252651
 20
257.499578
 30
0.0
  0
VERTEX
  8
0
  5
E5CA1
 10
-143.265273
 20
257.500786
 30
0.0
  0
VERTEX
  8
0
  5
E5CA2
 10
-143.276681
 20
257.498489
 30
0.0
  0
VERTEX
  8
0
  5
E5CA3
 10
-143.286529
 20
257.492755
 30
0.0
  0
VERTEX
  8
0
  5
E5CA4
 10
-143.294517
 20
257.483761
 30
0.0
  0
VERTEX
  8
0
  5
E5CA5
 10
-143.300403
 20
257.471778
 30
0.0
  0
VERTEX
  8
0
  5
E5CA6
 10
-143.304007
 20
257.45717
 30
0.0
  0
VERTEX
  8
0
  5
E5CA7
 10
-143.305221
 20
257.440382
 30
0.0
  0
SEQEND
  8
0
  5
E5CA8
  0
LINE
  8
0
  5
E5CA9
 10
143.233809
 20
257.474978
 30
0.0
 11
143.232636
 21
257.4915
 31
0.0
  0
LINE
  8
0
  5
E5CAA
 10
143.305221
 20
257.440382
 30
0.0
 11
143.233809
 21
257.474978
 31
0.0
  0
LINE
  8
0
  5
E5CAB
 10
143.305221
 20
257.440382
 30
0.0
 11
143.305221
 21
255.41065
 31
0.0
  0
LINE
  8
0
  5
E5CAC
 10
143.233809
 20
255.445245
 30
0.0
 11
143.233809
 21
257.474978
 31
0.0
  0
LINE
  8
0
  5
E5CAD
 10
143.305221
 20
255.41065
 30
0.0
 11
143.233809
 21
255.445245
 31
0.0
  0
POLYLINE
  8
0
  5
E5CAE
 66
     1
 10
0.0
 20
0.0
 30
0.0
 70
   128
210
0.0000000000000002
220
0.0
230
-1.0
  0
VERTEX
  8
0
  5
E5CAF
 10
-143.305221
 20
255.41065
 30
0.0
  0
VERTEX
  8
0
  5
E5CB0
 10
-143.304007
 20
255.392191
 30
0.0
  0
VERTEX
  8
0
  5
E5CB1
 10
-143.300403
 20
255.372624
 30
0.0
  0
VERTEX
  8
0
  5
E5CB2
 10
-143.294517
 20
255.352541
 30
0.0
  0
VERTEX
  8
0
  5
E5CB3
 10
-143.286529
 20
255.332554
 30
0.0
  0
VERTEX
  8
0
  5
E5CB4
 10
-143.276681
 20
255.313269
 30
0.0
  0
VERTEX
  8
0
  5
E5CB5
 10
-143.265273
 20
255.295273
 30
0.0
  0
VERTEX
  8
0
  5
E5CB6
 10
-143.252651
 20
255.279112
 30
0.0
  0
VERTEX
  8
0
  5
E5CB7
 10
-143.239199
 20
255.265278
 30
0.0
  0
VERTEX
  8
0
  5
E5CB8
 10
-143.225326
 20
255.25419
 30
0.0
  0
SEQEND
  8
0
  5
E5CB9
  0
POLYLINE
  8
0
  5
E5CBA
 66
     1
 10
0.0
 20
0.0
 30
0.0
 70
   128
  0
VERTEX
  8
0
  5
E5CBB
 10
143.153914
 20
255.288786
 30
0.0
  0
VERTEX
  8
0
  5
E5CBC
 10
143.167787
 20
255.299874
 30
0.0
  0
VERTEX
  8
0
  5
E5CBD
 10
143.18124
 20
255.313708
 30
0.0
  0
VERTEX
  8
0
  5
E5CBE
 10
143.193861
 20
255.329869
 30
0.0
  0
VERTEX
  8
0
  5
E5CBF
 10
143.20527
 20
255.347865
 30
0.0
  0
VERTEX
  8
0
  5
E5CC0
 10
143.215117
 20
255.36715
 30
0.0
  0
VERTEX
  8
0
  5
E5CC1
 10
143.223105
 20
255.387137
 30
0.0
  0
VERTEX
  8
0
  5
E5CC2
 10
143.228991
 20
255.40722
 30
0.0
  0
VERTEX
  8
0
  5
E5CC3
 10
143.232595
 20
255.426787
 30
0.0
  0
VERTEX
  8
0
  5
E5CC4
 10
143.233809
 20
255.445245
 30
0.0
  0
SEQEND
  8
0
  5
E5CC5
  0
LINE
  8
0
  5
E5CC6
 10
143.225326
 20
255.25419
 30
0.0
 11
143.153914
 21
255.288786
 31
0.0
  0
LINE
  8
0
  5
E5CC7
 10
143.225326
 20
255.25419
 30
0.0
 11
143.14543
 21
255.199217
 31
0.0
  0
LINE
  8
0
  5
E5CC8
 10
143.074018
 20
255.233813
 30
0.0
 11
143.153914
 21
255.288786
 31
0.0
  0
LINE
  8
0
  5
E5CC9
 10
143.14543
 20
255.199217
 30
0.0
 11
143.074018
 21
255.233813
 31
0.0
  0
POLYLINE
  8
0
  5
E5CCA
 66
     1
 10
0.0
 20
0.0
 30
0.0
 70
   128
  0
VERTEX
  8
0
  5
E5CCB
 10
143.14543
 20
255.199217
 30
0.0
  0
VERTEX
  8
0
  5
E5CCC
 10
143.103809
 20
255.165954
 30
0.0
  0
VERTEX
  8
0
  5
E5CCD
 10
143.063453
 20
255.124451
 30
0.0
  0
VERTEX
  8
0
  5
E5CCE
 10
143.025587
 20
255.075968
 30
0.0
  0
VERTEX
  8
0
  5
E5CCF
 10
142.991363
 20
255.02198
 30
0.0
  0
VERTEX
  8
0
  5
E5CD0
 10
142.96182
 20
254.964126
 30
0.0
  0
VERTEX
  8
0
  5
E5CD1
 10
142.937856
 20
254.904164
 30
0.0
  0
VERTEX
  8
0
  5
E5CD2
 10
142.920199
 20
254.843916
 30
0.0
  0
VERTEX
  8
0
  5
E5CD3
 10
142.909385
 20
254.785213
 30
0.0
  0
VERTEX
  8
0
  5
E5CD4
 10
142.905744
 20
254.729839
 30
0.0
  0
SEQEND
  8
0
  5
E5CD5
  0
LINE
  8
0
  5
E5CD6
 10
142.905744
 20
254.729839
 30
0.0
 11
142.834332
 21
254.764435
 31
0.0
  0
LINE
  8
0
  5
E5CD7
 10
142.905744
 20
254.729839
 30
0.0
 11
142.905744
 21
254.628352
 31
0.0
  0
LINE
  8
0
  5
E5CD8
 10
142.834332
 20
254.662948
 30
0.0
 11
142.834332
 21
254.764435
 31
0.0
  0
LINE
  8
0
  5
E5CD9
 10
142.905744
 20
254.628352
 30
0.0
 11
142.834332
 21
254.662948
 31
0.0
  0
POLYLINE
  8
0
  5
E5CDA
 66
     1
 10
0.0
 20
0.0
 30
0.0
 70
   128
210
0.0000000000000002
220
0.0
230
-1.0
  0
VERTEX
  8
0
  5
E5CDB
 10
-142.905744
 20
254.628352
 30
0.0
  0
VERTEX
  8
0
  5
E5CDC
 10
-142.90453
 20
254.609894
 30
0.0
  0
VERTEX
  8
0
  5
E5CDD
 10
-142.900925
 20
254.590327
 30
0.0
  0
VERTEX
  8
0
  5
E5CDE
 10
-142.89504
 20
254.570244
 30
0.0
  0
VERTEX
  8
0
  5
E5CDF
 10
-142.887052
 20
254.550257
 30
0.0
  0
VERTEX
  8
0
  5
E5CE0
 10
-142.877204
 20
254.530972
 30
0.0
  0
VERTEX
  8
0
  5
E5CE1
 10
-142.865796
 20
254.512976
 30
0.0
  0
VERTEX
  8
0
  5
E5CE2
 10
-142.853174
 20
254.496815
 30
0.0
  0
VERTEX
  8
0
  5
E5CE3
 10
-142.839722
 20
254.482981
 30
0.0
  0
VERTEX
  8
0
  5
E5CE4
 10
-142.825848
 20
254.471893
 30
0.0
  0
SEQEND
  8
0
  5
E5CE5
  0
POLYLINE
  8
0
  5
E5CE6
 66
     1
 10
0.0
 20
0.0
 30
0.0
 70
   128
  0
VERTEX
  8
0
  5
E5CE7
 10
142.754437
 20
254.506489
 30
0.0
  0
VERTEX
  8
0
  5
E5CE8
 10
142.76831
 20
254.517576
 30
0.0
  0
VERTEX
  8
0
  5
E5CE9
 10
142.781762
 20
254.531411
 30
0.0
  0
VERTEX
  8
0
  5
E5CEA
 10
142.794384
 20
254.547572
 30
0.0
  0
VERTEX
  8
0
  5
E5CEB
 10
142.805792
 20
254.565568
 30
0.0
  0
VERTEX
  8
0
  5
E5CEC
 10
142.81564
 20
254.584853
 30
0.0
  0
VERTEX
  8
0
  5
E5CED
 10
142.823628
 20
254.60484
 30
0.0
  0
VERTEX
  8
0
  5
E5CEE
 10
142.829514
 20
254.624922
 30
0.0
  0
VERTEX
  8
0
  5
E5CEF
 10
142.833118
 20
254.64449
 30
0.0
  0
VERTEX
  8
0
  5
E5CF0
 10
142.834332
 20
254.662948
 30
0.0
  0
SEQEND
  8
0
  5
E5CF1
  0
LINE
  8
0
  5
E5CF2
 10
142.825848
 20
254.471893
 30
0.0
 11
142.754437
 21
254.506489
 31
0.0
  0
LINE
  8
0
  5
E5CF3
 10
142.825848
 20
254.471893
 30
0.0
 11
141.22794
 21
253.372437
 31
0.0
  0
LINE
  8
0
  5
E5CF4
 10
141.156528
 20
253.407033
 30
0.0
 11
142.754437
 21
254.506489
 31
0.0
  0
LINE
  8
0
  5
E5CF5
 10
141.22794
 20
253.372437
 30
0.0
 11
141.156528
 21
253.407033
 31
0.0
  0
POLYLINE
  8
0
  5
E5CF6
 66
     1
 10
0.0
 20
0.0
 30
0.0
 70
   128
210
0.0000000000000002
220
0.0
230
-1.0
  0
VERTEX
  8
0
  5
E5CF7
 10
-141.22794
 20
253.372437
 30
0.0
  0
VERTEX
  8
0
  5
E5CF8
 10
-141.214066
 20
253.364433
 30
0.0
  0
VERTEX
  8
0
  5
E5CF9
 10
-141.200614
 20
253.359756
 30
0.0
  0
VERTEX
  8
0
  5
E5CFA
 10
-141.187992
 20
253.358547
 30
0.0
  0
VERTEX
  8
0
  5
E5CFB
 10
-141.176584
 20
253.360845
 30
0.0
  0
VERTEX
  8
0
  5
E5CFC
 10
-141.166736
 20
253.366578
 30
0.0
  0
VERTEX
  8
0
  5
E5CFD
 10
-141.158748
 20
253.375573
 30
0.0
  0
VERTEX
  8
0
  5
E5CFE
 10
-141.152862
 20
253.387556
 30
0.0
  0
VERTEX
  8
0
  5
E5CFF
 10
-141.149258
 20
253.402163
 30
0.0
  0
VERTEX
  8
0
  5
E5D00
 10
-141.148044
 20
253.418951
 30
0.0
  0
SEQEND
  8
0
  5
E5D01
  0
LINE
  8
0
  5
E5D02
 10
141.149218
 20
253.402429
 30
0.0
 11
141.156528
 21
253.407033
 31
0.0
  0
LINE
  8
0
  5
E5D03
 10
141.148044
 20
253.418951
 30
0.0
 11
141.148044
 21
253.520438
 31
0.0
  0
POLYLINE
  8
0
  5
E5D04
 66
     1
 10
0.0
 20
0.0
 30
0.0
 70
   129
210
0.0000000000000002
220
0.0
230
-1.0
  0
VERTEX
  8
0
  5
E5D05
 10
-143.065535
 20
254.839785
 30
0.0
  0
VERTEX
  8
0
  5
E5D06
 10
-143.066978
 20
254.859985
 30
0.0
  0
VERTEX
  8
0
  5
E5D07
 10
-143.071258
 20
254.881441
 30
0.0
  0
VERTEX
  8
0
  5
E5D08
 10
-143.078218
 20
254.903379
 30
0.0
  0
VERTEX
  8
0
  5
E5D09
 10
-143.087607
 20
254.925006
 30
0.0
  0
VERTEX
  8
0
  5
E5D0A
 10
-143.099086
 20
254.945539
 30
0.0
  0
VERTEX
  8
0
  5
E5D0B
 10
-143.11224
 20
254.964236
 30
0.0
  0
VERTEX
  8
0
  5
E5D0C
 10
-143.126594
 20
254.980423
 30
0.0
  0
VERTEX
  8
0
  5
E5D0D
 10
-143.141629
 20
254.993513
 30
0.0
  0
VERTEX
  8
0
  5
E5D0E
 10
-143.1568
 20
255.003035
 30
0.0
  0
VERTEX
  8
0
  5
E5D0F
 10
-143.171561
 20
255.008642
 30
0.0
  0
VERTEX
  8
0
  5
E5D10
 10
-143.185378
 20
255.010134
 30
0.0
  0
VERTEX
  8
0
  5
E5D11
 10
-143.19775
 20
255.007455
 30
0.0
  0
VERTEX
  8
0
  5
E5D12
 10
-143.208232
 20
255.000704
 30
0.0
  0
VERTEX
  8
0
  5
E5D13
 10
-143.216444
 20
254.990123
 30
0.0
  0
VERTEX
  8
0
  5
E5D14
 10
-143.222089
 20
254.976096
 30
0.0
  0
VERTEX
  8
0
  5
E5D15
 10
-143.224964
 20
254.959128
 30
0.0
  0
VERTEX
  8
0
  5
E5D16
 10
-143.224964
 20
254.939834
 30
0.0
  0
VERTEX
  8
0
  5
E5D17
 10
-143.222089
 20
254.918911
 30
0.0
  0
VERTEX
  8
0
  5
E5D18
 10
-143.216444
 20
254.897115
 30
0.0
  0
VERTEX
  8
0
  5
E5D19
 10
-143.208232
 20
254.875234
 30
0.0
  0
VERTEX
  8
0
  5
E5D1A
 10
-143.19775
 20
254.854058
 30
0.0
  0
VERTEX
  8
0
  5
E5D1B
 10
-143.185378
 20
254.834354
 30
0.0
  0
VERTEX
  8
0
  5
E5D1C
 10
-143.171561
 20
254.816832
 30
0.0
  0
VERTEX
  8
0
  5
E5D1D
 10
-143.1568
 20
254.802127
 30
0.0
  0
VERTEX
  8
0
  5
E5D1E
 10
-143.141629
 20
254.79077
 30
0.0
  0
VERTEX
  8
0
  5
E5D1F
 10
-143.126594
 20
254.783171
 30
0.0
  0
VERTEX
  8
0
  5
E5D20
 10
-143.11224
 20
254.779605
 30
0.0
  0
VERTEX
  8
0
  5
E5D21
 10
-143.099086
 20
254.780202
 30
0.0
  0
VERTEX
  8
0
  5
E5D22
 10
-143.087607
 20
254.784938
 30
0.0
  0
VERTEX
  8
0
  5
E5D23
 10
-143.078218
 20
254.793644
 30
0.0
  0
VERTEX
  8
0
  5
E5D24
 10
-143.071258
 20
254.806004
 30
0.0
  0
VERTEX
  8
0
  5
E5D25
 10
-143.066978
 20
254.821572
 30
0.0
  0
SEQEND
  8
0
  5
E5D26
  0
POLYLINE
  8
0
  5
E5D27
 66
     1
 10
0.0
 20
0.0
 30
0.0
 70
   129
210
0.0000000000000002
220
0.0
230
-1.0
  0
VERTEX
  8
0
  5
E5D28
 10
-143.065535
 20
257.68141
 30
0.0
  0
VERTEX
  8
0
  5
E5D29
 10
-143.066978
 20
257.70161
 30
0.0
  0
VERTEX
  8
0
  5
E5D2A
 10
-143.071258
 20
257.723067
 30
0.0
  0
VERTEX
  8
0
  5
E5D2B
 10
-143.078218
 20
257.745005
 30
0.0
  0
VERTEX
  8
0
  5
E5D2C
 10
-143.087607
 20
257.766631
 30
0.0
  0
VERTEX
  8
0
  5
E5D2D
 10
-143.099086
 20
257.787164
 30
0.0
  0
VERTEX
  8
0
  5
E5D2E
 10
-143.11224
 20
257.805862
 30
0.0
  0
VERTEX
  8
0
  5
E5D2F
 10
-143.126594
 20
257.822049
 30
0.0
  0
VERTEX
  8
0
  5
E5D30
 10
-143.141629
 20
257.835139
 30
0.0
  0
VERTEX
  8
0
  5
E5D31
 10
-143.1568
 20
257.84466
 30
0.0
  0
VERTEX
  8
0
  5
E5D32
 10
-143.171561
 20
257.850268
 30
0.0
  0
VERTEX
  8
0
  5
E5D33
 10
-143.185378
 20
257.85176
 30
0.0
  0
VERTEX
  8
0
  5
E5D34
 10
-143.19775
 20
257.849081
 30
0.0
  0
VERTEX
  8
0
  5
E5D35
 10
-143.208232
 20
257.84233
 30
0.0
  0
VERTEX
  8
0
  5
E5D36
 10
-143.216444
 20
257.831749
 30
0.0
  0
VERTEX
  8
0
  5
E5D37
 10
-143.222089
 20
257.817721
 30
0.0
  0
VERTEX
  8
0
  5
E5D38
 10
-143.224964
 20
257.800754
 30
0.0
  0
VERTEX
  8
0
  5
E5D39
 10
-143.224964
 20
257.78146
 30
0.0
  0
VERTEX
  8
0
  5
E5D3A
 10
-143.222089
 20
257.760537
 30
0.0
  0
VERTEX
  8
0
  5
E5D3B
 10
-143.216444
 20
257.738741
 30
0.0
  0
VERTEX
  8
0
  5
E5D3C
 10
-143.208232
 20
257.71686
 30
0.0
  0
VERTEX
  8
0
  5
E5D3D
 10
-143.19775
 20
257.695684
 30
0.0
  0
VERTEX
  8
0
  5
E5D3E
 10
-143.185378
 20
257.67598
 30
0.0
  0
VERTEX
  8
0
  5
E5D3F
 10
-143.171561
 20
257.658458
 30
0.0
  0
VERTEX
  8
0
  5
E5D40
 10
-143.1568
 20
257.643753
 30
0.0
  0
VERTEX
  8
0
  5
E5D41
 10
-143.141629
 20
257.632396
 30
0.0
  0
VERTEX
  8
0
  5
E5D42
 10
-143.126594
 20
257.624797
 30
0.0
  0
VERTEX
  8
0
  5
E5D43
 10
-143.11224
 20
257.621231
 30
0.0
  0
VERTEX
  8
0
  5
E5D44
 10
-143.099086
 20
257.621827
 30
0.0
  0
VERTEX
  8
0
  5
E5D45
 10
-143.087607
 20
257.626564
 30
0.0
  0
VERTEX
  8
0
  5
E5D46
 10
-143.078218
 20
257.635269
 30
0.0
  0
VERTEX
  8
0
  5
E5D47
 10
-143.071258
 20
257.647629
 30
0.0
  0
VERTEX
  8
0
  5
E5D48
 10
-143.066978
 20
257.663197
 30
0.0
  0
SEQEND
  8
0
  5
E5D49
  0
POLYLINE
  8
0
  5
E5D4A
 66
     1
 10
0.0
 20
0.0
 30
0.0
 70
   129
210
0.0000000000000002
220
0.0
230
-1.0
  0
VERTEX
  8
0
  5
E5D4B
 10
-140.828462
 20
256.142172
 30
0.0
  0
VERTEX
  8
0
  5
E5D4C
 10
-140.829906
 20
256.162372
 30
0.0
  0
VERTEX
  8
0
  5
E5D4D
 10
-140.834185
 20
256.183829
 30
0.0
  0
VERTEX
  8
0
  5
E5D4E
 10
-140.841146
 20
256.205767
 30
0.0
  0
VERTEX
  8
0
  5
E5D4F
 10
-140.850535
 20
256.227393
 30
0.0
  0
VERTEX
  8
0
  5
E5D50
 10
-140.862014
 20
256.247926
 30
0.0
  0
VERTEX
  8
0
  5
E5D51
 10
-140.875168
 20
256.266624
 30
0.0
  0
VERTEX
  8
0
  5
E5D52
 10
-140.889522
 20
256.282811
 30
0.0
  0
VERTEX
  8
0
  5
E5D53
 10
-140.904556
 20
256.295901
 30
0.0
  0
VERTEX
  8
0
  5
E5D54
 10
-140.919728
 20
256.305422
 30
0.0
  0
VERTEX
  8
0
  5
E5D55
 10
-140.934489
 20
256.31103
 30
0.0
  0
VERTEX
  8
0
  5
E5D56
 10
-140.948306
 20
256.312521
 30
0.0
  0
VERTEX
  8
0
  5
E5D57
 10
-140.960678
 20
256.309843
 30
0.0
  0
VERTEX
  8
0
  5
E5D58
 10
-140.97116
 20
256.303091
 30
0.0
  0
VERTEX
  8
0
  5
E5D59
 10
-140.979372
 20
256.292511
 30
0.0
  0
VERTEX
  8
0
  5
E5D5A
 10
-140.985017
 20
256.278483
 30
0.0
  0
VERTEX
  8
0
  5
E5D5B
 10
-140.987891
 20
256.261516
 30
0.0
  0
VERTEX
  8
0
  5
E5D5C
 10
-140.987891
 20
256.242222
 30
0.0
  0
VERTEX
  8
0
  5
E5D5D
 10
-140.985017
 20
256.221299
 30
0.0
  0
VERTEX
  8
0
  5
E5D5E
 10
-140.979372
 20
256.199503
 30
0.0
  0
VERTEX
  8
0
  5
E5D5F
 10
-140.97116
 20
256.177622
 30
0.0
  0
VERTEX
  8
0
  5
E5D60
 10
-140.960678
 20
256.156446
 30
0.0
  0
VERTEX
  8
0
  5
E5D61
 10
-140.948306
 20
256.136741
 30
0.0
  0
VERTEX
  8
0
  5
E5D62
 10
-140.934489
 20
256.11922
 30
0.0
  0
VERTEX
  8
0
  5
E5D63
 10
-140.919728
 20
256.104515
 30
0.0
  0
VERTEX
  8
0
  5
E5D64
 10
-140.904556
 20
256.093158
 30
0.0
  0
VERTEX
  8
0
  5
E5D65
 10
-140.889522
 20
256.085559
 30
0.0
  0
VERTEX
  8
0
  5
E5D66
 10
-140.875168
 20
256.081993
 30
0.0
  0
VERTEX
  8
0
  5
E5D67
 10
-140.862014
 20
256.082589
 30
0.0
  0
VERTEX
  8
0
  5
E5D68
 10
-140.850535
 20
256.087325
 30
0.0
  0
VERTEX
  8
0
  5
E5D69
 10
-140.841146
 20
256.096031
 30
0.0
  0
VERTEX
  8
0
  5
E5D6A
 10
-140.834185
 20
256.108391
 30
0.0
  0
VERTEX
  8
0
  5
E5D6B
 10
-140.829906
 20
256.123959
 30
0.0
  0
SEQEND
  8
0
  5
E5D6C
  0
POLYLINE
  8
0
  5
E5D6D
 66
     1
 10
0.0
 20
0.0
 30
0.0
 70
   129
210
0.0000000000000002
220
0.0
230
-1.0
  0
VERTEX
  8
0
  5
E5D6E
 10
-140.828462
 20
253.300546
 30
0.0
  0
VERTEX
  8
0
  5
E5D6F
 10
-140.829906
 20
253.320746
 30
0.0
  0
VERTEX
  8
0
  5
E5D70
 10
-140.834185
 20
253.342203
 30
0.0
  0
VERTEX
  8
0
  5
E5D71
 10
-140.841146
 20
253.364141
 30
0.0
  0
VERTEX
  8
0
  5
E5D72
 10
-140.850535
 20
253.385767
 30
0.0
  0
VERTEX
  8
0
  5
E5D73
 10
-140.862014
 20
253.4063
 30
0.0
  0
VERTEX
  8
0
  5
E5D74
 10
-140.875168
 20
253.424998
 30
0.0
  0
VERTEX
  8
0
  5
E5D75
 10
-140.889522
 20
253.441185
 30
0.0
  0
VERTEX
  8
0
  5
E5D76
 10
-140.904556
 20
253.454275
 30
0.0
  0
VERTEX
  8
0
  5
E5D77
 10
-140.919728
 20
253.463796
 30
0.0
  0
VERTEX
  8
0
  5
E5D78
 10
-140.934489
 20
253.469404
 30
0.0
  0
VERTEX
  8
0
  5
E5D79
 10
-140.948306
 20
253.470896
 30
0.0
  0
VERTEX
  8
0
  5
E5D7A
 10
-140.960678
 20
253.468217
 30
0.0
  0
VERTEX
  8
0
  5
E5D7B
 10
-140.97116
 20
253.461466
 30
0.0
  0
VERTEX
  8
0
  5
E5D7C
 10
-140.979372
 20
253.450885
 30
0.0
  0
VERTEX
  8
0
  5
E5D7D
 10
-140.985017
 20
253.436857
 30
0.0
  0
VERTEX
  8
0
  5
E5D7E
 10
-140.987891
 20
253.41989
 30
0.0
  0
VERTEX
  8
0
  5
E5D7F
 10
-140.987891
 20
253.400596
 30
0.0
  0
VERTEX
  8
0
  5
E5D80
 10
-140.985017
 20
253.379673
 30
0.0
  0
VERTEX
  8
0
  5
E5D81
 10
-140.979372
 20
253.357877
 30
0.0
  0
VERTEX
  8
0
  5
E5D82
 10
-140.97116
 20
253.335996
 30
0.0
  0
VERTEX
  8
0
  5
E5D83
 10
-140.960678
 20
253.31482
 30
0.0
  0
VERTEX
  8
0
  5
E5D84
 10
-140.948306
 20
253.295116
 30
0.0
  0
VERTEX
  8
0
  5
E5D85
 10
-140.934489
 20
253.277594
 30
0.0
  0
VERTEX
  8
0
  5
E5D86
 10
-140.919728
 20
253.262889
 30
0.0
  0
VERTEX
  8
0
  5
E5D87
 10
-140.904556
 20
253.251532
 30
0.0
  0
VERTEX
  8
0
  5
E5D88
 10
-140.889522
 20
253.243933
 30
0.0
  0
VERTEX
  8
0
  5
E5D89
 10
-140.875168
 20
253.240367
 30
0.0
  0
VERTEX
  8
0
  5
E5D8A
 10
-140.862014
 20
253.240963
 30
0.0
  0
VERTEX
  8
0
  5
E5D8B
 10
-140.850535
 20
253.2457
 30
0.0
  0
VERTEX
  8
0
  5
E5D8C
 10
-140.841146
 20
253.254405
 30
0.0
  0
VERTEX
  8
0
  5
E5D8D
 10
-140.834185
 20
253.266765
 30
0.0
  0
VERTEX
  8
0
  5
E5D8E
 10
-140.829906
 20
253.282333
 30
0.0
  0
SEQEND
  8
0
  5
E5D8F
  0
LINE
  8
0
  5
E5D90
 10
143.074018
 20
255.233813
 30
0.0
 11
142.645548
 21
255.441388
 31
0.0
  0
LINE
  8
0
  5
E5D91
 10
142.834332
 20
254.764435
 30
0.0
 11
142.405861
 21
254.972009
 31
0.0
  0
POLYLINE
  8
0
  5
E5D92
 66
     1
 10
0.0
 20
0.0
 30
0.0
 70
   128
210
0.0000000000000003
220
-0.0000000000000001
230
-1.0
  0
VERTEX
  8
0
  5
E5D93
 10
-142.405861
 20
254.972009
 30
0.0
  0
VERTEX
  8
0
  5
E5D94
 10
-142.409503
 20
255.027384
 30
0.0
  0
VERTEX
  8
0
  5
E5D95
 10
-142.420316
 20
255.086086
 30
0.0
  0
VERTEX
  8
0
  5
E5D96
 10
-142.437973
 20
255.146334
 30
0.0
  0
VERTEX
  8
0
  5
E5D97
 10
-142.461937
 20
255.206296
 30
0.0
  0
VERTEX
  8
0
  5
E5D98
 10
-142.49148
 20
255.26415
 30
0.0
  0
VERTEX
  8
0
  5
E5D99
 10
-142.525705
 20
255.318138
 30
0.0
  0
VERTEX
  8
0
  5
E5D9A
 10
-142.56357
 20
255.366621
 30
0.0
  0
VERTEX
  8
0
  5
E5D9B
 10
-142.603927
 20
255.408124
 30
0.0
  0
VERTEX
  8
0
  5
E5D9C
 10
-142.645548
 20
255.441388
 30
0.0
  0
SEQEND
  8
0
  5
E5D9D
  0
LINE
  8
0
  5
E5D9E
 10
140.836946
 20
253.694575
 30
0.0
 11
140.748567
 21
253.73739
 31
0.0
  0
LINE
  8
0
  5
E5D9F
 10
142.822517
 20
257.717173
 30
0.0
 11
142.834271
 21
257.711479
 31
0.0
  0
LINE
  8
0
  5
E5DA0
 10
142.834332
 20
257.606061
 30
0.0
 11
142.732634
 21
257.655329
 31
0.0
  0
POLYLINE
  8
0
  5
E5DA1
 66
     1
 10
0.0
 20
0.0
 30
0.0
 70
   128
210
-0.0000000000000001
220
0.0000000000000001
230
-1.0
  0
VERTEX
  8
0
  5
E5DA2
 10
-143.62874
 20
254.879196
 30
0.0
  0
VERTEX
  8
0
  5
E5DA3
 10
-143.624902
 20
254.827057
 30
0.0
  0
VERTEX
  8
0
  5
E5DA4
 10
-143.613536
 20
254.771641
 30
0.0
  0
VERTEX
  8
0
  5
E5DA5
 10
-143.595078
 20
254.715077
 30
0.0
  0
VERTEX
  8
0
  5
E5DA6
 10
-143.570238
 20
254.659538
 30
0.0
  0
VERTEX
  8
0
  5
E5DA7
 10
-143.53997
 20
254.607159
 30
0.0
  0
VERTEX
  8
0
  5
E5DA8
 10
-143.505438
 20
254.559953
 30
0.0
  0
VERTEX
  8
0
  5
E5DA9
 10
-143.467968
 20
254.519734
 30
0.0
  0
VERTEX
  8
0
  5
E5DAA
 10
-143.429001
 20
254.488047
 30
0.0
  0
SEQEND
  8
0
  5
E5DAB
  0
LINE
  8
0
  5
E5DAC
 10
143.62874
 20
258.126768
 30
0.0
 11
143.62874
 21
254.879196
 31
0.0
  0
POLYLINE
  8
0
  5
E5DAD
 66
     1
 10
0.0
 20
0.0
 30
0.0
 70
   128
210
-0.0000000000000001
220
0.0000000000000001
230
-1.0
  0
VERTEX
  8
0
  5
E5DAE
 10
-143.429001
 20
258.243053
 30
0.0
  0
VERTEX
  8
0
  5
E5DAF
 10
-143.463686
 20
258.263063
 30
0.0
  0
VERTEX
  8
0
  5
E5DB0
 10
-143.497316
 20
258.274756
 30
0.0
  0
VERTEX
  8
0
  5
E5DB1
 10
-143.528871
 20
258.277777
 30
0.0
  0
VERTEX
  8
0
  5
E5DB2
 10
-143.557391
 20
258.272034
 30
0.0
  0
VERTEX
  8
0
  5
E5DB3
 10
-143.58201
 20
258.257701
 30
0.0
  0
VERTEX
  8
0
  5
E5DB4
 10
-143.60198
 20
258.235214
 30
0.0
  0
VERTEX
  8
0
  5
E5DB5
 10
-143.616694
 20
258.205256
 30
0.0
  0
VERTEX
  8
0
  5
E5DB6
 10
-143.625705
 20
258.168738
 30
0.0
  0
VERTEX
  8
0
  5
E5DB7
 10
-143.62874
 20
258.126768
 30
0.0
  0
SEQEND
  8
0
  5
E5DB8
  0
LINE
  8
0
  5
E5DB9
 10
140.872347
 20
256.483923
 30
0.0
 11
143.429001
 21
258.243053
 31
0.0
  0
POLYLINE
  8
0
  5
E5DBA
 66
     1
 10
0.0
 20
0.0
 30
0.0
 70
   128
210
-0.0000000000000001
220
0.0000000000000001
230
-1.0
  0
VERTEX
  8
0
  5
E5DBB
 10
-140.672609
 20
256.092775
 30
0.0
  0
VERTEX
  8
0
  5
E5DBC
 10
-140.675643
 20
256.13892
 30
0.0
  0
VERTEX
  8
0
  5
E5DBD
 10
-140.684654
 20
256.187839
 30
0.0
  0
VERTEX
  8
0
  5
E5DBE
 10
-140.699369
 20
256.238045
 30
0.0
  0
VERTEX
  8
0
  5
E5DBF
 10
-140.719339
 20
256.288014
 30
0.0
  0
VERTEX
  8
0
  5
E5DC0
 10
-140.743958
 20
256.336225
 30
0.0
  0
VERTEX
  8
0
  5
E5DC1
 10
-140.772478
 20
256.381216
 30
0.0
  0
VERTEX
  8
0
  5
E5DC2
 10
-140.804033
 20
256.421618
 30
0.0
  0
VERTEX
  8
0
  5
E5DC3
 10
-140.837663
 20
256.456204
 30
0.0
  0
VERTEX
  8
0
  5
E5DC4
 10
-140.872347
 20
256.483923
 30
0.0
  0
SEQEND
  8
0
  5
E5DC5
  0
LINE
  8
0
  5
E5DC6
 10
140.672609
 20
252.845202
 30
0.0
 11
140.672609
 21
256.092775
 31
0.0
  0
POLYLINE
  8
0
  5
E5DC7
 66
     1
 10
0.0
 20
0.0
 30
0.0
 70
   128
210
-0.0000000000000001
220
0.0000000000000001
230
-1.0
  0
VERTEX
  8
0
  5
E5DC8
 10
-140.872347
 20
252.728918
 30
0.0
  0
VERTEX
  8
0
  5
E5DC9
 10
-140.837663
 20
252.708907
 30
0.0
  0
VERTEX
  8
0
  5
E5DCA
 10
-140.804033
 20
252.697214
 30
0.0
  0
VERTEX
  8
0
  5
E5DCB
 10
-140.772478
 20
252.694193
 30
0.0
  0
VERTEX
  8
0
  5
E5DCC
 10
-140.743958
 20
252.699937
 30
0.0
  0
VERTEX
  8
0
  5
E5DCD
 10
-140.719339
 20
252.714269
 30
0.0
  0
VERTEX
  8
0
  5
E5DCE
 10
-140.699369
 20
252.736756
 30
0.0
  0
VERTEX
  8
0
  5
E5DCF
 10
-140.684654
 20
252.766714
 30
0.0
  0
VERTEX
  8
0
  5
E5DD0
 10
-140.675643
 20
252.803233
 30
0.0
  0
VERTEX
  8
0
  5
E5DD1
 10
-140.672609
 20
252.845202
 30
0.0
  0
SEQEND
  8
0
  5
E5DD2
  0
LINE
  8
0
  5
E5DD3
 10
143.429001
 20
254.488047
 30
0.0
 11
140.872347
 21
252.728918
 31
0.0
  0
POLYLINE
  8
0
  5
E5DD4
 66
     1
 10
0.0
 20
0.0
 30
0.0
 70
   128
210
0.0000000000000002
220
0.0
230
-1.0
  0
VERTEX
  8
0
  5
E5DD5
 10
-140.195707
 20
256.183294
 30
0.0
  0
VERTEX
  8
0
  5
E5DD6
 10
-140.200562
 20
256.257127
 30
0.0
  0
VERTEX
  8
0
  5
E5DD7
 10
-140.21498
 20
256.335397
 30
0.0
  0
VERTEX
  8
0
  5
E5DD8
 10
-140.238523
 20
256.415727
 30
0.0
  0
VERTEX
  8
0
  5
E5DD9
 10
-140.270475
 20
256.495676
 30
0.0
  0
VERTEX
  8
0
  5
E5DDA
 10
-140.309865
 20
256.572815
 30
0.0
  0
VERTEX
  8
0
  5
E5DDB
 10
-140.355498
 20
256.6448
 30
0.0
  0
VERTEX
  8
0
  5
E5DDC
 10
-140.405985
 20
256.709443
 30
0.0
  0
VERTEX
  8
0
  5
E5DDD
 10
-140.459794
 20
256.764781
 30
0.0
  0
VERTEX
  8
0
  5
E5DDE
 10
-140.515289
 20
256.809132
 30
0.0
  0
SEQEND
  8
0
  5
E5DDF
  0
LINE
  8
0
  5
E5DE0
 10
140.515289
 20
256.809132
 30
0.0
 11
140.824739
 21
256.659217
 31
0.0
  0
LINE
  8
0
  5
E5DE1
 10
140.195707
 20
252.935722
 30
0.0
 11
140.195707
 21
256.183294
 31
0.0
  0
LINE
  8
0
  5
E5DE2
 10
140.195707
 20
256.183294
 30
0.0
 11
140.505158
 21
256.033379
 31
0.0
  0
POLYLINE
  8
0
  5
E5DE3
 66
     1
 10
0.0
 20
0.0
 30
0.0
 70
   128
210
0.0000000000000002
220
0.0
230
-1.0
  0
VERTEX
  8
0
  5
E5DE4
 10
-140.298524
 20
252.708173
 30
0.0
  0
VERTEX
  8
0
  5
E5DE5
 10
-140.262882
 20
252.732951
 30
0.0
  0
VERTEX
  8
0
  5
E5DE6
 10
-140.234102
 20
252.76922
 30
0.0
  0
VERTEX
  8
0
  5
E5DE7
 10
-140.212967
 20
252.815994
 30
0.0
  0
VERTEX
  8
0
  5
E5DE8
 10
-140.200051
 20
252.872003
 30
0.0
  0
VERTEX
  8
0
  5
E5DE9
 10
-140.195707
 20
252.935722
 30
0.0
  0
SEQEND
  8
0
  5
E5DEA
  0
LINE
  8
0
  5
E5DEB
 10
140.195707
 20
252.935722
 30
0.0
 11
140.505158
 21
252.785807
 31
0.0
  0
POLYLINE
  8
0
  5
E5DEC
 66
     1
 10
0.0
 20
0.0
 30
0.0
 70
   128
210
0.0000000000000003
220
-0.0000000000000001
230
-1.0
  0
VERTEX
  8
0
  5
E5DED
 10
-143.708635
 20
254.934169
 30
0.0
  0
VERTEX
  8
0
  5
E5DEE
 10
-143.703262
 20
254.861175
 30
0.0
  0
VERTEX
  8
0
  5
E5DEF
 10
-143.68735
 20
254.783592
 30
0.0
  0
VERTEX
  8
0
  5
E5DF0
 10
-143.661509
 20
254.704402
 30
0.0
  0
VERTEX
  8
0
  5
E5DF1
 10
-143.626732
 20
254.626648
 30
0.0
  0
VERTEX
  8
0
  5
E5DF2
 10
-143.584358
 20
254.553317
 30
0.0
  0
VERTEX
  8
0
  5
E5DF3
 10
-143.536013
 20
254.487229
 30
0.0
  0
VERTEX
  8
0
  5
E5DF4
 10
-143.483555
 20
254.430922
 30
0.0
  0
VERTEX
  8
0
  5
E5DF5
 10
-143.429001
 20
254.386561
 30
0.0
  0
SEQEND
  8
0
  5
E5DF6
  0
POLYLINE
  8
0
  5
E5DF7
 66
     1
 10
0.0
 20
0.0
 30
0.0
 70
   128
210
-0.0000000000000002
220
0.0000000000000001
230
-1.0
  0
VERTEX
  8
0
  5
E5DF8
 10
-143.723175
 20
254.957232
 30
0.0
  0
VERTEX
  8
0
  5
E5DF9
 10
-143.722231
 20
254.951002
 30
0.0
  0
VERTEX
  8
0
  5
E5DFA
 10
-143.719427
 20
254.94496
 30
0.0
  0
VERTEX
  8
0
  5
E5DFB
 10
-143.714849
 20
254.939292
 30
0.0
  0
VERTEX
  8
0
  5
E5DFC
 10
-143.708635
 20
254.934169
 30
0.0
  0
SEQEND
  8
0
  5
E5DFD
  0
LINE
  8
0
  5
E5DFE
 10
143.708635
 20
258.181741
 30
0.0
 11
143.708635
 21
254.934169
 31
0.0
  0
LINE
  8
0
  5
E5DFF
 10
143.429001
 20
254.386561
 30
0.0
 11
140.872347
 21
252.627431
 31
0.0
  0
POLYLINE
  8
0
  5
E5E00
 66
     1
 10
0.0
 20
0.0
 30
0.0
 70
   128
210
-0.0000000000000001
220
-0.0000000000000001
230
-1.0
  0
VERTEX
  8
0
  5
E5E01
 10
-143.429001
 20
254.386561
 30
0.0
  0
VERTEX
  8
0
  5
E5E02
 10
-143.428194
 20
254.377645
 30
0.0
  0
VERTEX
  8
0
  5
E5E03
 10
-143.425799
 20
254.369815
 30
0.0
  0
VERTEX
  8
0
  5
E5E04
 10
-143.421897
 20
254.363335
 30
0.0
  0
VERTEX
  8
0
  5
E5E05
 10
-143.416621
 20
254.358426
 30
0.0
  0
SEQEND
  8
0
  5
E5E06
  0
POLYLINE
  8
0
  5
E5E07
 66
     1
 10
0.0
 20
0.0
 30
0.0
 70
   128
  0
VERTEX
  8
0
  5
E5E08
 10
143.598158
 20
258.45984
 30
0.0
  0
VERTEX
  8
0
  5
E5E09
 10
143.550896
 20
258.473171
 30
0.0
  0
VERTEX
  8
0
  5
E5E0A
 10
143.497765
 20
258.470547
 30
0.0
  0
VERTEX
  8
0
  5
E5E0B
 10
143.440604
 20
258.452059
 30
0.0
  0
VERTEX
  8
0
  5
E5E0C
 10
143.381394
 20
258.418347
 30
0.0
  0
SEQEND
  8
0
  5
E5E0D
  0
POLYLINE
  8
0
  5
E5E0E
 66
     1
 10
0.0
 20
0.0
 30
0.0
 70
   128
210
0.0
220
0.0000000000000003
230
-1.0
  0
VERTEX
  8
0
  5
E5E0F
 10
-143.723175
 20
258.204805
 30
0.0
  0
VERTEX
  8
0
  5
E5E10
 10
-143.722231
 20
258.198574
 30
0.0
  0
VERTEX
  8
0
  5
E5E11
 10
-143.719427
 20
258.192533
 30
0.0
  0
VERTEX
  8
0
  5
E5E12
 10
-143.714849
 20
258.186864
 30
0.0
  0
VERTEX
  8
0
  5
E5E13
 10
-143.708635
 20
258.181741
 30
0.0
  0
SEQEND
  8
0
  5
E5E14
  0
POLYLINE
  8
0
  5
E5E15
 66
     1
 10
0.0
 20
0.0
 30
0.0
 70
   128
210
0.0000000000000003
220
-0.0000000000000001
230
-1.0
  0
VERTEX
  8
0
  5
E5E16
 10
-143.429001
 20
258.344539
 30
0.0
  0
VERTEX
  8
0
  5
E5E17
 10
-143.477559
 20
258.372554
 30
0.0
  0
VERTEX
  8
0
  5
E5E18
 10
-143.524642
 20
258.388924
 30
0.0
  0
VERTEX
  8
0
  5
E5E19
 10
-143.568818
 20
258.393154
 30
0.0
  0
VERTEX
  8
0
  5
E5E1A
 10
-143.608747
 20
258.385113
 30
0.0
  0
VERTEX
  8
0
  5
E5E1B
 10
-143.643213
 20
258.365047
 30
0.0
  0
VERTEX
  8
0
  5
E5E1C
 10
-143.671172
 20
258.333565
 30
0.0
  0
VERTEX
  8
0
  5
E5E1D
 10
-143.691771
 20
258.291624
 30
0.0
  0
VERTEX
  8
0
  5
E5E1E
 10
-143.704387
 20
258.240498
 30
0.0
  0
VERTEX
  8
0
  5
E5E1F
 10
-143.708635
 20
258.181741
 30
0.0
  0
SEQEND
  8
0
  5
E5E20
  0
POLYLINE
  8
0
  5
E5E21
 66
     1
 10
0.0
 20
0.0
 30
0.0
 70
   128
210
0.0000000000000003
220
-0.0000000000000001
230
-1.0
  0
VERTEX
  8
0
  5
E5E22
 10
-140.872347
 20
252.627431
 30
0.0
  0
VERTEX
  8
0
  5
E5E23
 10
-140.823789
 20
252.599417
 30
0.0
  0
VERTEX
  8
0
  5
E5E24
 10
-140.776707
 20
252.583046
 30
0.0
  0
VERTEX
  8
0
  5
E5E25
 10
-140.73253
 20
252.578817
 30
0.0
  0
VERTEX
  8
0
  5
E5E26
 10
-140.692602
 20
252.586857
 30
0.0
  0
VERTEX
  8
0
  5
E5E27
 10
-140.658135
 20
252.606924
 30
0.0
  0
VERTEX
  8
0
  5
E5E28
 10
-140.630177
 20
252.638405
 30
0.0
  0
VERTEX
  8
0
  5
E5E29
 10
-140.609577
 20
252.680346
 30
0.0
  0
VERTEX
  8
0
  5
E5E2A
 10
-140.596962
 20
252.731472
 30
0.0
  0
VERTEX
  8
0
  5
E5E2B
 10
-140.592713
 20
252.79023
 30
0.0
  0
SEQEND
  8
0
  5
E5E2C
  0
POLYLINE
  8
0
  5
E5E2D
 66
     1
 10
0.0
 20
0.0
 30
0.0
 70
   128
210
-0.0000000000000001
220
-0.0000000000000001
230
-1.0
  0
VERTEX
  8
0
  5
E5E2E
 10
-140.872347
 20
252.627431
 30
0.0
  0
VERTEX
  8
0
  5
E5E2F
 10
-140.87154
 20
252.618516
 30
0.0
  0
VERTEX
  8
0
  5
E5E30
 10
-140.869145
 20
252.610686
 30
0.0
  0
VERTEX
  8
0
  5
E5E31
 10
-140.865243
 20
252.604206
 30
0.0
  0
VERTEX
  8
0
  5
E5E32
 10
-140.859967
 20
252.599296
 30
0.0
  0
SEQEND
  8
0
  5
E5E33
  0
POLYLINE
  8
0
  5
E5E34
 66
     1
 10
0.0
 20
0.0
 30
0.0
 70
   128
  0
VERTEX
  8
0
  5
E5E35
 10
140.505158
 20
252.785807
 30
0.0
  0
VERTEX
  8
0
  5
E5E36
 10
140.509502
 20
252.722088
 30
0.0
  0
VERTEX
  8
0
  5
E5E37
 10
140.522418
 20
252.66608
 30
0.0
  0
VERTEX
  8
0
  5
E5E38
 10
140.543553
 20
252.619305
 30
0.0
  0
VERTEX
  8
0
  5
E5E39
 10
140.572333
 20
252.583036
 30
0.0
  0
VERTEX
  8
0
  5
E5E3A
 10
140.607975
 20
252.558259
 30
0.0
  0
SEQEND
  8
0
  5
E5E3B
  0
LINE
  8
0
  5
E5E3C
 10
143.381394
 20
258.418347
 30
0.0
 11
140.824739
 21
256.659217
 31
0.0
  0
POLYLINE
  8
0
  5
E5E3D
 66
     1
 10
0.0
 20
0.0
 30
0.0
 70
   128
210
-0.0000000000000001
220
-0.0000000000000001
230
-1.0
  0
VERTEX
  8
0
  5
E5E3E
 10
-143.381394
 20
258.418347
 30
0.0
  0
VERTEX
  8
0
  5
E5E3F
 10
-143.389661
 20
258.413571
 30
0.0
  0
VERTEX
  8
0
  5
E5E40
 10
-143.397676
 20
258.407398
 30
0.0
  0
VERTEX
  8
0
  5
E5E41
 10
-143.405197
 20
258.400016
 30
0.0
  0
VERTEX
  8
0
  5
E5E42
 10
-143.411995
 20
258.39165
 30
0.0
  0
VERTEX
  8
0
  5
E5E43
 10
-143.417863
 20
258.382552
 30
0.0
  0
VERTEX
  8
0
  5
E5E44
 10
-143.422623
 20
258.373001
 30
0.0
  0
VERTEX
  8
0
  5
E5E45
 10
-143.42613
 20
258.363286
 30
0.0
  0
VERTEX
  8
0
  5
E5E46
 10
-143.428278
 20
258.353701
 30
0.0
  0
VERTEX
  8
0
  5
E5E47
 10
-143.429001
 20
258.344539
 30
0.0
  0
SEQEND
  8
0
  5
E5E48
  0
LINE
  8
0
  5
E5E49
 10
140.872347
 20
256.58541
 30
0.0
 11
143.429001
 21
258.344539
 31
0.0
  0
LINE
  8
0
  5
E5E4A
 10
140.592713
 20
252.79023
 30
0.0
 11
140.592713
 21
256.037802
 31
0.0
  0
POLYLINE
  8
0
  5
E5E4B
 66
     1
 10
0.0
 20
0.0
 30
0.0
 70
   128
210
-0.0000000000000001
220
0.0000000000000002
230
-1.0
  0
VERTEX
  8
0
  5
E5E4C
 10
-140.592713
 20
252.79023
 30
0.0
  0
VERTEX
  8
0
  5
E5E4D
 10
-140.584005
 20
252.78531
 30
0.0
  0
VERTEX
  8
0
  5
E5E4E
 10
-140.573802
 20
252.781467
 30
0.0
  0
VERTEX
  8
0
  5
E5E4F
 10
-140.562496
 20
252.778846
 30
0.0
  0
VERTEX
  8
0
  5
E5E50
 10
-140.550522
 20
252.777549
 30
0.0
  0
VERTEX
  8
0
  5
E5E51
 10
-140.53834
 20
252.777626
 30
0.0
  0
VERTEX
  8
0
  5
E5E52
 10
-140.526417
 20
252.779073
 30
0.0
  0
VERTEX
  8
0
  5
E5E53
 10
-140.515213
 20
252.781836
 30
0.0
  0
VERTEX
  8
0
  5
E5E54
 10
-140.505158
 20
252.785807
 30
0.0
  0
SEQEND
  8
0
  5
E5E55
  0
LINE
  8
0
  5
E5E56
 10
140.505158
 20
256.033379
 30
0.0
 11
140.505158
 21
252.785807
 31
0.0
  0
POLYLINE
  8
0
  5
E5E57
 66
     1
 10
0.0
 20
0.0
 30
0.0
 70
   128
210
-0.0000000000000001
220
-0.0000000000000001
230
-1.0
  0
VERTEX
  8
0
  5
E5E58
 10
-140.824739
 20
256.659217
 30
0.0
  0
VERTEX
  8
0
  5
E5E59
 10
-140.833007
 20
256.654441
 30
0.0
  0
VERTEX
  8
0
  5
E5E5A
 10
-140.841022
 20
256.648269
 30
0.0
  0
VERTEX
  8
0
  5
E5E5B
 10
-140.848543
 20
256.640887
 30
0.0
  0
VERTEX
  8
0
  5
E5E5C
 10
-140.855341
 20
256.63252
 30
0.0
  0
VERTEX
  8
0
  5
E5E5D
 10
-140.861209
 20
256.623423
 30
0.0
  0
VERTEX
  8
0
  5
E5E5E
 10
-140.865969
 20
256.613872
 30
0.0
  0
VERTEX
  8
0
  5
E5E5F
 10
-140.869476
 20
256.604156
 30
0.0
  0
VERTEX
  8
0
  5
E5E60
 10
-140.871624
 20
256.594572
 30
0.0
  0
VERTEX
  8
0
  5
E5E61
 10
-140.872347
 20
256.58541
 30
0.0
  0
SEQEND
  8
0
  5
E5E62
  0
POLYLINE
  8
0
  5
E5E63
 66
     1
 10
0.0
 20
0.0
 30
0.0
 70
   128
210
0.0000000000000003
220
-0.0000000000000001
230
-1.0
  0
VERTEX
  8
0
  5
E5E64
 10
-140.592713
 20
256.037802
 30
0.0
  0
VERTEX
  8
0
  5
E5E65
 10
-140.596962
 20
256.102405
 30
0.0
  0
VERTEX
  8
0
  5
E5E66
 10
-140.609577
 20
256.170892
 30
0.0
  0
VERTEX
  8
0
  5
E5E67
 10
-140.630177
 20
256.241181
 30
0.0
  0
VERTEX
  8
0
  5
E5E68
 10
-140.658135
 20
256.311136
 30
0.0
  0
VERTEX
  8
0
  5
E5E69
 10
-140.692602
 20
256.378633
 30
0.0
  0
VERTEX
  8
0
  5
E5E6A
 10
-140.73253
 20
256.441619
 30
0.0
  0
VERTEX
  8
0
  5
E5E6B
 10
-140.776707
 20
256.498182
 30
0.0
  0
VERTEX
  8
0
  5
E5E6C
 10
-140.823789
 20
256.546603
 30
0.0
  0
VERTEX
  8
0
  5
E5E6D
 10
-140.872347
 20
256.58541
 30
0.0
  0
SEQEND
  8
0
  5
E5E6E
  0
POLYLINE
  8
0
  5
E5E6F
 66
     1
 10
0.0
 20
0.0
 30
0.0
 70
   128
210
0.0
220
0.0000000000000003
230
-1.0
  0
VERTEX
  8
0
  5
E5E70
 10
-140.592713
 20
256.037802
 30
0.0
  0
VERTEX
  8
0
  5
E5E71
 10
-140.584005
 20
256.032883
 30
0.0
  0
VERTEX
  8
0
  5
E5E72
 10
-140.573802
 20
256.029039
 30
0.0
  0
VERTEX
  8
0
  5
E5E73
 10
-140.562496
 20
256.026418
 30
0.0
  0
VERTEX
  8
0
  5
E5E74
 10
-140.550522
 20
256.025121
 30
0.0
  0
VERTEX
  8
0
  5
E5E75
 10
-140.53834
 20
256.025198
 30
0.0
  0
VERTEX
  8
0
  5
E5E76
 10
-140.526417
 20
256.026645
 30
0.0
  0
VERTEX
  8
0
  5
E5E77
 10
-140.515213
 20
256.029408
 30
0.0
  0
VERTEX
  8
0
  5
E5E78
 10
-140.505158
 20
256.033379
 30
0.0
  0
SEQEND
  8
0
  5
E5E79
  0
POLYLINE
  8
0
  5
E5E7A
 66
     1
 10
0.0
 20
0.0
 30
0.0
 70
   128
  0
VERTEX
  8
0
  5
E5E7B
 10
140.824739
 20
256.659217
 30
0.0
  0
VERTEX
  8
0
  5
E5E7C
 10
140.769245
 20
256.614866
 30
0.0
  0
VERTEX
  8
0
  5
E5E7D
 10
140.715436
 20
256.559528
 30
0.0
  0
VERTEX
  8
0
  5
E5E7E
 10
140.664949
 20
256.494885
 30
0.0
  0
VERTEX
  8
0
  5
E5E7F
 10
140.619316
 20
256.4229
 30
0.0
  0
VERTEX
  8
0
  5
E5E80
 10
140.579926
 20
256.345762
 30
0.0
  0
VERTEX
  8
0
  5
E5E81
 10
140.547974
 20
256.265812
 30
0.0
  0
VERTEX
  8
0
  5
E5E82
 10
140.524431
 20
256.185482
 30
0.0
  0
VERTEX
  8
0
  5
E5E83
 10
140.510013
 20
256.107212
 30
0.0
  0
VERTEX
  8
0
  5
E5E84
 10
140.505158
 20
256.033379
 30
0.0
  0
SEQEND
  8
0
  5
E5E85
  0
LINE
  8
0
  5
E5E86
 10
140.859967
 20
252.599296
 30
0.0
 11
143.416621
 21
254.358426
 31
0.0
  0
LINE
  8
0
  5
E5E87
 10
143.723175
 20
254.957232
 30
0.0
 11
143.723175
 21
258.204805
 31
0.0
  0
LINE
  8
0
  5
E5E88
 10
140.298524
 20
252.708173
 30
0.0
 11
140.607975
 21
252.558259
 31
0.0
  0
LINE
  8
0
  5
E5E89
 10
142.618944
 20
257.577103
 30
0.0
 11
142.982857
 21
257.400804
 31
0.0
  0
LINE
  8
0
  5
E5E8A
 10
141.070931
 20
253.691099
 30
0.0
 11
140.748567
 21
253.84727
 31
0.0
  0
LINE
  8
0
  5
E5E8B
 10
143.598158
 20
258.45984
 30
0.0
 11
143.288707
 21
258.609754
 31
0.0
  0
LINE
  8
0
  5
E5E8C
 10
140.607982
 20
252.558255
 30
0.0
 11
140.622506
 21
252.551983
 31
0.0
  0
LINE
  8
0
  5
E5E8D
 10
140.622506
 20
252.551983
 30
0.0
 11
140.687147
 21
252.53963
 31
0.0
  0
LINE
  8
0
  5
E5E8E
 10
140.687147
 20
252.53963
 30
0.0
 11
140.81492
 21
252.572252
 31
0.0
  0
LINE
  8
0
  5
E5E8F
 10
140.81492
 20
252.572252
 30
0.0
 11
140.859983
 21
252.599293
 31
0.0
  0
LINE
  8
0
  5
E5E90
 10
143.416637
 20
254.358423
 30
0.0
 11
143.504914
 21
254.435077
 31
0.0
  0
LINE
  8
0
  5
E5E91
 10
143.504914
 20
254.435077
 30
0.0
 11
143.616388
 21
254.587837
 31
0.0
  0
LINE
  8
0
  5
E5E92
 10
143.616388
 20
254.587837
 30
0.0
 11
143.691852
 21
254.762871
 31
0.0
  0
LINE
  8
0
  5
E5E93
 10
143.691852
 20
254.762871
 30
0.0
 11
143.722588
 21
254.932344
 31
0.0
  0
LINE
  8
0
  5
E5E94
 10
143.722588
 20
254.932344
 30
0.0
 11
143.723179
 21
254.957231
 31
0.0
  0
LINE
  8
0
  5
E5E95
 10
142.595314
 20
255.430928
 30
0.0
 11
142.582605
 21
255.420744
 31
0.0
  0
LINE
  8
0
  5
E5E96
 10
142.582605
 20
255.420744
 30
0.0
 11
142.490427
 21
255.317323
 31
0.0
  0
LINE
  8
0
  5
E5E97
 10
142.490427
 20
255.317323
 30
0.0
 11
142.422372
 21
255.188259
 31
0.0
  0
LINE
  8
0
  5
E5E98
 10
142.422372
 20
255.188259
 30
0.0
 11
142.387806
 21
255.058138
 31
0.0
  0
LINE
  8
0
  5
E5E99
 10
142.387806
 20
255.058138
 30
0.0
 11
142.384193
 21
255.020126
 31
0.0
  0
LINE
  8
0
  5
E5E9A
 10
142.595314
 20
255.430928
 30
0.0
 11
142.606344
 21
255.43807
 31
0.0
  0
LINE
  8
0
  5
E5E9B
 10
142.606344
 20
255.43807
 30
0.0
 11
142.626041
 21
255.444461
 31
0.0
  0
LINE
  8
0
  5
E5E9C
 10
142.626041
 20
255.444461
 30
0.0
 11
142.641575
 21
255.442994
 31
0.0
  0
LINE
  8
0
  5
E5E9D
 10
142.641575
 20
255.442994
 30
0.0
 11
142.645548
 21
255.441388
 31
0.0
  0
LINE
  8
0
  5
E5E9E
 10
142.384198
 20
255.02012
 30
0.0
 11
142.384917
 21
255.004448
 31
0.0
  0
LINE
  8
0
  5
E5E9F
 10
142.384917
 20
255.004448
 30
0.0
 11
142.391575
 21
254.985305
 31
0.0
  0
LINE
  8
0
  5
E5EA0
 10
142.391575
 20
254.985305
 30
0.0
 11
142.402149
 21
254.974126
 31
0.0
  0
LINE
  8
0
  5
E5EA1
 10
142.402149
 20
254.974126
 30
0.0
 11
142.405861
 21
254.972009
 31
0.0
  0
LINE
  8
0
  5
E5EA2
 10
143.723179
 20
258.204803
 30
0.0
 11
143.707269
 21
258.321707
 31
0.0
  0
LINE
  8
0
  5
E5EA3
 10
143.707269
 20
258.321707
 30
0.0
 11
143.652374
 21
258.419968
 31
0.0
  0
LINE
  8
0
  5
E5EA4
 10
143.652374
 20
258.419968
 30
0.0
 11
143.598148
 21
258.459844
 31
0.0
  0
LINE
  8
0
  5
E5EA5
 10
136.537777
 20
255.904264
 30
0.0
 11
136.486963
 21
255.874949
 31
0.0
210
0.0000000000000001
220
0.0
230
-1.0
  0
LINE
  8
0
  5
E5EA6
 10
136.486963
 20
255.874949
 30
0.0
 11
136.437693
 21
255.857818
 31
0.0
210
0.0000000000000001
220
0.0
230
-1.0
  0
LINE
  8
0
  5
E5EA7
 10
136.437693
 20
255.857818
 30
0.0
 11
136.391465
 21
255.853392
 31
0.0
210
0.0000000000000001
220
0.0
230
-1.0
  0
LINE
  8
0
  5
E5EA8
 10
136.391465
 20
255.853392
 30
0.0
 11
136.349681
 21
255.861806
 31
0.0
210
0.0000000000000001
220
0.0
230
-1.0
  0
LINE
  8
0
  5
E5EA9
 10
136.349681
 20
255.861806
 30
0.0
 11
136.313613
 21
255.882804
 31
0.0
210
0.0000000000000001
220
0.0
230
-1.0
  0
LINE
  8
0
  5
E5EAA
 10
136.313613
 20
255.882804
 30
0.0
 11
136.284357
 21
255.915748
 31
0.0
210
0.0000000000000001
220
0.0
230
-1.0
  0
LINE
  8
0
  5
E5EAB
 10
136.284357
 20
255.915748
 30
0.0
 11
136.2628
 21
255.959638
 31
0.0
210
0.0000000000000001
220
0.0
230
-1.0
  0
LINE
  8
0
  5
E5EAC
 10
136.2628
 20
255.959638
 30
0.0
 11
136.249598
 21
256.013139
 31
0.0
210
0.0000000000000001
220
0.0
230
-1.0
  0
LINE
  8
0
  5
E5EAD
 10
136.249598
 20
256.013139
 30
0.0
 11
136.245152
 21
256.074626
 31
0.0
210
0.0000000000000001
220
0.0
230
-1.0
  0
LINE
  8
0
  5
E5EAE
 10
136.299827
 20
255.895897
 30
0.0
 11
136.347278
 21
255.899352
 31
0.0
  0
LINE
  8
0
  5
E5EAF
 10
136.347278
 20
255.899352
 30
0.0
 11
136.398083
 21
255.916405
 31
0.0
  0
LINE
  8
0
  5
E5EB0
 10
136.398083
 20
255.916405
 30
0.0
 11
136.450593
 21
255.946501
 31
0.0
  0
LINE
  8
0
  5
E5EB1
 10
139.025086
 20
257.987385
 30
0.0
 11
139.020641
 21
257.91978
 31
0.0
210
0.0000000000000001
220
0.0
230
-1.0
  0
LINE
  8
0
  5
E5EB2
 10
139.020641
 20
257.91978
 30
0.0
 11
139.007439
 21
257.848112
 31
0.0
210
0.0000000000000001
220
0.0
230
-1.0
  0
LINE
  8
0
  5
E5EB3
 10
139.007439
 20
257.848112
 30
0.0
 11
138.985882
 21
257.774558
 31
0.0
210
0.0000000000000001
220
0.0
230
-1.0
  0
LINE
  8
0
  5
E5EB4
 10
138.985882
 20
257.774558
 30
0.0
 11
138.956625
 21
257.701353
 31
0.0
210
0.0000000000000001
220
0.0
230
-1.0
  0
LINE
  8
0
  5
E5EB5
 10
138.956625
 20
257.701353
 30
0.0
 11
138.920557
 21
257.630721
 31
0.0
210
0.0000000000000001
220
0.0
230
-1.0
  0
LINE
  8
0
  5
E5EB6
 10
138.920557
 20
257.630721
 30
0.0
 11
138.878774
 21
257.564808
 31
0.0
210
0.0000000000000001
220
0.0
230
-1.0
  0
LINE
  8
0
  5
E5EB7
 10
138.878774
 20
257.564808
 30
0.0
 11
138.832545
 21
257.505617
 31
0.0
210
0.0000000000000001
220
0.0
230
-1.0
  0
LINE
  8
0
  5
E5EB8
 10
138.832545
 20
257.505617
 30
0.0
 11
138.783275
 21
257.454947
 31
0.0
210
0.0000000000000001
220
0.0
230
-1.0
  0
LINE
  8
0
  5
E5EB9
 10
138.783275
 20
257.454947
 30
0.0
 11
138.732462
 21
257.414338
 31
0.0
210
0.0000000000000001
220
0.0
230
-1.0
  0
LINE
  8
0
  5
E5EBA
 10
138.645278
 20
257.456574
 30
0.0
 11
138.696091
 21
257.497184
 31
0.0
  0
LINE
  8
0
  5
E5EBB
 10
138.696091
 20
257.497184
 30
0.0
 11
138.745361
 21
257.547854
 31
0.0
  0
LINE
  8
0
  5
E5EBC
 10
138.745361
 20
257.547854
 30
0.0
 11
138.79159
 21
257.607045
 31
0.0
  0
LINE
  8
0
  5
E5EBD
 10
138.79159
 20
257.607045
 30
0.0
 11
138.833373
 21
257.672957
 31
0.0
  0
LINE
  8
0
  5
E5EBE
 10
138.833373
 20
257.672957
 30
0.0
 11
138.869441
 21
257.743589
 31
0.0
  0
LINE
  8
0
  5
E5EBF
 10
138.869441
 20
257.743589
 30
0.0
 11
138.898698
 21
257.816795
 31
0.0
  0
LINE
  8
0
  5
E5EC0
 10
138.898698
 20
257.816795
 30
0.0
 11
138.920255
 21
257.890349
 31
0.0
  0
LINE
  8
0
  5
E5EC1
 10
138.920255
 20
257.890349
 30
0.0
 11
138.933457
 21
257.962017
 31
0.0
  0
LINE
  8
0
  5
E5EC2
 10
138.933457
 20
257.962017
 30
0.0
 11
138.937902
 21
258.029622
 31
0.0
  0
LINE
  8
0
  5
E5EC3
 10
138.732462
 20
260.94553
 30
0.0
 11
138.783275
 21
260.974846
 31
0.0
210
0.0000000000000001
220
0.0
230
-1.0
  0
LINE
  8
0
  5
E5EC4
 10
138.783275
 20
260.974846
 30
0.0
 11
138.832545
 21
260.991977
 31
0.0
210
0.0000000000000001
220
0.0
230
-1.0
  0
LINE
  8
0
  5
E5EC5
 10
138.832545
 20
260.991977
 30
0.0
 11
138.878774
 21
260.996402
 31
0.0
210
0.0000000000000001
220
0.0
230
-1.0
  0
LINE
  8
0
  5
E5EC6
 10
138.878774
 20
260.996402
 30
0.0
 11
138.920557
 21
260.987988
 31
0.0
210
0.0000000000000001
220
0.0
230
-1.0
  0
LINE
  8
0
  5
E5EC7
 10
138.920557
 20
260.987988
 30
0.0
 11
138.956625
 21
260.96699
 31
0.0
210
0.0000000000000001
220
0.0
230
-1.0
  0
LINE
  8
0
  5
E5EC8
 10
138.956625
 20
260.96699
 30
0.0
 11
138.985882
 21
260.934046
 31
0.0
210
0.0000000000000001
220
0.0
230
-1.0
  0
LINE
  8
0
  5
E5EC9
 10
138.985882
 20
260.934046
 30
0.0
 11
139.007439
 21
260.890156
 31
0.0
210
0.0000000000000001
220
0.0
230
-1.0
  0
LINE
  8
0
  5
E5ECA
 10
139.007439
 20
260.890156
 30
0.0
 11
139.020641
 21
260.836655
 31
0.0
210
0.0000000000000001
220
0.0
230
-1.0
  0
LINE
  8
0
  5
E5ECB
 10
139.020641
 20
260.836655
 30
0.0
 11
139.025086
 21
260.775168
 31
0.0
210
0.0000000000000001
220
0.0
230
-1.0
  0
LINE
  8
0
  5
E5ECC
 10
138.937902
 20
260.817405
 30
0.0
 11
138.93438
 21
260.872479
 31
0.0
  0
LINE
  8
0
  5
E5ECD
 10
138.93438
 20
260.872479
 30
0.0
 11
138.923899
 21
260.921381
 31
0.0
  0
LINE
  8
0
  5
E5ECE
 10
138.923899
 20
260.921381
 30
0.0
 11
138.90671
 21
260.962932
 31
0.0
  0
LINE
  8
0
  5
E5ECF
 10
138.90671
 20
260.962932
 30
0.0
 11
138.883228
 21
260.996134
 31
0.0
  0
LINE
  8
0
  5
E5ED0
 10
136.245152
 20
258.862409
 30
0.0
 11
136.249598
 21
258.930014
 31
0.0
210
0.0000000000000001
220
0.0
230
-1.0
  0
LINE
  8
0
  5
E5ED1
 10
136.249598
 20
258.930014
 30
0.0
 11
136.2628
 21
259.001682
 31
0.0
210
0.0000000000000001
220
0.0
230
-1.0
  0
LINE
  8
0
  5
E5ED2
 10
136.2628
 20
259.001682
 30
0.0
 11
136.284357
 21
259.075236
 31
0.0
210
0.0000000000000001
220
0.0
230
-1.0
  0
LINE
  8
0
  5
E5ED3
 10
136.284357
 20
259.075236
 30
0.0
 11
136.313613
 21
259.148441
 31
0.0
210
0.0000000000000001
220
0.0
230
-1.0
  0
LINE
  8
0
  5
E5ED4
 10
136.313613
 20
259.148441
 30
0.0
 11
136.349681
 21
259.219074
 31
0.0
210
0.0000000000000001
220
0.0
230
-1.0
  0
LINE
  8
0
  5
E5ED5
 10
136.349681
 20
259.219074
 30
0.0
 11
136.391465
 21
259.284986
 31
0.0
210
0.0000000000000001
220
0.0
230
-1.0
  0
LINE
  8
0
  5
E5ED6
 10
136.391465
 20
259.284986
 30
0.0
 11
136.437693
 21
259.344177
 31
0.0
210
0.0000000000000001
220
0.0
230
-1.0
  0
LINE
  8
0
  5
E5ED7
 10
136.437693
 20
259.344177
 30
0.0
 11
136.486963
 21
259.394847
 31
0.0
210
0.0000000000000001
220
0.0
230
-1.0
  0
LINE
  8
0
  5
E5ED8
 10
136.486963
 20
259.394847
 30
0.0
 11
136.537777
 21
259.435457
 31
0.0
210
0.0000000000000001
220
0.0
230
-1.0
  0
ENDSEC
  0
EOF
