  0
SECTION
  2
HEADER
  9
$ACADVER
  1
AC1009
  9
$INSBASE
 10
0.0
 20
0.0
 30
0.0
  9
$EXTMIN
 10
107.449921
 20
251.876862
 30
0.0
  9
$EXTMAX
 10
116.786476
 20
263.519906
 30
0.0
  9
$LIMMIN
 10
107.449921
 20
251.876862
  9
$LIMMAX
 10
116.786476
 20
263.519906
  9
$ORTHOMODE
 70
     0
  9
$REGENMODE
 70
     1
  9
$FILLMODE
 70
     1
  9
$QTEXTMODE
 70
     0
  9
$MIRRTEXT
 70
     1
  9
$DRAGMODE
 70
     2
  9
$LTSCALE
 40
1.0
  9
$OSMODE
 70
     0
  9
$ATTMODE
 70
     1
  9
$TEXTSIZE
 40
3.5
  9
$TRACEWID
 40
0.5
  9
$TEXTSTYLE
  7
STANDARD
  9
$CLAYER
  8
0
  9
$CELTYPE
  6
BYLAYER
  9
$CECOLOR
 62
   256
  9
$DIMSCALE
 40
1.0
  9
$DIMASZ
 40
0.18
  9
$DIMEXO
 40
0.0625
  9
$DIMDLI
 40
0.38
  9
$DIMRND
 40
0.0
  9
$DIMDLE
 40
0.0
  9
$DIMEXE
 40
0.18
  9
$DIMTP
 40
0.0
  9
$DIMTM
 40
0.0
  9
$DIMTXT
 40
0.18
  9
$DIMCEN
 40
0.09
  9
$DIMTSZ
 40
0.0
  9
$DIMTOL
 70
     0
  9
$DIMLIM
 70
     0
  9
$DIMTIH
 70
     1
  9
$DIMTOH
 70
     1
  9
$DIMSE1
 70
     0
  9
$DIMSE2
 70
     0
  9
$DIMTAD
 70
     0
  9
$DIMZIN
 70
     0
  9
$DIMBLK
  1

  9
$DIMASO
 70
     1
  9
$DIMSHO
 70
     1
  9
$DIMPOST
  1

  9
$DIMAPOST
  1

  9
$DIMALT
 70
     0
  9
$DIMALTD
 70
     2
  9
$DIMALTF
 40
25.4
  9
$DIMLFAC
 40
1.0
  9
$DIMTOFL
 70
     0
  9
$DIMTVP
 40
0.0
  9
$DIMTIX
 70
     0
  9
$DIMSOXD
 70
     0
  9
$DIMSAH
 70
     0
  9
$DIMBLK1
  1

  9
$DIMBLK2
  1

  9
$DIMSTYLE
  2
*UNNAMED
  9
$DIMCLRD
 70
     0
  9
$DIMCLRE
 70
     0
  9
$DIMCLRT
 70
     0
  9
$DIMTFAC
 40
1.0
  9
$DIMGAP
 40
0.09
  9
$LUNITS
 70
     2
  9
$LUPREC
 70
     4
  9
$SKETCHINC
 40
0.1
  9
$FILLETRAD
 40
2.0
  9
$AUNITS
 70
     0
  9
$AUPREC
 70
     0
  9
$MENU
  1
ACAD
  9
$ELEVATION
 40
0.0
  9
$PELEVATION
 40
0.0
  9
$THICKNESS
 40
0.0
  9
$LIMCHECK
 70
     0
  9
$BLIPMODE
 70
     1
  9
$CHAMFERA
 40
0.0
  9
$CHAMFERB
 40
0.0
  9
$SKPOLY
 70
     0
  9
$TDCREATE
 40
2450948.665779514
  9
$TDUPDATE
 40
2450948.665944213
  9
$TDINDWG
 40
0.0000915509
  9
$TDUSRTIMER
 40
0.0000915509
  9
$USRTIMER
 70
     1
  9
$ANGBASE
 50
0.0
  9
$ANGDIR
 70
     0
  9
$PDMODE
 70
     0
  9
$PDSIZE
 40
0.0
  9
$PLINEWID
 40
0.0
  9
$COORDS
 70
     2
  9
$SPLFRAME
 70
     0
  9
$SPLINETYPE
 70
     6
  9
$SPLINESEGS
 70
     8
  9
$ATTDIA
 70
     0
  9
$ATTREQ
 70
     1
  9
$HANDLING
 70
     0
  9
$HANDSEED
  5
0
  9
$SURFTAB1
 70
     6
  9
$SURFTAB2
 70
     6
  9
$SURFTYPE
 70
     6
  9
$SURFU
 70
     6
  9
$SURFV
 70
     6
  9
$UCSNAME
  2

  9
$UCSORG
 10
0.0
 20
0.0
 30
0.0
  9
$UCSXDIR
 10
1.0
 20
0.0
 30
0.0
  9
$UCSYDIR
 10
0.0
 20
1.0
 30
0.0
  9
$PUCSNAME
  2

  9
$PUCSORG
 10
0.0
 20
0.0
 30
0.0
  9
$PUCSXDIR
 10
1.0
 20
0.0
 30
0.0
  9
$PUCSYDIR
 10
0.0
 20
1.0
 30
0.0
  9
$USERI1
 70
     0
  9
$USERI2
 70
     0
  9
$USERI3
 70
     0
  9
$USERI4
 70
     0
  9
$USERI5
 70
     0
  9
$USERR1
 40
0.0
  9
$USERR2
 40
0.0
  9
$USERR3
 40
0.0
  9
$USERR4
 40
0.0
  9
$USERR5
 40
0.0
  9
$WORLDVIEW
 70
     1
  9
$SHADEDGE
 70
     3
  9
$SHADEDIF
 70
    70
  9
$TILEMODE
 70
     1
  9
$MAXACTVP
 70
    16
  9
$PINSBASE
 10
0.0
 20
0.0
 30
0.0
  9
$PLIMCHECK
 70
     0
  9
$PEXTMIN
 10
1.000000E+20
 20
1.000000E+20
 30
1.000000E+20
  9
$PEXTMAX
 10
-1.000000E+20
 20
-1.000000E+20
 30
-1.000000E+20
  9
$PLIMMIN
 10
0.0
 20
0.0
  9
$PLIMMAX
 10
420.0
 20
297.0
  9
$UNITMODE
 70
     0
  9
$VISRETAIN
 70
     0
  9
$PLINEGEN
 70
     0
  9
$PSLTSCALE
 70
     1
  9
$TREEDEPTH
 70
  3020
  9
$DWGCODEPAGE
  3
iso8859-1
  0
ENDSEC
  0
SECTION
  2
TABLES
  0
TABLE
  2
VPORT
 70
     2
  0
VPORT
  2
*ACTIVE
 70
     0
 10
0.0
 20
0.0
 11
1.0
 21
1.0
 12
117.201963
 22
257.600243
 13
0.0
 23
0.0
 14
1.0
 24
1.0
 15
0.0
 25
0.0
 16
0.0
 26
0.0
 36
1.0
 17
0.0
 27
0.0
 37
0.0
 40
14.279457
 41
1.748359
 42
50.0
 43
0.0
 44
0.0
 50
0.0
 51
0.0
 71
     0
 72
   100
 73
     1
 74
     0
 75
     0
 76
     0
 77
     0
 78
     0
  0
ENDTAB
  0
TABLE
  2
LTYPE
 70
     1
  0
LTYPE
  2
CONTINUOUS
 70
    64
  3
Solid line
 72
    65
 73
     0
 40
0.0
  0
ENDTAB
  0
TABLE
  2
LAYER
 70
     1
  0
LAYER
  2
0
 70
    64
 62
     7
  6
CONTINUOUS
  0
ENDTAB
  0
TABLE
  2
STYLE
 70
     1
  0
STYLE
  2
STANDARD
 70
     0
 40
0.0
 41
1.0
 50
0.0
 71
     0
 42
3.5
  3
txt
  4

  0
ENDTAB
  0
TABLE
  2
VIEW
 70
     0
  0
ENDTAB
  0
TABLE
  2
UCS
 70
     0
  0
ENDTAB
  0
TABLE
  2
APPID
 70
     1
  0
APPID
  2
ACAD
 70
    64
  0
ENDTAB
  0
TABLE
  2
DIMSTYLE
 70
     0
  0
ENDTAB
  0
ENDSEC
  0
SECTION
  2
BLOCKS
  0
ENDSEC
  0
SECTION
  2
ENTITIES
  0
LINE
  8
0
 10
110.64046
 20
256.396082
 30
0.0
 11
110.675408
 21
256.422055
 31
0.0
  0
LINE
  8
0
 10
113.912046
 20
259.148761
 30
0.0
 11
113.861506
 21
259.163272
 31
0.0
  0
LINE
  8
0
 10
113.861506
 20
259.163272
 30
0.0
 11
113.860879
 21
259.162807
 31
0.0
  0
LINE
  8
0
 10
113.912046
 20
259.148761
 30
0.0
 11
113.860879
 21
259.162807
 31
0.0
  0
LINE
  8
0
 10
113.860879
 20
259.110164
 30
0.0
 11
113.229761
 21
259.338026
 31
0.0
  0
LINE
  8
0
 10
113.032867
 20
259.191696
 30
0.0
 11
113.229761
 21
259.338026
 31
0.0
  0
LINE
  8
0
 10
113.032867
 20
259.191696
 30
0.0
 11
113.672443
 21
258.969428
 31
0.0
  0
LINE
  8
0
 10
113.860879
 20
259.109473
 30
0.0
 11
113.672443
 21
258.969428
 31
0.0
  0
LINE
  8
0
 10
113.841318
 20
257.331493
 30
0.0
 11
113.229761
 21
257.552292
 31
0.0
  0
LINE
  8
0
 10
113.912046
 20
258.712755
 30
0.0
 11
113.912046
 21
257.384065
 31
0.0
  0
LINE
  8
0
 10
113.229761
 20
257.552292
 30
0.0
 11
113.229761
 21
258.780267
 31
0.0
  0
LINE
  8
0
 10
110.640464
 20
254.952656
 30
0.0
 11
113.912046
 21
257.384065
 31
0.0
  0
LINE
  8
0
 10
112.93302
 20
258.969125
 30
0.0
 11
113.564765
 21
258.729401
 31
0.0
  0
LINE
  8
0
 10
113.860879
 20
258.789467
 30
0.0
 11
113.672443
 21
258.649423
 31
0.0
  0
LINE
  8
0
 10
113.757145
 20
257.268929
 30
0.0
 11
113.193874
 21
257.472295
 31
0.0
  0
LINE
  8
0
 10
107.585471
 20
253.385772
 30
0.0
 11
107.585471
 21
255.412472
 31
0.0
  0
LINE
  8
0
 10
107.585471
 20
253.385772
 30
0.0
 11
107.585471
 21
253.065767
 31
0.0
  0
LINE
  8
0
 10
107.585471
 20
251.946427
 30
0.0
 11
107.585471
 21
253.065767
 31
0.0
  0
LINE
  8
0
 10
107.793546
 20
251.876862
 30
0.0
 11
107.585471
 21
251.946427
 31
0.0
  0
LINE
  8
0
 10
107.793546
 20
251.876862
 30
0.0
 11
107.793546
 21
256.774772
 31
0.0
  0
LINE
  8
0
 10
107.793546
 20
256.774772
 30
0.0
 11
107.585471
 21
256.851817
 31
0.0
  0
LINE
  8
0
 10
107.585471
 20
256.851817
 30
0.0
 11
107.585471
 21
255.732478
 31
0.0
  0
LINE
  8
0
 10
107.585471
 20
255.412472
 30
0.0
 11
107.585471
 21
255.732478
 31
0.0
  0
LINE
  8
0
 10
107.531176
 20
253.025415
 30
0.0
 11
107.585471
 21
253.065767
 31
0.0
  0
LINE
  8
0
 10
107.531176
 20
253.025415
 30
0.0
 11
107.469776
 21
253.053469
 31
0.0
  0
LINE
  8
0
 10
107.469776
 20
253.053469
 30
0.0
 11
107.449921
 21
253.118539
 31
0.0
  0
LINE
  8
0
 10
107.449921
 20
253.118539
 30
0.0
 11
107.449921
 21
253.415213
 31
0.0
  0
LINE
  8
0
 10
107.449921
 20
253.415213
 30
0.0
 11
107.527318
 21
253.472734
 31
0.0
  0
LINE
  8
0
 10
107.469776
 20
253.053469
 30
0.0
 11
107.469776
 21
253.362276
 31
0.0
  0
LINE
  8
0
 10
107.469776
 20
253.362276
 30
0.0
 11
107.449921
 21
253.415213
 31
0.0
  0
LINE
  8
0
 10
107.531176
 20
253.34542
 30
0.0
 11
107.469776
 21
253.362276
 31
0.0
  0
LINE
  8
0
 10
107.531176
 20
253.025415
 30
0.0
 11
107.531176
 21
253.34542
 31
0.0
  0
LINE
  8
0
 10
107.531176
 20
253.34542
 30
0.0
 11
107.585471
 21
253.385772
 31
0.0
  0
LINE
  8
0
 10
107.531176
 20
255.692126
 30
0.0
 11
107.531176
 21
255.37212
 31
0.0
  0
LINE
  8
0
 10
107.531176
 20
255.692126
 30
0.0
 11
107.469776
 21
255.708981
 31
0.0
  0
LINE
  8
0
 10
107.469776
 20
255.708981
 30
0.0
 11
107.469776
 21
255.400174
 31
0.0
  0
LINE
  8
0
 10
107.531176
 20
255.37212
 30
0.0
 11
107.469776
 21
255.400174
 31
0.0
  0
LINE
  8
0
 10
107.449921
 20
255.761919
 30
0.0
 11
107.449921
 21
255.465244
 31
0.0
  0
LINE
  8
0
 10
107.449921
 20
255.761919
 30
0.0
 11
107.527318
 21
255.81944
 31
0.0
  0
LINE
  8
0
 10
107.469776
 20
255.400174
 30
0.0
 11
107.449921
 21
255.465244
 31
0.0
  0
LINE
  8
0
 10
107.469776
 20
255.708981
 30
0.0
 11
107.449921
 21
255.761919
 31
0.0
  0
LINE
  8
0
 10
107.531176
 20
255.692126
 30
0.0
 11
107.585471
 21
255.732478
 31
0.0
  0
LINE
  8
0
 10
107.531176
 20
255.37212
 30
0.0
 11
107.585471
 21
255.412472
 31
0.0
  0
LINE
  8
0
 10
116.760756
 20
263.439119
 30
0.0
 11
116.557716
 21
263.519906
 31
0.0
  0
LINE
  8
0
 10
115.364743
 20
262.633299
 30
0.0
 11
116.557716
 21
263.519906
 31
0.0
  0
LINE
  8
0
 10
114.880192
 20
262.273186
 30
0.0
 11
114.880192
 21
262.353866
 31
0.0
  0
LINE
  8
0
 10
114.880192
 20
262.353866
 30
0.0
 11
114.822561
 21
262.379121
 31
0.0
  0
LINE
  8
0
 10
114.822561
 20
262.379121
 30
0.0
 11
114.760127
 21
262.337146
 31
0.0
  0
LINE
  8
0
 10
114.760127
 20
262.337146
 30
0.0
 11
114.760127
 21
262.222139
 31
0.0
  0
LINE
  8
0
 10
110.64046
 20
256.716087
 30
0.0
 11
110.675408
 21
256.74206
 31
0.0
  0
LINE
  8
0
 10
115.299575
 20
262.733633
 30
0.0
 11
115.228977
 21
262.685591
 31
0.0
  0
LINE
  8
0
 10
114.760127
 20
262.337146
 30
0.0
 11
115.228977
 21
262.685591
 31
0.0
  0
LINE
  8
0
 10
114.822561
 20
262.379121
 30
0.0
 11
115.299575
 21
262.733633
 31
0.0
  0
LINE
  8
0
 10
115.364743
 20
262.713979
 30
0.0
 11
115.299575
 21
262.733633
 31
0.0
  0
LINE
  8
0
 10
115.364743
 20
262.713979
 30
0.0
 11
114.880192
 21
262.353866
 31
0.0
  0
LINE
  8
0
 10
115.364743
 20
262.633299
 30
0.0
 11
115.364743
 21
262.713979
 31
0.0
  0
LINE
  8
0
 10
112.04126
 20
260.31651
 30
0.0
 11
112.04126
 21
260.201502
 31
0.0
  0
LINE
  8
0
 10
112.599842
 20
260.731642
 30
0.0
 11
112.04126
 21
260.31651
 31
0.0
  0
LINE
  8
0
 10
110.640419
 20
255.574591
 30
0.0
 11
113.193874
 21
257.472295
 31
0.0
  0
LINE
  8
0
 10
113.229761
 20
259.856804
 30
0.0
 11
113.229761
 21
259.338026
 31
0.0
  0
LINE
  8
0
 10
111.981862
 20
260.119174
 30
0.0
 11
112.161325
 21
260.252549
 31
0.0
  0
LINE
  8
0
 10
111.916694
 20
260.219508
 30
0.0
 11
111.846096
 21
260.171466
 31
0.0
  0
LINE
  8
0
 10
111.981862
 20
260.199854
 30
0.0
 11
111.916694
 21
260.219508
 31
0.0
  0
LINE
  8
0
 10
111.981862
 20
260.119174
 30
0.0
 11
111.981862
 21
260.199854
 31
0.0
  0
LINE
  8
0
 10
111.40758
 20
259.773053
 30
0.0
 11
111.981862
 21
260.199854
 31
0.0
  0
LINE
  8
0
 10
111.349949
 20
259.798308
 30
0.0
 11
111.916694
 21
260.219508
 31
0.0
  0
LINE
  8
0
 10
111.40758
 20
259.773053
 30
0.0
 11
111.349949
 21
259.798308
 31
0.0
  0
LINE
  8
0
 10
111.287515
 20
259.756334
 30
0.0
 11
111.287515
 21
259.641326
 31
0.0
  0
LINE
  8
0
 10
111.287515
 20
259.756334
 30
0.0
 11
111.846096
 21
260.171466
 31
0.0
  0
LINE
  8
0
 10
111.40758
 20
259.692373
 30
0.0
 11
111.40758
 21
259.773053
 31
0.0
  0
LINE
  8
0
 10
111.349949
 20
259.798308
 30
0.0
 11
111.287515
 21
259.756334
 31
0.0
  0
LINE
  8
0
 10
111.40758
 20
259.692373
 30
0.0
 11
109.262995
 21
258.098537
 31
0.0
  0
LINE
  8
0
 10
116.775142
 20
258.549478
 30
0.0
 11
107.879706
 21
251.938473
 31
0.0
  0
LINE
  8
0
 10
116.775142
 20
258.549478
 30
0.0
 11
116.775142
 21
263.340736
 31
0.0
  0
LINE
  8
0
 10
116.775142
 20
263.340736
 30
0.0
 11
107.879706
 21
256.729731
 31
0.0
  0
LINE
  8
0
 10
107.879706
 20
251.938473
 30
0.0
 11
107.879706
 21
256.729731
 31
0.0
  0
LINE
  8
0
 10
114.014378
 20
257.346641
 30
0.0
 11
110.64047
 21
254.839184
 31
0.0
  0
LINE
  8
0
 10
110.64047
 20
254.839184
 30
0.0
 11
110.64047
 21
257.932569
 31
0.0
  0
LINE
  8
0
 10
114.014378
 20
260.440025
 30
0.0
 11
110.64047
 21
257.932569
 31
0.0
  0
LINE
  8
0
 10
114.014378
 20
257.346641
 30
0.0
 11
114.014378
 21
260.440025
 31
0.0
  0
LINE
  8
0
 10
113.912046
 20
259.148761
 30
0.0
 11
113.912046
 21
260.36396
 31
0.0
  0
LINE
  8
0
 10
113.860879
 20
259.109473
 30
0.0
 11
113.860879
 21
259.162807
 31
0.0
  0
LINE
  8
0
 10
113.860879
 20
258.789467
 30
0.0
 11
113.860879
 21
259.109473
 31
0.0
  0
LINE
  8
0
 10
113.860879
 20
258.789467
 30
0.0
 11
113.860879
 21
258.736133
 31
0.0
  0
LINE
  8
0
 10
113.912046
 20
258.712755
 30
0.0
 11
113.860879
 21
258.736133
 31
0.0
  0
LINE
  8
0
 10
113.912046
 20
257.384065
 30
0.0
 11
114.014378
 21
257.346641
 31
0.0
  0
LINE
  8
0
 10
110.640458
 20
256.501505
 30
0.0
 11
110.675408
 21
256.488723
 31
0.0
  0
LINE
  8
0
 10
116.760756
 20
263.439119
 30
0.0
 11
107.793546
 21
256.774772
 31
0.0
  0
LINE
  8
0
 10
111.40758
 20
259.692373
 30
0.0
 11
111.981862
 21
260.119174
 31
0.0
  0
LINE
  8
0
 10
108.778445
 20
257.738424
 30
0.0
 11
109.262995
 21
258.098537
 31
0.0
  0
LINE
  8
0
 10
108.778445
 20
257.738424
 30
0.0
 11
107.585471
 21
256.851817
 31
0.0
  0
LINE
  8
0
 10
115.364743
 20
262.633299
 30
0.0
 11
114.880192
 21
262.273186
 31
0.0
  0
LINE
  8
0
 10
112.735607
 20
260.67935
 30
0.0
 11
114.880192
 21
262.273186
 31
0.0
  0
LINE
  8
0
 10
112.735607
 20
260.67935
 30
0.0
 11
112.161325
 21
260.252549
 31
0.0
  0
LINE
  8
0
 10
109.262995
 20
258.098537
 30
0.0
 11
109.262995
 21
258.179217
 31
0.0
  0
LINE
  8
0
 10
108.778445
 20
257.819104
 30
0.0
 11
109.262995
 21
258.179217
 31
0.0
  0
LINE
  8
0
 10
108.778445
 20
257.738424
 30
0.0
 11
108.778445
 21
257.819104
 31
0.0
  0
LINE
  8
0
 10
109.262995
 20
258.179217
 30
0.0
 11
109.197828
 21
258.198872
 31
0.0
  0
LINE
  8
0
 10
109.197828
 20
258.198872
 30
0.0
 11
108.720814
 21
257.844359
 31
0.0
  0
LINE
  8
0
 10
108.778445
 20
257.819104
 30
0.0
 11
108.720814
 21
257.844359
 31
0.0
  0
LINE
  8
0
 10
109.197828
 20
258.198872
 30
0.0
 11
109.127229
 21
258.150829
 31
0.0
  0
LINE
  8
0
 10
109.127229
 20
258.150829
 30
0.0
 11
108.65838
 21
257.802385
 31
0.0
  0
LINE
  8
0
 10
108.65838
 20
257.802385
 30
0.0
 11
108.65838
 21
257.687377
 31
0.0
  0
LINE
  8
0
 10
108.720814
 20
257.844359
 30
0.0
 11
108.65838
 21
257.802385
 31
0.0
  0
LINE
  8
0
 10
112.735607
 20
260.67935
 30
0.0
 11
112.735607
 21
260.76003
 31
0.0
  0
LINE
  8
0
 10
112.735607
 20
260.76003
 30
0.0
 11
112.161325
 21
260.333229
 31
0.0
  0
LINE
  8
0
 10
112.161325
 20
260.252549
 30
0.0
 11
112.161325
 21
260.333229
 31
0.0
  0
LINE
  8
0
 10
112.161325
 20
260.333229
 30
0.0
 11
112.103694
 21
260.358485
 31
0.0
  0
LINE
  8
0
 10
112.103694
 20
260.358485
 30
0.0
 11
112.04126
 21
260.31651
 31
0.0
  0
LINE
  8
0
 10
112.67044
 20
260.779685
 30
0.0
 11
112.599842
 21
260.731642
 31
0.0
  0
LINE
  8
0
 10
112.735607
 20
260.76003
 30
0.0
 11
112.67044
 21
260.779685
 31
0.0
  0
LINE
  8
0
 10
112.67044
 20
260.779685
 30
0.0
 11
112.103694
 21
260.358485
 31
0.0
  0
LINE
  8
0
 10
110.640458
 20
256.754206
 30
0.0
 11
110.675408
 21
256.74206
 31
0.0
  0
LINE
  8
0
 10
113.621277
 20
258.734803
 30
0.0
 11
113.672443
 21
258.716091
 31
0.0
  0
LINE
  8
0
 10
113.610159
 20
258.752304
 30
0.0
 11
113.621277
 21
258.748137
 31
0.0
  0
LINE
  8
0
 10
107.841238
 20
251.888752
 30
0.0
 11
116.78584
 21
258.536297
 31
0.0
  0
LINE
  8
0
 10
110.738959
 20
256.758452
 30
0.0
 11
110.640454
 21
256.792257
 31
0.0
  0
LINE
  8
0
 10
116.786476
 20
258.537562
 30
0.0
 11
116.786476
 21
263.390077
 31
0.0
  0
LINE
  8
0
 10
112.972368
 20
258.880339
 30
0.0
 11
113.607199
 21
258.633651
 31
0.0
  0
LINE
  8
0
 10
107.527318
 20
253.472734
 30
0.0
 11
107.555927
 21
253.47904
 31
0.0
  0
LINE
  8
0
 10
107.555927
 20
253.47904
 30
0.0
 11
107.585665
 21
253.478476
 31
0.0
  0
LINE
  8
0
 10
107.793546
 20
251.876862
 30
0.0
 11
107.839877
 21
251.88776
 31
0.0
  0
LINE
  8
0
 10
107.839877
 20
251.88776
 30
0.0
 11
107.879706
 21
251.938473
 31
0.0
  0
LINE
  8
0
 10
107.527318
 20
255.81944
 30
0.0
 11
107.555927
 21
255.825745
 31
0.0
  0
LINE
  8
0
 10
107.555927
 20
255.825745
 30
0.0
 11
107.585665
 21
255.825181
 31
0.0
  0
LINE
  8
0
 10
107.793546
 20
256.774772
 30
0.0
 11
107.839877
 21
256.753782
 31
0.0
  0
LINE
  8
0
 10
107.839877
 20
256.753782
 30
0.0
 11
107.879706
 21
256.729731
 31
0.0
  0
LINE
  8
0
 10
108.65838
 20
257.687377
 30
0.0
 11
108.664371
 21
257.673129
 31
0.0
  0
LINE
  8
0
 10
108.664371
 20
257.673129
 30
0.0
 11
108.672781
 21
257.659845
 31
0.0
  0
LINE
  8
0
 10
110.640424
 20
256.522611
 30
0.0
 11
110.670593
 21
256.572228
 31
0.0
  0
LINE
  8
0
 10
110.670593
 20
256.572228
 30
0.0
 11
110.686134
 21
256.630852
 31
0.0
  0
LINE
  8
0
 10
110.686134
 20
256.630852
 30
0.0
 11
110.682143
 21
256.679983
 31
0.0
  0
LINE
  8
0
 10
110.64034
 20
256.536392
 30
0.0
 11
110.665883
 21
256.581006
 31
0.0
  0
LINE
  8
0
 10
110.665883
 20
256.581006
 30
0.0
 11
110.677779
 21
256.632096
 31
0.0
  0
LINE
  8
0
 10
110.677779
 20
256.632096
 30
0.0
 11
110.67213
 21
256.67292
 31
0.0
  0
LINE
  8
0
 10
110.640323
 20
256.478566
 30
0.0
 11
110.657066
 21
256.479159
 31
0.0
  0
LINE
  8
0
 10
110.657066
 20
256.479159
 30
0.0
 11
110.675408
 21
256.488723
 31
0.0
  0
LINE
  8
0
 10
110.675408
 20
256.675392
 30
0.0
 11
110.657187
 21
256.657837
 31
0.0
  0
LINE
  8
0
 10
110.657187
 20
256.657837
 30
0.0
 11
110.640533
 21
256.633764
 31
0.0
  0
LINE
  8
0
 10
110.675408
 20
256.488723
 30
0.0
 11
110.706814
 21
256.524568
 31
0.0
  0
LINE
  8
0
 10
110.706814
 20
256.524568
 30
0.0
 11
110.729805
 21
256.575817
 31
0.0
  0
LINE
  8
0
 10
110.729805
 20
256.575817
 30
0.0
 11
110.73822
 21
256.628739
 31
0.0
  0
LINE
  8
0
 10
110.73822
 20
256.628739
 30
0.0
 11
110.729805
 21
256.669152
 31
0.0
  0
LINE
  8
0
 10
110.729805
 20
256.669152
 30
0.0
 11
110.706814
 21
256.686229
 31
0.0
  0
LINE
  8
0
 10
110.706814
 20
256.686229
 30
0.0
 11
110.675408
 21
256.675392
 31
0.0
  0
LINE
  8
0
 10
110.675408
 20
256.422055
 30
0.0
 11
110.729247
 21
256.483504
 31
0.0
  0
LINE
  8
0
 10
110.729247
 20
256.483504
 30
0.0
 11
110.76866
 21
256.57136
 31
0.0
  0
LINE
  8
0
 10
110.76866
 20
256.57136
 30
0.0
 11
110.783086
 21
256.662083
 31
0.0
  0
LINE
  8
0
 10
110.783086
 20
256.662083
 30
0.0
 11
110.751548
 21
256.751783
 31
0.0
  0
LINE
  8
0
 10
110.751548
 20
256.751783
 30
0.0
 11
110.675408
 21
256.74206
 31
0.0
  0
LINE
  8
0
 10
111.287515
 20
259.641326
 30
0.0
 11
111.293507
 21
259.627078
 31
0.0
  0
LINE
  8
0
 10
111.293507
 20
259.627078
 30
0.0
 11
111.301916
 21
259.613794
 31
0.0
  0
LINE
  8
0
 10
112.04126
 20
260.201502
 30
0.0
 11
112.047252
 21
260.187254
 31
0.0
  0
LINE
  8
0
 10
112.047252
 20
260.187254
 30
0.0
 11
112.055662
 21
260.17397
 31
0.0
  0
LINE
  8
0
 10
113.229761
 20
257.552292
 30
0.0
 11
113.219251
 21
257.506772
 31
0.0
  0
LINE
  8
0
 10
113.219251
 20
257.506772
 30
0.0
 11
113.193874
 21
257.472295
 31
0.0
  0
LINE
  8
0
 10
113.564765
 20
258.729401
 30
0.0
 11
113.579191
 21
258.660121
 31
0.0
  0
LINE
  8
0
 10
113.579191
 20
258.660121
 30
0.0
 11
113.618604
 21
258.630847
 31
0.0
  0
LINE
  8
0
 10
113.618604
 20
258.630847
 30
0.0
 11
113.672443
 21
258.649423
 31
0.0
  0
LINE
  8
0
 10
113.672443
 20
258.969428
 30
0.0
 11
113.596303
 21
258.865978
 31
0.0
  0
LINE
  8
0
 10
113.596303
 20
258.865978
 30
0.0
 11
113.564765
 21
258.729401
 31
0.0
  0
LINE
  8
0
 10
113.032867
 20
259.191696
 30
0.0
 11
112.982944
 21
259.134716
 31
0.0
  0
LINE
  8
0
 10
112.982944
 20
259.134716
 30
0.0
 11
112.946397
 21
259.05325
 31
0.0
  0
LINE
  8
0
 10
112.946397
 20
259.05325
 30
0.0
 11
112.93302
 21
258.969125
 31
0.0
  0
LINE
  8
0
 10
112.93302
 20
258.969125
 30
0.0
 11
112.943394
 21
258.910984
 31
0.0
  0
LINE
  8
0
 10
112.943394
 20
258.910984
 30
0.0
 11
112.97236
 21
258.880343
 31
0.0
  0
LINE
  8
0
 10
113.621277
 20
258.748137
 30
0.0
 11
113.659347
 21
258.799862
 31
0.0
  0
LINE
  8
0
 10
113.659347
 20
258.799862
 30
0.0
 11
113.675116
 21
258.868151
 31
0.0
  0
LINE
  8
0
 10
113.621277
 20
258.734803
 30
0.0
 11
113.665692
 21
258.795149
 31
0.0
  0
LINE
  8
0
 10
113.665692
 20
258.795149
 30
0.0
 11
113.684089
 21
258.87482
 31
0.0
  0
LINE
  8
0
 10
113.672443
 20
258.902761
 30
0.0
 11
113.641037
 21
258.866916
 31
0.0
  0
LINE
  8
0
 10
113.641037
 20
258.866916
 30
0.0
 11
113.618046
 21
258.815666
 31
0.0
  0
LINE
  8
0
 10
113.618046
 20
258.815666
 30
0.0
 11
113.609631
 21
258.762744
 31
0.0
  0
LINE
  8
0
 10
113.609631
 20
258.762744
 30
0.0
 11
113.618046
 21
258.722331
 31
0.0
  0
LINE
  8
0
 10
113.618046
 20
258.722331
 30
0.0
 11
113.641037
 21
258.705255
 31
0.0
  0
LINE
  8
0
 10
113.641037
 20
258.705255
 30
0.0
 11
113.672443
 21
258.716091
 31
0.0
  0
LINE
  8
0
 10
113.672443
 20
258.716091
 30
0.0
 11
113.716858
 21
258.776437
 31
0.0
  0
LINE
  8
0
 10
113.716858
 20
258.776437
 30
0.0
 11
113.735255
 21
258.856107
 31
0.0
  0
LINE
  8
0
 10
113.614476
 20
258.730298
 30
0.0
 11
113.617872
 21
258.73241
 31
0.0
  0
LINE
  8
0
 10
113.617872
 20
258.73241
 30
0.0
 11
113.621277
 21
258.734803
 31
0.0
  0
LINE
  8
0
 10
113.611323
 20
258.742118
 30
0.0
 11
113.616278
 21
258.744767
 31
0.0
  0
LINE
  8
0
 10
113.616278
 20
258.744767
 30
0.0
 11
113.621277
 21
258.748137
 31
0.0
  0
LINE
  8
0
 10
113.675116
 20
258.868151
 30
0.0
 11
113.673608
 21
258.885833
 31
0.0
  0
LINE
  8
0
 10
113.673608
 20
258.885833
 30
0.0
 11
113.669168
 21
258.900283
 31
0.0
  0
LINE
  8
0
 10
113.684089
 20
258.87482
 30
0.0
 11
113.682849
 21
258.892352
 31
0.0
  0
LINE
  8
0
 10
113.682849
 20
258.892352
 30
0.0
 11
113.679178
 21
258.90735
 31
0.0
  0
LINE
  8
0
 10
113.735255
 20
258.856107
 30
0.0
 11
113.72684
 21
258.896521
 31
0.0
  0
LINE
  8
0
 10
113.72684
 20
258.896521
 30
0.0
 11
113.703849
 21
258.913597
 31
0.0
  0
LINE
  8
0
 10
113.703849
 20
258.913597
 30
0.0
 11
113.672443
 21
258.902761
 31
0.0
  0
LINE
  8
0
 10
114.760127
 20
262.222139
 30
0.0
 11
114.766119
 21
262.207891
 31
0.0
  0
LINE
  8
0
 10
114.766119
 20
262.207891
 30
0.0
 11
114.774528
 21
262.194607
 31
0.0
  0
LINE
  8
0
 10
116.785842
 20
258.536298
 30
0.0
 11
116.784764
 21
258.540976
 31
0.0
  0
LINE
  8
0
 10
116.784764
 20
258.540976
 30
0.0
 11
116.775142
 21
258.549478
 31
0.0
  0
LINE
  8
0
 10
116.760756
 20
263.439119
 30
0.0
 11
116.785628
 21
263.402181
 31
0.0
  0
LINE
  8
0
 10
116.785628
 20
263.402181
 30
0.0
 11
116.775142
 21
263.340736
 31
0.0
  0
ENDSEC
  0
EOF
